999
Erzeugt mit innoplus bad 
0
SECTION
2
HEADER
9
$ACADVER
1
AC1009
9
$DWGCODEPAGE
3
ISO8859-1
0
ENDSEC
0
SECTION
2
TABLES
0
TABLE
2
LAYER
70
1
0
LAYER
2
0
70
0
62
7
6
CONTINUOUS
0
ENDTAB
0
ENDSEC
0
SECTION
2
ENTITIES
0
LINE
8
0
6
CONTINUOUS
10
-14.735210
20
-105.032795
30
0.0
11
-14.391920
21
-104.255465
31
0.0
0
LINE
8
0
6
CONTINUOUS
10
-21.722990
20
-105.076735
30
0.0
11
-20.885890
21
-105.455615
31
0.0
0
LINE
8
0
6
CONTINUOUS
10
-20.883850
20
-80.055795
30
0.0
11
-21.658470
21
-80.390705
31
0.0
0
LINE
8
0
6
CONTINUOUS
10
-14.391920
20
-104.255465
30
0.0
11
-14.390020
21
-96.172925
31
0.0
0
LINE
8
0
6
CONTINUOUS
10
-14.390020
20
-96.172925
30
0.0
11
-14.386520
21
-81.255045
31
0.0
0
LINE
8
0
6
CONTINUOUS
10
-22.094560
20
-104.256245
30
0.0
11
-21.722990
21
-105.076735
31
0.0
0
LINE
8
0
6
CONTINUOUS
10
-14.386520
20
-81.255045
30
0.0
11
-14.756960
21
-80.436345
31
0.0
0
LINE
8
0
6
CONTINUOUS
10
-15.600500
20
-105.455275
30
0.0
11
-14.735210
21
-105.032795
31
0.0
0
LINE
8
0
6
CONTINUOUS
10
-21.658470
20
-80.390705
30
0.0
11
-22.093520
21
-81.256195
31
0.0
0
LINE
8
0
6
CONTINUOUS
10
-22.094180
20
-96.172215
30
0.0
11
-22.094560
21
-104.256245
31
0.0
0
LINE
8
0
6
CONTINUOUS
10
-15.595220
20
-80.055115
30
0.0
11
-20.883850
21
-80.055795
31
0.0
0
LINE
8
0
6
CONTINUOUS
10
-22.093520
20
-81.256195
30
0.0
11
-22.094180
21
-96.172215
31
0.0
0
LINE
8
0
6
CONTINUOUS
10
-14.756960
20
-80.436345
30
0.0
11
-15.595220
21
-80.055115
31
0.0
0
LINE
8
0
6
CONTINUOUS
10
-20.885890
20
-105.455615
30
0.0
11
-15.600500
21
-105.455275
31
0.0
0
LINE
8
0
6
CONTINUOUS
10
17.124570
20
-101.139445
30
0.0
11
17.124580
21
-107.208355
31
0.0
0
LINE
8
0
6
CONTINUOUS
10
17.124580
20
-91.580225
30
0.0
11
17.124570
21
-92.502655
31
0.0
0
LINE
8
0
6
CONTINUOUS
10
17.447390
20
-91.338855
30
0.0
11
17.124580
21
-91.580225
31
0.0
0
LINE
8
0
6
CONTINUOUS
10
17.124570
20
-92.502655
30
0.0
11
17.124570
21
-95.867115
31
0.0
0
LINE
8
0
6
CONTINUOUS
10
17.124570
20
-114.740045
30
0.0
11
17.558460
21
-114.273695
31
0.0
0
LINE
8
0
6
CONTINUOUS
10
17.124580
20
-107.208355
30
0.0
11
17.124580
21
-112.356365
31
0.0
0
LINE
8
0
6
CONTINUOUS
10
17.527110
20
-106.820305
30
0.0
11
17.124580
21
-107.208355
31
0.0
0
LINE
8
0
6
CONTINUOUS
10
17.124570
20
-101.139445
30
0.0
11
17.498780
21
-100.811195
31
0.0
0
LINE
8
0
6
CONTINUOUS
10
17.124570
20
-95.867115
30
0.0
11
17.124570
21
-101.139445
31
0.0
0
LINE
8
0
6
CONTINUOUS
10
-38.114320
20
80.060595
30
0.0
11
-41.909280
21
66.550755
31
0.0
0
LINE
8
0
6
CONTINUOUS
10
4.978830
20
39.932615
30
0.0
11
6.254590
21
55.022605
31
0.0
0
LINE
8
0
6
CONTINUOUS
10
6.283260
20
-64.611605
30
0.0
11
4.529820
21
-40.868685
31
0.0
0
LINE
8
0
6
CONTINUOUS
10
-43.714700
20
-37.006595
30
0.0
11
-43.962970
21
-63.087045
31
0.0
0
LINE
8
0
6
CONTINUOUS
10
4.529820
20
-40.868685
30
0.0
11
3.468150
21
-6.937445
31
0.0
0
LINE
8
0
6
CONTINUOUS
10
-44.345490
20
-3.413865
30
0.0
11
-43.714700
21
-37.006595
31
0.0
0
LINE
8
0
6
CONTINUOUS
10
3.468150
20
-6.937445
30
0.0
11
3.774390
21
15.158385
31
0.0
0
LINE
8
0
6
CONTINUOUS
10
-44.812580
20
16.807005
30
0.0
11
-44.345490
21
-3.413865
31
0.0
0
LINE
8
0
6
CONTINUOUS
10
-1.922050
20
15.693395
30
0.0
11
-0.627240
21
30.386285
31
0.0
0
LINE
8
0
6
CONTINUOUS
10
-44.409470
20
36.023185
30
0.0
11
-43.171740
21
20.144035
31
0.0
0
LINE
8
0
6
CONTINUOUS
10
-0.627240
20
30.386285
30
0.0
11
-0.121430
21
33.731995
31
0.0
0
LINE
8
0
6
CONTINUOUS
10
-41.909280
20
66.550755
30
0.0
11
-43.413790
21
59.079345
31
0.0
0
LINE
8
0
6
CONTINUOUS
10
-6.702840
20
119.476055
30
0.0
11
-11.451580
21
120.720905
31
0.0
0
LINE
8
0
6
CONTINUOUS
10
-22.681530
20
119.047675
30
0.0
11
-22.982530
21
118.367215
31
0.0
0
LINE
8
0
6
CONTINUOUS
10
-21.528070
20
120.468615
30
0.0
11
-22.681530
21
119.047675
31
0.0
0
LINE
8
0
6
CONTINUOUS
10
11.092400
20
110.292335
30
0.0
11
7.442130
21
112.940845
31
0.0
0
LINE
8
0
6
CONTINUOUS
10
-19.123850
20
121.234245
30
0.0
11
-21.528070
21
120.468615
31
0.0
0
LINE
8
0
6
CONTINUOUS
10
13.757530
20
107.692965
30
0.0
11
11.092400
21
110.292335
31
0.0
0
LINE
8
0
6
CONTINUOUS
10
-1.758970
20
117.688175
30
0.0
11
-6.702840
21
119.476055
31
0.0
0
LINE
8
0
6
CONTINUOUS
10
3.052260
20
115.456405
30
0.0
11
-1.758970
21
117.688175
31
0.0
0
LINE
8
0
6
CONTINUOUS
10
-15.671680
20
121.306325
30
0.0
11
-19.123850
21
121.234245
31
0.0
0
LINE
8
0
6
CONTINUOUS
10
15.275710
20
105.314295
30
0.0
11
13.757530
21
107.692965
31
0.0
0
LINE
8
0
6
CONTINUOUS
10
15.471260
20
103.338475
30
0.0
11
15.275710
21
105.314295
31
0.0
0
LINE
8
0
6
CONTINUOUS
10
15.245810
20
102.560275
30
0.0
11
15.471260
21
103.338475
31
0.0
0
LINE
8
0
6
CONTINUOUS
10
7.442130
20
112.940845
30
0.0
11
3.052260
21
115.456405
31
0.0
0
LINE
8
0
6
CONTINUOUS
10
-11.451580
20
120.720905
30
0.0
11
-15.671680
21
121.306325
31
0.0
0
LINE
8
0
6
CONTINUOUS
10
11.255230
20
86.951175
30
0.0
11
13.216750
21
95.556505
31
0.0
0
LINE
8
0
6
CONTINUOUS
10
8.525220
20
72.443425
30
0.0
11
11.255230
21
86.951175
31
0.0
0
LINE
8
0
6
CONTINUOUS
10
6.426950
20
57.843645
30
0.0
11
8.525220
21
72.443425
31
0.0
0
LINE
8
0
6
CONTINUOUS
10
-33.193410
20
93.278575
30
0.0
11
-38.114320
21
80.060595
31
0.0
0
LINE
8
0
6
CONTINUOUS
10
-25.691520
20
112.242885
30
0.0
11
-29.146610
21
104.377515
31
0.0
0
LINE
8
0
6
CONTINUOUS
10
-29.146610
20
104.377515
30
0.0
11
-34.533660
21
91.008775
31
0.0
0
LINE
8
0
6
CONTINUOUS
10
-34.533660
20
91.008775
30
0.0
11
-37.049251
21
82.921461
31
0.0
0
LINE
8
0
6
CONTINUOUS
10
-3.069520
20
-28.165995
30
0.0
11
-2.405160
21
0.948255
31
0.0
0
LINE
8
0
6
CONTINUOUS
10
-2.405160
20
0.948255
30
0.0
11
-1.922050
21
15.693395
31
0.0
0
LINE
8
0
6
CONTINUOUS
10
-41.718660
20
4.219795
30
0.0
11
-38.054770
21
-30.440805
31
0.0
0
LINE
8
0
6
CONTINUOUS
10
-43.171740
20
20.144035
30
0.0
11
-41.718660
21
4.219795
31
0.0
0
LINE
8
0
6
CONTINUOUS
10
4.598430
20
34.386205
30
0.0
11
4.978830
21
39.932615
31
0.0
0
LINE
8
0
6
CONTINUOUS
10
-0.121430
20
33.731995
30
0.0
11
0.494420
21
37.088975
31
0.0
0
LINE
8
0
6
CONTINUOUS
10
-43.413790
20
59.079345
30
0.0
11
-44.141440
21
54.791105
31
0.0
0
LINE
8
0
6
CONTINUOUS
10
-44.770830
20
40.812535
30
0.0
11
-44.409470
21
36.023185
31
0.0
0
LINE
8
0
6
CONTINUOUS
10
-44.141440
20
54.791105
30
0.0
11
-44.962530
21
45.612465
31
0.0
0
LINE
8
0
6
CONTINUOUS
10
4.265960
20
28.836715
30
0.0
11
4.598430
21
34.386205
31
0.0
0
LINE
8
0
6
CONTINUOUS
10
-44.650590
20
25.533935
30
0.0
11
-44.812580
21
16.807005
31
0.0
0
LINE
8
0
6
CONTINUOUS
10
3.916400
20
22.189195
30
0.0
11
4.265960
21
28.836715
31
0.0
0
LINE
8
0
6
CONTINUOUS
10
-44.962530
20
45.612465
30
0.0
11
-44.770830
21
40.812535
31
0.0
0
LINE
8
0
6
CONTINUOUS
10
-44.612550
20
34.409155
30
0.0
11
-44.650590
21
25.533935
31
0.0
0
LINE
8
0
6
CONTINUOUS
10
-46.260020
20
-120.796615
30
0.0
11
-46.284520
21
-121.245425
31
0.0
0
LINE
8
0
6
CONTINUOUS
10
-44.484040
20
-80.628555
30
0.0
11
-45.035870
21
-96.187575
31
0.0
0
LINE
8
0
6
CONTINUOUS
10
8.654950
20
-86.847085
30
0.0
11
7.704440
21
-80.857905
31
0.0
0
LINE
8
0
6
CONTINUOUS
10
14.910210
20
-115.726455
30
0.0
11
16.080410
21
-114.649605
31
0.0
0
LINE
8
0
6
CONTINUOUS
10
15.943730
20
-91.978775
30
0.0
11
14.160770
21
-91.720105
31
0.0
0
LINE
8
0
6
CONTINUOUS
10
13.764060
20
-116.831535
30
0.0
11
14.910210
21
-115.726455
31
0.0
0
LINE
8
0
6
CONTINUOUS
10
14.160770
20
-91.720105
30
0.0
11
11.957490
21
-90.618615
31
0.0
0
LINE
8
0
6
CONTINUOUS
10
11.860580
20
-119.320915
30
0.0
11
12.686510
21
-117.995425
31
0.0
0
LINE
8
0
6
CONTINUOUS
10
-45.403350
20
-104.435735
30
0.0
11
-45.817340
21
-112.688225
31
0.0
0
LINE
8
0
6
CONTINUOUS
10
-45.427090
20
-104.441545
30
0.0
11
-45.813380
21
-112.695725
31
0.0
0
LINE
8
0
6
CONTINUOUS
10
-45.035870
20
-96.187575
30
0.0
11
-45.427090
21
-104.441545
31
0.0
0
LINE
8
0
6
CONTINUOUS
10
10.025040
20
-88.972325
30
0.0
11
8.654950
21
-86.847085
31
0.0
0
LINE
8
0
6
CONTINUOUS
10
12.686510
20
-117.995425
30
0.0
11
13.764060
21
-116.831535
31
0.0
0
LINE
8
0
6
CONTINUOUS
10
11.957490
20
-90.618615
30
0.0
11
10.025040
21
-88.972325
31
0.0
0
LINE
8
0
6
CONTINUOUS
10
11.568570
20
-121.245765
30
0.0
11
11.511110
21
-120.813965
31
0.0
0
LINE
8
0
6
CONTINUOUS
10
46.050270
20
-83.650105
30
0.0
11
46.284520
21
-83.398325
31
0.0
0
LINE
8
0
6
CONTINUOUS
10
38.819370
20
-75.358365
30
0.0
11
38.645090
21
-75.488685
31
0.0
0
LINE
8
0
6
CONTINUOUS
10
45.645450
20
-82.710235
30
0.0
11
46.284520
21
-83.398325
31
0.0
0
LINE
8
0
6
CONTINUOUS
10
38.819370
20
-75.358365
30
0.0
11
39.180450
21
-75.747425
31
0.0
0
LINE
8
0
6
CONTINUOUS
10
44.177490
20
-81.129365
30
0.0
11
45.645450
21
-82.710235
31
0.0
0
LINE
8
0
6
CONTINUOUS
10
39.180450
20
-75.747425
30
0.0
11
40.444910
21
-77.109385
31
0.0
0
LINE
8
0
6
CONTINUOUS
10
40.444910
20
-77.109385
30
0.0
11
42.273950
21
-79.079315
31
0.0
0
LINE
8
0
6
CONTINUOUS
10
42.273950
20
-79.079315
30
0.0
11
44.177490
21
-81.129365
31
0.0
0
LINE
8
0
6
CONTINUOUS
10
17.558460
20
-114.273695
30
0.0
11
46.050270
21
-83.650105
31
0.0
0
LINE
8
0
6
CONTINUOUS
10
38.645090
20
-75.488685
30
0.0
11
17.447390
21
-91.338855
31
0.0
0
LINE
8
0
6
CONTINUOUS
10
17.527110
20
-106.820305
30
0.0
11
43.960170
21
-81.338865
31
0.0
0
LINE
8
0
6
CONTINUOUS
10
17.124570
20
-114.740045
30
0.0
11
17.124580
21
-112.356365
31
0.0
0
LINE
8
0
6
CONTINUOUS
10
16.258370
20
-103.302135
30
0.0
11
16.258370
21
-97.891595
31
0.0
0
LINE
8
0
6
CONTINUOUS
10
16.258370
20
-108.825015
30
0.0
11
16.258370
21
-103.302135
31
0.0
0
LINE
8
0
6
CONTINUOUS
10
16.258370
20
-97.891595
30
0.0
11
16.258370
21
-93.636425
31
0.0
0
LINE
8
0
6
CONTINUOUS
10
16.258370
20
-112.950115
30
0.0
11
16.258370
21
-108.825015
31
0.0
0
LINE
8
0
6
CONTINUOUS
10
16.258370
20
-92.024425
30
0.0
11
15.943730
21
-91.978775
31
0.0
0
LINE
8
0
6
CONTINUOUS
10
16.258370
20
-93.636425
30
0.0
11
16.258370
21
-92.024425
31
0.0
0
LINE
8
0
6
CONTINUOUS
10
16.258370
20
-114.486715
30
0.0
11
16.258370
21
-112.950115
31
0.0
0
LINE
8
0
6
CONTINUOUS
10
16.080410
20
-114.649605
30
0.0
11
16.258370
21
-114.486715
31
0.0
0
LINE
8
0
6
CONTINUOUS
10
5.803000
20
-121.234685
30
0.0
11
0.384660
21
-121.237285
31
0.0
0
LINE
8
0
6
CONTINUOUS
10
9.608040
20
-121.238305
30
0.0
11
5.803000
21
-121.234685
31
0.0
0
LINE
8
0
6
CONTINUOUS
10
11.568570
20
-121.245765
30
0.0
11
9.608040
21
-121.238305
31
0.0
0
LINE
8
0
6
CONTINUOUS
10
4.952960
20
-121.265955
30
0.0
11
8.949790
21
-121.242615
31
0.0
0
LINE
8
0
6
CONTINUOUS
10
-0.543900
20
-121.283425
30
0.0
11
4.952960
21
-121.265955
31
0.0
0
LINE
8
0
6
CONTINUOUS
10
-35.374380
20
-121.273055
30
0.0
11
-28.944510
21
-121.299885
31
0.0
0
LINE
8
0
6
CONTINUOUS
10
-44.268270
20
-121.270245
30
0.0
11
-40.638410
21
-121.277475
31
0.0
0
LINE
8
0
6
CONTINUOUS
10
-46.227800
20
-121.255685
30
0.0
11
-44.268270
21
-121.270245
31
0.0
0
LINE
8
0
6
CONTINUOUS
10
-46.284520
20
-121.245425
30
0.0
11
-46.227800
21
-121.255685
31
0.0
0
LINE
8
0
6
CONTINUOUS
10
-44.248060
20
-121.236875
30
0.0
11
-46.284520
21
-121.245425
31
0.0
0
LINE
8
0
6
CONTINUOUS
10
-40.395420
20
-121.232695
30
0.0
11
-44.248060
21
-121.236875
31
0.0
0
LINE
8
0
6
CONTINUOUS
10
-34.858360
20
-121.232445
30
0.0
11
-40.395420
21
-121.232695
31
0.0
0
LINE
8
0
6
CONTINUOUS
10
-28.176290
20
-121.231445
30
0.0
11
-34.858360
21
-121.232445
31
0.0
0
LINE
8
0
6
CONTINUOUS
10
-20.834650
20
-121.230415
30
0.0
11
-28.176290
21
-121.231445
31
0.0
0
LINE
8
0
6
CONTINUOUS
10
-13.336840
20
-121.232625
30
0.0
11
-20.834650
21
-121.230415
31
0.0
0
LINE
8
0
6
CONTINUOUS
10
-6.121450
20
-121.234945
30
0.0
11
-13.336840
21
-121.232625
31
0.0
0
LINE
8
0
6
CONTINUOUS
10
0.384660
20
-121.237285
30
0.0
11
-6.121450
21
-121.234945
31
0.0
0
LINE
8
0
6
CONTINUOUS
10
-14.752420
20
-121.305075
30
0.0
11
-1.208260
21
-121.282455
31
0.0
0
LINE
8
0
6
CONTINUOUS
10
-28.505220
20
-121.298625
30
0.0
11
-14.752420
21
-121.305075
31
0.0
0
LINE
8
0
6
CONTINUOUS
10
-16.471600
20
-121.272215
30
0.0
11
-17.269800
21
-121.268775
31
0.0
0
LINE
8
0
6
CONTINUOUS
10
-17.269800
20
-121.268775
30
0.0
11
10.421450
21
-121.246065
31
0.0
0
LINE
8
0
6
CONTINUOUS
10
11.511110
20
-120.813965
30
0.0
11
11.860580
21
-119.320915
31
0.0
0
LINE
8
0
6
CONTINUOUS
10
-45.817340
20
-112.688225
30
0.0
11
-46.260020
21
-120.796615
31
0.0
0
LINE
8
0
6
CONTINUOUS
10
-38.054770
20
-30.440805
30
0.0
11
-38.008880
21
-30.900695
31
0.0
0
LINE
8
0
6
CONTINUOUS
10
-3.079640
20
-28.609355
30
0.0
11
-3.069520
21
-28.165995
31
0.0
0
LINE
8
0
6
CONTINUOUS
10
-3.079640
20
-28.609355
30
0.0
11
-3.502060
21
-25.404975
31
0.0
0
LINE
8
0
6
CONTINUOUS
10
-38.256290
20
-27.521655
30
0.0
11
-38.008880
21
-30.900695
31
0.0
0
LINE
8
0
6
CONTINUOUS
10
-28.462420
20
-16.748395
30
0.0
11
-32.308520
21
-18.612465
31
0.0
0
LINE
8
0
6
CONTINUOUS
10
-24.078600
20
-15.662105
30
0.0
11
-28.462420
21
-16.748395
31
0.0
0
LINE
8
0
6
CONTINUOUS
10
-16.664610
20
-40.554015
30
0.0
11
-12.366330
21
-39.349885
31
0.0
0
LINE
8
0
6
CONTINUOUS
10
-7.549920
20
-19.671345
30
0.0
11
-10.981870
21
-17.562225
31
0.0
0
LINE
8
0
6
CONTINUOUS
10
-33.738420
20
-36.847425
30
0.0
11
-30.091700
21
-38.954445
31
0.0
0
LINE
8
0
6
CONTINUOUS
10
-3.840350
20
-31.874715
30
0.0
11
-3.079640
21
-28.609355
31
0.0
0
LINE
8
0
6
CONTINUOUS
10
-37.394750
20
-24.192835
30
0.0
11
-38.256290
21
-27.521655
31
0.0
0
LINE
8
0
6
CONTINUOUS
10
-5.714560
20
-34.864405
30
0.0
11
-3.840350
21
-31.874715
31
0.0
0
LINE
8
0
6
CONTINUOUS
10
-19.533380
20
-15.468215
30
0.0
11
-24.078600
21
-15.662105
31
0.0
0
LINE
8
0
6
CONTINUOUS
10
-21.264930
20
-40.836325
30
0.0
11
-16.664610
21
-40.554015
31
0.0
0
LINE
8
0
6
CONTINUOUS
10
-5.010130
20
-22.329485
30
0.0
11
-7.549920
21
-19.671345
31
0.0
0
LINE
8
0
6
CONTINUOUS
10
-36.468510
20
-34.099515
30
0.0
11
-33.738420
21
-36.847425
31
0.0
0
LINE
8
0
6
CONTINUOUS
10
-35.363430
20
-21.150785
30
0.0
11
-37.394750
21
-24.192835
31
0.0
0
LINE
8
0
6
CONTINUOUS
10
-8.619260
20
-37.431985
30
0.0
11
-5.714560
21
-34.864405
31
0.0
0
LINE
8
0
6
CONTINUOUS
10
-15.009810
20
-16.100035
30
0.0
11
-19.533380
21
-15.468215
31
0.0
0
LINE
8
0
6
CONTINUOUS
10
-25.829710
20
-40.323955
30
0.0
11
-21.264930
21
-40.836325
31
0.0
0
LINE
8
0
6
CONTINUOUS
10
-3.502060
20
-25.404975
30
0.0
11
-5.010130
21
-22.329485
31
0.0
0
LINE
8
0
6
CONTINUOUS
10
-38.008880
20
-30.900695
30
0.0
11
-36.468510
21
-34.099515
31
0.0
0
LINE
8
0
6
CONTINUOUS
10
-32.308520
20
-18.612465
30
0.0
11
-35.363430
21
-21.150785
31
0.0
0
LINE
8
0
6
CONTINUOUS
10
-12.366330
20
-39.349885
30
0.0
11
-8.619260
21
-37.431985
31
0.0
0
LINE
8
0
6
CONTINUOUS
10
-10.981870
20
-17.562225
30
0.0
11
-15.009810
21
-16.100035
31
0.0
0
LINE
8
0
6
CONTINUOUS
10
-30.091700
20
-38.954445
30
0.0
11
-25.829710
21
-40.323955
31
0.0
0
LINE
8
0
6
CONTINUOUS
10
13.216750
20
95.556505
30
0.0
11
15.245810
21
102.560275
31
0.0
0
LINE
8
0
6
CONTINUOUS
10
-22.982530
20
118.367215
30
0.0
11
-25.691520
21
112.242885
31
0.0
0
LINE
8
0
6
CONTINUOUS
10
-31.092250
20
-19.611415
30
0.0
11
-27.646320
21
-17.941335
31
0.0
0
LINE
8
0
6
CONTINUOUS
10
-5.295690
20
-25.691495
30
0.0
11
-4.917500
21
-28.560275
31
0.0
0
LINE
8
0
6
CONTINUOUS
10
-15.599710
20
-17.361065
30
0.0
11
-11.992960
21
-18.670395
31
0.0
0
LINE
8
0
6
CONTINUOUS
10
-33.828220
20
-21.884745
30
0.0
11
-31.092250
21
-19.611415
31
0.0
0
LINE
8
0
6
CONTINUOUS
10
-6.646570
20
-22.936635
30
0.0
11
-5.295690
21
-25.691495
31
0.0
0
LINE
8
0
6
CONTINUOUS
10
-19.650910
20
-16.795185
30
0.0
11
-15.599710
21
-17.361065
31
0.0
0
LINE
8
0
6
CONTINUOUS
10
-35.647340
20
-24.609095
30
0.0
11
-33.828220
21
-21.884745
31
0.0
0
LINE
8
0
6
CONTINUOUS
10
-8.916630
20
-20.561005
30
0.0
11
-6.646570
21
-22.936635
31
0.0
0
LINE
8
0
6
CONTINUOUS
10
-23.721020
20
-16.968695
30
0.0
11
-19.650910
21
-16.795185
31
0.0
0
LINE
8
0
6
CONTINUOUS
10
-36.421010
20
-27.598435
30
0.0
11
-35.647340
21
-24.609095
31
0.0
0
LINE
8
0
6
CONTINUOUS
10
-11.992960
20
-18.670395
30
0.0
11
-8.916630
21
-20.561005
31
0.0
0
LINE
8
0
6
CONTINUOUS
10
-13.234790
20
-38.177995
30
0.0
11
-17.082700
21
-39.256005
31
0.0
0
LINE
8
0
6
CONTINUOUS
10
-27.646320
20
-17.941335
30
0.0
11
-23.721020
21
-16.968695
31
0.0
0
LINE
8
0
6
CONTINUOUS
10
-5.598660
20
-31.484175
30
0.0
11
-4.917500
21
-28.560275
31
0.0
0
LINE
8
0
6
CONTINUOUS
10
-9.876430
20
-36.459005
30
0.0
11
-7.276660
21
-34.161015
31
0.0
0
LINE
8
0
6
CONTINUOUS
10
-36.199250
20
-30.627465
30
0.0
11
-34.825110
21
-33.481065
31
0.0
0
LINE
8
0
6
CONTINUOUS
10
-29.121730
20
-37.821315
30
0.0
11
-25.301360
21
-39.048895
31
0.0
0
LINE
8
0
6
CONTINUOUS
10
-21.204200
20
-39.508815
30
0.0
11
-17.082700
21
-39.256005
31
0.0
0
LINE
8
0
6
CONTINUOUS
10
-32.387540
20
-35.934475
30
0.0
11
-29.121730
21
-37.821315
31
0.0
0
LINE
8
0
6
CONTINUOUS
10
-7.276660
20
-34.161015
30
0.0
11
-5.598660
21
-31.484175
31
0.0
0
LINE
8
0
6
CONTINUOUS
10
-36.421010
20
-27.598435
30
0.0
11
-36.199250
21
-30.627465
31
0.0
0
LINE
8
0
6
CONTINUOUS
10
-34.825110
20
-33.481065
30
0.0
11
-32.387540
21
-35.934475
31
0.0
0
LINE
8
0
6
CONTINUOUS
10
-25.301360
20
-39.048895
30
0.0
11
-21.204200
21
-39.508815
31
0.0
0
LINE
8
0
6
CONTINUOUS
10
-13.234790
20
-38.177995
30
0.0
11
-9.876430
21
-36.459005
31
0.0
0
LINE
8
0
6
CONTINUOUS
10
-29.106830
20
-35.089675
30
0.0
11
-25.286460
21
-36.317255
31
0.0
0
LINE
8
0
6
CONTINUOUS
10
-13.219890
20
-35.446355
30
0.0
11
-9.861530
21
-33.727365
31
0.0
0
LINE
8
0
6
CONTINUOUS
10
-36.184350
20
-27.895825
30
0.0
11
-34.810210
21
-30.749435
31
0.0
0
LINE
8
0
6
CONTINUOUS
10
-25.286460
20
-36.317255
30
0.0
11
-21.189300
21
-36.777185
31
0.0
0
LINE
8
0
6
CONTINUOUS
10
-9.861530
20
-33.727365
30
0.0
11
-7.261760
21
-31.429375
31
0.0
0
LINE
8
0
6
CONTINUOUS
10
-34.810210
20
-30.749435
30
0.0
11
-32.372640
21
-33.202835
31
0.0
0
LINE
8
0
6
CONTINUOUS
10
-21.189300
20
-36.777185
30
0.0
11
-17.067800
21
-36.524375
31
0.0
0
LINE
8
0
6
CONTINUOUS
10
-7.261760
20
-31.429375
30
0.0
11
-5.583760
21
-28.752535
31
0.0
0
LINE
8
0
6
CONTINUOUS
10
-5.583760
20
-28.752535
30
0.0
11
-4.902600
21
-25.828635
31
0.0
0
LINE
8
0
6
CONTINUOUS
10
-32.372640
20
-33.202835
30
0.0
11
-29.106830
21
-35.089675
31
0.0
0
LINE
8
0
6
CONTINUOUS
10
-17.067800
20
-36.524375
30
0.0
11
-13.219890
21
-35.446355
31
0.0
0
LINE
8
0
6
CONTINUOUS
10
7.704440
20
-80.857905
30
0.0
11
6.283260
21
-64.611605
31
0.0
0
LINE
8
0
6
CONTINUOUS
10
-43.962970
20
-63.087045
30
0.0
11
-44.484040
21
-80.628555
31
0.0
0
LINE
8
0
6
CONTINUOUS
10
16.258370
20
-111.104495
30
0.0
11
17.124580
21
-111.104495
31
0.0
0
LINE
8
0
6
CONTINUOUS
10
17.124580
20
-95.345585
30
0.0
11
16.258370
21
-95.345585
31
0.0
0
ENDSEC
0
EOF
