999
Erzeugt mit innoplus bad 
0
SECTION
2
HEADER
9
$ACADVER
1
AC1009
9
$DWGCODEPAGE
3
ISO8859-1
0
ENDSEC
0
SECTION
2
TABLES
0
TABLE
2
LAYER
70
1
0
LAYER
2
0
70
0
62
7
6
CONTINUOUS
0
ENDTAB
0
ENDSEC
0
SECTION
2
ENTITIES
0
LINE
8
0
6
CONTINUOUS
10
17.124570
20
54.821115
30
0.0
11
17.124570
21
53.054865
31
0.0
0
LINE
8
0
6
CONTINUOUS
10
17.507060
20
54.731455
30
0.0
11
17.124570
21
54.821115
31
0.0
0
LINE
8
0
6
CONTINUOUS
10
17.124580
20
44.060515
30
0.0
11
17.124570
21
38.875345
31
0.0
0
LINE
8
0
6
CONTINUOUS
10
17.124570
20
38.875345
30
0.0
11
17.124570
21
34.513005
31
0.0
0
LINE
8
0
6
CONTINUOUS
10
17.124570
20
53.054865
30
0.0
11
17.124570
21
49.112375
31
0.0
0
LINE
8
0
6
CONTINUOUS
10
17.124570
20
49.112375
30
0.0
11
17.124580
21
44.060515
31
0.0
0
LINE
8
0
6
CONTINUOUS
10
17.124570
20
32.020745
30
0.0
11
17.498780
21
32.107095
31
0.0
0
LINE
8
0
6
CONTINUOUS
10
17.124570
20
34.513005
30
0.0
11
17.124570
21
32.020745
31
0.0
0
LINE
8
0
6
CONTINUOUS
10
1.168780
20
12.823025
30
0.0
11
4.483300
21
25.051845
31
0.0
0
LINE
8
0
6
CONTINUOUS
10
-27.345600
20
60.879145
30
0.0
11
-31.537030
21
58.658805
31
0.0
0
LINE
8
0
6
CONTINUOUS
10
-42.149560
20
50.368735
30
0.0
11
-42.704710
21
48.586725
31
0.0
0
LINE
8
0
6
CONTINUOUS
10
-44.278250
20
43.015145
30
0.0
11
-44.549170
21
41.951225
31
0.0
0
LINE
8
0
6
CONTINUOUS
10
-42.704710
20
48.586725
30
0.0
11
-44.278250
21
43.015145
31
0.0
0
LINE
8
0
6
CONTINUOUS
10
-1.922050
20
-15.515755
30
0.0
11
-0.627240
21
-0.161535
31
0.0
0
LINE
8
0
6
CONTINUOUS
10
-44.409470
20
4.213785
30
0.0
11
-43.171740
21
-12.512825
31
0.0
0
LINE
8
0
6
CONTINUOUS
10
-1.024640
20
-2.261515
30
0.0
11
-0.290220
21
2.065665
31
0.0
0
LINE
8
0
6
CONTINUOUS
10
10.853230
20
37.926185
30
0.0
11
11.092400
21
38.208785
31
0.0
0
LINE
8
0
6
CONTINUOUS
10
6.675870
20
32.151095
30
0.0
11
9.944138
21
37.076823
31
0.0
0
LINE
8
0
6
CONTINUOUS
10
6.562760
20
30.821325
30
0.0
11
9.328370
21
36.287375
31
0.0
0
LINE
8
0
6
CONTINUOUS
10
4.483300
20
25.051845
30
0.0
11
6.562760
21
30.821325
31
0.0
0
LINE
8
0
6
CONTINUOUS
10
-16.920690
20
67.528465
30
0.0
11
-19.274390
21
65.893405
31
0.0
0
LINE
8
0
6
CONTINUOUS
10
-19.274390
20
65.893405
30
0.0
11
-23.264660
21
63.299175
31
0.0
0
LINE
8
0
6
CONTINUOUS
10
-23.264660
20
63.299175
30
0.0
11
-27.345600
21
60.879145
31
0.0
0
LINE
8
0
6
CONTINUOUS
10
-3.069520
20
-61.236335
30
0.0
11
-2.405160
21
-30.879815
31
0.0
0
LINE
8
0
6
CONTINUOUS
10
-2.405160
20
-30.879815
30
0.0
11
-1.922050
21
-15.515755
31
0.0
0
LINE
8
0
6
CONTINUOUS
10
-41.718660
20
-29.188855
30
0.0
11
-38.308230
21
-62.129405
31
0.0
0
LINE
8
0
6
CONTINUOUS
10
-43.171740
20
-12.512825
30
0.0
11
-41.718660
21
-29.188855
31
0.0
0
LINE
8
0
6
CONTINUOUS
10
0.323760
20
9.459075
30
0.0
11
1.168780
21
12.823025
31
0.0
0
LINE
8
0
6
CONTINUOUS
10
1.947260
20
15.037455
30
0.0
11
2.776950
21
19.348505
31
0.0
0
LINE
8
0
6
CONTINUOUS
10
1.194370
20
10.715245
30
0.0
11
1.947260
21
15.037455
31
0.0
0
LINE
8
0
6
CONTINUOUS
10
-0.290220
20
2.065665
30
0.0
11
0.417040
21
6.397995
31
0.0
0
LINE
8
0
6
CONTINUOUS
10
-44.770830
20
11.569235
30
0.0
11
-44.409470
21
4.213785
31
0.0
0
LINE
8
0
6
CONTINUOUS
10
-44.489400
20
26.263875
30
0.0
11
-44.962530
21
18.924575
31
0.0
0
LINE
8
0
6
CONTINUOUS
10
-44.549170
20
41.951225
30
0.0
11
-44.618840
21
40.422735
31
0.0
0
LINE
8
0
6
CONTINUOUS
10
-44.812580
20
36.286675
30
0.0
11
-44.650590
21
33.792865
31
0.0
0
LINE
8
0
6
CONTINUOUS
10
-44.549170
20
41.951225
30
0.0
11
-44.812580
21
36.286675
31
0.0
0
LINE
8
0
6
CONTINUOUS
10
-44.447510
20
27.335355
30
0.0
11
-44.489400
21
26.263875
31
0.0
0
LINE
8
0
6
CONTINUOUS
10
-44.650590
20
33.792865
30
0.0
11
-44.612550
21
31.799375
31
0.0
0
LINE
8
0
6
CONTINUOUS
10
-44.618840
20
40.422735
30
0.0
11
-44.650590
21
33.792865
31
0.0
0
LINE
8
0
6
CONTINUOUS
10
-44.612550
20
31.799375
30
0.0
11
-44.447510
21
27.335355
31
0.0
0
LINE
8
0
6
CONTINUOUS
10
0.417040
20
6.397995
30
0.0
11
1.194370
21
10.715245
31
0.0
0
LINE
8
0
6
CONTINUOUS
10
-44.962530
20
18.924575
30
0.0
11
-44.770830
21
11.569235
31
0.0
0
LINE
8
0
6
CONTINUOUS
10
-46.284520
20
42.266485
30
0.0
11
-44.781520
21
36.954603
31
0.0
0
LINE
8
0
6
CONTINUOUS
10
-7.126370
20
72.437565
30
0.0
11
-14.358050
21
74.145825
31
0.0
0
LINE
8
0
6
CONTINUOUS
10
-35.374380
20
68.526255
30
0.0
11
-40.638410
21
63.309895
31
0.0
0
LINE
8
0
6
CONTINUOUS
10
-28.944510
20
72.174415
30
0.0
11
-35.374380
21
68.526255
31
0.0
0
LINE
8
0
6
CONTINUOUS
10
-46.227800
20
49.725865
30
0.0
11
-46.284520
21
42.266485
31
0.0
0
LINE
8
0
6
CONTINUOUS
10
-4.756697
20
71.172253
30
0.0
11
-7.126370
21
72.437565
31
0.0
0
LINE
8
0
6
CONTINUOUS
10
-44.268270
20
56.847495
30
0.0
11
-46.227800
21
49.725865
31
0.0
0
LINE
8
0
6
CONTINUOUS
10
-21.797350
20
74.141195
30
0.0
11
-28.944510
21
72.174415
31
0.0
0
LINE
8
0
6
CONTINUOUS
10
-14.358050
20
74.145825
30
0.0
11
-21.797350
21
74.141195
31
0.0
0
LINE
8
0
6
CONTINUOUS
10
-40.638410
20
63.309895
30
0.0
11
-44.268270
21
56.847495
31
0.0
0
LINE
8
0
6
CONTINUOUS
10
15.943650
20
54.467605
30
0.0
11
14.160280
21
54.733195
31
0.0
0
LINE
8
0
6
CONTINUOUS
10
14.119420
20
31.972825
30
0.0
11
15.937530
21
32.165685
31
0.0
0
LINE
8
0
6
CONTINUOUS
10
12.132850
20
31.487865
30
0.0
11
14.119420
21
31.972825
31
0.0
0
LINE
8
0
6
CONTINUOUS
10
8.386110
20
30.139505
30
0.0
11
12.132850
21
31.487865
31
0.0
0
LINE
8
0
6
CONTINUOUS
10
5.788340
20
28.672689
30
0.0
11
8.386110
21
30.139505
31
0.0
0
LINE
8
0
6
CONTINUOUS
10
42.071920
20
37.777795
30
0.0
11
42.273950
21
37.824425
31
0.0
0
LINE
8
0
6
CONTINUOUS
10
42.829930
20
48.795725
30
0.0
11
42.623440
21
48.844125
31
0.0
0
LINE
8
0
6
CONTINUOUS
10
45.645450
20
40.213665
30
0.0
11
46.284520
21
42.901785
31
0.0
0
LINE
8
0
6
CONTINUOUS
10
38.819370
20
43.718355
30
0.0
11
39.180450
21
40.920835
31
0.0
0
LINE
8
0
6
CONTINUOUS
10
45.923440
20
45.699315
30
0.0
11
44.658970
21
47.856645
31
0.0
0
LINE
8
0
6
CONTINUOUS
10
44.177490
20
38.355215
30
0.0
11
45.645450
21
40.213665
31
0.0
0
LINE
8
0
6
CONTINUOUS
10
39.458430
20
46.406485
30
0.0
11
38.819370
21
43.718355
31
0.0
0
LINE
8
0
6
CONTINUOUS
10
39.180450
20
40.920835
30
0.0
11
40.444910
21
38.763505
31
0.0
0
LINE
8
0
6
CONTINUOUS
10
42.829930
20
48.795725
30
0.0
11
40.926400
21
48.264925
31
0.0
0
LINE
8
0
6
CONTINUOUS
10
40.444910
20
38.763505
30
0.0
11
42.273950
21
37.824425
31
0.0
0
LINE
8
0
6
CONTINUOUS
10
46.284520
20
42.901785
30
0.0
11
45.923440
21
45.699315
31
0.0
0
LINE
8
0
6
CONTINUOUS
10
40.926400
20
48.264925
30
0.0
11
39.458430
21
46.406485
31
0.0
0
LINE
8
0
6
CONTINUOUS
10
44.658970
20
47.856645
30
0.0
11
42.829930
21
48.795725
31
0.0
0
LINE
8
0
6
CONTINUOUS
10
42.273950
20
37.824425
30
0.0
11
44.177490
21
38.355215
31
0.0
0
LINE
8
0
6
CONTINUOUS
10
17.498780
20
32.107095
30
0.0
11
42.071920
21
37.777795
31
0.0
0
LINE
8
0
6
CONTINUOUS
10
17.478730
20
52.983595
30
0.0
11
40.735190
21
48.303405
31
0.0
0
LINE
8
0
6
CONTINUOUS
10
42.623440
20
48.844125
30
0.0
11
17.507060
21
54.731455
31
0.0
0
LINE
8
0
6
CONTINUOUS
10
16.258370
20
48.896855
30
0.0
11
16.258370
21
52.734905
31
0.0
0
LINE
8
0
6
CONTINUOUS
10
15.937530
20
32.165685
30
0.0
11
16.258370
21
32.199725
31
0.0
0
LINE
8
0
6
CONTINUOUS
10
16.258370
20
32.199725
30
0.0
11
16.258370
21
33.885585
31
0.0
0
LINE
8
0
6
CONTINUOUS
10
16.258370
20
33.885585
30
0.0
11
16.258370
21
37.723545
31
0.0
0
LINE
8
0
6
CONTINUOUS
10
16.258370
20
37.723545
30
0.0
11
16.258370
21
43.310235
31
0.0
0
LINE
8
0
6
CONTINUOUS
10
16.258370
20
43.310235
30
0.0
11
16.258370
21
48.896855
31
0.0
0
LINE
8
0
6
CONTINUOUS
10
16.258370
20
54.420735
30
0.0
11
15.943650
21
54.467605
31
0.0
0
LINE
8
0
6
CONTINUOUS
10
16.258370
20
52.734905
30
0.0
11
16.258370
21
54.420735
31
0.0
0
LINE
8
0
6
CONTINUOUS
10
-15.009810
20
-73.561295
30
0.0
11
-10.981870
21
-72.185115
31
0.0
0
LINE
8
0
6
CONTINUOUS
10
-35.363430
20
-68.689675
30
0.0
11
-32.308520
21
-71.110185
31
0.0
0
LINE
8
0
6
CONTINUOUS
10
-5.010130
20
-67.665105
30
0.0
11
-3.502060
21
-64.742805
31
0.0
0
LINE
8
0
6
CONTINUOUS
10
-19.533380
20
-74.145825
30
0.0
11
-15.009810
21
-73.561295
31
0.0
0
LINE
8
0
6
CONTINUOUS
10
-37.394750
20
-65.796455
30
0.0
11
-35.363430
21
-68.689675
31
0.0
0
LINE
8
0
6
CONTINUOUS
10
-7.549920
20
-70.192225
30
0.0
11
-5.010130
21
-67.665105
31
0.0
0
LINE
8
0
6
CONTINUOUS
10
-24.078600
20
-73.943005
30
0.0
11
-19.533380
21
-74.145825
31
0.0
0
LINE
8
0
6
CONTINUOUS
10
-38.308230
20
-62.129405
30
0.0
11
-38.256290
21
-62.631035
31
0.0
0
LINE
8
0
6
CONTINUOUS
10
-38.256290
20
-62.631035
30
0.0
11
-37.394750
21
-65.796455
31
0.0
0
LINE
8
0
6
CONTINUOUS
10
-10.981870
20
-72.185115
30
0.0
11
-7.549920
21
-70.192225
31
0.0
0
LINE
8
0
6
CONTINUOUS
10
-28.462420
20
-72.895905
30
0.0
11
-24.078600
21
-73.943005
31
0.0
0
LINE
8
0
6
CONTINUOUS
10
-32.308520
20
-71.110185
30
0.0
11
-28.462420
21
-72.895905
31
0.0
0
LINE
8
0
6
CONTINUOUS
10
-3.079640
20
-61.698625
30
0.0
11
-3.069520
21
-61.236335
31
0.0
0
LINE
8
0
6
CONTINUOUS
10
-3.502060
20
-64.742805
30
0.0
11
-3.079640
21
-61.698625
31
0.0
0
LINE
8
0
6
CONTINUOUS
10
8.700690
20
35.382725
30
0.0
11
10.853230
21
37.926185
31
0.0
0
LINE
8
0
6
CONTINUOUS
10
-14.876850
20
69.028095
30
0.0
11
-16.920690
21
67.528465
31
0.0
0
LINE
8
0
6
CONTINUOUS
10
11.092400
20
38.208785
30
0.0
11
13.757530
21
42.013475
31
0.0
0
LINE
8
0
6
CONTINUOUS
10
-22.681530
20
53.131145
30
0.0
11
-21.528070
21
48.131415
31
0.0
0
LINE
8
0
6
CONTINUOUS
10
-22.496590
20
58.070835
30
0.0
11
-22.681530
21
53.131145
31
0.0
0
LINE
8
0
6
CONTINUOUS
10
-20.985520
20
62.585305
30
0.0
11
-22.496590
21
58.070835
31
0.0
0
LINE
8
0
6
CONTINUOUS
10
-5.447000
20
71.293615
30
0.0
11
-10.259980
21
70.851395
31
0.0
0
LINE
8
0
6
CONTINUOUS
10
-10.259980
20
70.851395
30
0.0
11
-14.649750
21
69.194715
31
0.0
0
LINE
8
0
6
CONTINUOUS
10
-14.649750
20
69.194715
30
0.0
11
-18.321920
21
66.391095
31
0.0
0
LINE
8
0
6
CONTINUOUS
10
-18.321920
20
66.391095
30
0.0
11
-20.985520
21
62.585305
31
0.0
0
LINE
8
0
6
CONTINUOUS
10
13.757530
20
42.013475
30
0.0
11
15.275710
21
46.524915
31
0.0
0
LINE
8
0
6
CONTINUOUS
10
15.275710
20
46.524915
30
0.0
11
15.471260
21
51.464205
31
0.0
0
LINE
8
0
6
CONTINUOUS
10
15.471260
20
51.464205
30
0.0
11
14.298600
21
56.459505
31
0.0
0
LINE
8
0
6
CONTINUOUS
10
14.298600
20
56.459505
30
0.0
11
11.926840
21
61.157845
31
0.0
0
LINE
8
0
6
CONTINUOUS
10
11.926840
20
61.157845
30
0.0
11
8.473860
21
65.203915
31
0.0
0
LINE
8
0
6
CONTINUOUS
10
8.473860
20
65.203915
30
0.0
11
4.245280
21
68.378325
31
0.0
0
LINE
8
0
6
CONTINUOUS
10
-0.505070
20
70.424775
30
0.0
11
-5.447000
21
71.293615
31
0.0
0
LINE
8
0
6
CONTINUOUS
10
4.245280
20
68.378325
30
0.0
11
-0.505070
21
70.424775
31
0.0
0
LINE
8
0
6
CONTINUOUS
10
3.052260
20
33.721065
30
0.0
11
7.442130
21
35.377775
31
0.0
0
LINE
8
0
6
CONTINUOUS
10
-1.758970
20
33.276485
30
0.0
11
3.052260
21
33.721065
31
0.0
0
LINE
8
0
6
CONTINUOUS
10
-6.702840
20
34.139265
30
0.0
11
-1.758970
21
33.276485
31
0.0
0
LINE
8
0
6
CONTINUOUS
10
7.442130
20
35.377775
30
0.0
11
11.092400
21
38.208785
31
0.0
0
LINE
8
0
6
CONTINUOUS
10
-11.451580
20
36.201305
30
0.0
11
-6.702840
21
34.139265
31
0.0
0
LINE
8
0
6
CONTINUOUS
10
-15.671680
20
39.393585
30
0.0
11
-11.451580
21
36.201305
31
0.0
0
LINE
8
0
6
CONTINUOUS
10
-19.123850
20
43.443335
30
0.0
11
-15.671680
21
39.393585
31
0.0
0
LINE
8
0
6
CONTINUOUS
10
-21.528070
20
48.131415
30
0.0
11
-19.123850
21
43.443335
31
0.0
0
LINE
8
0
6
CONTINUOUS
10
16.258370
20
35.396245
30
0.0
11
17.124570
21
35.396245
31
0.0
0
LINE
8
0
6
CONTINUOUS
10
17.124572
20
51.155155
30
0.0
11
16.258370
21
51.155155
31
0.0
0
ENDSEC
0
EOF
