999
Erzeugt mit innoplus bad 
0
SECTION
2
HEADER
9
$ACADVER
1
AC1009
9
$DWGCODEPAGE
3
ISO8859-1
0
ENDSEC
0
SECTION
2
TABLES
0
TABLE
2
LAYER
70
1
0
LAYER
2
0
70
0
62
7
6
CONTINUOUS
0
ENDTAB
0
ENDSEC
0
SECTION
2
ENTITIES
0
LINE
8
0
6
CONTINUOUS
10
18.251135
20
-80.436345
30
0.0
11
18.252955
21
-81.255045
31
0.0
0
LINE
8
0
6
CONTINUOUS
10
18.315365
20
-105.032795
30
0.0
11
18.317225
21
-105.455275
31
0.0
0
LINE
8
0
6
CONTINUOUS
10
18.291925
20
-96.172925
30
0.0
11
18.313035
21
-104.255465
31
0.0
0
LINE
8
0
6
CONTINUOUS
10
18.315365
20
-105.032795
30
0.0
11
18.399485
21
-105.032795
31
0.0
0
LINE
8
0
6
CONTINUOUS
10
18.313035
20
-104.255465
30
0.0
11
18.315365
21
-105.032795
31
0.0
0
LINE
8
0
6
CONTINUOUS
10
18.334995
20
-80.055115
30
0.0
11
18.250875
21
-80.055115
31
0.0
0
LINE
8
0
6
CONTINUOUS
10
18.251135
20
-80.436345
30
0.0
11
18.335255
21
-80.436345
31
0.0
0
LINE
8
0
6
CONTINUOUS
10
18.250875
20
-80.055115
30
0.0
11
18.251135
21
-80.436345
31
0.0
0
LINE
8
0
6
CONTINUOUS
10
18.252955
20
-81.255045
30
0.0
11
18.291925
21
-96.172925
31
0.0
0
LINE
8
0
6
CONTINUOUS
10
18.418202
20
-80.055115
30
0.0
11
18.334995
21
-80.055115
31
0.0
0
LINE
8
0
6
CONTINUOUS
10
18.431085
20
-80.436345
30
0.0
11
18.335255
21
-80.436345
31
0.0
0
LINE
8
0
6
CONTINUOUS
10
18.399485
20
-105.032795
30
0.0
11
18.483714
21
-105.032795
31
0.0
0
LINE
8
0
6
CONTINUOUS
10
32.020745
20
-101.139445
30
0.0
11
32.411465
21
-107.208355
31
0.0
0
LINE
8
0
6
CONTINUOUS
10
32.107095
20
-100.811195
30
0.0
11
32.020745
21
-101.139445
31
0.0
0
LINE
8
0
6
CONTINUOUS
10
54.821115
20
-102.845555
30
0.0
11
54.731455
21
-102.500825
31
0.0
0
LINE
8
0
6
CONTINUOUS
10
53.488095
20
-108.847945
30
0.0
11
54.821115
21
-102.845555
31
0.0
0
LINE
8
0
6
CONTINUOUS
10
36.127945
20
-112.356365
30
0.0
11
42.342045
21
-114.740045
31
0.0
0
LINE
8
0
6
CONTINUOUS
10
42.342045
20
-114.740045
30
0.0
11
48.912505
21
-113.381575
31
0.0
0
LINE
8
0
6
CONTINUOUS
10
32.411465
20
-107.208355
30
0.0
11
36.127945
21
-112.356365
31
0.0
0
LINE
8
0
6
CONTINUOUS
10
32.499905
20
-106.820305
30
0.0
11
32.411465
21
-107.208355
31
0.0
0
LINE
8
0
6
CONTINUOUS
10
48.912505
20
-113.381575
30
0.0
11
53.488095
21
-108.847945
31
0.0
0
LINE
8
0
6
CONTINUOUS
10
12.164975
20
79.263285
30
0.0
11
3.615925
21
67.438375
31
0.0
0
LINE
8
0
6
CONTINUOUS
10
62.228795
20
40.098535
30
0.0
11
63.144305
21
55.979495
31
0.0
0
LINE
8
0
6
CONTINUOUS
10
67.650715
20
-61.681395
30
0.0
11
65.071195
21
-33.475735
31
0.0
0
LINE
8
0
6
CONTINUOUS
10
18.340365
20
-44.423975
30
0.0
11
18.361035
21
-66.001535
31
0.0
0
LINE
8
0
6
CONTINUOUS
10
65.071195
20
-33.475735
30
0.0
11
62.672075
21
3.395055
31
0.0
0
LINE
8
0
6
CONTINUOUS
10
18.249075
20
-11.681795
30
0.0
11
18.340365
21
-44.423975
31
0.0
0
LINE
8
0
6
CONTINUOUS
10
62.672075
20
3.395055
30
0.0
11
61.997915
21
26.951475
31
0.0
0
LINE
8
0
6
CONTINUOUS
10
17.267815
20
7.512775
30
0.0
11
18.249075
21
-11.681795
31
0.0
0
LINE
8
0
6
CONTINUOUS
10
-5.016295
20
-1.244075
30
0.0
11
11.065155
21
10.545865
31
0.0
0
LINE
8
0
6
CONTINUOUS
10
-6.623105
20
54.867895
30
0.0
11
-22.805475
21
36.649165
31
0.0
0
LINE
8
0
6
CONTINUOUS
10
16.884845
20
8.894965
30
0.0
11
17.267815
21
7.512775
31
0.0
0
LINE
8
0
6
CONTINUOUS
10
-4.540605
20
57.353455
30
0.0
11
-6.623105
21
54.867895
31
0.0
0
LINE
8
0
6
CONTINUOUS
10
71.108915
20
103.916325
30
0.0
11
71.293615
21
104.705715
31
0.0
0
LINE
8
0
6
CONTINUOUS
10
33.276485
20
117.688175
30
0.0
11
32.957185
21
116.961845
31
0.0
0
LINE
8
0
6
CONTINUOUS
10
30.830875
20
112.374155
30
0.0
11
26.895425
21
104.564515
31
0.0
0
LINE
8
0
6
CONTINUOUS
10
26.895425
20
104.564515
30
0.0
11
19.925465
21
91.772745
31
0.0
0
LINE
8
0
6
CONTINUOUS
10
19.925465
20
91.772745
30
0.0
11
12.164975
21
79.263285
31
0.0
0
LINE
8
0
6
CONTINUOUS
10
67.684415
20
87.456935
30
0.0
11
69.446635
21
96.811735
31
0.0
0
LINE
8
0
6
CONTINUOUS
10
65.083485
20
71.807685
30
0.0
11
67.684415
21
87.456935
31
0.0
0
LINE
8
0
6
CONTINUOUS
10
63.144305
20
55.979495
30
0.0
11
65.083485
21
71.807685
31
0.0
0
LINE
8
0
6
CONTINUOUS
10
-49.579355
20
-40.436385
30
0.0
11
-20.181015
21
-14.173455
31
0.0
0
LINE
8
0
6
CONTINUOUS
10
-20.181015
20
-14.173455
30
0.0
11
-5.016295
21
-1.244075
31
0.0
0
LINE
8
0
6
CONTINUOUS
10
-39.552605
20
18.898695
30
0.0
11
-73.626935
21
-14.952705
31
0.0
0
LINE
8
0
6
CONTINUOUS
10
-22.805475
20
36.649165
30
0.0
11
-39.552605
21
18.898695
31
0.0
0
LINE
8
0
6
CONTINUOUS
10
61.997915
20
26.951475
30
0.0
11
62.011075
21
30.238925
31
0.0
0
LINE
8
0
6
CONTINUOUS
10
3.615925
20
67.438375
30
0.0
11
1.590365
21
64.906175
31
0.0
0
LINE
8
0
6
CONTINUOUS
10
1.590365
20
64.906175
30
0.0
11
-0.443315
21
62.380485
31
0.0
0
LINE
8
0
6
CONTINUOUS
10
-2.479225
20
59.856565
30
0.0
11
-4.540605
21
57.353455
31
0.0
0
LINE
8
0
6
CONTINUOUS
10
62.133175
20
36.812425
30
0.0
11
62.228795
21
40.098535
31
0.0
0
LINE
8
0
6
CONTINUOUS
10
62.011075
20
30.238925
30
0.0
11
62.037555
21
33.526315
31
0.0
0
LINE
8
0
6
CONTINUOUS
10
11.065155
20
10.545865
30
0.0
11
12.383515
21
11.089645
31
0.0
0
LINE
8
0
6
CONTINUOUS
10
13.786105
20
11.421735
30
0.0
11
15.178365
21
11.028475
31
0.0
0
LINE
8
0
6
CONTINUOUS
10
16.315865
20
10.231965
30
0.0
11
16.884845
21
8.894965
31
0.0
0
LINE
8
0
6
CONTINUOUS
10
18.074355
20
22.931915
30
0.0
11
18.716995
21
24.487115
31
0.0
0
LINE
8
0
6
CONTINUOUS
10
62.037555
20
33.526315
30
0.0
11
62.133175
21
36.812425
31
0.0
0
LINE
8
0
6
CONTINUOUS
10
12.383515
20
11.089645
30
0.0
11
13.786105
21
11.421735
31
0.0
0
LINE
8
0
6
CONTINUOUS
10
13.573545
20
11.864445
30
0.0
11
13.093245
21
13.860075
31
0.0
0
LINE
8
0
6
CONTINUOUS
10
-0.443315
20
62.380485
30
0.0
11
-2.479225
21
59.856565
31
0.0
0
LINE
8
0
6
CONTINUOUS
10
15.178365
20
11.028475
30
0.0
11
16.315865
21
10.231965
31
0.0
0
LINE
8
0
6
CONTINUOUS
10
18.074355
20
22.931915
30
0.0
11
16.694245
21
16.016955
31
0.0
0
LINE
8
0
6
CONTINUOUS
10
74.145825
20
-121.306325
30
0.0
11
74.095915
21
-120.859125
31
0.0
0
LINE
8
0
6
CONTINUOUS
10
18.467035
20
-121.232625
30
0.0
11
20.465115
21
-121.234945
31
0.0
0
LINE
8
0
6
CONTINUOUS
10
18.311255
20
-121.230415
30
0.0
11
18.467035
21
-121.232625
31
0.0
0
LINE
8
0
6
CONTINUOUS
10
18.314305
20
-120.780335
30
0.0
11
18.311255
21
-121.230415
31
0.0
0
LINE
8
0
6
CONTINUOUS
10
71.331285
20
-96.177655
30
0.0
11
69.589155
21
-80.390285
31
0.0
0
LINE
8
0
6
CONTINUOUS
10
73.188235
20
-112.724935
30
0.0
11
72.260325
21
-104.451235
31
0.0
0
LINE
8
0
6
CONTINUOUS
10
18.361035
20
-66.001535
30
0.0
11
18.363511
21
-80.055115
31
0.0
0
LINE
8
0
6
CONTINUOUS
10
72.260325
20
-104.451235
30
0.0
11
71.331285
21
-96.177655
31
0.0
0
LINE
8
0
6
CONTINUOUS
10
48.844125
20
-79.863495
30
0.0
11
48.795725
21
-79.677385
31
0.0
0
LINE
8
0
6
CONTINUOUS
10
37.824425
20
-79.079315
30
0.0
11
37.777795
21
-79.256525
31
0.0
0
LINE
8
0
6
CONTINUOUS
10
40.213665
20
-82.710235
30
0.0
11
42.901785
21
-83.398325
31
0.0
0
LINE
8
0
6
CONTINUOUS
10
43.718355
20
-75.358365
30
0.0
11
40.920835
21
-75.747425
31
0.0
0
LINE
8
0
6
CONTINUOUS
10
45.699315
20
-83.009265
30
0.0
11
47.856645
21
-81.647305
31
0.0
0
LINE
8
0
6
CONTINUOUS
10
38.355215
20
-81.129365
30
0.0
11
40.213665
21
-82.710235
31
0.0
0
LINE
8
0
6
CONTINUOUS
10
46.406485
20
-76.046455
30
0.0
11
43.718355
21
-75.358365
31
0.0
0
LINE
8
0
6
CONTINUOUS
10
40.920835
20
-75.747425
30
0.0
11
38.763505
21
-77.109385
31
0.0
0
LINE
8
0
6
CONTINUOUS
10
48.795725
20
-79.677385
30
0.0
11
48.264925
21
-77.627325
31
0.0
0
LINE
8
0
6
CONTINUOUS
10
38.763505
20
-77.109385
30
0.0
11
37.824425
21
-79.079315
31
0.0
0
LINE
8
0
6
CONTINUOUS
10
42.901785
20
-83.398325
30
0.0
11
45.699315
21
-83.009265
31
0.0
0
LINE
8
0
6
CONTINUOUS
10
48.264925
20
-77.627325
30
0.0
11
46.406485
21
-76.046455
31
0.0
0
LINE
8
0
6
CONTINUOUS
10
47.856645
20
-81.647305
30
0.0
11
48.795725
21
-79.677385
31
0.0
0
LINE
8
0
6
CONTINUOUS
10
37.824425
20
-79.079315
30
0.0
11
38.355215
21
-81.129365
31
0.0
0
LINE
8
0
6
CONTINUOUS
10
54.731455
20
-102.500825
30
0.0
11
48.844125
21
-79.863495
31
0.0
0
LINE
8
0
6
CONTINUOUS
10
32.499905
20
-106.820305
30
0.0
11
38.307465
21
-81.338865
31
0.0
0
LINE
8
0
6
CONTINUOUS
10
37.777795
20
-79.256525
30
0.0
11
32.107095
21
-100.811195
31
0.0
0
LINE
8
0
6
CONTINUOUS
10
29.258245
20
-121.234685
30
0.0
11
24.110035
21
-121.237285
31
0.0
0
LINE
8
0
6
CONTINUOUS
10
35.698905
20
-121.238305
30
0.0
11
29.258245
21
-121.234685
31
0.0
0
LINE
8
0
6
CONTINUOUS
10
42.945155
20
-121.245765
30
0.0
11
35.698905
21
-121.238305
31
0.0
0
LINE
8
0
6
CONTINUOUS
10
50.444115
20
-121.237315
30
0.0
11
42.945155
21
-121.245765
31
0.0
0
LINE
8
0
6
CONTINUOUS
10
57.583325
20
-121.242615
30
0.0
11
50.444115
21
-121.237315
31
0.0
0
LINE
8
0
6
CONTINUOUS
10
63.881075
20
-121.265955
30
0.0
11
57.583325
21
-121.242615
31
0.0
0
LINE
8
0
6
CONTINUOUS
10
68.922785
20
-121.283425
30
0.0
11
63.881075
21
-121.265955
31
0.0
0
LINE
8
0
6
CONTINUOUS
10
72.437565
20
-121.291425
30
0.0
11
68.922785
21
-121.283425
31
0.0
0
LINE
8
0
6
CONTINUOUS
10
74.145825
20
-121.306325
30
0.0
11
72.437565
21
-121.291425
31
0.0
0
LINE
8
0
6
CONTINUOUS
10
56.847495
20
-121.270245
30
0.0
11
63.309895
21
-121.277475
31
0.0
0
LINE
8
0
6
CONTINUOUS
10
24.110035
20
-121.237285
30
0.0
11
20.465115
21
-121.234945
31
0.0
0
LINE
8
0
6
CONTINUOUS
10
70.275515
20
-121.305075
30
0.0
11
73.005545
21
-121.305045
31
0.0
0
LINE
8
0
6
CONTINUOUS
10
65.957105
20
-121.285425
30
0.0
11
70.275515
21
-121.305075
31
0.0
0
LINE
8
0
6
CONTINUOUS
10
60.248445
20
-121.277775
30
0.0
11
65.957105
21
-121.285425
31
0.0
0
LINE
8
0
6
CONTINUOUS
10
53.503295
20
-121.272215
30
0.0
11
60.248445
21
-121.277775
31
0.0
0
LINE
8
0
6
CONTINUOUS
10
46.267515
20
-121.268775
30
0.0
11
53.503295
21
-121.272215
31
0.0
0
LINE
8
0
6
CONTINUOUS
10
39.005065
20
-121.257965
30
0.0
11
46.267515
21
-121.268775
31
0.0
0
LINE
8
0
6
CONTINUOUS
10
32.265095
20
-121.248825
30
0.0
11
39.005065
21
-121.257965
31
0.0
0
LINE
8
0
6
CONTINUOUS
10
26.523815
20
-121.244175
30
0.0
11
32.265095
21
-121.248825
31
0.0
0
LINE
8
0
6
CONTINUOUS
10
18.369265
20
-112.673215
30
0.0
11
18.314305
21
-120.780335
31
0.0
0
LINE
8
0
6
CONTINUOUS
10
74.095915
20
-120.859125
30
0.0
11
73.188235
21
-112.724935
31
0.0
0
LINE
8
0
6
CONTINUOUS
10
-73.561295
20
-16.100035
30
0.0
11
-72.185115
21
-17.562225
31
0.0
0
LINE
8
0
6
CONTINUOUS
10
-53.301705
20
-37.431985
30
0.0
11
-51.469445
21
-39.349885
31
0.0
0
LINE
8
0
6
CONTINUOUS
10
-67.665105
20
-22.329485
30
0.0
11
-64.742805
21
-25.404975
31
0.0
0
LINE
8
0
6
CONTINUOUS
10
-73.626935
20
-14.952705
30
0.0
11
-74.145825
21
-15.468215
31
0.0
0
LINE
8
0
6
CONTINUOUS
10
-74.145825
20
-15.468215
30
0.0
11
-73.561295
21
-16.100035
31
0.0
0
LINE
8
0
6
CONTINUOUS
10
-55.752675
20
-34.864405
30
0.0
11
-53.301705
21
-37.431985
31
0.0
0
LINE
8
0
6
CONTINUOUS
10
-70.192225
20
-19.671345
30
0.0
11
-67.665105
21
-22.329485
31
0.0
0
LINE
8
0
6
CONTINUOUS
10
-50.027045
20
-40.836325
30
0.0
11
-49.579355
21
-40.436385
31
0.0
0
LINE
8
0
6
CONTINUOUS
10
-50.314345
20
-40.554015
30
0.0
11
-50.027045
21
-40.836325
31
0.0
0
LINE
8
0
6
CONTINUOUS
10
-58.593395
20
-31.874715
30
0.0
11
-55.752675
21
-34.864405
31
0.0
0
LINE
8
0
6
CONTINUOUS
10
-61.698625
20
-28.609355
30
0.0
11
-58.593395
21
-31.874715
31
0.0
0
LINE
8
0
6
CONTINUOUS
10
-72.185115
20
-17.562225
30
0.0
11
-70.192225
21
-19.671345
31
0.0
0
LINE
8
0
6
CONTINUOUS
10
-51.469445
20
-39.349885
30
0.0
11
-50.314345
21
-40.554015
31
0.0
0
LINE
8
0
6
CONTINUOUS
10
-64.742805
20
-25.404975
30
0.0
11
-61.698625
21
-28.609355
31
0.0
0
LINE
8
0
6
CONTINUOUS
10
32.957185
20
116.961845
30
0.0
11
30.830875
21
112.374155
31
0.0
0
LINE
8
0
6
CONTINUOUS
10
69.446635
20
96.811735
30
0.0
11
71.108915
21
103.916325
31
0.0
0
LINE
8
0
6
CONTINUOUS
10
38.208785
20
110.292335
30
0.0
11
42.013475
21
107.692965
31
0.0
0
LINE
8
0
6
CONTINUOUS
10
53.131145
20
119.047675
30
0.0
11
48.131415
21
120.468615
31
0.0
0
LINE
8
0
6
CONTINUOUS
10
58.070835
20
117.076245
30
0.0
11
53.131145
21
119.047675
31
0.0
0
LINE
8
0
6
CONTINUOUS
10
62.585305
20
114.699475
30
0.0
11
58.070835
21
117.076245
31
0.0
0
LINE
8
0
6
CONTINUOUS
10
71.293615
20
104.705715
30
0.0
11
70.851395
21
106.937405
31
0.0
0
LINE
8
0
6
CONTINUOUS
10
70.851395
20
106.937405
30
0.0
11
69.194715
21
109.452915
31
0.0
0
LINE
8
0
6
CONTINUOUS
10
69.194715
20
109.452915
30
0.0
11
66.391095
21
112.100335
31
0.0
0
LINE
8
0
6
CONTINUOUS
10
66.391095
20
112.100335
30
0.0
11
62.585305
21
114.699475
31
0.0
0
LINE
8
0
6
CONTINUOUS
10
42.013475
20
107.692965
30
0.0
11
46.524915
21
105.314295
31
0.0
0
LINE
8
0
6
CONTINUOUS
10
46.524915
20
105.314295
30
0.0
11
51.464205
21
103.338475
31
0.0
0
LINE
8
0
6
CONTINUOUS
10
51.464205
20
103.338475
30
0.0
11
56.459505
21
101.927435
31
0.0
0
LINE
8
0
6
CONTINUOUS
10
56.459505
20
101.927435
30
0.0
11
61.157845
21
101.143955
31
0.0
0
LINE
8
0
6
CONTINUOUS
10
61.157845
20
101.143955
30
0.0
11
65.203915
21
101.073585
31
0.0
0
LINE
8
0
6
CONTINUOUS
10
65.203915
20
101.073585
30
0.0
11
68.378325
21
101.669485
31
0.0
0
LINE
8
0
6
CONTINUOUS
10
70.424775
20
102.921005
30
0.0
11
71.293615
21
104.705715
31
0.0
0
LINE
8
0
6
CONTINUOUS
10
68.378325
20
101.669485
30
0.0
11
70.424775
21
102.921005
31
0.0
0
LINE
8
0
6
CONTINUOUS
10
33.721065
20
115.456405
30
0.0
11
35.377775
21
112.940845
31
0.0
0
LINE
8
0
6
CONTINUOUS
10
33.276485
20
117.688175
30
0.0
11
33.721065
21
115.456405
31
0.0
0
LINE
8
0
6
CONTINUOUS
10
34.139265
20
119.476055
30
0.0
11
33.276485
21
117.688175
31
0.0
0
LINE
8
0
6
CONTINUOUS
10
35.377775
20
112.940845
30
0.0
11
38.208785
21
110.292335
31
0.0
0
LINE
8
0
6
CONTINUOUS
10
36.201305
20
120.720905
30
0.0
11
34.139265
21
119.476055
31
0.0
0
LINE
8
0
6
CONTINUOUS
10
39.393585
20
121.306325
30
0.0
11
36.201305
21
120.720905
31
0.0
0
LINE
8
0
6
CONTINUOUS
10
43.443335
20
121.234245
30
0.0
11
39.393585
21
121.306325
31
0.0
0
LINE
8
0
6
CONTINUOUS
10
48.131415
20
120.468615
30
0.0
11
43.443335
21
121.234245
31
0.0
0
LINE
8
0
6
CONTINUOUS
10
69.589155
20
-80.390285
30
0.0
11
67.650715
21
-61.681395
31
0.0
0
LINE
8
0
6
CONTINUOUS
10
18.367785
20
-104.257955
30
0.0
11
18.369265
21
-112.673215
31
0.0
0
LINE
8
0
6
CONTINUOUS
10
18.470176
20
-96.172925
30
0.0
11
18.470184
21
-96.120759
31
0.0
0
LINE
8
0
6
CONTINUOUS
10
18.470152
20
-96.332447
30
0.0
11
18.470176
21
-96.172925
31
0.0
0
LINE
8
0
6
CONTINUOUS
10
18.469182
20
-105.455275
30
0.0
11
18.483714
21
-105.032795
31
0.0
0
LINE
8
0
6
CONTINUOUS
10
18.536242
20
-81.255045
30
0.0
11
18.531312
21
-81.214273
31
0.0
0
ENDSEC
0
EOF
