999
Erzeugt mit innoplus bad 
0
SECTION
2
HEADER
9
$ACADVER
1
AC1009
9
$DWGCODEPAGE
3
ISO8859-1
0
ENDSEC
0
SECTION
2
TABLES
0
TABLE
2
LAYER
70
1
0
LAYER
2
0
70
0
62
7
6
CONTINUOUS
0
ENDTAB
0
ENDSEC
0
SECTION
2
ENTITIES
0
LINE
8
0
6
CONTINUOUS
10
-0.060154
20
0.074429
30
0.0
11
-0.061119
21
0.072624
31
0.0
0
LINE
8
0
6
CONTINUOUS
10
-0.061119
20
0.072624
30
0.0
11
-0.062004
21
0.069706
31
0.0
0
LINE
8
0
6
CONTINUOUS
10
-0.062004
20
0.069706
30
0.0
11
-0.062303
21
0.066671
31
0.0
0
LINE
8
0
6
CONTINUOUS
10
-0.031189
20
0.066671
30
0.0
11
-0.031333
21
0.068128
31
0.0
0
LINE
8
0
6
CONTINUOUS
10
-0.065503
20
0.093847
30
0.0
11
-0.065503
21
0.077107
31
0.0
0
LINE
8
0
6
CONTINUOUS
10
-0.065503
20
0.101980
30
0.0
11
-0.065503
21
0.100589
31
0.0
0
LINE
8
0
6
CONTINUOUS
10
-0.065503
20
0.100589
30
0.0
11
-0.065503
21
0.093847
31
0.0
0
LINE
8
0
6
CONTINUOUS
10
-0.026570
20
0.104078
30
0.0
11
-0.027759
21
0.104078
31
0.0
0
LINE
8
0
6
CONTINUOUS
10
-0.025288
20
0.094269
30
0.0
11
-0.019999
21
0.094350
31
0.0
0
LINE
8
0
6
CONTINUOUS
10
-0.019999
20
0.094350
30
0.0
11
0.031559
21
0.095146
31
0.0
0
LINE
8
0
6
CONTINUOUS
10
-0.027549
20
0.093110
30
0.0
11
-0.026996
21
0.093715
31
0.0
0
LINE
8
0
6
CONTINUOUS
10
-0.026996
20
0.093715
30
0.0
11
-0.026212
21
0.094076
31
0.0
0
LINE
8
0
6
CONTINUOUS
10
-0.027977
20
0.068650
30
0.0
11
-0.027977
21
0.091307
31
0.0
0
LINE
8
0
6
CONTINUOUS
10
-0.027977
20
0.091307
30
0.0
11
-0.027849
21
0.092278
31
0.0
0
LINE
8
0
6
CONTINUOUS
10
-0.029012
20
0.096250
30
0.0
11
-0.028577
21
0.100583
31
0.0
0
LINE
8
0
6
CONTINUOUS
10
-0.065503
20
0.103360
30
0.0
11
-0.065503
21
0.101980
31
0.0
0
LINE
8
0
6
CONTINUOUS
10
-0.065503
20
0.103849
30
0.0
11
-0.065503
21
0.103526
31
0.0
0
LINE
8
0
6
CONTINUOUS
10
0.032256
20
0.103526
30
0.0
11
0.032256
21
0.103849
31
0.0
0
LINE
8
0
6
CONTINUOUS
10
0.032256
20
0.101798
30
0.0
11
0.032256
21
0.103185
31
0.0
0
LINE
8
0
6
CONTINUOUS
10
0.032256
20
0.100224
30
0.0
11
0.032256
21
0.101798
31
0.0
0
LINE
8
0
6
CONTINUOUS
10
0.032256
20
0.098752
30
0.0
11
0.032256
21
0.100224
31
0.0
0
LINE
8
0
6
CONTINUOUS
10
0.032256
20
0.097448
30
0.0
11
0.032256
21
0.098752
31
0.0
0
LINE
8
0
6
CONTINUOUS
10
0.032256
20
0.096476
30
0.0
11
0.032256
21
0.097448
31
0.0
0
LINE
8
0
6
CONTINUOUS
10
0.032256
20
0.095850
30
0.0
11
0.032256
21
0.096476
31
0.0
0
LINE
8
0
6
CONTINUOUS
10
0.031854
20
0.095130
30
0.0
11
0.032031
21
0.095301
31
0.0
0
LINE
8
0
6
CONTINUOUS
10
0.032256
20
0.095634
30
0.0
11
0.032256
21
0.095850
31
0.0
0
LINE
8
0
6
CONTINUOUS
10
0.032031
20
0.095301
30
0.0
11
0.032256
21
0.095634
31
0.0
0
LINE
8
0
6
CONTINUOUS
10
-0.065503
20
0.103526
30
0.0
11
-0.065503
21
0.103360
31
0.0
0
LINE
8
0
6
CONTINUOUS
10
0.031854
20
0.097117
30
0.0
11
0.031854
21
0.098558
31
0.0
0
LINE
8
0
6
CONTINUOUS
10
0.031854
20
0.096058
30
0.0
11
0.031854
21
0.097117
31
0.0
0
LINE
8
0
6
CONTINUOUS
10
0.031854
20
0.095343
30
0.0
11
0.031854
21
0.096058
31
0.0
0
LINE
8
0
6
CONTINUOUS
10
0.031854
20
0.095130
30
0.0
11
0.031854
21
0.095343
31
0.0
0
LINE
8
0
6
CONTINUOUS
10
0.031559
20
0.095146
30
0.0
11
0.031854
21
0.095130
31
0.0
0
LINE
8
0
6
CONTINUOUS
10
0.032256
20
0.103185
30
0.0
11
0.032256
21
0.103526
31
0.0
0
LINE
8
0
6
CONTINUOUS
10
-0.027849
20
0.092278
30
0.0
11
-0.027549
21
0.093110
31
0.0
0
LINE
8
0
6
CONTINUOUS
10
-0.026519
20
0.103849
30
0.0
11
-0.027659
21
0.103849
31
0.0
0
LINE
8
0
6
CONTINUOUS
10
0.031559
20
0.104079
30
0.0
11
-0.019944
21
0.104078
31
0.0
0
LINE
8
0
6
CONTINUOUS
10
-0.029787
20
0.104078
30
0.0
11
-0.032054
21
0.104078
31
0.0
0
LINE
8
0
6
CONTINUOUS
10
-0.031882
20
0.103849
30
0.0
11
-0.029591
21
0.103849
31
0.0
0
LINE
8
0
6
CONTINUOUS
10
-0.038698
20
0.104078
30
0.0
11
-0.042786
21
0.104078
31
0.0
0
LINE
8
0
6
CONTINUOUS
10
-0.042737
20
0.103849
30
0.0
11
-0.038596
21
0.103849
31
0.0
0
LINE
8
0
6
CONTINUOUS
10
-0.029591
20
0.103849
30
0.0
11
-0.029111
21
0.103849
31
0.0
0
LINE
8
0
6
CONTINUOUS
10
-0.029285
20
0.104078
30
0.0
11
-0.029787
21
0.104078
31
0.0
0
LINE
8
0
6
CONTINUOUS
10
-0.027759
20
0.104078
30
0.0
11
-0.028664
21
0.104078
31
0.0
0
LINE
8
0
6
CONTINUOUS
10
-0.028523
20
0.103849
30
0.0
11
-0.027659
21
0.103849
31
0.0
0
LINE
8
0
6
CONTINUOUS
10
-0.028664
20
0.104078
30
0.0
11
-0.029285
21
0.104078
31
0.0
0
LINE
8
0
6
CONTINUOUS
10
-0.029111
20
0.103849
30
0.0
11
-0.028523
21
0.103849
31
0.0
0
LINE
8
0
6
CONTINUOUS
10
-0.019944
20
0.104078
30
0.0
11
-0.025288
21
0.104078
31
0.0
0
LINE
8
0
6
CONTINUOUS
10
-0.025288
20
0.103849
30
0.0
11
-0.019944
21
0.103849
31
0.0
0
LINE
8
0
6
CONTINUOUS
10
-0.025288
20
0.104078
30
0.0
11
-0.026570
21
0.104078
31
0.0
0
LINE
8
0
6
CONTINUOUS
10
-0.026519
20
0.103849
30
0.0
11
-0.025288
21
0.103849
31
0.0
0
LINE
8
0
6
CONTINUOUS
10
-0.035028
20
0.104078
30
0.0
11
-0.038698
21
0.104078
31
0.0
0
LINE
8
0
6
CONTINUOUS
10
-0.038596
20
0.103849
30
0.0
11
-0.034888
21
0.103849
31
0.0
0
LINE
8
0
6
CONTINUOUS
10
0.031786
20
0.104078
30
0.0
11
0.031559
21
0.104079
31
0.0
0
LINE
8
0
6
CONTINUOUS
10
-0.026212
20
0.094076
30
0.0
11
-0.025288
21
0.094269
31
0.0
0
LINE
8
0
6
CONTINUOUS
10
-0.065283
20
0.104078
30
0.0
11
-0.065503
21
0.103849
31
0.0
0
LINE
8
0
6
CONTINUOUS
10
-0.064812
20
0.104078
30
0.0
11
-0.065283
21
0.104078
31
0.0
0
LINE
8
0
6
CONTINUOUS
10
-0.065503
20
0.103849
30
0.0
11
-0.065026
21
0.103849
31
0.0
0
LINE
8
0
6
CONTINUOUS
10
-0.061203
20
0.104078
30
0.0
11
-0.063432
21
0.104078
31
0.0
0
LINE
8
0
6
CONTINUOUS
10
-0.063630
20
0.103849
30
0.0
11
-0.061374
21
0.103849
31
0.0
0
LINE
8
0
6
CONTINUOUS
10
-0.058241
20
0.104078
30
0.0
11
-0.061203
21
0.104078
31
0.0
0
LINE
8
0
6
CONTINUOUS
10
-0.061374
20
0.103849
30
0.0
11
-0.058377
21
0.103849
31
0.0
0
LINE
8
0
6
CONTINUOUS
10
-0.054722
20
0.104078
30
0.0
11
-0.058241
21
0.104078
31
0.0
0
LINE
8
0
6
CONTINUOUS
10
-0.058377
20
0.103849
30
0.0
11
-0.054817
21
0.103849
31
0.0
0
LINE
8
0
6
CONTINUOUS
10
-0.050795
20
0.104078
30
0.0
11
-0.054722
21
0.104078
31
0.0
0
LINE
8
0
6
CONTINUOUS
10
-0.054817
20
0.103849
30
0.0
11
-0.050844
21
0.103849
31
0.0
0
LINE
8
0
6
CONTINUOUS
10
-0.046664
20
0.104078
30
0.0
11
-0.050795
21
0.104078
31
0.0
0
LINE
8
0
6
CONTINUOUS
10
-0.050844
20
0.103849
30
0.0
11
-0.046665
21
0.103849
31
0.0
0
LINE
8
0
6
CONTINUOUS
10
-0.063432
20
0.104078
30
0.0
11
-0.064812
21
0.104078
31
0.0
0
LINE
8
0
6
CONTINUOUS
10
-0.065026
20
0.103849
30
0.0
11
-0.063630
21
0.103849
31
0.0
0
LINE
8
0
6
CONTINUOUS
10
-0.032054
20
0.104078
30
0.0
11
-0.035028
21
0.104078
31
0.0
0
LINE
8
0
6
CONTINUOUS
10
-0.034888
20
0.103849
30
0.0
11
-0.031882
21
0.103849
31
0.0
0
LINE
8
0
6
CONTINUOUS
10
-0.042786
20
0.104078
30
0.0
11
-0.046664
21
0.104078
31
0.0
0
LINE
8
0
6
CONTINUOUS
10
-0.046665
20
0.103849
30
0.0
11
-0.042737
21
0.103849
31
0.0
0
LINE
8
0
6
CONTINUOUS
10
0.031896
20
0.104078
30
0.0
11
0.031786
21
0.104078
31
0.0
0
LINE
8
0
6
CONTINUOUS
10
0.031854
20
0.103849
30
0.0
11
0.032031
21
0.103849
31
0.0
0
LINE
8
0
6
CONTINUOUS
10
0.031559
20
0.103849
30
0.0
11
-0.019944
21
0.103849
31
0.0
0
LINE
8
0
6
CONTINUOUS
10
0.031854
20
0.103849
30
0.0
11
0.031559
21
0.103849
31
0.0
0
LINE
8
0
6
CONTINUOUS
10
0.032043
20
0.104078
30
0.0
11
0.031896
21
0.104078
31
0.0
0
LINE
8
0
6
CONTINUOUS
10
0.032031
20
0.103849
30
0.0
11
0.032256
21
0.103849
31
0.0
0
LINE
8
0
6
CONTINUOUS
10
0.032049
20
0.104078
30
0.0
11
0.031951
21
0.104078
31
0.0
0
LINE
8
0
6
CONTINUOUS
10
0.031951
20
0.104078
30
0.0
11
0.031836
21
0.104078
31
0.0
0
LINE
8
0
6
CONTINUOUS
10
-0.038910
20
0.068173
30
0.0
11
-0.038596
21
0.068171
31
0.0
0
LINE
8
0
6
CONTINUOUS
10
-0.029538
20
0.068116
30
0.0
11
-0.029054
21
0.068112
31
0.0
0
LINE
8
0
6
CONTINUOUS
10
-0.031333
20
0.068128
30
0.0
11
-0.029538
21
0.068116
31
0.0
0
LINE
8
0
6
CONTINUOUS
10
0.031836
20
0.104078
30
0.0
11
0.031757
21
0.104078
31
0.0
0
LINE
8
0
6
CONTINUOUS
10
-0.029591
20
0.068164
30
0.0
11
-0.028849
21
0.068112
31
0.0
0
LINE
8
0
6
CONTINUOUS
10
-0.034888
20
0.068158
30
0.0
11
-0.031882
21
0.068176
31
0.0
0
LINE
8
0
6
CONTINUOUS
10
-0.038596
20
0.068171
30
0.0
11
-0.034888
21
0.068158
31
0.0
0
LINE
8
0
6
CONTINUOUS
10
-0.042737
20
0.068208
30
0.0
11
-0.038596
21
0.068171
31
0.0
0
LINE
8
0
6
CONTINUOUS
10
-0.054817
20
0.071979
30
0.0
11
-0.050844
21
0.070155
31
0.0
0
LINE
8
0
6
CONTINUOUS
10
-0.058377
20
0.073613
30
0.0
11
-0.054817
21
0.071979
31
0.0
0
LINE
8
0
6
CONTINUOUS
10
-0.061374
20
0.074989
30
0.0
11
-0.058377
21
0.073613
31
0.0
0
LINE
8
0
6
CONTINUOUS
10
-0.063630
20
0.076024
30
0.0
11
-0.061374
21
0.074989
31
0.0
0
LINE
8
0
6
CONTINUOUS
10
-0.065503
20
0.076884
30
0.0
11
-0.065026
21
0.076665
31
0.0
0
LINE
8
0
6
CONTINUOUS
10
-0.065503
20
0.077107
30
0.0
11
-0.065503
21
0.076884
31
0.0
0
LINE
8
0
6
CONTINUOUS
10
-0.065026
20
0.076665
30
0.0
11
-0.063630
21
0.076024
31
0.0
0
LINE
8
0
6
CONTINUOUS
10
-0.031882
20
0.068176
30
0.0
11
-0.029591
21
0.068164
31
0.0
0
LINE
8
0
6
CONTINUOUS
10
-0.028047
20
0.068110
30
0.0
11
-0.027977
21
0.068115
31
0.0
0
LINE
8
0
6
CONTINUOUS
10
-0.027977
20
0.068115
30
0.0
11
-0.027977
21
0.068650
31
0.0
0
LINE
8
0
6
CONTINUOUS
10
-0.028849
20
0.068112
30
0.0
11
-0.028344
21
0.068108
31
0.0
0
LINE
8
0
6
CONTINUOUS
10
-0.028344
20
0.068108
30
0.0
11
-0.028047
21
0.068110
31
0.0
0
LINE
8
0
6
CONTINUOUS
10
-0.046665
20
0.068237
30
0.0
11
-0.042737
21
0.068208
31
0.0
0
LINE
8
0
6
CONTINUOUS
10
-0.050844
20
0.070155
30
0.0
11
-0.046665
21
0.068237
31
0.0
0
LINE
8
0
6
CONTINUOUS
10
-0.064571
20
-0.096723
30
0.0
11
-0.064571
21
-0.097079
31
0.0
0
LINE
8
0
6
CONTINUOUS
10
-0.064571
20
-0.097079
30
0.0
11
-0.064972
21
-0.098579
31
0.0
0
LINE
8
0
6
CONTINUOUS
10
-0.026167
20
-0.098579
30
0.0
11
-0.026569
21
-0.097079
31
0.0
0
LINE
8
0
6
CONTINUOUS
10
0.059683
20
-0.013781
30
0.0
11
0.061495
21
-0.010643
31
0.0
0
LINE
8
0
6
CONTINUOUS
10
0.061495
20
-0.010643
30
0.0
11
0.063307
21
-0.007505
31
0.0
0
LINE
8
0
6
CONTINUOUS
10
-0.018263
20
0.019400
30
0.0
11
0.053490
21
-0.022184
31
0.0
0
LINE
8
0
6
CONTINUOUS
10
0.067490
20
0.002063
30
0.0
11
-0.023821
21
0.054781
31
0.0
0
LINE
8
0
6
CONTINUOUS
10
-0.026569
20
0.058098
30
0.0
11
-0.026570
21
0.065925
31
0.0
0
LINE
8
0
6
CONTINUOUS
10
-0.064571
20
0.053243
30
0.0
11
-0.064571
21
0.051759
31
0.0
0
LINE
8
0
6
CONTINUOUS
10
-0.023821
20
0.054781
30
0.0
11
-0.025069
21
0.055501
31
0.0
0
LINE
8
0
6
CONTINUOUS
10
-0.026569
20
0.013633
30
0.0
11
-0.026569
21
0.015374
31
0.0
0
LINE
8
0
6
CONTINUOUS
10
-0.064571
20
0.025787
30
0.0
11
-0.064571
21
-0.096723
31
0.0
0
LINE
8
0
6
CONTINUOUS
10
-0.026569
20
-0.096723
30
0.0
11
-0.026569
21
0.013633
31
0.0
0
LINE
8
0
6
CONTINUOUS
10
-0.064571
20
0.065925
30
0.0
11
-0.064571
21
0.053243
31
0.0
0
LINE
8
0
6
CONTINUOUS
10
-0.027462
20
0.066671
30
0.0
11
-0.028745
21
0.066671
31
0.0
0
LINE
8
0
6
CONTINUOUS
10
-0.019245
20
0.019970
30
0.0
11
-0.018263
21
0.019400
31
0.0
0
LINE
8
0
6
CONTINUOUS
10
-0.064571
20
0.047548
30
0.0
11
-0.064571
21
0.043338
31
0.0
0
LINE
8
0
6
CONTINUOUS
10
-0.064571
20
0.043338
30
0.0
11
-0.064571
21
0.037757
31
0.0
0
LINE
8
0
6
CONTINUOUS
10
-0.064571
20
0.037757
30
0.0
11
-0.064571
21
0.032424
31
0.0
0
LINE
8
0
6
CONTINUOUS
10
-0.064571
20
0.032424
30
0.0
11
-0.064571
21
0.028159
31
0.0
0
LINE
8
0
6
CONTINUOUS
10
-0.064571
20
0.051759
30
0.0
11
-0.064571
21
0.047548
31
0.0
0
LINE
8
0
6
CONTINUOUS
10
-0.031347
20
0.066671
30
0.0
11
-0.034775
21
0.066671
31
0.0
0
LINE
8
0
6
CONTINUOUS
10
-0.064571
20
0.028159
30
0.0
11
-0.064571
21
0.025787
31
0.0
0
LINE
8
0
6
CONTINUOUS
10
-0.026569
20
0.015374
30
0.0
11
-0.025426
21
0.018651
31
0.0
0
LINE
8
0
6
CONTINUOUS
10
-0.064571
20
0.066671
30
0.0
11
-0.064571
21
0.065925
31
0.0
0
LINE
8
0
6
CONTINUOUS
10
-0.064017
20
0.066671
30
0.0
11
-0.064571
21
0.066671
31
0.0
0
LINE
8
0
6
CONTINUOUS
10
0.055433
20
-0.021143
30
0.0
11
0.056546
21
-0.019216
31
0.0
0
LINE
8
0
6
CONTINUOUS
10
0.054495
20
-0.022767
30
0.0
11
0.054733
21
-0.022354
31
0.0
0
LINE
8
0
6
CONTINUOUS
10
0.053490
20
-0.022184
30
0.0
11
0.054495
21
-0.022767
31
0.0
0
LINE
8
0
6
CONTINUOUS
10
-0.026569
20
-0.097079
30
0.0
11
-0.026569
21
-0.096723
31
0.0
0
LINE
8
0
6
CONTINUOUS
10
0.056546
20
-0.019216
30
0.0
11
0.057996
21
-0.016705
31
0.0
0
LINE
8
0
6
CONTINUOUS
10
0.054733
20
-0.022354
30
0.0
11
0.055433
21
-0.021143
31
0.0
0
LINE
8
0
6
CONTINUOUS
10
0.067557
20
-0.000143
30
0.0
11
0.068257
21
0.001069
31
0.0
0
LINE
8
0
6
CONTINUOUS
10
-0.047859
20
0.066671
30
0.0
11
-0.052306
21
0.066671
31
0.0
0
LINE
8
0
6
CONTINUOUS
10
-0.026846
20
0.066671
30
0.0
11
-0.027462
21
0.066671
31
0.0
0
LINE
8
0
6
CONTINUOUS
10
-0.043279
20
0.066671
30
0.0
11
-0.047859
21
0.066671
31
0.0
0
LINE
8
0
6
CONTINUOUS
10
0.068495
20
0.001482
30
0.0
11
0.067490
21
0.002063
31
0.0
0
LINE
8
0
6
CONTINUOUS
10
0.068257
20
0.001069
30
0.0
11
0.068495
21
0.001482
31
0.0
0
LINE
8
0
6
CONTINUOUS
10
-0.052306
20
0.066671
30
0.0
11
-0.056362
21
0.066671
31
0.0
0
LINE
8
0
6
CONTINUOUS
10
-0.056362
20
0.066671
30
0.0
11
-0.059790
21
0.066671
31
0.0
0
LINE
8
0
6
CONTINUOUS
10
0.063307
20
-0.007505
30
0.0
11
0.064995
21
-0.004581
31
0.0
0
LINE
8
0
6
CONTINUOUS
10
-0.025755
20
0.056270
30
0.0
11
-0.026371
21
0.057096
31
0.0
0
LINE
8
0
6
CONTINUOUS
10
-0.026571
20
0.066671
30
0.0
11
-0.026846
21
0.066671
31
0.0
0
LINE
8
0
6
CONTINUOUS
10
-0.026570
20
0.065925
30
0.0
11
-0.026571
21
0.066671
31
0.0
0
LINE
8
0
6
CONTINUOUS
10
-0.028745
20
0.066671
30
0.0
11
-0.031347
21
0.066671
31
0.0
0
LINE
8
0
6
CONTINUOUS
10
0.064995
20
-0.004581
30
0.0
11
0.066446
21
-0.002069
31
0.0
0
LINE
8
0
6
CONTINUOUS
10
-0.034775
20
0.066671
30
0.0
11
-0.038831
21
0.066671
31
0.0
0
LINE
8
0
6
CONTINUOUS
10
-0.025069
20
0.055501
30
0.0
11
-0.025755
21
0.056270
31
0.0
0
LINE
8
0
6
CONTINUOUS
10
-0.059790
20
0.066671
30
0.0
11
-0.062393
21
0.066671
31
0.0
0
LINE
8
0
6
CONTINUOUS
10
-0.038831
20
0.066671
30
0.0
11
-0.043279
21
0.066671
31
0.0
0
LINE
8
0
6
CONTINUOUS
10
-0.022604
20
0.020267
30
0.0
11
-0.019245
21
0.019970
31
0.0
0
LINE
8
0
6
CONTINUOUS
10
0.066446
20
-0.002069
30
0.0
11
0.067557
21
-0.000143
31
0.0
0
LINE
8
0
6
CONTINUOUS
10
0.057996
20
-0.016705
30
0.0
11
0.059683
21
-0.013781
31
0.0
0
LINE
8
0
6
CONTINUOUS
10
-0.062393
20
0.066671
30
0.0
11
-0.064017
21
0.066671
31
0.0
0
LINE
8
0
6
CONTINUOUS
10
-0.027378
20
0.024431
30
0.0
11
-0.026096
21
0.020502
31
0.0
0
LINE
8
0
6
CONTINUOUS
10
-0.026096
20
0.020502
30
0.0
11
-0.025426
21
0.018651
31
0.0
0
LINE
8
0
6
CONTINUOUS
10
-0.022604
20
0.020267
30
0.0
11
-0.023381
21
0.021869
31
0.0
0
LINE
8
0
6
CONTINUOUS
10
-0.025426
20
0.018651
30
0.0
11
-0.022604
21
0.020267
31
0.0
0
LINE
8
0
6
CONTINUOUS
10
-0.026371
20
0.057096
30
0.0
11
-0.026569
21
0.058098
31
0.0
0
LINE
8
0
6
CONTINUOUS
10
-0.026726
20
0.029596
30
0.0
11
-0.029023
21
0.033848
31
0.0
0
LINE
8
0
6
CONTINUOUS
10
-0.023129
20
-0.100028
30
0.0
11
-0.025069
21
-0.099677
31
0.0
0
LINE
8
0
6
CONTINUOUS
10
-0.066071
20
-0.099677
30
0.0
11
-0.068010
21
-0.100028
31
0.0
0
LINE
8
0
6
CONTINUOUS
10
-0.022644
20
-0.103901
30
0.0
11
-0.022644
21
-0.100512
31
0.0
0
LINE
8
0
6
CONTINUOUS
10
-0.068495
20
-0.100512
30
0.0
11
-0.068495
21
-0.103901
31
0.0
0
LINE
8
0
6
CONTINUOUS
10
-0.022644
20
-0.100512
30
0.0
11
-0.022644
21
-0.100116
31
0.0
0
LINE
8
0
6
CONTINUOUS
10
-0.068495
20
-0.100116
30
0.0
11
-0.068495
21
-0.100512
31
0.0
0
LINE
8
0
6
CONTINUOUS
10
-0.025270
20
-0.104079
30
0.0
11
-0.023311
21
-0.104079
31
0.0
0
LINE
8
0
6
CONTINUOUS
10
-0.062728
20
-0.104079
30
0.0
11
-0.058592
21
-0.104079
31
0.0
0
LINE
8
0
6
CONTINUOUS
10
-0.028410
20
-0.104079
30
0.0
11
-0.025270
21
-0.104079
31
0.0
0
LINE
8
0
6
CONTINUOUS
10
-0.053698
20
-0.104079
30
0.0
11
-0.048332
21
-0.104079
31
0.0
0
LINE
8
0
6
CONTINUOUS
10
-0.032546
20
-0.104079
30
0.0
11
-0.028410
21
-0.104079
31
0.0
0
LINE
8
0
6
CONTINUOUS
10
-0.058592
20
-0.104079
30
0.0
11
-0.053698
21
-0.104079
31
0.0
0
LINE
8
0
6
CONTINUOUS
10
-0.048332
20
-0.104079
30
0.0
11
-0.042806
21
-0.104079
31
0.0
0
LINE
8
0
6
CONTINUOUS
10
-0.067827
20
-0.104079
30
0.0
11
-0.065868
21
-0.104079
31
0.0
0
LINE
8
0
6
CONTINUOUS
10
-0.022644
20
-0.104079
30
0.0
11
-0.022644
21
-0.103901
31
0.0
0
LINE
8
0
6
CONTINUOUS
10
-0.023311
20
-0.104079
30
0.0
11
-0.022644
21
-0.104079
31
0.0
0
LINE
8
0
6
CONTINUOUS
10
-0.037440
20
-0.104079
30
0.0
11
-0.032546
21
-0.104079
31
0.0
0
LINE
8
0
6
CONTINUOUS
10
-0.065868
20
-0.104079
30
0.0
11
-0.062728
21
-0.104079
31
0.0
0
LINE
8
0
6
CONTINUOUS
10
-0.068495
20
-0.104079
30
0.0
11
-0.067827
21
-0.104079
31
0.0
0
LINE
8
0
6
CONTINUOUS
10
-0.068495
20
-0.103901
30
0.0
11
-0.068495
21
-0.104079
31
0.0
0
LINE
8
0
6
CONTINUOUS
10
-0.042806
20
-0.104079
30
0.0
11
-0.037440
21
-0.104079
31
0.0
0
LINE
8
0
6
CONTINUOUS
10
-0.028410
20
-0.100116
30
0.0
11
-0.025270
21
-0.100116
31
0.0
0
LINE
8
0
6
CONTINUOUS
10
-0.025270
20
-0.100116
30
0.0
11
-0.023311
21
-0.100116
31
0.0
0
LINE
8
0
6
CONTINUOUS
10
-0.062728
20
-0.100116
30
0.0
11
-0.058592
21
-0.100116
31
0.0
0
LINE
8
0
6
CONTINUOUS
10
-0.032546
20
-0.100116
30
0.0
11
-0.028410
21
-0.100116
31
0.0
0
LINE
8
0
6
CONTINUOUS
10
-0.058592
20
-0.100116
30
0.0
11
-0.053698
21
-0.100116
31
0.0
0
LINE
8
0
6
CONTINUOUS
10
-0.053698
20
-0.100116
30
0.0
11
-0.048332
21
-0.100116
31
0.0
0
LINE
8
0
6
CONTINUOUS
10
-0.067827
20
-0.100116
30
0.0
11
-0.065868
21
-0.100116
31
0.0
0
LINE
8
0
6
CONTINUOUS
10
-0.022644
20
-0.100116
30
0.0
11
-0.023129
21
-0.100028
31
0.0
0
LINE
8
0
6
CONTINUOUS
10
-0.023311
20
-0.100116
30
0.0
11
-0.022644
21
-0.100116
31
0.0
0
LINE
8
0
6
CONTINUOUS
10
-0.048332
20
-0.100116
30
0.0
11
-0.042806
21
-0.100116
31
0.0
0
LINE
8
0
6
CONTINUOUS
10
-0.042806
20
-0.100116
30
0.0
11
-0.037440
21
-0.100116
31
0.0
0
LINE
8
0
6
CONTINUOUS
10
-0.037440
20
-0.100116
30
0.0
11
-0.032546
21
-0.100116
31
0.0
0
LINE
8
0
6
CONTINUOUS
10
-0.065868
20
-0.100116
30
0.0
11
-0.062728
21
-0.100116
31
0.0
0
LINE
8
0
6
CONTINUOUS
10
-0.068495
20
-0.100116
30
0.0
11
-0.067827
21
-0.100116
31
0.0
0
LINE
8
0
6
CONTINUOUS
10
-0.068010
20
-0.100028
30
0.0
11
-0.068495
21
-0.100116
31
0.0
0
LINE
8
0
6
CONTINUOUS
10
-0.025069
20
-0.099677
30
0.0
11
-0.026167
21
-0.098579
31
0.0
0
LINE
8
0
6
CONTINUOUS
10
-0.064972
20
-0.098579
30
0.0
11
-0.066071
21
-0.099677
31
0.0
0
ENDSEC
0
EOF
