999
Erzeugt mit innoplus bad 
0
SECTION
2
HEADER
9
$ACADVER
1
AC1009
9
$DWGCODEPAGE
3
ISO8859-1
0
ENDSEC
0
SECTION
2
TABLES
0
TABLE
2
LAYER
70
1
0
LAYER
2
0
70
0
62
7
6
CONTINUOUS
0
ENDTAB
0
ENDSEC
0
SECTION
2
ENTITIES
0
LINE
8
0
6
CONTINUOUS
10
-0.016899
20
0.031060
30
0.0
11
-0.014377
21
0.027351
31
0.0
0
LINE
8
0
6
CONTINUOUS
10
-0.016899
20
0.031060
30
0.0
11
-0.014549
21
0.027351
31
0.0
0
LINE
8
0
6
CONTINUOUS
10
-0.014454
20
0.027351
30
0.0
11
-0.011546
21
0.024345
31
0.0
0
LINE
8
0
6
CONTINUOUS
10
-0.016899
20
0.031060
30
0.0
11
-0.014454
21
0.027351
31
0.0
0
LINE
8
0
6
CONTINUOUS
10
-0.004549
20
0.012412
30
0.0
11
-0.004504
21
-0.039096
31
0.0
0
LINE
8
0
6
CONTINUOUS
10
-0.004672
20
0.020122
30
0.0
11
-0.004489
21
0.018982
31
0.0
0
LINE
8
0
6
CONTINUOUS
10
-0.011397
20
0.024345
30
0.0
11
-0.007532
21
0.022054
31
0.0
0
LINE
8
0
6
CONTINUOUS
10
-0.011546
20
0.024345
30
0.0
11
-0.007532
21
0.022054
31
0.0
0
LINE
8
0
6
CONTINUOUS
10
-0.006493
20
0.021509
30
0.0
11
-0.005457
21
0.020948
31
0.0
0
LINE
8
0
6
CONTINUOUS
10
-0.016899
20
0.031060
30
0.0
11
-0.014296
21
0.027351
31
0.0
0
LINE
8
0
6
CONTINUOUS
10
-0.005457
20
0.020948
30
0.0
11
-0.004685
21
0.020066
31
0.0
0
LINE
8
0
6
CONTINUOUS
10
-0.004553
20
0.017751
30
0.0
11
-0.004549
21
0.012412
31
0.0
0
LINE
8
0
6
CONTINUOUS
10
-0.004537
20
0.018973
30
0.0
11
-0.004553
21
0.017751
31
0.0
0
LINE
8
0
6
CONTINUOUS
10
-0.006416
20
0.021571
30
0.0
11
-0.007532
21
0.022054
31
0.0
0
LINE
8
0
6
CONTINUOUS
10
-0.007532
20
0.022054
30
0.0
11
-0.006493
21
0.021509
31
0.0
0
LINE
8
0
6
CONTINUOUS
10
-0.007532
20
0.022054
30
0.0
11
-0.006416
21
0.021571
31
0.0
0
LINE
8
0
6
CONTINUOUS
10
-0.004713
20
0.020110
30
0.0
11
-0.004537
21
0.018973
31
0.0
0
LINE
8
0
6
CONTINUOUS
10
-0.004274
20
-0.039096
30
0.0
11
-0.004282
21
0.012408
31
0.0
0
LINE
8
0
6
CONTINUOUS
10
-0.004500
20
0.012408
30
0.0
11
-0.004492
21
-0.039096
31
0.0
0
LINE
8
0
6
CONTINUOUS
10
-0.011372
20
0.024345
30
0.0
11
-0.007532
21
0.022054
31
0.0
0
LINE
8
0
6
CONTINUOUS
10
-0.018324
20
0.035200
30
0.0
11
-0.016899
21
0.031060
31
0.0
0
LINE
8
0
6
CONTINUOUS
10
-0.007532
20
0.022054
30
0.0
11
-0.006405
21
0.021575
31
0.0
0
LINE
8
0
6
CONTINUOUS
10
-0.005356
20
0.020986
30
0.0
11
-0.004672
21
0.020122
31
0.0
0
LINE
8
0
6
CONTINUOUS
10
-0.006405
20
0.021575
30
0.0
11
-0.005356
21
0.020986
31
0.0
0
LINE
8
0
6
CONTINUOUS
10
-0.004504
20
0.017751
30
0.0
11
-0.004500
21
0.012408
31
0.0
0
LINE
8
0
6
CONTINUOUS
10
-0.004286
20
0.017751
30
0.0
11
-0.004270
21
0.019033
31
0.0
0
LINE
8
0
6
CONTINUOUS
10
-0.004489
20
0.018982
30
0.0
11
-0.004504
21
0.017751
31
0.0
0
LINE
8
0
6
CONTINUOUS
10
-0.002780
20
-0.039792
30
0.0
11
-0.001390
21
-0.039792
31
0.0
0
LINE
8
0
6
CONTINUOUS
10
-0.016899
20
0.031060
30
0.0
11
-0.014238
21
0.027351
31
0.0
0
LINE
8
0
6
CONTINUOUS
10
-0.001390
20
-0.039792
30
0.0
11
-0.000060
21
-0.039792
31
0.0
0
LINE
8
0
6
CONTINUOUS
10
-0.004492
20
-0.039096
30
0.0
11
-0.004492
21
-0.039390
31
0.0
0
LINE
8
0
6
CONTINUOUS
10
-0.000060
20
0.057966
30
0.0
11
-0.004229
21
0.057490
31
0.0
0
LINE
8
0
6
CONTINUOUS
10
-0.008190
20
0.056093
30
0.0
11
-0.011738
21
0.053837
31
0.0
0
LINE
8
0
6
CONTINUOUS
10
-0.011738
20
0.053837
30
0.0
11
-0.014688
21
0.050840
31
0.0
0
LINE
8
0
6
CONTINUOUS
10
-0.014688
20
0.050840
30
0.0
11
-0.016903
21
0.047280
31
0.0
0
LINE
8
0
6
CONTINUOUS
10
-0.016903
20
0.047280
30
0.0
11
-0.018281
21
0.043307
31
0.0
0
LINE
8
0
6
CONTINUOUS
10
-0.018281
20
0.043307
30
0.0
11
-0.018771
21
0.039128
31
0.0
0
LINE
8
0
6
CONTINUOUS
10
-0.004229
20
0.057490
30
0.0
11
-0.008190
21
0.056093
31
0.0
0
LINE
8
0
6
CONTINUOUS
10
-0.014238
20
0.027351
30
0.0
11
-0.011372
21
0.024345
31
0.0
0
LINE
8
0
6
CONTINUOUS
10
-0.018771
20
0.039128
30
0.0
11
-0.018324
21
0.035200
31
0.0
0
LINE
8
0
6
CONTINUOUS
10
-0.004492
20
-0.039390
30
0.0
11
-0.004371
21
-0.039568
31
0.0
0
LINE
8
0
6
CONTINUOUS
10
-0.004371
20
-0.039568
30
0.0
11
-0.004167
21
-0.039792
31
0.0
0
LINE
8
0
6
CONTINUOUS
10
-0.004071
20
-0.039792
30
0.0
11
-0.002780
21
-0.039792
31
0.0
0
LINE
8
0
6
CONTINUOUS
10
-0.011235
20
0.024517
30
0.0
11
-0.007434
21
0.022250
31
0.0
0
LINE
8
0
6
CONTINUOUS
10
-0.018110
20
0.035249
30
0.0
11
-0.016703
21
0.031161
31
0.0
0
LINE
8
0
6
CONTINUOUS
10
-0.007434
20
0.022250
30
0.0
11
-0.006260
21
0.021748
31
0.0
0
LINE
8
0
6
CONTINUOUS
10
-0.005170
20
0.021127
30
0.0
11
-0.004460
21
0.020222
31
0.0
0
LINE
8
0
6
CONTINUOUS
10
-0.006260
20
0.021748
30
0.0
11
-0.005170
21
0.021127
31
0.0
0
LINE
8
0
6
CONTINUOUS
10
-0.004286
20
0.017751
30
0.0
11
-0.004282
21
0.012408
31
0.0
0
LINE
8
0
6
CONTINUOUS
10
-0.004460
20
0.020222
30
0.0
11
-0.004270
21
0.019033
31
0.0
0
LINE
8
0
6
CONTINUOUS
10
-0.002779
20
-0.039583
30
0.0
11
-0.001389
21
-0.039586
31
0.0
0
LINE
8
0
6
CONTINUOUS
10
-0.016703
20
0.031161
30
0.0
11
-0.014070
21
0.027491
31
0.0
0
LINE
8
0
6
CONTINUOUS
10
-0.001389
20
-0.039586
30
0.0
11
-0.000060
21
-0.039588
31
0.0
0
LINE
8
0
6
CONTINUOUS
10
-0.004274
20
-0.039096
30
0.0
11
-0.004274
21
-0.039323
31
0.0
0
LINE
8
0
6
CONTINUOUS
10
-0.000060
20
0.057746
30
0.0
11
-0.004179
21
0.057275
31
0.0
0
LINE
8
0
6
CONTINUOUS
10
-0.008094
20
0.055895
30
0.0
11
-0.011600
21
0.053666
31
0.0
0
LINE
8
0
6
CONTINUOUS
10
-0.011600
20
0.053666
30
0.0
11
-0.014516
21
0.050704
31
0.0
0
LINE
8
0
6
CONTINUOUS
10
-0.014516
20
0.050704
30
0.0
11
-0.016704
21
0.047185
31
0.0
0
LINE
8
0
6
CONTINUOUS
10
-0.016704
20
0.047185
30
0.0
11
-0.018067
21
0.043258
31
0.0
0
LINE
8
0
6
CONTINUOUS
10
-0.018067
20
0.043258
30
0.0
11
-0.018552
21
0.039127
31
0.0
0
LINE
8
0
6
CONTINUOUS
10
-0.004179
20
0.057275
30
0.0
11
-0.008094
21
0.055895
31
0.0
0
LINE
8
0
6
CONTINUOUS
10
-0.014070
20
0.027491
30
0.0
11
-0.011235
21
0.024517
31
0.0
0
LINE
8
0
6
CONTINUOUS
10
-0.018552
20
0.039127
30
0.0
11
-0.018110
21
0.035249
31
0.0
0
LINE
8
0
6
CONTINUOUS
10
-0.004274
20
-0.039323
30
0.0
11
-0.004199
21
-0.039433
31
0.0
0
LINE
8
0
6
CONTINUOUS
10
-0.004199
20
-0.039433
30
0.0
11
-0.004070
21
-0.039580
31
0.0
0
LINE
8
0
6
CONTINUOUS
10
-0.003980
20
-0.039581
30
0.0
11
-0.002779
21
-0.039583
31
0.0
0
LINE
8
0
6
CONTINUOUS
10
-0.003980
20
-0.039581
30
0.0
11
-0.004070
21
-0.039580
31
0.0
0
LINE
8
0
6
CONTINUOUS
10
-0.004167
20
-0.039792
30
0.0
11
-0.004071
21
-0.039792
31
0.0
0
LINE
8
0
6
CONTINUOUS
10
-0.016899
20
0.031060
30
0.0
11
-0.014554
21
0.027351
31
0.0
0
LINE
8
0
6
CONTINUOUS
10
0.014257
20
0.027351
30
0.0
11
0.016779
21
0.031060
31
0.0
0
LINE
8
0
6
CONTINUOUS
10
0.014429
20
0.027351
30
0.0
11
0.016779
21
0.031060
31
0.0
0
LINE
8
0
6
CONTINUOUS
10
0.011427
20
0.024345
30
0.0
11
0.014334
21
0.027351
31
0.0
0
LINE
8
0
6
CONTINUOUS
10
0.004384
20
-0.039096
30
0.0
11
0.004429
21
0.012412
31
0.0
0
LINE
8
0
6
CONTINUOUS
10
0.007412
20
0.022054
30
0.0
11
0.011277
21
0.024345
31
0.0
0
LINE
8
0
6
CONTINUOUS
10
0.007412
20
0.022054
30
0.0
11
0.011427
21
0.024345
31
0.0
0
LINE
8
0
6
CONTINUOUS
10
0.005337
20
0.020948
30
0.0
11
0.006373
21
0.021509
31
0.0
0
LINE
8
0
6
CONTINUOUS
10
0.014176
20
0.027351
30
0.0
11
0.016779
21
0.031060
31
0.0
0
LINE
8
0
6
CONTINUOUS
10
0.004565
20
0.020066
30
0.0
11
0.005337
21
0.020948
31
0.0
0
LINE
8
0
6
CONTINUOUS
10
0.004429
20
0.012412
30
0.0
11
0.004433
21
0.017751
31
0.0
0
LINE
8
0
6
CONTINUOUS
10
0.004433
20
0.017751
30
0.0
11
0.004418
21
0.018973
31
0.0
0
LINE
8
0
6
CONTINUOUS
10
0.007412
20
0.022054
30
0.0
11
0.006296
21
0.021571
31
0.0
0
LINE
8
0
6
CONTINUOUS
10
0.006373
20
0.021509
30
0.0
11
0.007412
21
0.022054
31
0.0
0
LINE
8
0
6
CONTINUOUS
10
0.006296
20
0.021571
30
0.0
11
0.007412
21
0.022054
31
0.0
0
LINE
8
0
6
CONTINUOUS
10
0.004418
20
0.018973
30
0.0
11
0.004593
21
0.020110
31
0.0
0
LINE
8
0
6
CONTINUOUS
10
0.004552
20
0.020122
30
0.0
11
0.004369
21
0.018982
31
0.0
0
LINE
8
0
6
CONTINUOUS
10
0.004373
20
-0.039096
30
0.0
11
0.004380
21
0.012408
31
0.0
0
LINE
8
0
6
CONTINUOUS
10
0.004162
20
0.012408
30
0.0
11
0.004154
21
-0.039096
31
0.0
0
LINE
8
0
6
CONTINUOUS
10
0.007412
20
0.022054
30
0.0
11
0.011253
21
0.024345
31
0.0
0
LINE
8
0
6
CONTINUOUS
10
0.016779
20
0.031060
30
0.0
11
0.018205
21
0.035200
31
0.0
0
LINE
8
0
6
CONTINUOUS
10
0.006285
20
0.021575
30
0.0
11
0.007412
21
0.022054
31
0.0
0
LINE
8
0
6
CONTINUOUS
10
0.004552
20
0.020122
30
0.0
11
0.005236
21
0.020986
31
0.0
0
LINE
8
0
6
CONTINUOUS
10
0.005236
20
0.020986
30
0.0
11
0.006285
21
0.021575
31
0.0
0
LINE
8
0
6
CONTINUOUS
10
0.004380
20
0.012408
30
0.0
11
0.004384
21
0.017751
31
0.0
0
LINE
8
0
6
CONTINUOUS
10
0.004384
20
0.017751
30
0.0
11
0.004369
21
0.018982
31
0.0
0
LINE
8
0
6
CONTINUOUS
10
0.004150
20
0.019033
30
0.0
11
0.004166
21
0.017751
31
0.0
0
LINE
8
0
6
CONTINUOUS
10
0.001270
20
-0.039792
30
0.0
11
0.002660
21
-0.039792
31
0.0
0
LINE
8
0
6
CONTINUOUS
10
0.014118
20
0.027351
30
0.0
11
0.016779
21
0.031060
31
0.0
0
LINE
8
0
6
CONTINUOUS
10
-0.000060
20
-0.039792
30
0.0
11
0.001270
21
-0.039792
31
0.0
0
LINE
8
0
6
CONTINUOUS
10
0.004372
20
-0.039390
30
0.0
11
0.004373
21
-0.039096
31
0.0
0
LINE
8
0
6
CONTINUOUS
10
0.004109
20
0.057490
30
0.0
11
-0.000060
21
0.057966
31
0.0
0
LINE
8
0
6
CONTINUOUS
10
0.011619
20
0.053837
30
0.0
11
0.008071
21
0.056093
31
0.0
0
LINE
8
0
6
CONTINUOUS
10
0.014569
20
0.050840
30
0.0
11
0.011619
21
0.053837
31
0.0
0
LINE
8
0
6
CONTINUOUS
10
0.016783
20
0.047280
30
0.0
11
0.014569
21
0.050840
31
0.0
0
LINE
8
0
6
CONTINUOUS
10
0.018162
20
0.043307
30
0.0
11
0.016783
21
0.047280
31
0.0
0
LINE
8
0
6
CONTINUOUS
10
0.018652
20
0.039128
30
0.0
11
0.018162
21
0.043307
31
0.0
0
LINE
8
0
6
CONTINUOUS
10
0.008071
20
0.056093
30
0.0
11
0.004109
21
0.057490
31
0.0
0
LINE
8
0
6
CONTINUOUS
10
0.011253
20
0.024345
30
0.0
11
0.014118
21
0.027351
31
0.0
0
LINE
8
0
6
CONTINUOUS
10
0.018205
20
0.035200
30
0.0
11
0.018652
21
0.039128
31
0.0
0
LINE
8
0
6
CONTINUOUS
10
0.004251
20
-0.039568
30
0.0
11
0.004372
21
-0.039390
31
0.0
0
LINE
8
0
6
CONTINUOUS
10
0.004047
20
-0.039792
30
0.0
11
0.004251
21
-0.039568
31
0.0
0
LINE
8
0
6
CONTINUOUS
10
0.002660
20
-0.039792
30
0.0
11
0.003951
21
-0.039792
31
0.0
0
LINE
8
0
6
CONTINUOUS
10
0.007314
20
0.022250
30
0.0
11
0.011116
21
0.024517
31
0.0
0
LINE
8
0
6
CONTINUOUS
10
0.016583
20
0.031161
30
0.0
11
0.017991
21
0.035249
31
0.0
0
LINE
8
0
6
CONTINUOUS
10
0.006140
20
0.021748
30
0.0
11
0.007314
21
0.022250
31
0.0
0
LINE
8
0
6
CONTINUOUS
10
0.004340
20
0.020222
30
0.0
11
0.005050
21
0.021127
31
0.0
0
LINE
8
0
6
CONTINUOUS
10
0.005050
20
0.021127
30
0.0
11
0.006140
21
0.021748
31
0.0
0
LINE
8
0
6
CONTINUOUS
10
0.004162
20
0.012408
30
0.0
11
0.004166
21
0.017751
31
0.0
0
LINE
8
0
6
CONTINUOUS
10
0.004150
20
0.019033
30
0.0
11
0.004340
21
0.020222
31
0.0
0
LINE
8
0
6
CONTINUOUS
10
0.001269
20
-0.039586
30
0.0
11
0.002659
21
-0.039583
31
0.0
0
LINE
8
0
6
CONTINUOUS
10
0.013950
20
0.027491
30
0.0
11
0.016583
21
0.031161
31
0.0
0
LINE
8
0
6
CONTINUOUS
10
-0.000060
20
-0.039588
30
0.0
11
0.001269
21
-0.039586
31
0.0
0
LINE
8
0
6
CONTINUOUS
10
0.004154
20
-0.039323
30
0.0
11
0.004154
21
-0.039096
31
0.0
0
LINE
8
0
6
CONTINUOUS
10
0.004060
20
0.057275
30
0.0
11
-0.000060
21
0.057746
31
0.0
0
LINE
8
0
6
CONTINUOUS
10
0.011481
20
0.053666
30
0.0
11
0.007975
21
0.055895
31
0.0
0
LINE
8
0
6
CONTINUOUS
10
0.014396
20
0.050704
30
0.0
11
0.011481
21
0.053666
31
0.0
0
LINE
8
0
6
CONTINUOUS
10
0.016585
20
0.047185
30
0.0
11
0.014396
21
0.050704
31
0.0
0
LINE
8
0
6
CONTINUOUS
10
0.017948
20
0.043258
30
0.0
11
0.016585
21
0.047185
31
0.0
0
LINE
8
0
6
CONTINUOUS
10
0.018432
20
0.039127
30
0.0
11
0.017948
21
0.043258
31
0.0
0
LINE
8
0
6
CONTINUOUS
10
0.007975
20
0.055895
30
0.0
11
0.004060
21
0.057275
31
0.0
0
LINE
8
0
6
CONTINUOUS
10
0.011116
20
0.024517
30
0.0
11
0.013950
21
0.027491
31
0.0
0
LINE
8
0
6
CONTINUOUS
10
0.017991
20
0.035249
30
0.0
11
0.018432
21
0.039127
31
0.0
0
LINE
8
0
6
CONTINUOUS
10
0.004079
20
-0.039433
30
0.0
11
0.004154
21
-0.039323
31
0.0
0
LINE
8
0
6
CONTINUOUS
10
0.003951
20
-0.039580
30
0.0
11
0.004079
21
-0.039433
31
0.0
0
LINE
8
0
6
CONTINUOUS
10
0.002659
20
-0.039583
30
0.0
11
0.003860
21
-0.039581
31
0.0
0
LINE
8
0
6
CONTINUOUS
10
0.003951
20
-0.039792
30
0.0
11
0.004047
21
-0.039792
31
0.0
0
LINE
8
0
6
CONTINUOUS
10
0.003951
20
-0.039580
30
0.0
11
0.003860
21
-0.039581
31
0.0
0
LINE
8
0
6
CONTINUOUS
10
0.014434
20
0.027351
30
0.0
11
0.016779
21
0.031060
31
0.0
0
LINE
8
0
6
CONTINUOUS
10
0.018861
20
0.040322
30
0.0
11
0.017765
21
0.044769
31
0.0
0
LINE
8
0
6
CONTINUOUS
10
0.018861
20
0.035742
30
0.0
11
0.018861
21
0.040322
31
0.0
0
LINE
8
0
6
CONTINUOUS
10
0.005639
20
0.019925
30
0.0
11
0.008830
21
0.021208
31
0.0
0
LINE
8
0
6
CONTINUOUS
10
0.017765
20
0.031295
30
0.0
11
0.018861
21
0.035742
31
0.0
0
LINE
8
0
6
CONTINUOUS
10
0.015637
20
0.027239
30
0.0
11
0.017765
21
0.031295
31
0.0
0
LINE
8
0
6
CONTINUOUS
10
0.012599
20
0.023810
30
0.0
11
0.015637
21
0.027239
31
0.0
0
LINE
8
0
6
CONTINUOUS
10
-0.018861
20
0.040322
30
0.0
11
-0.018861
21
0.035742
31
0.0
0
LINE
8
0
6
CONTINUOUS
10
-0.008830
20
0.021208
30
0.0
11
-0.005639
21
0.019925
31
0.0
0
LINE
8
0
6
CONTINUOUS
10
-0.018861
20
0.035742
30
0.0
11
-0.017765
21
0.031295
31
0.0
0
LINE
8
0
6
CONTINUOUS
10
-0.017765
20
0.031295
30
0.0
11
-0.015637
21
0.027239
31
0.0
0
LINE
8
0
6
CONTINUOUS
10
-0.015637
20
0.027239
30
0.0
11
-0.012599
21
0.023810
31
0.0
0
LINE
8
0
6
CONTINUOUS
10
0.013999
20
-0.069032
30
0.0
11
0.013999
21
-0.068028
31
0.0
0
LINE
8
0
6
CONTINUOUS
10
0.013523
20
-0.070844
30
0.0
11
0.013999
21
-0.069032
31
0.0
0
LINE
8
0
6
CONTINUOUS
10
-0.014000
20
-0.069032
30
0.0
11
-0.013523
21
-0.070844
31
0.0
0
LINE
8
0
6
CONTINUOUS
10
-0.014000
20
-0.068028
30
0.0
11
-0.014000
21
-0.069032
31
0.0
0
LINE
8
0
6
CONTINUOUS
10
0.013999
20
-0.068028
30
0.0
11
0.013997
21
0.022589
31
0.0
0
LINE
8
0
6
CONTINUOUS
10
0.006035
20
0.020047
30
0.0
11
0.008861
21
0.021225
31
0.0
0
LINE
8
0
6
CONTINUOUS
10
0.005670
20
0.019934
30
0.0
11
0.006035
21
0.020047
31
0.0
0
LINE
8
0
6
CONTINUOUS
10
-0.008861
20
0.021225
30
0.0
11
-0.006035
21
0.020047
31
0.0
0
LINE
8
0
6
CONTINUOUS
10
-0.006035
20
0.020047
30
0.0
11
-0.005670
21
0.019934
31
0.0
0
LINE
8
0
6
CONTINUOUS
10
0.009267
20
0.021446
30
0.0
11
0.009314
21
0.021472
31
0.0
0
LINE
8
0
6
CONTINUOUS
10
-0.009314
20
0.021472
30
0.0
11
-0.009267
21
0.021446
31
0.0
0
LINE
8
0
6
CONTINUOUS
10
-0.013997
20
0.022589
30
0.0
11
-0.014000
21
-0.068028
31
0.0
0
LINE
8
0
6
CONTINUOUS
10
0.008861
20
0.021225
30
0.0
11
0.009267
21
0.021446
31
0.0
0
LINE
8
0
6
CONTINUOUS
10
-0.009267
20
0.021446
30
0.0
11
-0.008861
21
0.021225
31
0.0
0
LINE
8
0
6
CONTINUOUS
10
0.014826
20
0.026150
30
0.0
11
0.015637
21
0.027239
31
0.0
0
LINE
8
0
6
CONTINUOUS
10
0.014270
20
0.025491
30
0.0
11
0.015637
21
0.027239
31
0.0
0
LINE
8
0
6
CONTINUOUS
10
0.014410
20
0.025425
30
0.0
11
0.014826
21
0.026150
31
0.0
0
LINE
8
0
6
CONTINUOUS
10
0.014113
20
0.024655
30
0.0
11
0.014410
21
0.025425
31
0.0
0
LINE
8
0
6
CONTINUOUS
10
0.013997
20
0.022589
30
0.0
11
0.013997
21
0.023828
31
0.0
0
LINE
8
0
6
CONTINUOUS
10
0.003623
20
-0.075793
30
0.0
11
0.007000
21
-0.075094
31
0.0
0
LINE
8
0
6
CONTINUOUS
10
-0.000000
20
-0.076032
30
0.0
11
0.003623
21
-0.075793
31
0.0
0
LINE
8
0
6
CONTINUOUS
10
0.012124
20
-0.072532
30
0.0
11
0.013523
21
-0.070844
31
0.0
0
LINE
8
0
6
CONTINUOUS
10
0.012599
20
0.023810
30
0.0
11
0.008830
21
0.021208
31
0.0
0
LINE
8
0
6
CONTINUOUS
10
0.009899
20
-0.073982
30
0.0
11
0.012124
21
-0.072532
31
0.0
0
LINE
8
0
6
CONTINUOUS
10
0.013997
20
0.023828
30
0.0
11
0.014113
21
0.024655
31
0.0
0
LINE
8
0
6
CONTINUOUS
10
0.007000
20
-0.075094
30
0.0
11
0.009899
21
-0.073982
31
0.0
0
LINE
8
0
6
CONTINUOUS
10
-0.015637
20
0.027239
30
0.0
11
-0.014826
21
0.026150
31
0.0
0
LINE
8
0
6
CONTINUOUS
10
-0.015637
20
0.027239
30
0.0
11
-0.014270
21
0.025492
31
0.0
0
LINE
8
0
6
CONTINUOUS
10
-0.014826
20
0.026150
30
0.0
11
-0.014410
21
0.025425
31
0.0
0
LINE
8
0
6
CONTINUOUS
10
-0.014410
20
0.025425
30
0.0
11
-0.014113
21
0.024655
31
0.0
0
LINE
8
0
6
CONTINUOUS
10
-0.013997
20
0.023828
30
0.0
11
-0.013997
21
0.022589
31
0.0
0
LINE
8
0
6
CONTINUOUS
10
-0.007000
20
-0.075094
30
0.0
11
-0.003623
21
-0.075793
31
0.0
0
LINE
8
0
6
CONTINUOUS
10
-0.003623
20
-0.075793
30
0.0
11
-0.000000
21
-0.076032
31
0.0
0
LINE
8
0
6
CONTINUOUS
10
-0.013523
20
-0.070844
30
0.0
11
-0.012124
21
-0.072532
31
0.0
0
LINE
8
0
6
CONTINUOUS
10
-0.008830
20
0.021208
30
0.0
11
-0.012599
21
0.023810
31
0.0
0
LINE
8
0
6
CONTINUOUS
10
-0.012124
20
-0.072532
30
0.0
11
-0.009899
21
-0.073982
31
0.0
0
LINE
8
0
6
CONTINUOUS
10
-0.014113
20
0.024655
30
0.0
11
-0.013997
21
0.023828
31
0.0
0
LINE
8
0
6
CONTINUOUS
10
-0.009899
20
-0.073982
30
0.0
11
-0.007000
21
-0.075094
31
0.0
0
LINE
8
0
6
CONTINUOUS
10
-0.015202
20
0.020873
30
0.0
11
-0.013997
21
0.020041
31
0.0
0
LINE
8
0
6
CONTINUOUS
10
0.022757
20
0.040795
30
0.0
11
0.021435
21
0.046161
31
0.0
0
LINE
8
0
6
CONTINUOUS
10
-0.015202
20
0.055191
30
0.0
11
-0.018866
21
0.051055
31
0.0
0
LINE
8
0
6
CONTINUOUS
10
0.015202
20
0.020873
30
0.0
11
0.018866
21
0.025009
31
0.0
0
LINE
8
0
6
CONTINUOUS
10
0.021435
20
0.046161
30
0.0
11
0.018866
21
0.051055
31
0.0
0
LINE
8
0
6
CONTINUOUS
10
-0.018866
20
0.025009
30
0.0
11
-0.015202
21
0.020873
31
0.0
0
LINE
8
0
6
CONTINUOUS
10
-0.018866
20
0.051055
30
0.0
11
-0.021435
21
0.046161
31
0.0
0
LINE
8
0
6
CONTINUOUS
10
0.010653
20
0.058331
30
0.0
11
0.005486
21
0.060290
31
0.0
0
LINE
8
0
6
CONTINUOUS
10
-0.021435
20
0.046161
30
0.0
11
-0.022757
21
0.040795
31
0.0
0
LINE
8
0
6
CONTINUOUS
10
0.022757
20
0.035269
30
0.0
11
0.022757
21
0.040795
31
0.0
0
LINE
8
0
6
CONTINUOUS
10
-0.005486
20
0.060290
30
0.0
11
-0.010653
21
0.058331
31
0.0
0
LINE
8
0
6
CONTINUOUS
10
-0.022757
20
0.040795
30
0.0
11
-0.022757
21
0.035269
31
0.0
0
LINE
8
0
6
CONTINUOUS
10
0.021435
20
0.029903
30
0.0
11
0.022757
21
0.035269
31
0.0
0
LINE
8
0
6
CONTINUOUS
10
0.018866
20
0.025009
30
0.0
11
0.021435
21
0.029903
31
0.0
0
LINE
8
0
6
CONTINUOUS
10
0.015202
20
0.055191
30
0.0
11
0.010653
21
0.058331
31
0.0
0
LINE
8
0
6
CONTINUOUS
10
0.005486
20
0.060290
30
0.0
11
0.002098
21
0.060703
31
0.0
0
LINE
8
0
6
CONTINUOUS
10
-0.022757
20
0.035269
30
0.0
11
-0.021435
21
0.029903
31
0.0
0
LINE
8
0
6
CONTINUOUS
10
-0.021435
20
0.029903
30
0.0
11
-0.018866
21
0.025009
31
0.0
0
LINE
8
0
6
CONTINUOUS
10
-0.010653
20
0.058331
30
0.0
11
-0.015202
21
0.055191
31
0.0
0
LINE
8
0
6
CONTINUOUS
10
-0.002097
20
0.060703
30
0.0
11
-0.005486
21
0.060290
31
0.0
0
LINE
8
0
6
CONTINUOUS
10
0.018866
20
0.051055
30
0.0
11
0.015202
21
0.055191
31
0.0
0
LINE
8
0
6
CONTINUOUS
10
0.013997
20
0.020041
30
0.0
11
0.015202
21
0.020873
31
0.0
0
LINE
8
0
6
CONTINUOUS
10
0.002097
20
0.058992
30
0.0
11
0.002098
21
0.059462
31
0.0
0
LINE
8
0
6
CONTINUOUS
10
-0.001697
20
0.058120
30
0.0
11
-0.001697
21
0.058615
31
0.0
0
LINE
8
0
6
CONTINUOUS
10
-0.002097
20
0.059462
30
0.0
11
-0.002097
21
0.058992
31
0.0
0
LINE
8
0
6
CONTINUOUS
10
0.001697
20
0.058120
30
0.0
11
0.001697
21
0.058615
31
0.0
0
LINE
8
0
6
CONTINUOUS
10
0.002156
20
0.057713
30
0.0
11
0.002106
21
0.058797
31
0.0
0
LINE
8
0
6
CONTINUOUS
10
-0.001681
20
0.057781
30
0.0
11
-0.001688
21
0.057925
31
0.0
0
LINE
8
0
6
CONTINUOUS
10
-0.002088
20
0.058797
30
0.0
11
-0.002040
21
0.057740
31
0.0
0
LINE
8
0
6
CONTINUOUS
10
0.001713
20
0.057763
30
0.0
11
0.001706
21
0.057925
31
0.0
0
LINE
8
0
6
CONTINUOUS
10
-0.000648
20
0.076032
30
0.0
11
-0.001697
21
0.076032
31
0.0
0
LINE
8
0
6
CONTINUOUS
10
-0.000648
20
0.076032
30
0.0
11
-0.000648
21
0.075696
31
0.0
0
LINE
8
0
6
CONTINUOUS
10
0.000648
20
0.076032
30
0.0
11
-0.000648
21
0.076032
31
0.0
0
LINE
8
0
6
CONTINUOUS
10
0.002098
20
0.076032
30
0.0
11
0.001697
21
0.076032
31
0.0
0
LINE
8
0
6
CONTINUOUS
10
0.002097
20
0.075696
30
0.0
11
0.002098
21
0.076032
31
0.0
0
LINE
8
0
6
CONTINUOUS
10
-0.001697
20
0.075696
30
0.0
11
-0.001697
21
0.076032
31
0.0
0
LINE
8
0
6
CONTINUOUS
10
-0.002097
20
0.076032
30
0.0
11
-0.002097
21
0.075696
31
0.0
0
LINE
8
0
6
CONTINUOUS
10
0.000648
20
0.076032
30
0.0
11
0.000648
21
0.075696
31
0.0
0
LINE
8
0
6
CONTINUOUS
10
0.001697
20
0.076032
30
0.0
11
0.000648
21
0.076032
31
0.0
0
LINE
8
0
6
CONTINUOUS
10
0.001697
20
0.075696
30
0.0
11
0.001697
21
0.076032
31
0.0
0
LINE
8
0
6
CONTINUOUS
10
-0.001697
20
0.076032
30
0.0
11
-0.001509
21
0.076032
31
0.0
0
LINE
8
0
6
CONTINUOUS
10
-0.002097
20
0.076032
30
0.0
11
-0.001697
21
0.076032
31
0.0
0
LINE
8
0
6
CONTINUOUS
10
0.001697
20
0.058120
30
0.0
11
0.000648
21
0.057581
31
0.0
0
LINE
8
0
6
CONTINUOUS
10
-0.002097
20
0.058992
30
0.0
11
-0.002088
21
0.058797
31
0.0
0
LINE
8
0
6
CONTINUOUS
10
0.001697
20
0.058120
30
0.0
11
0.001706
21
0.057925
31
0.0
0
LINE
8
0
6
CONTINUOUS
10
0.002106
20
0.058797
30
0.0
11
0.002097
21
0.058992
31
0.0
0
LINE
8
0
6
CONTINUOUS
10
-0.001697
20
0.058120
30
0.0
11
-0.001688
21
0.057925
31
0.0
0
LINE
8
0
6
CONTINUOUS
10
-0.000648
20
0.057581
30
0.0
11
-0.001697
21
0.058120
31
0.0
0
LINE
8
0
6
CONTINUOUS
10
-0.002097
20
0.075696
30
0.0
11
-0.002097
21
0.059462
31
0.0
0
LINE
8
0
6
CONTINUOUS
10
0.000576
20
0.076032
30
0.0
11
0.001509
21
0.076032
31
0.0
0
LINE
8
0
6
CONTINUOUS
10
-0.000576
20
0.076032
30
0.0
11
0.000576
21
0.076032
31
0.0
0
LINE
8
0
6
CONTINUOUS
10
0.001509
20
0.076032
30
0.0
11
0.000000
21
0.076032
31
0.0
0
LINE
8
0
6
CONTINUOUS
10
0.000000
20
0.076032
30
0.0
11
-0.001865
21
0.076032
31
0.0
0
LINE
8
0
6
CONTINUOUS
10
-0.001509
20
0.076032
30
0.0
11
-0.000576
21
0.076032
31
0.0
0
LINE
8
0
6
CONTINUOUS
10
-0.001697
20
0.075696
30
0.0
11
-0.001697
21
0.058615
31
0.0
0
LINE
8
0
6
CONTINUOUS
10
0.001697
20
0.075696
30
0.0
11
0.001697
21
0.058615
31
0.0
0
LINE
8
0
6
CONTINUOUS
10
0.002098
20
0.059462
30
0.0
11
0.002097
21
0.075696
31
0.0
0
LINE
8
0
6
CONTINUOUS
10
-0.000648
20
0.075696
30
0.0
11
-0.000648
21
0.058091
31
0.0
0
LINE
8
0
6
CONTINUOUS
10
0.000648
20
0.058091
30
0.0
11
0.000648
21
0.075696
31
0.0
0
ENDSEC
0
EOF
