999
Erzeugt mit innoplus bad 
0
SECTION
2
HEADER
9
$ACADVER
1
AC1009
9
$DWGCODEPAGE
3
ISO8859-1
0
ENDSEC
0
SECTION
2
TABLES
0
TABLE
2
LAYER
70
1
0
LAYER
2
0
70
0
62
7
6
CONTINUOUS
0
ENDTAB
0
ENDSEC
0
SECTION
2
ENTITIES
0
LINE
8
0
6
CONTINUOUS
10
-0.052617
20
0.074429
30
0.0
11
-0.053582
21
0.072624
31
0.0
0
LINE
8
0
6
CONTINUOUS
10
-0.053582
20
0.072624
30
0.0
11
-0.054467
21
0.069706
31
0.0
0
LINE
8
0
6
CONTINUOUS
10
-0.054467
20
0.069706
30
0.0
11
-0.054766
21
0.066671
31
0.0
0
LINE
8
0
6
CONTINUOUS
10
-0.023653
20
0.066671
30
0.0
11
-0.023796
21
0.068128
31
0.0
0
LINE
8
0
6
CONTINUOUS
10
-0.057966
20
0.093847
30
0.0
11
-0.057966
21
0.077107
31
0.0
0
LINE
8
0
6
CONTINUOUS
10
-0.057966
20
0.101980
30
0.0
11
-0.057966
21
0.100589
31
0.0
0
LINE
8
0
6
CONTINUOUS
10
-0.057966
20
0.100589
30
0.0
11
-0.057966
21
0.093847
31
0.0
0
LINE
8
0
6
CONTINUOUS
10
-0.019033
20
0.104078
30
0.0
11
-0.020222
21
0.104078
31
0.0
0
LINE
8
0
6
CONTINUOUS
10
-0.017751
20
0.094269
30
0.0
11
-0.012462
21
0.094350
31
0.0
0
LINE
8
0
6
CONTINUOUS
10
-0.012462
20
0.094350
30
0.0
11
0.039096
21
0.095146
31
0.0
0
LINE
8
0
6
CONTINUOUS
10
-0.020012
20
0.093110
30
0.0
11
-0.019459
21
0.093715
31
0.0
0
LINE
8
0
6
CONTINUOUS
10
-0.019459
20
0.093715
30
0.0
11
-0.018675
21
0.094076
31
0.0
0
LINE
8
0
6
CONTINUOUS
10
-0.020440
20
0.068650
30
0.0
11
-0.020440
21
0.091307
31
0.0
0
LINE
8
0
6
CONTINUOUS
10
-0.020440
20
0.091307
30
0.0
11
-0.020313
21
0.092278
31
0.0
0
LINE
8
0
6
CONTINUOUS
10
-0.021476
20
0.096250
30
0.0
11
-0.021041
21
0.100583
31
0.0
0
LINE
8
0
6
CONTINUOUS
10
-0.057966
20
0.103360
30
0.0
11
-0.057966
21
0.101980
31
0.0
0
LINE
8
0
6
CONTINUOUS
10
-0.057966
20
0.103849
30
0.0
11
-0.057966
21
0.103526
31
0.0
0
LINE
8
0
6
CONTINUOUS
10
0.039792
20
0.103526
30
0.0
11
0.039792
21
0.103849
31
0.0
0
LINE
8
0
6
CONTINUOUS
10
0.039792
20
0.101798
30
0.0
11
0.039792
21
0.103185
31
0.0
0
LINE
8
0
6
CONTINUOUS
10
0.039792
20
0.100224
30
0.0
11
0.039792
21
0.101798
31
0.0
0
LINE
8
0
6
CONTINUOUS
10
0.039792
20
0.098752
30
0.0
11
0.039792
21
0.100224
31
0.0
0
LINE
8
0
6
CONTINUOUS
10
0.039792
20
0.097448
30
0.0
11
0.039792
21
0.098752
31
0.0
0
LINE
8
0
6
CONTINUOUS
10
0.039792
20
0.096476
30
0.0
11
0.039792
21
0.097448
31
0.0
0
LINE
8
0
6
CONTINUOUS
10
0.039792
20
0.095850
30
0.0
11
0.039792
21
0.096476
31
0.0
0
LINE
8
0
6
CONTINUOUS
10
0.039390
20
0.095130
30
0.0
11
0.039568
21
0.095301
31
0.0
0
LINE
8
0
6
CONTINUOUS
10
0.039792
20
0.095634
30
0.0
11
0.039792
21
0.095850
31
0.0
0
LINE
8
0
6
CONTINUOUS
10
0.039568
20
0.095301
30
0.0
11
0.039792
21
0.095634
31
0.0
0
LINE
8
0
6
CONTINUOUS
10
-0.057966
20
0.103526
30
0.0
11
-0.057966
21
0.103360
31
0.0
0
LINE
8
0
6
CONTINUOUS
10
0.039390
20
0.097117
30
0.0
11
0.039390
21
0.098558
31
0.0
0
LINE
8
0
6
CONTINUOUS
10
0.039390
20
0.096058
30
0.0
11
0.039390
21
0.097117
31
0.0
0
LINE
8
0
6
CONTINUOUS
10
0.039390
20
0.095343
30
0.0
11
0.039390
21
0.096058
31
0.0
0
LINE
8
0
6
CONTINUOUS
10
0.039390
20
0.095130
30
0.0
11
0.039390
21
0.095343
31
0.0
0
LINE
8
0
6
CONTINUOUS
10
0.039096
20
0.095146
30
0.0
11
0.039390
21
0.095130
31
0.0
0
LINE
8
0
6
CONTINUOUS
10
0.039792
20
0.103185
30
0.0
11
0.039792
21
0.103526
31
0.0
0
LINE
8
0
6
CONTINUOUS
10
-0.020313
20
0.092278
30
0.0
11
-0.020012
21
0.093110
31
0.0
0
LINE
8
0
6
CONTINUOUS
10
-0.018982
20
0.103849
30
0.0
11
-0.020122
21
0.103849
31
0.0
0
LINE
8
0
6
CONTINUOUS
10
0.039096
20
0.104079
30
0.0
11
-0.012408
21
0.104078
31
0.0
0
LINE
8
0
6
CONTINUOUS
10
-0.022250
20
0.104078
30
0.0
11
-0.024517
21
0.104078
31
0.0
0
LINE
8
0
6
CONTINUOUS
10
-0.024345
20
0.103849
30
0.0
11
-0.022054
21
0.103849
31
0.0
0
LINE
8
0
6
CONTINUOUS
10
-0.031161
20
0.104078
30
0.0
11
-0.035249
21
0.104078
31
0.0
0
LINE
8
0
6
CONTINUOUS
10
-0.035200
20
0.103849
30
0.0
11
-0.031060
21
0.103849
31
0.0
0
LINE
8
0
6
CONTINUOUS
10
-0.022054
20
0.103849
30
0.0
11
-0.021575
21
0.103849
31
0.0
0
LINE
8
0
6
CONTINUOUS
10
-0.021748
20
0.104078
30
0.0
11
-0.022250
21
0.104078
31
0.0
0
LINE
8
0
6
CONTINUOUS
10
-0.020222
20
0.104078
30
0.0
11
-0.021127
21
0.104078
31
0.0
0
LINE
8
0
6
CONTINUOUS
10
-0.020986
20
0.103849
30
0.0
11
-0.020122
21
0.103849
31
0.0
0
LINE
8
0
6
CONTINUOUS
10
-0.021127
20
0.104078
30
0.0
11
-0.021748
21
0.104078
31
0.0
0
LINE
8
0
6
CONTINUOUS
10
-0.021575
20
0.103849
30
0.0
11
-0.020986
21
0.103849
31
0.0
0
LINE
8
0
6
CONTINUOUS
10
-0.012408
20
0.104078
30
0.0
11
-0.017751
21
0.104078
31
0.0
0
LINE
8
0
6
CONTINUOUS
10
-0.017751
20
0.103849
30
0.0
11
-0.012408
21
0.103849
31
0.0
0
LINE
8
0
6
CONTINUOUS
10
-0.017751
20
0.104078
30
0.0
11
-0.019033
21
0.104078
31
0.0
0
LINE
8
0
6
CONTINUOUS
10
-0.018982
20
0.103849
30
0.0
11
-0.017751
21
0.103849
31
0.0
0
LINE
8
0
6
CONTINUOUS
10
-0.027491
20
0.104078
30
0.0
11
-0.031161
21
0.104078
31
0.0
0
LINE
8
0
6
CONTINUOUS
10
-0.031060
20
0.103849
30
0.0
11
-0.027351
21
0.103849
31
0.0
0
LINE
8
0
6
CONTINUOUS
10
0.039323
20
0.104078
30
0.0
11
0.039096
21
0.104079
31
0.0
0
LINE
8
0
6
CONTINUOUS
10
-0.018675
20
0.094076
30
0.0
11
-0.017751
21
0.094269
31
0.0
0
LINE
8
0
6
CONTINUOUS
10
-0.057746
20
0.104078
30
0.0
11
-0.057966
21
0.103849
31
0.0
0
LINE
8
0
6
CONTINUOUS
10
-0.057275
20
0.104078
30
0.0
11
-0.057746
21
0.104078
31
0.0
0
LINE
8
0
6
CONTINUOUS
10
-0.057966
20
0.103849
30
0.0
11
-0.057490
21
0.103849
31
0.0
0
LINE
8
0
6
CONTINUOUS
10
-0.053666
20
0.104078
30
0.0
11
-0.055895
21
0.104078
31
0.0
0
LINE
8
0
6
CONTINUOUS
10
-0.056093
20
0.103849
30
0.0
11
-0.053837
21
0.103849
31
0.0
0
LINE
8
0
6
CONTINUOUS
10
-0.050704
20
0.104078
30
0.0
11
-0.053666
21
0.104078
31
0.0
0
LINE
8
0
6
CONTINUOUS
10
-0.053837
20
0.103849
30
0.0
11
-0.050840
21
0.103849
31
0.0
0
LINE
8
0
6
CONTINUOUS
10
-0.047185
20
0.104078
30
0.0
11
-0.050704
21
0.104078
31
0.0
0
LINE
8
0
6
CONTINUOUS
10
-0.050840
20
0.103849
30
0.0
11
-0.047280
21
0.103849
31
0.0
0
LINE
8
0
6
CONTINUOUS
10
-0.043258
20
0.104078
30
0.0
11
-0.047185
21
0.104078
31
0.0
0
LINE
8
0
6
CONTINUOUS
10
-0.047280
20
0.103849
30
0.0
11
-0.043307
21
0.103849
31
0.0
0
LINE
8
0
6
CONTINUOUS
10
-0.039127
20
0.104078
30
0.0
11
-0.043258
21
0.104078
31
0.0
0
LINE
8
0
6
CONTINUOUS
10
-0.043307
20
0.103849
30
0.0
11
-0.039128
21
0.103849
31
0.0
0
LINE
8
0
6
CONTINUOUS
10
-0.055895
20
0.104078
30
0.0
11
-0.057275
21
0.104078
31
0.0
0
LINE
8
0
6
CONTINUOUS
10
-0.057490
20
0.103849
30
0.0
11
-0.056093
21
0.103849
31
0.0
0
LINE
8
0
6
CONTINUOUS
10
-0.024517
20
0.104078
30
0.0
11
-0.027491
21
0.104078
31
0.0
0
LINE
8
0
6
CONTINUOUS
10
-0.027351
20
0.103849
30
0.0
11
-0.024345
21
0.103849
31
0.0
0
LINE
8
0
6
CONTINUOUS
10
-0.035249
20
0.104078
30
0.0
11
-0.039127
21
0.104078
31
0.0
0
LINE
8
0
6
CONTINUOUS
10
-0.039128
20
0.103849
30
0.0
11
-0.035200
21
0.103849
31
0.0
0
LINE
8
0
6
CONTINUOUS
10
0.039433
20
0.104078
30
0.0
11
0.039323
21
0.104078
31
0.0
0
LINE
8
0
6
CONTINUOUS
10
0.039390
20
0.103849
30
0.0
11
0.039568
21
0.103849
31
0.0
0
LINE
8
0
6
CONTINUOUS
10
0.039096
20
0.103849
30
0.0
11
-0.012408
21
0.103849
31
0.0
0
LINE
8
0
6
CONTINUOUS
10
0.039390
20
0.103849
30
0.0
11
0.039096
21
0.103849
31
0.0
0
LINE
8
0
6
CONTINUOUS
10
0.039580
20
0.104078
30
0.0
11
0.039433
21
0.104078
31
0.0
0
LINE
8
0
6
CONTINUOUS
10
0.039568
20
0.103849
30
0.0
11
0.039792
21
0.103849
31
0.0
0
LINE
8
0
6
CONTINUOUS
10
0.039586
20
0.104078
30
0.0
11
0.039488
21
0.104078
31
0.0
0
LINE
8
0
6
CONTINUOUS
10
0.039488
20
0.104078
30
0.0
11
0.039373
21
0.104078
31
0.0
0
LINE
8
0
6
CONTINUOUS
10
-0.031373
20
0.068173
30
0.0
11
-0.031060
21
0.068171
31
0.0
0
LINE
8
0
6
CONTINUOUS
10
-0.022001
20
0.068116
30
0.0
11
-0.021517
21
0.068112
31
0.0
0
LINE
8
0
6
CONTINUOUS
10
-0.023796
20
0.068128
30
0.0
11
-0.022001
21
0.068116
31
0.0
0
LINE
8
0
6
CONTINUOUS
10
0.039373
20
0.104078
30
0.0
11
0.039294
21
0.104078
31
0.0
0
LINE
8
0
6
CONTINUOUS
10
-0.022054
20
0.068164
30
0.0
11
-0.021312
21
0.068112
31
0.0
0
LINE
8
0
6
CONTINUOUS
10
-0.027351
20
0.068158
30
0.0
11
-0.024345
21
0.068176
31
0.0
0
LINE
8
0
6
CONTINUOUS
10
-0.031060
20
0.068171
30
0.0
11
-0.027351
21
0.068158
31
0.0
0
LINE
8
0
6
CONTINUOUS
10
-0.035200
20
0.068208
30
0.0
11
-0.031060
21
0.068171
31
0.0
0
LINE
8
0
6
CONTINUOUS
10
-0.047280
20
0.071979
30
0.0
11
-0.043307
21
0.070155
31
0.0
0
LINE
8
0
6
CONTINUOUS
10
-0.050840
20
0.073613
30
0.0
11
-0.047280
21
0.071979
31
0.0
0
LINE
8
0
6
CONTINUOUS
10
-0.053837
20
0.074989
30
0.0
11
-0.050840
21
0.073613
31
0.0
0
LINE
8
0
6
CONTINUOUS
10
-0.056093
20
0.076024
30
0.0
11
-0.053837
21
0.074989
31
0.0
0
LINE
8
0
6
CONTINUOUS
10
-0.057966
20
0.076884
30
0.0
11
-0.057490
21
0.076665
31
0.0
0
LINE
8
0
6
CONTINUOUS
10
-0.057966
20
0.077107
30
0.0
11
-0.057966
21
0.076884
31
0.0
0
LINE
8
0
6
CONTINUOUS
10
-0.057490
20
0.076665
30
0.0
11
-0.056093
21
0.076024
31
0.0
0
LINE
8
0
6
CONTINUOUS
10
-0.024345
20
0.068176
30
0.0
11
-0.022054
21
0.068164
31
0.0
0
LINE
8
0
6
CONTINUOUS
10
-0.020510
20
0.068110
30
0.0
11
-0.020440
21
0.068115
31
0.0
0
LINE
8
0
6
CONTINUOUS
10
-0.020440
20
0.068115
30
0.0
11
-0.020440
21
0.068650
31
0.0
0
LINE
8
0
6
CONTINUOUS
10
-0.021312
20
0.068112
30
0.0
11
-0.020807
21
0.068108
31
0.0
0
LINE
8
0
6
CONTINUOUS
10
-0.020807
20
0.068108
30
0.0
11
-0.020510
21
0.068110
31
0.0
0
LINE
8
0
6
CONTINUOUS
10
-0.039128
20
0.068237
30
0.0
11
-0.035200
21
0.068208
31
0.0
0
LINE
8
0
6
CONTINUOUS
10
-0.043307
20
0.070155
30
0.0
11
-0.039128
21
0.068237
31
0.0
0
LINE
8
0
6
CONTINUOUS
10
-0.057034
20
-0.096723
30
0.0
11
-0.057034
21
-0.097079
31
0.0
0
LINE
8
0
6
CONTINUOUS
10
-0.057034
20
-0.097079
30
0.0
11
-0.057436
21
-0.098579
31
0.0
0
LINE
8
0
6
CONTINUOUS
10
-0.018630
20
-0.098579
30
0.0
11
-0.019032
21
-0.097079
31
0.0
0
LINE
8
0
6
CONTINUOUS
10
0.067220
20
-0.013781
30
0.0
11
0.069032
21
-0.010643
31
0.0
0
LINE
8
0
6
CONTINUOUS
10
0.069032
20
-0.010643
30
0.0
11
0.070844
21
-0.007505
31
0.0
0
LINE
8
0
6
CONTINUOUS
10
-0.010726
20
0.019400
30
0.0
11
0.061027
21
-0.022184
31
0.0
0
LINE
8
0
6
CONTINUOUS
10
0.075026
20
0.002063
30
0.0
11
-0.016284
21
0.054781
31
0.0
0
LINE
8
0
6
CONTINUOUS
10
-0.019032
20
0.058098
30
0.0
11
-0.019034
21
0.065925
31
0.0
0
LINE
8
0
6
CONTINUOUS
10
-0.057034
20
0.053243
30
0.0
11
-0.057034
21
0.051759
31
0.0
0
LINE
8
0
6
CONTINUOUS
10
-0.016284
20
0.054781
30
0.0
11
-0.017532
21
0.055501
31
0.0
0
LINE
8
0
6
CONTINUOUS
10
-0.019032
20
0.013633
30
0.0
11
-0.019032
21
0.015374
31
0.0
0
LINE
8
0
6
CONTINUOUS
10
-0.057034
20
0.025787
30
0.0
11
-0.057034
21
-0.059912
31
0.0
0
LINE
8
0
6
CONTINUOUS
10
-0.057034
20
-0.073314
30
0.0
11
-0.057034
21
-0.096723
31
0.0
0
LINE
8
0
6
CONTINUOUS
10
-0.019032
20
-0.096723
30
0.0
11
-0.019032
21
0.013633
31
0.0
0
LINE
8
0
6
CONTINUOUS
10
-0.057034
20
0.065925
30
0.0
11
-0.057034
21
0.053243
31
0.0
0
LINE
8
0
6
CONTINUOUS
10
-0.019925
20
0.066671
30
0.0
11
-0.021208
21
0.066671
31
0.0
0
LINE
8
0
6
CONTINUOUS
10
-0.011708
20
0.019970
30
0.0
11
-0.010726
21
0.019400
31
0.0
0
LINE
8
0
6
CONTINUOUS
10
-0.057034
20
0.047548
30
0.0
11
-0.057034
21
0.043338
31
0.0
0
LINE
8
0
6
CONTINUOUS
10
-0.057034
20
0.043338
30
0.0
11
-0.057034
21
0.037757
31
0.0
0
LINE
8
0
6
CONTINUOUS
10
-0.057034
20
0.037757
30
0.0
11
-0.057034
21
0.032424
31
0.0
0
LINE
8
0
6
CONTINUOUS
10
-0.057034
20
0.032424
30
0.0
11
-0.057034
21
0.028159
31
0.0
0
LINE
8
0
6
CONTINUOUS
10
-0.057034
20
0.051759
30
0.0
11
-0.057034
21
0.047548
31
0.0
0
LINE
8
0
6
CONTINUOUS
10
-0.023810
20
0.066671
30
0.0
11
-0.027239
21
0.066671
31
0.0
0
LINE
8
0
6
CONTINUOUS
10
-0.057034
20
0.028159
30
0.0
11
-0.057034
21
0.025787
31
0.0
0
LINE
8
0
6
CONTINUOUS
10
-0.019032
20
0.015374
30
0.0
11
-0.017889
21
0.018651
31
0.0
0
LINE
8
0
6
CONTINUOUS
10
-0.057034
20
0.066671
30
0.0
11
-0.057034
21
0.065925
31
0.0
0
LINE
8
0
6
CONTINUOUS
10
-0.056480
20
0.066671
30
0.0
11
-0.057034
21
0.066671
31
0.0
0
LINE
8
0
6
CONTINUOUS
10
0.062970
20
-0.021143
30
0.0
11
0.064083
21
-0.019216
31
0.0
0
LINE
8
0
6
CONTINUOUS
10
0.062031
20
-0.022767
30
0.0
11
0.062270
21
-0.022354
31
0.0
0
LINE
8
0
6
CONTINUOUS
10
0.061027
20
-0.022184
30
0.0
11
0.062031
21
-0.022767
31
0.0
0
LINE
8
0
6
CONTINUOUS
10
-0.019032
20
-0.097079
30
0.0
11
-0.019032
21
-0.096723
31
0.0
0
LINE
8
0
6
CONTINUOUS
10
0.064083
20
-0.019216
30
0.0
11
0.065533
21
-0.016705
31
0.0
0
LINE
8
0
6
CONTINUOUS
10
0.062270
20
-0.022354
30
0.0
11
0.062970
21
-0.021143
31
0.0
0
LINE
8
0
6
CONTINUOUS
10
0.075094
20
-0.000143
30
0.0
11
0.075793
21
0.001069
31
0.0
0
LINE
8
0
6
CONTINUOUS
10
-0.040322
20
0.066671
30
0.0
11
-0.044770
21
0.066671
31
0.0
0
LINE
8
0
6
CONTINUOUS
10
-0.019309
20
0.066671
30
0.0
11
-0.019925
21
0.066671
31
0.0
0
LINE
8
0
6
CONTINUOUS
10
-0.035742
20
0.066671
30
0.0
11
-0.040322
21
0.066671
31
0.0
0
LINE
8
0
6
CONTINUOUS
10
0.076032
20
0.001482
30
0.0
11
0.075026
21
0.002063
31
0.0
0
LINE
8
0
6
CONTINUOUS
10
0.075793
20
0.001069
30
0.0
11
0.076032
21
0.001482
31
0.0
0
LINE
8
0
6
CONTINUOUS
10
-0.044770
20
0.066671
30
0.0
11
-0.048826
21
0.066671
31
0.0
0
LINE
8
0
6
CONTINUOUS
10
-0.048826
20
0.066671
30
0.0
11
-0.052254
21
0.066671
31
0.0
0
LINE
8
0
6
CONTINUOUS
10
0.070844
20
-0.007505
30
0.0
11
0.072532
21
-0.004581
31
0.0
0
LINE
8
0
6
CONTINUOUS
10
-0.018218
20
0.056270
30
0.0
11
-0.018834
21
0.057096
31
0.0
0
LINE
8
0
6
CONTINUOUS
10
-0.019034
20
0.066671
30
0.0
11
-0.019309
21
0.066671
31
0.0
0
LINE
8
0
6
CONTINUOUS
10
-0.019034
20
0.065925
30
0.0
11
-0.019034
21
0.066671
31
0.0
0
LINE
8
0
6
CONTINUOUS
10
-0.021208
20
0.066671
30
0.0
11
-0.023810
21
0.066671
31
0.0
0
LINE
8
0
6
CONTINUOUS
10
0.072532
20
-0.004581
30
0.0
11
0.073982
21
-0.002069
31
0.0
0
LINE
8
0
6
CONTINUOUS
10
-0.027239
20
0.066671
30
0.0
11
-0.031295
21
0.066671
31
0.0
0
LINE
8
0
6
CONTINUOUS
10
-0.017532
20
0.055501
30
0.0
11
-0.018218
21
0.056270
31
0.0
0
LINE
8
0
6
CONTINUOUS
10
-0.052254
20
0.066671
30
0.0
11
-0.054856
21
0.066671
31
0.0
0
LINE
8
0
6
CONTINUOUS
10
-0.031295
20
0.066671
30
0.0
11
-0.035742
21
0.066671
31
0.0
0
LINE
8
0
6
CONTINUOUS
10
-0.015068
20
0.020267
30
0.0
11
-0.011708
21
0.019970
31
0.0
0
LINE
8
0
6
CONTINUOUS
10
0.073982
20
-0.002069
30
0.0
11
0.075094
21
-0.000143
31
0.0
0
LINE
8
0
6
CONTINUOUS
10
0.065533
20
-0.016705
30
0.0
11
0.067220
21
-0.013781
31
0.0
0
LINE
8
0
6
CONTINUOUS
10
-0.054856
20
0.066671
30
0.0
11
-0.056480
21
0.066671
31
0.0
0
LINE
8
0
6
CONTINUOUS
10
-0.019841
20
0.024431
30
0.0
11
-0.018559
21
0.020502
31
0.0
0
LINE
8
0
6
CONTINUOUS
10
-0.018559
20
0.020502
30
0.0
11
-0.017889
21
0.018651
31
0.0
0
LINE
8
0
6
CONTINUOUS
10
-0.015068
20
0.020267
30
0.0
11
-0.015845
21
0.021869
31
0.0
0
LINE
8
0
6
CONTINUOUS
10
-0.017889
20
0.018651
30
0.0
11
-0.015068
21
0.020267
31
0.0
0
LINE
8
0
6
CONTINUOUS
10
-0.018834
20
0.057096
30
0.0
11
-0.019032
21
0.058098
31
0.0
0
LINE
8
0
6
CONTINUOUS
10
-0.019189
20
0.029596
30
0.0
11
-0.021486
21
0.033848
31
0.0
0
LINE
8
0
6
CONTINUOUS
10
-0.015592
20
-0.100028
30
0.0
11
-0.017532
21
-0.099677
31
0.0
0
LINE
8
0
6
CONTINUOUS
10
-0.058534
20
-0.099677
30
0.0
11
-0.060473
21
-0.100028
31
0.0
0
LINE
8
0
6
CONTINUOUS
10
-0.015107
20
-0.103901
30
0.0
11
-0.015107
21
-0.100512
31
0.0
0
LINE
8
0
6
CONTINUOUS
10
-0.060958
20
-0.100512
30
0.0
11
-0.060958
21
-0.103901
31
0.0
0
LINE
8
0
6
CONTINUOUS
10
-0.015107
20
-0.100512
30
0.0
11
-0.015107
21
-0.100116
31
0.0
0
LINE
8
0
6
CONTINUOUS
10
-0.060958
20
-0.100116
30
0.0
11
-0.060958
21
-0.100512
31
0.0
0
LINE
8
0
6
CONTINUOUS
10
-0.017733
20
-0.104079
30
0.0
11
-0.015774
21
-0.104079
31
0.0
0
LINE
8
0
6
CONTINUOUS
10
-0.055191
20
-0.104079
30
0.0
11
-0.051055
21
-0.104079
31
0.0
0
LINE
8
0
6
CONTINUOUS
10
-0.020873
20
-0.104079
30
0.0
11
-0.017733
21
-0.104079
31
0.0
0
LINE
8
0
6
CONTINUOUS
10
-0.046161
20
-0.104079
30
0.0
11
-0.040795
21
-0.104079
31
0.0
0
LINE
8
0
6
CONTINUOUS
10
-0.025009
20
-0.104079
30
0.0
11
-0.020873
21
-0.104079
31
0.0
0
LINE
8
0
6
CONTINUOUS
10
-0.051055
20
-0.104079
30
0.0
11
-0.046161
21
-0.104079
31
0.0
0
LINE
8
0
6
CONTINUOUS
10
-0.040795
20
-0.104079
30
0.0
11
-0.035269
21
-0.104079
31
0.0
0
LINE
8
0
6
CONTINUOUS
10
-0.060290
20
-0.104079
30
0.0
11
-0.058331
21
-0.104079
31
0.0
0
LINE
8
0
6
CONTINUOUS
10
-0.015107
20
-0.104079
30
0.0
11
-0.015107
21
-0.103901
31
0.0
0
LINE
8
0
6
CONTINUOUS
10
-0.015774
20
-0.104079
30
0.0
11
-0.015107
21
-0.104079
31
0.0
0
LINE
8
0
6
CONTINUOUS
10
-0.029903
20
-0.104079
30
0.0
11
-0.025009
21
-0.104079
31
0.0
0
LINE
8
0
6
CONTINUOUS
10
-0.058331
20
-0.104079
30
0.0
11
-0.055191
21
-0.104079
31
0.0
0
LINE
8
0
6
CONTINUOUS
10
-0.060958
20
-0.104079
30
0.0
11
-0.060290
21
-0.104079
31
0.0
0
LINE
8
0
6
CONTINUOUS
10
-0.060958
20
-0.103901
30
0.0
11
-0.060958
21
-0.104079
31
0.0
0
LINE
8
0
6
CONTINUOUS
10
-0.035269
20
-0.104079
30
0.0
11
-0.029903
21
-0.104079
31
0.0
0
LINE
8
0
6
CONTINUOUS
10
-0.020873
20
-0.100116
30
0.0
11
-0.017733
21
-0.100116
31
0.0
0
LINE
8
0
6
CONTINUOUS
10
-0.017733
20
-0.100116
30
0.0
11
-0.015774
21
-0.100116
31
0.0
0
LINE
8
0
6
CONTINUOUS
10
-0.055191
20
-0.100116
30
0.0
11
-0.051055
21
-0.100116
31
0.0
0
LINE
8
0
6
CONTINUOUS
10
-0.025009
20
-0.100116
30
0.0
11
-0.020873
21
-0.100116
31
0.0
0
LINE
8
0
6
CONTINUOUS
10
-0.051055
20
-0.100116
30
0.0
11
-0.046161
21
-0.100116
31
0.0
0
LINE
8
0
6
CONTINUOUS
10
-0.046161
20
-0.100116
30
0.0
11
-0.040795
21
-0.100116
31
0.0
0
LINE
8
0
6
CONTINUOUS
10
-0.060290
20
-0.100116
30
0.0
11
-0.058331
21
-0.100116
31
0.0
0
LINE
8
0
6
CONTINUOUS
10
-0.015107
20
-0.100116
30
0.0
11
-0.015592
21
-0.100028
31
0.0
0
LINE
8
0
6
CONTINUOUS
10
-0.015774
20
-0.100116
30
0.0
11
-0.015107
21
-0.100116
31
0.0
0
LINE
8
0
6
CONTINUOUS
10
-0.040795
20
-0.100116
30
0.0
11
-0.035269
21
-0.100116
31
0.0
0
LINE
8
0
6
CONTINUOUS
10
-0.035269
20
-0.100116
30
0.0
11
-0.029903
21
-0.100116
31
0.0
0
LINE
8
0
6
CONTINUOUS
10
-0.029903
20
-0.100116
30
0.0
11
-0.025009
21
-0.100116
31
0.0
0
LINE
8
0
6
CONTINUOUS
10
-0.058331
20
-0.100116
30
0.0
11
-0.055191
21
-0.100116
31
0.0
0
LINE
8
0
6
CONTINUOUS
10
-0.060958
20
-0.100116
30
0.0
11
-0.060290
21
-0.100116
31
0.0
0
LINE
8
0
6
CONTINUOUS
10
-0.060473
20
-0.100028
30
0.0
11
-0.060958
21
-0.100116
31
0.0
0
LINE
8
0
6
CONTINUOUS
10
-0.017532
20
-0.099677
30
0.0
11
-0.018630
21
-0.098579
31
0.0
0
LINE
8
0
6
CONTINUOUS
10
-0.057436
20
-0.098579
30
0.0
11
-0.058534
21
-0.099677
31
0.0
0
LINE
8
0
6
CONTINUOUS
10
-0.057581
20
-0.058084
30
0.0
11
-0.058091
21
-0.058084
31
0.0
0
LINE
8
0
6
CONTINUOUS
10
-0.058120
20
-0.058846
30
0.0
11
-0.058615
21
-0.058846
31
0.0
0
LINE
8
0
6
CONTINUOUS
10
-0.060833
20
-0.062074
30
0.0
11
-0.060403
21
-0.062074
31
0.0
0
LINE
8
0
6
CONTINUOUS
10
-0.056958
20
-0.060163
30
0.0
11
-0.057387
21
-0.058734
31
0.0
0
LINE
8
0
6
CONTINUOUS
10
-0.056834
20
-0.063137
30
0.0
11
-0.057925
21
-0.059496
31
0.0
0
LINE
8
0
6
CONTINUOUS
10
-0.058797
20
-0.060729
30
0.0
11
-0.056791
21
-0.067424
31
0.0
0
LINE
8
0
6
CONTINUOUS
10
-0.056844
20
-0.071388
30
0.0
11
-0.059669
21
-0.061962
31
0.0
0
LINE
8
0
6
CONTINUOUS
10
-0.060208
20
-0.062724
30
0.0
11
-0.056974
21
-0.073514
31
0.0
0
LINE
8
0
6
CONTINUOUS
10
-0.060310
20
-0.061312
30
0.0
11
-0.059864
21
-0.061312
31
0.0
0
LINE
8
0
6
CONTINUOUS
10
-0.058992
20
-0.060079
30
0.0
11
-0.059462
21
-0.060079
31
0.0
0
LINE
8
0
6
CONTINUOUS
10
-0.075696
20
-0.058084
30
0.0
11
-0.076032
21
-0.058084
31
0.0
0
LINE
8
0
6
CONTINUOUS
10
-0.076032
20
-0.058084
30
0.0
11
-0.076032
21
-0.058846
31
0.0
0
LINE
8
0
6
CONTINUOUS
10
-0.075696
20
-0.058846
30
0.0
11
-0.076032
21
-0.058846
31
0.0
0
LINE
8
0
6
CONTINUOUS
10
-0.076032
20
-0.058846
30
0.0
11
-0.076032
21
-0.060079
31
0.0
0
LINE
8
0
6
CONTINUOUS
10
-0.076032
20
-0.062074
30
0.0
11
-0.075696
21
-0.062074
31
0.0
0
LINE
8
0
6
CONTINUOUS
10
-0.076032
20
-0.061312
30
0.0
11
-0.076032
21
-0.062074
31
0.0
0
LINE
8
0
6
CONTINUOUS
10
-0.076032
20
-0.061312
30
0.0
11
-0.075696
21
-0.061312
31
0.0
0
LINE
8
0
6
CONTINUOUS
10
-0.076032
20
-0.060079
30
0.0
11
-0.076032
21
-0.061312
31
0.0
0
LINE
8
0
6
CONTINUOUS
10
-0.075696
20
-0.060079
30
0.0
11
-0.076032
21
-0.060079
31
0.0
0
LINE
8
0
6
CONTINUOUS
10
-0.060403
20
-0.062074
30
0.0
11
-0.060208
21
-0.062724
31
0.0
0
LINE
8
0
6
CONTINUOUS
10
-0.059864
20
-0.061312
30
0.0
11
-0.060403
21
-0.062074
31
0.0
0
LINE
8
0
6
CONTINUOUS
10
-0.057387
20
-0.058734
30
0.0
11
-0.057581
21
-0.058084
31
0.0
0
LINE
8
0
6
CONTINUOUS
10
-0.058120
20
-0.058846
30
0.0
11
-0.057925
21
-0.059496
31
0.0
0
LINE
8
0
6
CONTINUOUS
10
-0.057581
20
-0.058084
30
0.0
11
-0.058120
21
-0.058846
31
0.0
0
LINE
8
0
6
CONTINUOUS
10
-0.059864
20
-0.061312
30
0.0
11
-0.059669
21
-0.061962
31
0.0
0
LINE
8
0
6
CONTINUOUS
10
-0.058797
20
-0.060729
30
0.0
11
-0.058992
21
-0.060079
31
0.0
0
LINE
8
0
6
CONTINUOUS
10
-0.060310
20
-0.061312
30
0.0
11
-0.075696
21
-0.061312
31
0.0
0
LINE
8
0
6
CONTINUOUS
10
-0.075696
20
-0.062074
30
0.0
11
-0.060833
21
-0.062074
31
0.0
0
LINE
8
0
6
CONTINUOUS
10
-0.075696
20
-0.060079
30
0.0
11
-0.059462
21
-0.060079
31
0.0
0
LINE
8
0
6
CONTINUOUS
10
-0.058091
20
-0.058084
30
0.0
11
-0.075696
21
-0.058084
31
0.0
0
LINE
8
0
6
CONTINUOUS
10
-0.075696
20
-0.058846
30
0.0
11
-0.058615
21
-0.058846
31
0.0
0
LINE
8
0
6
CONTINUOUS
10
-0.056974
20
-0.073514
30
0.0
11
-0.056844
21
-0.071388
31
0.0
0
LINE
8
0
6
CONTINUOUS
10
-0.056791
20
-0.067424
30
0.0
11
-0.056834
21
-0.063137
31
0.0
0
LINE
8
0
6
CONTINUOUS
10
-0.056834
20
-0.063137
30
0.0
11
-0.056958
21
-0.060163
31
0.0
0
LINE
8
0
6
CONTINUOUS
10
-0.056844
20
-0.071388
30
0.0
11
-0.056791
21
-0.067424
31
0.0
0
ENDSEC
0
EOF
