999
Erzeugt mit innoplus bad 
0
SECTION
2
HEADER
9
$ACADVER
1
AC1009
9
$DWGCODEPAGE
3
ISO8859-1
0
ENDSEC
0
SECTION
2
TABLES
0
TABLE
2
LAYER
70
1
0
LAYER
2
0
70
0
62
7
6
CONTINUOUS
0
ENDTAB
0
ENDSEC
0
SECTION
2
ENTITIES
0
LINE
8
0
6
CONTINUOUS
10
-0.048178
20
-0.001379
30
0.0
11
-0.053487
21
-0.001379
31
0.0
0
LINE
8
0
6
CONTINUOUS
10
-0.047565
20
0.004657
30
0.0
11
-0.049739
21
0.004657
31
0.0
0
LINE
8
0
6
CONTINUOUS
10
-0.054057
20
0.004657
30
0.0
11
-0.054057
21
0.004432
31
0.0
0
LINE
8
0
6
CONTINUOUS
10
-0.053769
20
0.004657
30
0.0
11
-0.054057
21
0.004657
31
0.0
0
LINE
8
0
6
CONTINUOUS
10
-0.045141
20
0.004657
30
0.0
11
-0.047565
21
0.004657
31
0.0
0
LINE
8
0
6
CONTINUOUS
10
-0.052921
20
0.004657
30
0.0
11
-0.053769
21
0.004657
31
0.0
0
LINE
8
0
6
CONTINUOUS
10
-0.053010
20
0.013997
30
0.0
11
-0.055657
21
0.013997
31
0.0
0
LINE
8
0
6
CONTINUOUS
10
-0.055657
20
0.013997
30
0.0
11
-0.057648
21
0.013997
31
0.0
0
LINE
8
0
6
CONTINUOUS
10
-0.042589
20
0.013997
30
0.0
11
-0.046309
21
0.013997
31
0.0
0
LINE
8
0
6
CONTINUOUS
10
-0.057648
20
0.013997
30
0.0
11
-0.058884
21
0.013997
31
0.0
0
LINE
8
0
6
CONTINUOUS
10
-0.046309
20
0.013997
30
0.0
11
-0.049841
21
0.013997
31
0.0
0
LINE
8
0
6
CONTINUOUS
10
-0.059303
20
0.013997
30
0.0
11
-0.059303
21
0.013537
31
0.0
0
LINE
8
0
6
CONTINUOUS
10
-0.058884
20
0.013997
30
0.0
11
-0.059303
21
0.013997
31
0.0
0
LINE
8
0
6
CONTINUOUS
10
-0.049841
20
0.013997
30
0.0
11
-0.053010
21
0.013997
31
0.0
0
LINE
8
0
6
CONTINUOUS
10
-0.053943
20
0.010382
30
0.0
11
-0.050107
21
0.008750
31
0.0
0
LINE
8
0
6
CONTINUOUS
10
-0.059303
20
0.013537
30
0.0
11
-0.059303
21
0.012170
31
0.0
0
LINE
8
0
6
CONTINUOUS
10
-0.042589
20
0.004657
30
0.0
11
-0.045141
21
0.004657
31
0.0
0
LINE
8
0
6
CONTINUOUS
10
-0.051555
20
0.004657
30
0.0
11
-0.052921
21
0.004657
31
0.0
0
LINE
8
0
6
CONTINUOUS
10
-0.050107
20
0.008750
30
0.0
11
-0.048288
21
0.007118
31
0.0
0
LINE
8
0
6
CONTINUOUS
10
-0.048178
20
-0.082768
30
0.0
11
-0.042589
21
-0.082768
31
0.0
0
LINE
8
0
6
CONTINUOUS
10
-0.053487
20
-0.082768
30
0.0
11
-0.048178
21
-0.082768
31
0.0
0
LINE
8
0
6
CONTINUOUS
10
-0.058249
20
-0.082768
30
0.0
11
-0.053487
21
-0.082768
31
0.0
0
LINE
8
0
6
CONTINUOUS
10
-0.062226
20
-0.082768
30
0.0
11
-0.058249
21
-0.082768
31
0.0
0
LINE
8
0
6
CONTINUOUS
10
-0.065218
20
-0.082768
30
0.0
11
-0.062226
21
-0.082768
31
0.0
0
LINE
8
0
6
CONTINUOUS
10
-0.067075
20
-0.082768
30
0.0
11
-0.065218
21
-0.082768
31
0.0
0
LINE
8
0
6
CONTINUOUS
10
-0.067705
20
-0.082768
30
0.0
11
-0.067075
21
-0.082768
31
0.0
0
LINE
8
0
6
CONTINUOUS
10
-0.067705
20
-0.081884
30
0.0
11
-0.067705
21
-0.082768
31
0.0
0
LINE
8
0
6
CONTINUOUS
10
-0.049739
20
0.004657
30
0.0
11
-0.051555
21
0.004657
31
0.0
0
LINE
8
0
6
CONTINUOUS
10
-0.059303
20
0.011493
30
0.0
11
-0.058709
21
0.011370
31
0.0
0
LINE
8
0
6
CONTINUOUS
10
-0.055657
20
0.011493
30
0.0
11
-0.053010
21
0.011493
31
0.0
0
LINE
8
0
6
CONTINUOUS
10
-0.057648
20
0.011493
30
0.0
11
-0.055657
21
0.011493
31
0.0
0
LINE
8
0
6
CONTINUOUS
10
-0.046309
20
0.011493
30
0.0
11
-0.042589
21
0.011493
31
0.0
0
LINE
8
0
6
CONTINUOUS
10
-0.058884
20
0.011493
30
0.0
11
-0.057648
21
0.011493
31
0.0
0
LINE
8
0
6
CONTINUOUS
10
-0.049841
20
0.011493
30
0.0
11
-0.046309
21
0.011493
31
0.0
0
LINE
8
0
6
CONTINUOUS
10
-0.059303
20
0.012170
30
0.0
11
-0.059303
21
0.011493
31
0.0
0
LINE
8
0
6
CONTINUOUS
10
-0.059303
20
0.011493
30
0.0
11
-0.058884
21
0.011493
31
0.0
0
LINE
8
0
6
CONTINUOUS
10
-0.053010
20
0.011493
30
0.0
11
-0.049841
21
0.011493
31
0.0
0
LINE
8
0
6
CONTINUOUS
10
-0.058709
20
0.011370
30
0.0
11
-0.053943
21
0.010382
31
0.0
0
LINE
8
0
6
CONTINUOUS
10
-0.048291
20
0.004903
30
0.0
11
-0.048292
21
0.004657
31
0.0
0
LINE
8
0
6
CONTINUOUS
10
-0.054057
20
0.004432
30
0.0
11
-0.054057
21
-0.001042
31
0.0
0
LINE
8
0
6
CONTINUOUS
10
-0.042589
20
0.007118
30
0.0
11
-0.043857
21
0.007118
31
0.0
0
LINE
8
0
6
CONTINUOUS
10
-0.043857
20
0.007118
30
0.0
11
-0.045062
21
0.007118
31
0.0
0
LINE
8
0
6
CONTINUOUS
10
-0.045062
20
0.007118
30
0.0
11
-0.046142
21
0.007118
31
0.0
0
LINE
8
0
6
CONTINUOUS
10
-0.046142
20
0.007118
30
0.0
11
-0.047045
21
0.007118
31
0.0
0
LINE
8
0
6
CONTINUOUS
10
-0.047045
20
0.007118
30
0.0
11
-0.047723
21
0.007118
31
0.0
0
LINE
8
0
6
CONTINUOUS
10
-0.047723
20
0.007118
30
0.0
11
-0.048145
21
0.007118
31
0.0
0
LINE
8
0
6
CONTINUOUS
10
-0.048145
20
0.007118
30
0.0
11
-0.048288
21
0.007118
31
0.0
0
LINE
8
0
6
CONTINUOUS
10
-0.048288
20
0.007118
30
0.0
11
-0.048291
21
0.004903
31
0.0
0
LINE
8
0
6
CONTINUOUS
10
-0.054057
20
-0.001042
30
0.0
11
-0.054057
21
-0.001379
31
0.0
0
LINE
8
0
6
CONTINUOUS
10
-0.067705
20
-0.002373
30
0.0
11
-0.067705
21
-0.031646
31
0.0
0
LINE
8
0
6
CONTINUOUS
10
-0.067705
20
-0.043909
30
0.0
11
-0.067705
21
-0.054878
31
0.0
0
LINE
8
0
6
CONTINUOUS
10
-0.067705
20
-0.031646
30
0.0
11
-0.067705
21
-0.043909
31
0.0
0
LINE
8
0
6
CONTINUOUS
10
-0.042589
20
-0.001379
30
0.0
11
-0.048178
21
-0.001379
31
0.0
0
LINE
8
0
6
CONTINUOUS
10
-0.053487
20
-0.001379
30
0.0
11
-0.058249
21
-0.001379
31
0.0
0
LINE
8
0
6
CONTINUOUS
10
-0.058249
20
-0.001379
30
0.0
11
-0.062226
21
-0.001379
31
0.0
0
LINE
8
0
6
CONTINUOUS
10
-0.062226
20
-0.001379
30
0.0
11
-0.065218
21
-0.001379
31
0.0
0
LINE
8
0
6
CONTINUOUS
10
-0.065218
20
-0.001379
30
0.0
11
-0.067075
21
-0.001379
31
0.0
0
LINE
8
0
6
CONTINUOUS
10
-0.067705
20
-0.001379
30
0.0
11
-0.067705
21
-0.002373
31
0.0
0
LINE
8
0
6
CONTINUOUS
10
-0.067075
20
-0.001379
30
0.0
11
-0.067705
21
-0.001379
31
0.0
0
LINE
8
0
6
CONTINUOUS
10
-0.067705
20
-0.054878
30
0.0
11
-0.067705
21
-0.081884
31
0.0
0
LINE
8
0
6
CONTINUOUS
10
-0.031692
20
-0.001379
30
0.0
11
-0.037001
21
-0.001379
31
0.0
0
LINE
8
0
6
CONTINUOUS
10
-0.035440
20
0.004657
30
0.0
11
-0.037614
21
0.004657
31
0.0
0
LINE
8
0
6
CONTINUOUS
10
-0.031122
20
0.004657
30
0.0
11
-0.031410
21
0.004657
31
0.0
0
LINE
8
0
6
CONTINUOUS
10
-0.031122
20
0.004432
30
0.0
11
-0.031122
21
0.004657
31
0.0
0
LINE
8
0
6
CONTINUOUS
10
-0.037614
20
0.004657
30
0.0
11
-0.040038
21
0.004657
31
0.0
0
LINE
8
0
6
CONTINUOUS
10
-0.031410
20
0.004657
30
0.0
11
-0.032258
21
0.004657
31
0.0
0
LINE
8
0
6
CONTINUOUS
10
-0.029522
20
0.013997
30
0.0
11
-0.032169
21
0.013997
31
0.0
0
LINE
8
0
6
CONTINUOUS
10
-0.027531
20
0.013997
30
0.0
11
-0.029522
21
0.013997
31
0.0
0
LINE
8
0
6
CONTINUOUS
10
-0.038870
20
0.013997
30
0.0
11
-0.042589
21
0.013997
31
0.0
0
LINE
8
0
6
CONTINUOUS
10
-0.026295
20
0.013997
30
0.0
11
-0.027531
21
0.013997
31
0.0
0
LINE
8
0
6
CONTINUOUS
10
-0.035338
20
0.013997
30
0.0
11
-0.038870
21
0.013997
31
0.0
0
LINE
8
0
6
CONTINUOUS
10
-0.025876
20
0.013997
30
0.0
11
-0.026295
21
0.013997
31
0.0
0
LINE
8
0
6
CONTINUOUS
10
-0.025876
20
0.013537
30
0.0
11
-0.025876
21
0.013997
31
0.0
0
LINE
8
0
6
CONTINUOUS
10
-0.032169
20
0.013997
30
0.0
11
-0.035338
21
0.013997
31
0.0
0
LINE
8
0
6
CONTINUOUS
10
-0.035072
20
0.008750
30
0.0
11
-0.031235
21
0.010382
31
0.0
0
LINE
8
0
6
CONTINUOUS
10
-0.025876
20
0.012170
30
0.0
11
-0.025876
21
0.013537
31
0.0
0
LINE
8
0
6
CONTINUOUS
10
-0.040038
20
0.004657
30
0.0
11
-0.042589
21
0.004657
31
0.0
0
LINE
8
0
6
CONTINUOUS
10
-0.032258
20
0.004657
30
0.0
11
-0.033624
21
0.004657
31
0.0
0
LINE
8
0
6
CONTINUOUS
10
-0.036891
20
0.007118
30
0.0
11
-0.035072
21
0.008750
31
0.0
0
LINE
8
0
6
CONTINUOUS
10
-0.042589
20
-0.082768
30
0.0
11
-0.037001
21
-0.082768
31
0.0
0
LINE
8
0
6
CONTINUOUS
10
-0.037001
20
-0.082768
30
0.0
11
-0.031692
21
-0.082768
31
0.0
0
LINE
8
0
6
CONTINUOUS
10
-0.031692
20
-0.082768
30
0.0
11
-0.026930
21
-0.082768
31
0.0
0
LINE
8
0
6
CONTINUOUS
10
-0.026930
20
-0.082768
30
0.0
11
-0.022953
21
-0.082768
31
0.0
0
LINE
8
0
6
CONTINUOUS
10
-0.022953
20
-0.082768
30
0.0
11
-0.019961
21
-0.082768
31
0.0
0
LINE
8
0
6
CONTINUOUS
10
-0.019961
20
-0.082768
30
0.0
11
-0.018103
21
-0.082768
31
0.0
0
LINE
8
0
6
CONTINUOUS
10
-0.017474
20
-0.082768
30
0.0
11
-0.017474
21
-0.081884
31
0.0
0
LINE
8
0
6
CONTINUOUS
10
-0.018103
20
-0.082768
30
0.0
11
-0.017474
21
-0.082768
31
0.0
0
LINE
8
0
6
CONTINUOUS
10
-0.033624
20
0.004657
30
0.0
11
-0.035440
21
0.004657
31
0.0
0
LINE
8
0
6
CONTINUOUS
10
-0.026470
20
0.011370
30
0.0
11
-0.025876
21
0.011493
31
0.0
0
LINE
8
0
6
CONTINUOUS
10
-0.032169
20
0.011493
30
0.0
11
-0.029522
21
0.011493
31
0.0
0
LINE
8
0
6
CONTINUOUS
10
-0.029522
20
0.011493
30
0.0
11
-0.027531
21
0.011493
31
0.0
0
LINE
8
0
6
CONTINUOUS
10
-0.042589
20
0.011493
30
0.0
11
-0.038870
21
0.011493
31
0.0
0
LINE
8
0
6
CONTINUOUS
10
-0.027531
20
0.011493
30
0.0
11
-0.026295
21
0.011493
31
0.0
0
LINE
8
0
6
CONTINUOUS
10
-0.038870
20
0.011493
30
0.0
11
-0.035338
21
0.011493
31
0.0
0
LINE
8
0
6
CONTINUOUS
10
-0.026295
20
0.011493
30
0.0
11
-0.025876
21
0.011493
31
0.0
0
LINE
8
0
6
CONTINUOUS
10
-0.025876
20
0.011493
30
0.0
11
-0.025876
21
0.012170
31
0.0
0
LINE
8
0
6
CONTINUOUS
10
-0.035338
20
0.011493
30
0.0
11
-0.032169
21
0.011493
31
0.0
0
LINE
8
0
6
CONTINUOUS
10
-0.031235
20
0.010382
30
0.0
11
-0.026470
21
0.011370
31
0.0
0
LINE
8
0
6
CONTINUOUS
10
-0.036887
20
0.004657
30
0.0
11
-0.036888
21
0.004903
31
0.0
0
LINE
8
0
6
CONTINUOUS
10
-0.031122
20
-0.001042
30
0.0
11
-0.031122
21
0.004432
31
0.0
0
LINE
8
0
6
CONTINUOUS
10
-0.041321
20
0.007118
30
0.0
11
-0.042589
21
0.007118
31
0.0
0
LINE
8
0
6
CONTINUOUS
10
-0.040117
20
0.007118
30
0.0
11
-0.041321
21
0.007118
31
0.0
0
LINE
8
0
6
CONTINUOUS
10
-0.039037
20
0.007118
30
0.0
11
-0.040117
21
0.007118
31
0.0
0
LINE
8
0
6
CONTINUOUS
10
-0.038134
20
0.007118
30
0.0
11
-0.039037
21
0.007118
31
0.0
0
LINE
8
0
6
CONTINUOUS
10
-0.037455
20
0.007118
30
0.0
11
-0.038134
21
0.007118
31
0.0
0
LINE
8
0
6
CONTINUOUS
10
-0.037034
20
0.007118
30
0.0
11
-0.037455
21
0.007118
31
0.0
0
LINE
8
0
6
CONTINUOUS
10
-0.036888
20
0.004903
30
0.0
11
-0.036891
21
0.007118
31
0.0
0
LINE
8
0
6
CONTINUOUS
10
-0.036891
20
0.007118
30
0.0
11
-0.037034
21
0.007118
31
0.0
0
LINE
8
0
6
CONTINUOUS
10
-0.031122
20
-0.001379
30
0.0
11
-0.031122
21
-0.001042
31
0.0
0
LINE
8
0
6
CONTINUOUS
10
-0.017474
20
-0.031646
30
0.0
11
-0.017474
21
-0.002373
31
0.0
0
LINE
8
0
6
CONTINUOUS
10
-0.017474
20
-0.054878
30
0.0
11
-0.017474
21
-0.043909
31
0.0
0
LINE
8
0
6
CONTINUOUS
10
-0.017474
20
-0.043909
30
0.0
11
-0.017474
21
-0.031646
31
0.0
0
LINE
8
0
6
CONTINUOUS
10
-0.037001
20
-0.001379
30
0.0
11
-0.042589
21
-0.001379
31
0.0
0
LINE
8
0
6
CONTINUOUS
10
-0.026930
20
-0.001379
30
0.0
11
-0.031692
21
-0.001379
31
0.0
0
LINE
8
0
6
CONTINUOUS
10
-0.022953
20
-0.001379
30
0.0
11
-0.026930
21
-0.001379
31
0.0
0
LINE
8
0
6
CONTINUOUS
10
-0.019961
20
-0.001379
30
0.0
11
-0.022953
21
-0.001379
31
0.0
0
LINE
8
0
6
CONTINUOUS
10
-0.018103
20
-0.001379
30
0.0
11
-0.019961
21
-0.001379
31
0.0
0
LINE
8
0
6
CONTINUOUS
10
-0.017474
20
-0.001379
30
0.0
11
-0.018103
21
-0.001379
31
0.0
0
LINE
8
0
6
CONTINUOUS
10
-0.017474
20
-0.002373
30
0.0
11
-0.017474
21
-0.001379
31
0.0
0
LINE
8
0
6
CONTINUOUS
10
-0.017474
20
-0.081884
30
0.0
11
-0.017474
21
-0.054878
31
0.0
0
LINE
8
0
6
CONTINUOUS
10
-0.067705
20
-0.082768
30
0.0
11
-0.067705
21
-0.083651
31
0.0
0
LINE
8
0
6
CONTINUOUS
10
-0.067075
20
-0.082768
30
0.0
11
-0.067705
21
-0.082768
31
0.0
0
LINE
8
0
6
CONTINUOUS
10
-0.065218
20
-0.082768
30
0.0
11
-0.067075
21
-0.082768
31
0.0
0
LINE
8
0
6
CONTINUOUS
10
-0.062226
20
-0.082768
30
0.0
11
-0.065218
21
-0.082768
31
0.0
0
LINE
8
0
6
CONTINUOUS
10
-0.058249
20
-0.082768
30
0.0
11
-0.062226
21
-0.082768
31
0.0
0
LINE
8
0
6
CONTINUOUS
10
-0.053487
20
-0.082768
30
0.0
11
-0.058249
21
-0.082768
31
0.0
0
LINE
8
0
6
CONTINUOUS
10
-0.048178
20
-0.082768
30
0.0
11
-0.053487
21
-0.082768
31
0.0
0
LINE
8
0
6
CONTINUOUS
10
-0.042589
20
-0.082768
30
0.0
11
-0.048178
21
-0.082768
31
0.0
0
LINE
8
0
6
CONTINUOUS
10
-0.037001
20
-0.082768
30
0.0
11
-0.042589
21
-0.082768
31
0.0
0
LINE
8
0
6
CONTINUOUS
10
-0.031692
20
-0.082768
30
0.0
11
-0.037001
21
-0.082768
31
0.0
0
LINE
8
0
6
CONTINUOUS
10
-0.026930
20
-0.082768
30
0.0
11
-0.031692
21
-0.082768
31
0.0
0
LINE
8
0
6
CONTINUOUS
10
-0.022953
20
-0.082768
30
0.0
11
-0.026930
21
-0.082768
31
0.0
0
LINE
8
0
6
CONTINUOUS
10
-0.019961
20
-0.082768
30
0.0
11
-0.022953
21
-0.082768
31
0.0
0
LINE
8
0
6
CONTINUOUS
10
-0.018103
20
-0.082768
30
0.0
11
-0.019961
21
-0.082768
31
0.0
0
LINE
8
0
6
CONTINUOUS
10
-0.017474
20
-0.083651
30
0.0
11
-0.017474
21
-0.082768
31
0.0
0
LINE
8
0
6
CONTINUOUS
10
-0.017474
20
-0.082768
30
0.0
11
-0.018103
21
-0.082768
31
0.0
0
LINE
8
0
6
CONTINUOUS
10
-0.067705
20
-0.164761
30
0.0
11
-0.067075
21
-0.164761
31
0.0
0
LINE
8
0
6
CONTINUOUS
10
-0.067705
20
-0.163878
30
0.0
11
-0.067705
21
-0.164761
31
0.0
0
LINE
8
0
6
CONTINUOUS
10
-0.067075
20
-0.164761
30
0.0
11
-0.065218
21
-0.164761
31
0.0
0
LINE
8
0
6
CONTINUOUS
10
-0.065218
20
-0.164761
30
0.0
11
-0.062226
21
-0.164761
31
0.0
0
LINE
8
0
6
CONTINUOUS
10
-0.062226
20
-0.164761
30
0.0
11
-0.058249
21
-0.164761
31
0.0
0
LINE
8
0
6
CONTINUOUS
10
-0.058249
20
-0.164761
30
0.0
11
-0.053487
21
-0.164761
31
0.0
0
LINE
8
0
6
CONTINUOUS
10
-0.053487
20
-0.164761
30
0.0
11
-0.048178
21
-0.164761
31
0.0
0
LINE
8
0
6
CONTINUOUS
10
-0.048178
20
-0.164761
30
0.0
11
-0.042589
21
-0.164761
31
0.0
0
LINE
8
0
6
CONTINUOUS
10
-0.042589
20
-0.164761
30
0.0
11
-0.037001
21
-0.164761
31
0.0
0
LINE
8
0
6
CONTINUOUS
10
-0.037001
20
-0.164761
30
0.0
11
-0.031692
21
-0.164761
31
0.0
0
LINE
8
0
6
CONTINUOUS
10
-0.031692
20
-0.164761
30
0.0
11
-0.026930
21
-0.164761
31
0.0
0
LINE
8
0
6
CONTINUOUS
10
-0.026930
20
-0.164761
30
0.0
11
-0.022953
21
-0.164761
31
0.0
0
LINE
8
0
6
CONTINUOUS
10
-0.022953
20
-0.164761
30
0.0
11
-0.019961
21
-0.164761
31
0.0
0
LINE
8
0
6
CONTINUOUS
10
-0.019961
20
-0.164761
30
0.0
11
-0.018103
21
-0.164761
31
0.0
0
LINE
8
0
6
CONTINUOUS
10
-0.018103
20
-0.164761
30
0.0
11
-0.017474
21
-0.164761
31
0.0
0
LINE
8
0
6
CONTINUOUS
10
-0.017474
20
-0.164761
30
0.0
11
-0.017474
21
-0.163878
31
0.0
0
LINE
8
0
6
CONTINUOUS
10
-0.017474
20
-0.163878
30
0.0
11
-0.017474
21
-0.083651
31
0.0
0
LINE
8
0
6
CONTINUOUS
10
-0.067705
20
-0.083651
30
0.0
11
-0.067705
21
-0.163878
31
0.0
0
LINE
8
0
6
CONTINUOUS
10
-0.028619
20
0.008898
30
0.0
11
-0.024706
21
0.011382
31
0.0
0
LINE
8
0
6
CONTINUOUS
10
-0.060478
20
0.011301
30
0.0
11
-0.056453
21
0.008836
31
0.0
0
LINE
8
0
6
CONTINUOUS
10
-0.023426
20
-0.000183
30
0.0
11
-0.020457
21
-0.000183
31
0.0
0
LINE
8
0
6
CONTINUOUS
10
-0.020457
20
-0.000183
30
0.0
11
-0.018748
21
-0.000183
31
0.0
0
LINE
8
0
6
CONTINUOUS
10
-0.031122
20
-0.000183
30
0.0
11
-0.029551
21
-0.000183
31
0.0
0
LINE
8
0
6
CONTINUOUS
10
-0.058136
20
-0.000183
30
0.0
11
-0.054057
21
-0.000183
31
0.0
0
LINE
8
0
6
CONTINUOUS
10
-0.061981
20
-0.000183
30
0.0
11
-0.058136
21
-0.000183
31
0.0
0
LINE
8
0
6
CONTINUOUS
10
-0.064828
20
-0.000183
30
0.0
11
-0.061981
21
-0.000183
31
0.0
0
LINE
8
0
6
CONTINUOUS
10
-0.066308
20
-0.000183
30
0.0
11
-0.064828
21
-0.000183
31
0.0
0
LINE
8
0
6
CONTINUOUS
10
-0.066455
20
-0.000183
30
0.0
11
-0.066308
21
-0.000183
31
0.0
0
LINE
8
0
6
CONTINUOUS
10
-0.054118
20
-0.000096
30
0.0
11
-0.066455
21
-0.000183
31
0.0
0
LINE
8
0
6
CONTINUOUS
10
-0.018748
20
-0.000183
30
0.0
11
-0.030888
21
-0.000044
31
0.0
0
LINE
8
0
6
CONTINUOUS
10
-0.029551
20
-0.000183
30
0.0
11
-0.023426
21
-0.000183
31
0.0
0
LINE
8
0
6
CONTINUOUS
10
-0.017223
20
0.002221
30
0.0
11
-0.016050
21
0.041308
31
0.0
0
LINE
8
0
6
CONTINUOUS
10
-0.069210
20
0.042841
30
0.0
11
-0.067966
21
0.002310
31
0.0
0
LINE
8
0
6
CONTINUOUS
10
-0.060478
20
0.011301
30
0.0
11
-0.059685
21
0.011303
31
0.0
0
LINE
8
0
6
CONTINUOUS
10
-0.060640
20
0.013388
30
0.0
11
-0.060478
21
0.011301
31
0.0
0
LINE
8
0
6
CONTINUOUS
10
-0.025421
20
0.011382
30
0.0
11
-0.024706
21
0.011382
31
0.0
0
LINE
8
0
6
CONTINUOUS
10
-0.024706
20
0.011382
30
0.0
11
-0.024540
21
0.013055
31
0.0
0
LINE
8
0
6
CONTINUOUS
10
-0.027186
20
0.011382
30
0.0
11
-0.025421
21
0.011382
31
0.0
0
LINE
8
0
6
CONTINUOUS
10
-0.054097
20
0.005781
30
0.0
11
-0.054118
21
-0.000096
31
0.0
0
LINE
8
0
6
CONTINUOUS
10
-0.030888
20
-0.000044
30
0.0
11
-0.030909
21
0.005833
31
0.0
0
LINE
8
0
6
CONTINUOUS
10
-0.031353
20
-0.000044
30
0.0
11
-0.030888
21
-0.000044
31
0.0
0
LINE
8
0
6
CONTINUOUS
10
-0.032516
20
0.005834
30
0.0
11
-0.031372
21
0.005834
31
0.0
0
LINE
8
0
6
CONTINUOUS
10
-0.030909
20
0.005833
30
0.0
11
-0.028619
21
0.008898
31
0.0
0
LINE
8
0
6
CONTINUOUS
10
-0.031372
20
0.005834
30
0.0
11
-0.030909
21
0.005833
31
0.0
0
LINE
8
0
6
CONTINUOUS
10
-0.054097
20
0.005781
30
0.0
11
-0.053583
21
0.005783
31
0.0
0
LINE
8
0
6
CONTINUOUS
10
-0.056453
20
0.008836
30
0.0
11
-0.054097
21
0.005781
31
0.0
0
LINE
8
0
6
CONTINUOUS
10
-0.053583
20
0.005783
30
0.0
11
-0.052264
21
0.005790
31
0.0
0
LINE
8
0
6
CONTINUOUS
10
-0.034266
20
0.005833
30
0.0
11
-0.032516
21
0.005834
31
0.0
0
LINE
8
0
6
CONTINUOUS
10
-0.052264
20
0.005790
30
0.0
11
-0.050323
21
0.005799
31
0.0
0
LINE
8
0
6
CONTINUOUS
10
-0.050323
20
0.005799
30
0.0
11
-0.047858
21
0.005811
31
0.0
0
LINE
8
0
6
CONTINUOUS
10
-0.036551
20
0.005834
30
0.0
11
-0.034266
21
0.005833
31
0.0
0
LINE
8
0
6
CONTINUOUS
10
-0.001419
20
0.071105
30
0.0
11
0.008198
21
0.073495
31
0.0
0
LINE
8
0
6
CONTINUOUS
10
0.008308
20
0.073821
30
0.0
11
-0.001419
21
0.071105
31
0.0
0
LINE
8
0
6
CONTINUOUS
10
-0.001160
20
0.071109
30
0.0
11
0.008308
21
0.073821
31
0.0
0
LINE
8
0
6
CONTINUOUS
10
0.050186
20
0.070396
30
0.0
11
0.063390
21
0.064788
31
0.0
0
LINE
8
0
6
CONTINUOUS
10
0.063587
20
0.065580
30
0.0
11
0.050186
21
0.070396
31
0.0
0
LINE
8
0
6
CONTINUOUS
10
0.050075
20
0.070378
30
0.0
11
0.063587
21
0.065580
31
0.0
0
LINE
8
0
6
CONTINUOUS
10
-0.078609
20
0.145588
30
0.0
11
-0.077169
21
0.145576
31
0.0
0
LINE
8
0
6
CONTINUOUS
10
-0.077370
20
0.145905
30
0.0
11
-0.076415
21
0.146167
31
0.0
0
LINE
8
0
6
CONTINUOUS
10
-0.073120
20
0.148182
30
0.0
11
-0.077370
21
0.145905
31
0.0
0
LINE
8
0
6
CONTINUOUS
10
-0.062122
20
0.070973
30
0.0
11
-0.060640
21
0.013388
31
0.0
0
LINE
8
0
6
CONTINUOUS
10
-0.078055
20
0.145489
30
0.0
11
-0.078976
21
0.146277
31
0.0
0
LINE
8
0
6
CONTINUOUS
10
-0.078976
20
0.146277
30
0.0
11
-0.072217
21
0.138729
31
0.0
0
LINE
8
0
6
CONTINUOUS
10
0.081118
20
0.057388
30
0.0
11
0.081213
21
0.056140
31
0.0
0
LINE
8
0
6
CONTINUOUS
10
0.081213
20
0.056140
30
0.0
11
0.081574
21
0.057576
31
0.0
0
LINE
8
0
6
CONTINUOUS
10
0.077156
20
0.059263
30
0.0
11
0.078647
21
0.058702
31
0.0
0
LINE
8
0
6
CONTINUOUS
10
0.081574
20
0.057576
30
0.0
11
0.080807
21
0.054925
31
0.0
0
LINE
8
0
6
CONTINUOUS
10
0.080807
20
0.054925
30
0.0
11
0.081318
21
0.056529
31
0.0
0
LINE
8
0
6
CONTINUOUS
10
0.080139
20
0.058140
30
0.0
11
0.081118
21
0.057388
31
0.0
0
LINE
8
0
6
CONTINUOUS
10
0.081118
20
0.057388
30
0.0
11
0.081306
21
0.058595
31
0.0
0
LINE
8
0
6
CONTINUOUS
10
0.063390
20
0.064788
30
0.0
11
0.077156
21
0.059263
31
0.0
0
LINE
8
0
6
CONTINUOUS
10
-0.024540
20
0.013055
30
0.0
11
-0.023020
21
0.066857
31
0.0
0
LINE
8
0
6
CONTINUOUS
10
0.078647
20
0.058702
30
0.0
11
0.080139
21
0.058140
31
0.0
0
LINE
8
0
6
CONTINUOUS
10
0.082349
20
0.060451
30
0.0
11
0.083154
21
0.063382
31
0.0
0
LINE
8
0
6
CONTINUOUS
10
0.082085
20
0.059392
30
0.0
11
0.082349
21
0.060451
31
0.0
0
LINE
8
0
6
CONTINUOUS
10
0.082852
20
0.062545
30
0.0
11
0.082085
21
0.059392
31
0.0
0
LINE
8
0
6
CONTINUOUS
10
-0.021074
20
-0.000183
30
0.0
11
-0.018624
21
-0.000183
31
0.0
0
LINE
8
0
6
CONTINUOUS
10
0.019425
20
0.072113
30
0.0
11
0.032387
21
0.068526
31
0.0
0
LINE
8
0
6
CONTINUOUS
10
-0.078576
20
0.164216
30
0.0
11
-0.079863
21
0.162736
31
0.0
0
LINE
8
0
6
CONTINUOUS
10
-0.079863
20
0.162736
30
0.0
11
-0.077676
21
0.164446
31
0.0
0
LINE
8
0
6
CONTINUOUS
10
-0.079343
20
0.163307
30
0.0
11
-0.079863
21
0.162736
31
0.0
0
LINE
8
0
6
CONTINUOUS
10
-0.077676
20
0.164446
30
0.0
11
-0.079343
21
0.163307
31
0.0
0
LINE
8
0
6
CONTINUOUS
10
0.088257
20
0.083838
30
0.0
11
0.087796
21
0.085519
31
0.0
0
LINE
8
0
6
CONTINUOUS
10
0.088278
20
0.083529
30
0.0
11
0.088257
21
0.083838
31
0.0
0
LINE
8
0
6
CONTINUOUS
10
0.087796
20
0.085519
30
0.0
11
0.088278
21
0.083529
31
0.0
0
LINE
8
0
6
CONTINUOUS
10
0.086480
20
0.075796
30
0.0
11
0.088304
21
0.083520
31
0.0
0
LINE
8
0
6
CONTINUOUS
10
-0.064849
20
0.153372
30
0.0
11
-0.066356
21
0.153013
31
0.0
0
LINE
8
0
6
CONTINUOUS
10
0.088304
20
0.083520
30
0.0
11
0.086291
21
0.075373
31
0.0
0
LINE
8
0
6
CONTINUOUS
10
0.088241
20
0.083245
30
0.0
11
0.088304
21
0.083520
31
0.0
0
LINE
8
0
6
CONTINUOUS
10
0.086291
20
0.075373
30
0.0
11
0.088241
21
0.083245
31
0.0
0
LINE
8
0
6
CONTINUOUS
10
0.086058
20
0.076304
30
0.0
11
0.087356
21
0.083760
31
0.0
0
LINE
8
0
6
CONTINUOUS
10
-0.063747
20
0.110422
30
0.0
11
-0.063345
21
0.101118
31
0.0
0
LINE
8
0
6
CONTINUOUS
10
-0.017258
20
0.079959
30
0.0
11
-0.011462
21
0.084340
31
0.0
0
LINE
8
0
6
CONTINUOUS
10
-0.021674
20
0.074186
30
0.0
11
-0.017258
21
0.079959
31
0.0
0
LINE
8
0
6
CONTINUOUS
10
-0.062945
20
0.091354
30
0.0
11
-0.062519
21
0.081263
31
0.0
0
LINE
8
0
6
CONTINUOUS
10
-0.061178
20
0.152515
30
0.0
11
-0.063030
21
0.153353
31
0.0
0
LINE
8
0
6
CONTINUOUS
10
-0.076298
20
0.164689
30
0.0
11
-0.077271
21
0.164761
31
0.0
0
LINE
8
0
6
CONTINUOUS
10
-0.075082
20
0.164563
30
0.0
11
-0.076298
21
0.164689
31
0.0
0
LINE
8
0
6
CONTINUOUS
10
-0.088304
20
0.146069
30
0.0
11
-0.087818
21
0.142937
31
0.0
0
LINE
8
0
6
CONTINUOUS
10
-0.087818
20
0.142937
30
0.0
11
-0.087003
21
0.141752
31
0.0
0
LINE
8
0
6
CONTINUOUS
10
-0.079863
20
0.162736
30
0.0
11
-0.084693
21
0.154948
31
0.0
0
LINE
8
0
6
CONTINUOUS
10
-0.087138
20
0.150165
30
0.0
11
-0.088304
21
0.146069
31
0.0
0
LINE
8
0
6
CONTINUOUS
10
-0.077271
20
0.164761
30
0.0
11
-0.078576
21
0.164216
31
0.0
0
LINE
8
0
6
CONTINUOUS
10
-0.076370
20
0.164626
30
0.0
11
-0.077271
21
0.164761
31
0.0
0
LINE
8
0
6
CONTINUOUS
10
0.087730
20
0.085614
30
0.0
11
0.086619
21
0.087109
31
0.0
0
LINE
8
0
6
CONTINUOUS
10
0.086619
20
0.087109
30
0.0
11
0.084706
21
0.088171
31
0.0
0
LINE
8
0
6
CONTINUOUS
10
-0.055501
20
0.147619
30
0.0
11
-0.061178
21
0.152515
31
0.0
0
LINE
8
0
6
CONTINUOUS
10
0.020787
20
0.107716
30
0.0
11
0.009269
21
0.111310
31
0.0
0
LINE
8
0
6
CONTINUOUS
10
0.032725
20
0.104066
30
0.0
11
0.020787
21
0.107716
31
0.0
0
LINE
8
0
6
CONTINUOUS
10
0.082243
20
0.059984
30
0.0
11
0.084131
21
0.067027
31
0.0
0
LINE
8
0
6
CONTINUOUS
10
0.084131
20
0.067027
30
0.0
11
0.086480
21
0.075796
31
0.0
0
LINE
8
0
6
CONTINUOUS
10
0.088304
20
0.083520
30
0.0
11
0.087730
21
0.085614
31
0.0
0
LINE
8
0
6
CONTINUOUS
10
-0.063030
20
0.153353
30
0.0
11
-0.064849
21
0.153372
31
0.0
0
LINE
8
0
6
CONTINUOUS
10
0.009269
20
0.111310
30
0.0
11
-0.001961
21
0.115406
31
0.0
0
LINE
8
0
6
CONTINUOUS
10
0.045365
20
0.100201
30
0.0
11
0.032725
21
0.104066
31
0.0
0
LINE
8
0
6
CONTINUOUS
10
0.058546
20
0.096170
30
0.0
11
0.045365
21
0.100201
31
0.0
0
LINE
8
0
6
CONTINUOUS
10
0.071772
20
0.092126
30
0.0
11
0.058546
21
0.096170
31
0.0
0
LINE
8
0
6
CONTINUOUS
10
0.084706
20
0.088171
30
0.0
11
0.071772
21
0.092126
31
0.0
0
LINE
8
0
6
CONTINUOUS
10
-0.066356
20
0.153013
30
0.0
11
-0.073120
21
0.148182
31
0.0
0
LINE
8
0
6
CONTINUOUS
10
0.086357
20
0.087278
30
0.0
11
0.085081
21
0.087995
31
0.0
0
LINE
8
0
6
CONTINUOUS
10
0.086587
20
0.087086
30
0.0
11
0.086357
21
0.087278
31
0.0
0
LINE
8
0
6
CONTINUOUS
10
0.085081
20
0.087995
30
0.0
11
0.086587
21
0.087086
31
0.0
0
LINE
8
0
6
CONTINUOUS
10
0.086619
20
0.087109
30
0.0
11
0.087837
21
0.085259
31
0.0
0
LINE
8
0
6
CONTINUOUS
10
0.086912
20
0.086675
30
0.0
11
0.086619
21
0.087109
31
0.0
0
LINE
8
0
6
CONTINUOUS
10
0.087837
20
0.085259
30
0.0
11
0.086912
21
0.086675
31
0.0
0
LINE
8
0
6
CONTINUOUS
10
0.087202
20
0.085735
30
0.0
11
0.086128
21
0.087065
31
0.0
0
LINE
8
0
6
CONTINUOUS
10
0.076500
20
0.055307
30
0.0
11
0.078048
21
0.054874
31
0.0
0
LINE
8
0
6
CONTINUOUS
10
-0.066311
20
0.157185
30
0.0
11
-0.073968
21
0.164017
31
0.0
0
LINE
8
0
6
CONTINUOUS
10
-0.057903
20
0.149671
30
0.0
11
-0.066311
21
0.157185
31
0.0
0
LINE
8
0
6
CONTINUOUS
10
-0.048889
20
0.142089
30
0.0
11
-0.057903
21
0.149671
31
0.0
0
LINE
8
0
6
CONTINUOUS
10
-0.073968
20
0.164017
30
0.0
11
-0.075082
21
0.164563
31
0.0
0
LINE
8
0
6
CONTINUOUS
10
0.087121
20
0.084902
30
0.0
11
0.086483
21
0.086177
31
0.0
0
LINE
8
0
6
CONTINUOUS
10
0.087277
20
0.083505
30
0.0
11
0.087121
21
0.084902
31
0.0
0
LINE
8
0
6
CONTINUOUS
10
-0.039582
20
0.135413
30
0.0
11
-0.048889
21
0.142089
31
0.0
0
LINE
8
0
6
CONTINUOUS
10
-0.050351
20
0.141839
30
0.0
11
-0.040611
21
0.134729
31
0.0
0
LINE
8
0
6
CONTINUOUS
10
-0.030096
20
0.129427
30
0.0
11
-0.039582
21
0.135413
31
0.0
0
LINE
8
0
6
CONTINUOUS
10
-0.084693
20
0.154948
30
0.0
11
-0.079343
21
0.163307
31
0.0
0
LINE
8
0
6
CONTINUOUS
10
-0.079343
20
0.163307
30
0.0
11
-0.084218
21
0.156029
31
0.0
0
LINE
8
0
6
CONTINUOUS
10
-0.084218
20
0.156029
30
0.0
11
-0.087138
21
0.150165
31
0.0
0
LINE
8
0
6
CONTINUOUS
10
-0.087138
20
0.150165
30
0.0
11
-0.084693
21
0.154948
31
0.0
0
LINE
8
0
6
CONTINUOUS
10
-0.019768
20
0.123641
30
0.0
11
-0.030096
21
0.129427
31
0.0
0
LINE
8
0
6
CONTINUOUS
10
-0.009285
20
0.118570
30
0.0
11
-0.019768
21
0.123641
31
0.0
0
LINE
8
0
6
CONTINUOUS
10
0.001637
20
0.114014
30
0.0
11
-0.009285
21
0.118570
31
0.0
0
LINE
8
0
6
CONTINUOUS
10
-0.009485
20
0.117622
30
0.0
11
0.001479
21
0.113043
31
0.0
0
LINE
8
0
6
CONTINUOUS
10
0.080982
20
0.058730
30
0.0
11
0.080107
21
0.055847
31
0.0
0
LINE
8
0
6
CONTINUOUS
10
0.013677
20
0.109891
30
0.0
11
0.001637
21
0.114014
31
0.0
0
LINE
8
0
6
CONTINUOUS
10
0.001479
20
0.113043
30
0.0
11
0.013606
21
0.108911
31
0.0
0
LINE
8
0
6
CONTINUOUS
10
0.026686
20
0.105913
30
0.0
11
0.013677
21
0.109891
31
0.0
0
LINE
8
0
6
CONTINUOUS
10
0.013606
20
0.108911
30
0.0
11
0.026616
21
0.104916
31
0.0
0
LINE
8
0
6
CONTINUOUS
10
-0.078576
20
0.164216
30
0.0
11
-0.076298
21
0.164689
31
0.0
0
LINE
8
0
6
CONTINUOUS
10
-0.077676
20
0.164446
30
0.0
11
-0.078576
21
0.164216
31
0.0
0
LINE
8
0
6
CONTINUOUS
10
-0.076298
20
0.164689
30
0.0
11
-0.077676
21
0.164446
31
0.0
0
LINE
8
0
6
CONTINUOUS
10
0.041353
20
0.101428
30
0.0
11
0.026686
21
0.105913
31
0.0
0
LINE
8
0
6
CONTINUOUS
10
0.056574
20
0.096773
30
0.0
11
0.041353
21
0.101428
31
0.0
0
LINE
8
0
6
CONTINUOUS
10
0.072192
20
0.091998
30
0.0
11
0.056574
21
0.096773
31
0.0
0
LINE
8
0
6
CONTINUOUS
10
0.056486
20
0.095807
30
0.0
11
0.072111
21
0.091028
31
0.0
0
LINE
8
0
6
CONTINUOUS
10
0.079597
20
0.054444
30
0.0
11
0.080807
21
0.054925
31
0.0
0
LINE
8
0
6
CONTINUOUS
10
0.087626
20
0.085825
30
0.0
11
0.086587
21
0.087086
31
0.0
0
LINE
8
0
6
CONTINUOUS
10
0.087796
20
0.085519
30
0.0
11
0.087626
21
0.085825
31
0.0
0
LINE
8
0
6
CONTINUOUS
10
0.084706
20
0.088171
30
0.0
11
0.086912
21
0.086675
31
0.0
0
LINE
8
0
6
CONTINUOUS
10
0.084979
20
0.088007
30
0.0
11
0.084706
21
0.088171
31
0.0
0
LINE
8
0
6
CONTINUOUS
10
0.086912
20
0.086675
30
0.0
11
0.084979
21
0.088007
31
0.0
0
LINE
8
0
6
CONTINUOUS
10
-0.048718
20
0.142072
30
0.0
11
-0.055501
21
0.147619
31
0.0
0
LINE
8
0
6
CONTINUOUS
10
-0.041063
20
0.136464
30
0.0
11
-0.048718
21
0.142072
31
0.0
0
LINE
8
0
6
CONTINUOUS
10
0.086573
20
0.076141
30
0.0
11
0.088070
21
0.081729
31
0.0
0
LINE
8
0
6
CONTINUOUS
10
0.087910
20
0.081418
30
0.0
11
0.086277
21
0.075424
31
0.0
0
LINE
8
0
6
CONTINUOUS
10
0.084772
20
0.069421
30
0.0
11
0.086573
21
0.076141
31
0.0
0
LINE
8
0
6
CONTINUOUS
10
0.086277
20
0.075424
30
0.0
11
0.084482
21
0.068797
31
0.0
0
LINE
8
0
6
CONTINUOUS
10
0.081598
20
0.057574
30
0.0
11
0.082085
21
0.059392
31
0.0
0
LINE
8
0
6
CONTINUOUS
10
0.082085
20
0.059392
30
0.0
11
0.081198
21
0.056360
31
0.0
0
LINE
8
0
6
CONTINUOUS
10
-0.022749
20
0.125235
30
0.0
11
-0.032339
21
0.130781
31
0.0
0
LINE
8
0
6
CONTINUOUS
10
-0.001652
20
0.115304
30
0.0
11
-0.012394
21
0.120006
31
0.0
0
LINE
8
0
6
CONTINUOUS
10
0.084881
20
0.088104
30
0.0
11
0.072192
21
0.091998
31
0.0
0
LINE
8
0
6
CONTINUOUS
10
0.085081
20
0.087995
30
0.0
11
0.084881
21
0.088104
31
0.0
0
LINE
8
0
6
CONTINUOUS
10
0.072192
20
0.091998
30
0.0
11
0.085081
21
0.087995
31
0.0
0
LINE
8
0
6
CONTINUOUS
10
0.083154
20
0.063382
30
0.0
11
0.084772
21
0.069421
31
0.0
0
LINE
8
0
6
CONTINUOUS
10
0.084482
20
0.068797
30
0.0
11
0.082852
21
0.062545
31
0.0
0
LINE
8
0
6
CONTINUOUS
10
0.081213
20
0.056140
30
0.0
11
0.081598
21
0.057574
31
0.0
0
LINE
8
0
6
CONTINUOUS
10
0.080807
20
0.054925
30
0.0
11
0.081213
21
0.056140
31
0.0
0
LINE
8
0
6
CONTINUOUS
10
0.081198
20
0.056360
30
0.0
11
0.080807
21
0.054925
31
0.0
0
LINE
8
0
6
CONTINUOUS
10
0.081318
20
0.056529
30
0.0
11
0.082243
21
0.059984
31
0.0
0
LINE
8
0
6
CONTINUOUS
10
0.087730
20
0.085614
30
0.0
11
0.088241
21
0.083245
31
0.0
0
LINE
8
0
6
CONTINUOUS
10
0.087837
20
0.085259
30
0.0
11
0.087730
21
0.085614
31
0.0
0
LINE
8
0
6
CONTINUOUS
10
0.088241
20
0.083245
30
0.0
11
0.087837
21
0.085259
31
0.0
0
LINE
8
0
6
CONTINUOUS
10
-0.032339
20
0.130781
30
0.0
11
-0.041063
21
0.136464
31
0.0
0
LINE
8
0
6
CONTINUOUS
10
-0.012394
20
0.120006
30
0.0
11
-0.022749
21
0.125235
31
0.0
0
LINE
8
0
6
CONTINUOUS
10
-0.001961
20
0.115406
30
0.0
11
0.009448
21
0.111189
31
0.0
0
LINE
8
0
6
CONTINUOUS
10
0.009448
20
0.111189
30
0.0
11
-0.001652
21
0.115304
31
0.0
0
LINE
8
0
6
CONTINUOUS
10
0.004295
20
0.086762
30
0.0
11
-0.004108
21
0.087369
31
0.0
0
LINE
8
0
6
CONTINUOUS
10
-0.004642
20
0.087338
30
0.0
11
0.004295
21
0.086762
31
0.0
0
LINE
8
0
6
CONTINUOUS
10
-0.004108
20
0.087369
30
0.0
11
-0.004642
21
0.087338
31
0.0
0
LINE
8
0
6
CONTINUOUS
10
-0.004108
20
0.087369
30
0.0
11
0.004807
21
0.086456
31
0.0
0
LINE
8
0
6
CONTINUOUS
10
-0.023020
20
0.066857
30
0.0
11
-0.021674
21
0.074186
31
0.0
0
LINE
8
0
6
CONTINUOUS
10
0.086128
20
0.087065
30
0.0
11
0.084508
21
0.087951
31
0.0
0
LINE
8
0
6
CONTINUOUS
10
0.088070
20
0.081729
30
0.0
11
0.088278
21
0.083529
31
0.0
0
LINE
8
0
6
CONTINUOUS
10
0.088278
20
0.083529
30
0.0
11
0.087910
21
0.081418
31
0.0
0
LINE
8
0
6
CONTINUOUS
10
-0.079936
20
0.145305
30
0.0
11
-0.078609
21
0.145588
31
0.0
0
LINE
8
0
6
CONTINUOUS
10
-0.076415
20
0.146167
30
0.0
11
-0.079936
21
0.145305
31
0.0
0
LINE
8
0
6
CONTINUOUS
10
0.081306
20
0.058595
30
0.0
11
0.082056
21
0.060952
31
0.0
0
LINE
8
0
6
CONTINUOUS
10
0.082056
20
0.060952
30
0.0
11
0.083833
21
0.067688
31
0.0
0
LINE
8
0
6
CONTINUOUS
10
0.083833
20
0.067688
30
0.0
11
0.086058
21
0.076304
31
0.0
0
LINE
8
0
6
CONTINUOUS
10
0.087356
20
0.083760
30
0.0
11
0.087202
21
0.085735
31
0.0
0
LINE
8
0
6
CONTINUOUS
10
-0.077169
20
0.145576
30
0.0
11
-0.079549
21
0.145843
31
0.0
0
LINE
8
0
6
CONTINUOUS
10
-0.079549
20
0.145843
30
0.0
11
-0.078055
21
0.145489
31
0.0
0
LINE
8
0
6
CONTINUOUS
10
-0.059685
20
0.011303
30
0.0
11
-0.057650
21
0.011314
31
0.0
0
LINE
8
0
6
CONTINUOUS
10
-0.072217
20
0.138729
30
0.0
11
-0.072921
21
0.139798
31
0.0
0
LINE
8
0
6
CONTINUOUS
10
-0.072921
20
0.139798
30
0.0
11
-0.067824
21
0.130446
31
0.0
0
LINE
8
0
6
CONTINUOUS
10
-0.067824
20
0.130446
30
0.0
11
-0.064669
21
0.119201
31
0.0
0
LINE
8
0
6
CONTINUOUS
10
-0.064669
20
0.119201
30
0.0
11
-0.063747
21
0.110422
31
0.0
0
LINE
8
0
6
CONTINUOUS
10
-0.062519
20
0.081263
30
0.0
11
-0.062122
21
0.070973
31
0.0
0
LINE
8
0
6
CONTINUOUS
10
-0.063345
20
0.101118
30
0.0
11
-0.062945
21
0.091354
31
0.0
0
LINE
8
0
6
CONTINUOUS
10
-0.011462
20
0.084340
30
0.0
11
-0.004108
21
0.087369
31
0.0
0
LINE
8
0
6
CONTINUOUS
10
0.004807
20
0.086456
30
0.0
11
0.014411
21
0.083111
31
0.0
0
LINE
8
0
6
CONTINUOUS
10
0.014411
20
0.083111
30
0.0
11
0.025249
21
0.079265
31
0.0
0
LINE
8
0
6
CONTINUOUS
10
0.025249
20
0.079265
30
0.0
11
0.037219
21
0.074972
31
0.0
0
LINE
8
0
6
CONTINUOUS
10
0.037219
20
0.074972
30
0.0
11
0.050075
21
0.070378
31
0.0
0
LINE
8
0
6
CONTINUOUS
10
0.063295
20
0.059134
30
0.0
11
0.076500
21
0.055307
31
0.0
0
LINE
8
0
6
CONTINUOUS
10
-0.087003
20
0.141752
30
0.0
11
-0.086184
21
0.140569
31
0.0
0
LINE
8
0
6
CONTINUOUS
10
0.084878
20
0.087076
30
0.0
11
0.072111
21
0.091028
31
0.0
0
LINE
8
0
6
CONTINUOUS
10
-0.057739
20
-0.000183
30
0.0
11
-0.049554
21
-0.000183
31
0.0
0
LINE
8
0
6
CONTINUOUS
10
-0.018624
20
-0.000183
30
0.0
11
-0.017372
21
-0.000183
31
0.0
0
LINE
8
0
6
CONTINUOUS
10
-0.063908
20
-0.000183
30
0.0
11
-0.057739
21
-0.000183
31
0.0
0
LINE
8
0
6
CONTINUOUS
10
-0.066667
20
-0.000183
30
0.0
11
-0.063908
21
-0.000183
31
0.0
0
LINE
8
0
6
CONTINUOUS
10
-0.025421
20
-0.000183
30
0.0
11
-0.021074
21
-0.000183
31
0.0
0
LINE
8
0
6
CONTINUOUS
10
-0.040456
20
-0.000183
30
0.0
11
-0.031659
21
-0.000183
31
0.0
0
LINE
8
0
6
CONTINUOUS
10
-0.049554
20
-0.000183
30
0.0
11
-0.040456
21
-0.000183
31
0.0
0
LINE
8
0
6
CONTINUOUS
10
-0.031659
20
-0.000183
30
0.0
11
-0.025421
21
-0.000183
31
0.0
0
LINE
8
0
6
CONTINUOUS
10
-0.017295
20
-0.000183
30
0.0
11
-0.017223
21
0.002221
31
0.0
0
LINE
8
0
6
CONTINUOUS
10
-0.017372
20
-0.000183
30
0.0
11
-0.017295
21
-0.000183
31
0.0
0
LINE
8
0
6
CONTINUOUS
10
-0.067890
20
-0.000183
30
0.0
11
-0.066667
21
-0.000183
31
0.0
0
LINE
8
0
6
CONTINUOUS
10
-0.067966
20
0.002310
30
0.0
11
-0.067890
21
-0.000183
31
0.0
0
LINE
8
0
6
CONTINUOUS
10
-0.077386
20
0.126489
30
0.0
11
-0.078079
21
0.127867
31
0.0
0
LINE
8
0
6
CONTINUOUS
10
-0.082204
20
0.135020
30
0.0
11
-0.077386
21
0.126489
31
0.0
0
LINE
8
0
6
CONTINUOUS
10
-0.086184
20
0.140569
30
0.0
11
-0.082204
21
0.135020
31
0.0
0
LINE
8
0
6
CONTINUOUS
10
-0.075074
20
0.163622
30
0.0
11
-0.076370
21
0.164626
31
0.0
0
LINE
8
0
6
CONTINUOUS
10
-0.059226
20
0.149795
30
0.0
11
-0.067516
21
0.157212
31
0.0
0
LINE
8
0
6
CONTINUOUS
10
-0.067516
20
0.157212
30
0.0
11
-0.075074
21
0.163622
31
0.0
0
LINE
8
0
6
CONTINUOUS
10
-0.050351
20
0.141839
30
0.0
11
-0.059226
21
0.149795
31
0.0
0
LINE
8
0
6
CONTINUOUS
10
-0.030895
20
0.128339
30
0.0
11
-0.040611
21
0.134729
31
0.0
0
LINE
8
0
6
CONTINUOUS
10
-0.020263
20
0.122597
30
0.0
11
-0.030895
21
0.128339
31
0.0
0
LINE
8
0
6
CONTINUOUS
10
-0.009485
20
0.117622
30
0.0
11
-0.020263
21
0.122597
31
0.0
0
LINE
8
0
6
CONTINUOUS
10
0.086483
20
0.086177
30
0.0
11
0.084878
21
0.087076
31
0.0
0
LINE
8
0
6
CONTINUOUS
10
0.056486
20
0.095807
30
0.0
11
0.041283
21
0.100454
31
0.0
0
LINE
8
0
6
CONTINUOUS
10
0.041283
20
0.100454
30
0.0
11
0.026616
21
0.104916
31
0.0
0
LINE
8
0
6
CONTINUOUS
10
-0.078079
20
0.127867
30
0.0
11
-0.074751
21
0.117410
31
0.0
0
LINE
8
0
6
CONTINUOUS
10
-0.074751
20
0.117410
30
0.0
11
-0.072254
21
0.105645
31
0.0
0
LINE
8
0
6
CONTINUOUS
10
-0.072254
20
0.105645
30
0.0
11
-0.071059
21
0.092888
31
0.0
0
LINE
8
0
6
CONTINUOUS
10
-0.071059
20
0.092888
30
0.0
11
-0.070549
21
0.079961
31
0.0
0
LINE
8
0
6
CONTINUOUS
10
-0.070549
20
0.079961
30
0.0
11
-0.070095
21
0.067318
31
0.0
0
LINE
8
0
6
CONTINUOUS
10
-0.070095
20
0.067318
30
0.0
11
-0.069653
21
0.054982
31
0.0
0
LINE
8
0
6
CONTINUOUS
10
-0.069653
20
0.054982
30
0.0
11
-0.069210
21
0.042841
31
0.0
0
LINE
8
0
6
CONTINUOUS
10
0.080982
20
0.058730
30
0.0
11
0.081718
21
0.062281
31
0.0
0
LINE
8
0
6
CONTINUOUS
10
0.008198
20
0.073495
30
0.0
11
0.019425
21
0.072113
31
0.0
0
LINE
8
0
6
CONTINUOUS
10
-0.016050
20
0.041308
30
0.0
11
-0.015645
21
0.050392
31
0.0
0
LINE
8
0
6
CONTINUOUS
10
-0.013232
20
0.058740
30
0.0
11
-0.008534
21
0.065487
31
0.0
0
LINE
8
0
6
CONTINUOUS
10
-0.015645
20
0.050392
30
0.0
11
-0.013232
21
0.058740
31
0.0
0
LINE
8
0
6
CONTINUOUS
10
-0.008534
20
0.065487
30
0.0
11
-0.001160
21
0.071109
31
0.0
0
LINE
8
0
6
CONTINUOUS
10
0.032387
20
0.068526
30
0.0
11
0.019512
21
0.072153
31
0.0
0
LINE
8
0
6
CONTINUOUS
10
0.019512
20
0.072153
30
0.0
11
0.032394
21
0.068235
31
0.0
0
LINE
8
0
6
CONTINUOUS
10
0.047145
20
0.063853
30
0.0
11
0.063295
21
0.059134
31
0.0
0
LINE
8
0
6
CONTINUOUS
10
0.079597
20
0.054444
30
0.0
11
0.080107
21
0.055847
31
0.0
0
LINE
8
0
6
CONTINUOUS
10
0.078048
20
0.054874
30
0.0
11
0.079597
21
0.054444
31
0.0
0
LINE
8
0
6
CONTINUOUS
10
0.032394
20
0.068235
30
0.0
11
0.047145
21
0.063853
31
0.0
0
ENDSEC
0
EOF
