999
unknown String-ID: 20550
0
SECTION
2
HEADER
9
$ACADVER
1
AC1009
9
$DWGCODEPAGE
3
unknown String-ID: 20561
0
ENDSEC
0
SECTION
2
TABLES
0
TABLE
2
LAYER
70
1
0
LAYER
2
0
70
0
62
7
6
CONTINUOUS
0
ENDTAB
0
ENDSEC
0
SECTION
2
ENTITIES
0
LINE
8
0
6
CONTINUOUS
10
-0.070000
20
-0.019977
30
0.0
11
-0.075740
21
-0.019977
31
0.0
0
LINE
8
0
6
CONTINUOUS
10
-0.075740
20
-0.019977
30
0.0
11
-0.080607
21
-0.019977
31
0.0
0
LINE
8
0
6
CONTINUOUS
10
-0.085000
20
-0.019977
30
0.0
11
-0.085000
21
-0.020880
31
0.0
0
LINE
8
0
6
CONTINUOUS
10
-0.083858
20
-0.019977
30
0.0
11
-0.085000
21
-0.019977
31
0.0
0
LINE
8
0
6
CONTINUOUS
10
-0.080607
20
-0.019977
30
0.0
11
-0.083858
21
-0.019977
31
0.0
0
LINE
8
0
6
CONTINUOUS
10
0.000000
20
-0.019977
30
0.0
11
-0.070000
21
-0.019977
31
0.0
0
LINE
8
0
6
CONTINUOUS
10
0.085000
20
-0.019977
30
0.0
11
0.083858
21
-0.019977
31
0.0
0
LINE
8
0
6
CONTINUOUS
10
0.085000
20
-0.020880
30
0.0
11
0.085000
21
-0.019977
31
0.0
0
LINE
8
0
6
CONTINUOUS
10
0.070000
20
-0.019977
30
0.0
11
0.000000
21
-0.019977
31
0.0
0
LINE
8
0
6
CONTINUOUS
10
0.080607
20
-0.019977
30
0.0
11
0.075740
21
-0.019977
31
0.0
0
LINE
8
0
6
CONTINUOUS
10
0.075740
20
-0.019977
30
0.0
11
0.070000
21
-0.019977
31
0.0
0
LINE
8
0
6
CONTINUOUS
10
0.083858
20
-0.019977
30
0.0
11
0.080607
21
-0.019977
31
0.0
0
LINE
8
0
6
CONTINUOUS
10
-0.074746
20
-0.039977
30
0.0
11
-0.068926
21
-0.039977
31
0.0
0
LINE
8
0
6
CONTINUOUS
10
-0.079663
20
-0.039977
30
0.0
11
-0.074746
21
-0.039977
31
0.0
0
LINE
8
0
6
CONTINUOUS
10
-0.082948
20
-0.039977
30
0.0
11
-0.079663
21
-0.039977
31
0.0
0
LINE
8
0
6
CONTINUOUS
10
-0.085000
20
-0.038977
30
0.0
11
-0.084738
21
-0.039684
31
0.0
0
LINE
8
0
6
CONTINUOUS
10
-0.084106
20
-0.039977
30
0.0
11
-0.082948
21
-0.039977
31
0.0
0
LINE
8
0
6
CONTINUOUS
10
-0.084738
20
-0.039684
30
0.0
11
-0.084106
21
-0.039977
31
0.0
0
LINE
8
0
6
CONTINUOUS
10
-0.068926
20
-0.039977
30
0.0
11
0.000000
21
-0.039977
31
0.0
0
LINE
8
0
6
CONTINUOUS
10
0.068926
20
-0.039977
30
0.0
11
0.074746
21
-0.039977
31
0.0
0
LINE
8
0
6
CONTINUOUS
10
0.074746
20
-0.039977
30
0.0
11
0.079663
21
-0.039977
31
0.0
0
LINE
8
0
6
CONTINUOUS
10
0.079663
20
-0.039977
30
0.0
11
0.082948
21
-0.039977
31
0.0
0
LINE
8
0
6
CONTINUOUS
10
0.084106
20
-0.039977
30
0.0
11
0.084738
21
-0.039684
31
0.0
0
LINE
8
0
6
CONTINUOUS
10
0.082948
20
-0.039977
30
0.0
11
0.084106
21
-0.039977
31
0.0
0
LINE
8
0
6
CONTINUOUS
10
0.084738
20
-0.039684
30
0.0
11
0.085000
21
-0.038977
31
0.0
0
LINE
8
0
6
CONTINUOUS
10
0.000000
20
-0.039977
30
0.0
11
0.068926
21
-0.039977
31
0.0
0
LINE
8
0
6
CONTINUOUS
10
-0.085000
20
-0.038027
30
0.0
11
-0.085000
21
-0.038977
31
0.0
0
LINE
8
0
6
CONTINUOUS
10
0.085000
20
-0.038977
30
0.0
11
0.085000
21
-0.038027
31
0.0
0
LINE
8
0
6
CONTINUOUS
10
-0.085000
20
-0.020880
30
0.0
11
-0.085000
21
-0.038027
31
0.0
0
LINE
8
0
6
CONTINUOUS
10
0.085000
20
-0.038027
30
0.0
11
0.085000
21
-0.020880
31
0.0
0
LINE
8
0
6
CONTINUOUS
10
-0.024797
20
-0.087839
30
0.0
11
-0.024396
21
-0.088023
31
0.0
0
LINE
8
0
6
CONTINUOUS
10
-0.024396
20
-0.088023
30
0.0
11
-0.023809
21
-0.088023
31
0.0
0
LINE
8
0
6
CONTINUOUS
10
-0.023809
20
-0.088023
30
0.0
11
-0.022080
21
-0.088023
31
0.0
0
LINE
8
0
6
CONTINUOUS
10
-0.022080
20
-0.088023
30
0.0
11
-0.019293
21
-0.088023
31
0.0
0
LINE
8
0
6
CONTINUOUS
10
-0.011155
20
-0.088023
30
0.0
11
-0.006212
21
-0.088023
31
0.0
0
LINE
8
0
6
CONTINUOUS
10
-0.006212
20
-0.088023
30
0.0
11
-0.001007
21
-0.088023
31
0.0
0
LINE
8
0
6
CONTINUOUS
10
-0.001007
20
-0.088023
30
0.0
11
0.004197
21
-0.088023
31
0.0
0
LINE
8
0
6
CONTINUOUS
10
0.004197
20
-0.088023
30
0.0
11
0.009141
21
-0.088023
31
0.0
0
LINE
8
0
6
CONTINUOUS
10
0.017279
20
-0.088023
30
0.0
11
0.020065
21
-0.088023
31
0.0
0
LINE
8
0
6
CONTINUOUS
10
0.020065
20
-0.088023
30
0.0
11
0.021795
21
-0.088023
31
0.0
0
LINE
8
0
6
CONTINUOUS
10
0.022381
20
-0.088023
30
0.0
11
0.022782
21
-0.087839
31
0.0
0
LINE
8
0
6
CONTINUOUS
10
0.021795
20
-0.088023
30
0.0
11
0.022381
21
-0.088023
31
0.0
0
LINE
8
0
6
CONTINUOUS
10
-0.023038
20
-0.049435
30
0.0
11
-0.023038
21
-0.050955
31
0.0
0
LINE
8
0
6
CONTINUOUS
10
-0.010566
20
-0.050955
30
0.0
11
-0.005909
21
-0.050955
31
0.0
0
LINE
8
0
6
CONTINUOUS
10
0.021023
20
-0.050955
30
0.0
11
0.021023
21
-0.049435
31
0.0
0
LINE
8
0
6
CONTINUOUS
10
-0.001007
20
-0.050955
30
0.0
11
0.003895
21
-0.050955
31
0.0
0
LINE
8
0
6
CONTINUOUS
10
-0.005909
20
-0.050955
30
0.0
11
-0.001007
21
-0.050955
31
0.0
0
LINE
8
0
6
CONTINUOUS
10
0.003895
20
-0.050955
30
0.0
11
0.008551
21
-0.050955
31
0.0
0
LINE
8
0
6
CONTINUOUS
10
0.012728
20
-0.050955
30
0.0
11
0.016217
21
-0.050955
31
0.0
0
LINE
8
0
6
CONTINUOUS
10
-0.025175
20
-0.051223
30
0.0
11
-0.025175
21
-0.087024
31
0.0
0
LINE
8
0
6
CONTINUOUS
10
0.023161
20
-0.087025
30
0.0
11
0.023161
21
-0.051223
31
0.0
0
LINE
8
0
6
CONTINUOUS
10
0.020767
20
-0.050955
30
0.0
11
0.017888
21
-0.050955
31
0.0
0
LINE
8
0
6
CONTINUOUS
10
-0.016076
20
-0.050955
30
0.0
11
-0.019902
21
-0.050955
31
0.0
0
LINE
8
0
6
CONTINUOUS
10
0.022555
20
-0.050955
30
0.0
11
0.020767
21
-0.050955
31
0.0
0
LINE
8
0
6
CONTINUOUS
10
0.009479
20
-0.050955
30
0.0
11
0.004371
21
-0.050955
31
0.0
0
LINE
8
0
6
CONTINUOUS
10
-0.025175
20
-0.050955
30
0.0
11
-0.025175
21
-0.051223
31
0.0
0
LINE
8
0
6
CONTINUOUS
10
-0.024569
20
-0.050955
30
0.0
11
-0.025175
21
-0.050955
31
0.0
0
LINE
8
0
6
CONTINUOUS
10
-0.006385
20
-0.050955
30
0.0
11
-0.011493
21
-0.050955
31
0.0
0
LINE
8
0
6
CONTINUOUS
10
0.023161
20
-0.051223
30
0.0
11
0.023161
21
-0.050955
31
0.0
0
LINE
8
0
6
CONTINUOUS
10
0.023161
20
-0.050955
30
0.0
11
0.022555
21
-0.050955
31
0.0
0
LINE
8
0
6
CONTINUOUS
10
-0.022782
20
-0.050955
30
0.0
11
-0.024569
21
-0.050955
31
0.0
0
LINE
8
0
6
CONTINUOUS
10
0.017888
20
-0.050955
30
0.0
11
0.014061
21
-0.050955
31
0.0
0
LINE
8
0
6
CONTINUOUS
10
-0.001007
20
-0.050955
30
0.0
11
-0.006385
21
-0.050955
31
0.0
0
LINE
8
0
6
CONTINUOUS
10
-0.019902
20
-0.050955
30
0.0
11
-0.022782
21
-0.050955
31
0.0
0
LINE
8
0
6
CONTINUOUS
10
0.004371
20
-0.050955
30
0.0
11
-0.001007
21
-0.050955
31
0.0
0
LINE
8
0
6
CONTINUOUS
10
-0.025175
20
-0.087099
30
0.0
11
-0.025081
21
-0.087516
31
0.0
0
LINE
8
0
6
CONTINUOUS
10
-0.025081
20
-0.087516
30
0.0
11
-0.024797
21
-0.087839
31
0.0
0
LINE
8
0
6
CONTINUOUS
10
0.023066
20
-0.087516
30
0.0
11
0.023161
21
-0.087099
31
0.0
0
LINE
8
0
6
CONTINUOUS
10
0.022782
20
-0.087839
30
0.0
11
0.023066
21
-0.087516
31
0.0
0
LINE
8
0
6
CONTINUOUS
10
-0.015590
20
-0.088023
30
0.0
11
-0.011155
21
-0.088023
31
0.0
0
LINE
8
0
6
CONTINUOUS
10
0.009141
20
-0.088023
30
0.0
11
0.013575
21
-0.088023
31
0.0
0
LINE
8
0
6
CONTINUOUS
10
-0.011493
20
-0.050955
30
0.0
11
-0.016076
21
-0.050955
31
0.0
0
LINE
8
0
6
CONTINUOUS
10
-0.025175
20
-0.087024
30
0.0
11
-0.025175
21
-0.087099
31
0.0
0
LINE
8
0
6
CONTINUOUS
10
0.014061
20
-0.050955
30
0.0
11
0.009479
21
-0.050955
31
0.0
0
LINE
8
0
6
CONTINUOUS
10
0.023161
20
-0.087099
30
0.0
11
0.023161
21
-0.087025
31
0.0
0
LINE
8
0
6
CONTINUOUS
10
-0.000993
20
-0.066253
30
0.0
11
0.000172
21
-0.066099
31
0.0
0
LINE
8
0
6
CONTINUOUS
10
0.000172
20
-0.066099
30
0.0
11
0.001258
21
-0.065650
31
0.0
0
LINE
8
0
6
CONTINUOUS
10
0.001258
20
-0.065650
30
0.0
11
0.002190
21
-0.064934
31
0.0
0
LINE
8
0
6
CONTINUOUS
10
0.002190
20
-0.064934
30
0.0
11
0.002906
21
-0.064002
31
0.0
0
LINE
8
0
6
CONTINUOUS
10
0.002906
20
-0.064002
30
0.0
11
0.003356
21
-0.062916
31
0.0
0
LINE
8
0
6
CONTINUOUS
10
0.003356
20
-0.062916
30
0.0
11
0.003509
21
-0.061751
31
0.0
0
LINE
8
0
6
CONTINUOUS
10
0.003509
20
-0.061751
30
0.0
11
0.003356
21
-0.060586
31
0.0
0
LINE
8
0
6
CONTINUOUS
10
0.003356
20
-0.060586
30
0.0
11
0.002906
21
-0.059500
31
0.0
0
LINE
8
0
6
CONTINUOUS
10
0.002906
20
-0.059500
30
0.0
11
0.002190
21
-0.058567
31
0.0
0
LINE
8
0
6
CONTINUOUS
10
0.002190
20
-0.058567
30
0.0
11
0.001258
21
-0.057852
31
0.0
0
LINE
8
0
6
CONTINUOUS
10
0.001258
20
-0.057852
30
0.0
11
0.000172
21
-0.057402
31
0.0
0
LINE
8
0
6
CONTINUOUS
10
0.000172
20
-0.057402
30
0.0
11
-0.000993
21
-0.057249
31
0.0
0
LINE
8
0
6
CONTINUOUS
10
-0.000993
20
-0.057249
30
0.0
11
-0.002158
21
-0.057402
31
0.0
0
LINE
8
0
6
CONTINUOUS
10
-0.002158
20
-0.057402
30
0.0
11
-0.003244
21
-0.057852
31
0.0
0
LINE
8
0
6
CONTINUOUS
10
-0.003244
20
-0.057852
30
0.0
11
-0.004177
21
-0.058567
31
0.0
0
LINE
8
0
6
CONTINUOUS
10
-0.004177
20
-0.058567
30
0.0
11
-0.004892
21
-0.059500
31
0.0
0
LINE
8
0
6
CONTINUOUS
10
-0.004892
20
-0.059500
30
0.0
11
-0.005342
21
-0.060586
31
0.0
0
LINE
8
0
6
CONTINUOUS
10
-0.005342
20
-0.060586
30
0.0
11
-0.005495
21
-0.061751
31
0.0
0
LINE
8
0
6
CONTINUOUS
10
-0.005495
20
-0.061751
30
0.0
11
-0.005342
21
-0.062916
31
0.0
0
LINE
8
0
6
CONTINUOUS
10
-0.005342
20
-0.062916
30
0.0
11
-0.004892
21
-0.064002
31
0.0
0
LINE
8
0
6
CONTINUOUS
10
-0.004892
20
-0.064002
30
0.0
11
-0.004177
21
-0.064934
31
0.0
0
LINE
8
0
6
CONTINUOUS
10
-0.004177
20
-0.064934
30
0.0
11
-0.003244
21
-0.065650
31
0.0
0
LINE
8
0
6
CONTINUOUS
10
-0.003244
20
-0.065650
30
0.0
11
-0.002158
21
-0.066099
31
0.0
0
LINE
8
0
6
CONTINUOUS
10
-0.002158
20
-0.066099
30
0.0
11
-0.000993
21
-0.066253
31
0.0
0
LINE
8
0
6
CONTINUOUS
10
-0.024709
20
-0.049435
30
0.0
11
-0.022911
21
-0.049435
31
0.0
0
LINE
8
0
6
CONTINUOUS
10
-0.011555
20
-0.049435
30
0.0
11
-0.006417
21
-0.049435
31
0.0
0
LINE
8
0
6
CONTINUOUS
10
-0.016165
20
-0.049435
30
0.0
11
-0.011555
21
-0.049435
31
0.0
0
LINE
8
0
6
CONTINUOUS
10
0.004402
20
-0.049435
30
0.0
11
0.009541
21
-0.049435
31
0.0
0
LINE
8
0
6
CONTINUOUS
10
0.023304
20
-0.049120
30
0.0
11
0.023304
21
-0.039977
31
0.0
0
LINE
8
0
6
CONTINUOUS
10
-0.025318
20
-0.039977
30
0.0
11
-0.025318
21
-0.049120
31
0.0
0
LINE
8
0
6
CONTINUOUS
10
-0.006417
20
-0.049435
30
0.0
11
-0.001007
21
-0.049435
31
0.0
0
LINE
8
0
6
CONTINUOUS
10
0.009541
20
-0.049435
30
0.0
11
0.014150
21
-0.049435
31
0.0
0
LINE
8
0
6
CONTINUOUS
10
-0.025318
20
-0.049120
30
0.0
11
-0.025318
21
-0.049435
31
0.0
0
LINE
8
0
6
CONTINUOUS
10
-0.025318
20
-0.049435
30
0.0
11
-0.024709
21
-0.049435
31
0.0
0
LINE
8
0
6
CONTINUOUS
10
-0.020014
20
-0.049435
30
0.0
11
-0.016165
21
-0.049435
31
0.0
0
LINE
8
0
6
CONTINUOUS
10
0.023304
20
-0.049435
30
0.0
11
0.023304
21
-0.049120
31
0.0
0
LINE
8
0
6
CONTINUOUS
10
0.022694
20
-0.049435
30
0.0
11
0.023304
21
-0.049435
31
0.0
0
LINE
8
0
6
CONTINUOUS
10
0.020896
20
-0.049435
30
0.0
11
0.022694
21
-0.049435
31
0.0
0
LINE
8
0
6
CONTINUOUS
10
-0.001007
20
-0.049435
30
0.0
11
0.004402
21
-0.049435
31
0.0
0
LINE
8
0
6
CONTINUOUS
10
0.070496
20
0.019023
30
0.0
11
0.061000
21
0.019023
31
0.0
0
LINE
8
0
6
CONTINUOUS
10
0.072023
20
0.019023
30
0.0
11
0.061000
21
0.019023
31
0.0
0
LINE
8
0
6
CONTINUOUS
10
0.070496
20
0.019023
30
0.0
11
0.072023
21
0.019023
31
0.0
0
LINE
8
0
6
CONTINUOUS
10
0.061000
20
0.019023
30
0.0
11
0.070496
21
0.019023
31
0.0
0
LINE
8
0
6
CONTINUOUS
10
0.061000
20
0.019023
30
0.0
11
0.072023
21
0.019023
31
0.0
0
LINE
8
0
6
CONTINUOUS
10
0.072023
20
0.019023
30
0.0
11
0.070496
21
0.019023
31
0.0
0
LINE
8
0
6
CONTINUOUS
10
0.069158
20
0.019023
30
0.0
11
0.061000
21
0.019023
31
0.0
0
LINE
8
0
6
CONTINUOUS
10
0.068815
20
0.019023
30
0.0
11
0.061000
21
0.019023
31
0.0
0
LINE
8
0
6
CONTINUOUS
10
0.069158
20
0.019023
30
0.0
11
0.068815
21
0.019023
31
0.0
0
LINE
8
0
6
CONTINUOUS
10
0.061000
20
0.019023
30
0.0
11
0.069158
21
0.019023
31
0.0
0
LINE
8
0
6
CONTINUOUS
10
0.061000
20
0.019023
30
0.0
11
0.068815
21
0.019023
31
0.0
0
LINE
8
0
6
CONTINUOUS
10
0.068815
20
0.019023
30
0.0
11
0.069158
21
0.019023
31
0.0
0
LINE
8
0
6
CONTINUOUS
10
0.067500
20
0.019023
30
0.0
11
0.067644
21
0.019023
31
0.0
0
LINE
8
0
6
CONTINUOUS
10
0.067644
20
0.019023
30
0.0
11
0.068028
21
0.019023
31
0.0
0
LINE
8
0
6
CONTINUOUS
10
0.068028
20
0.019023
30
0.0
11
0.068668
21
0.019023
31
0.0
0
LINE
8
0
6
CONTINUOUS
10
0.068668
20
0.019023
30
0.0
11
0.069516
21
0.019023
31
0.0
0
LINE
8
0
6
CONTINUOUS
10
0.069516
20
0.019023
30
0.0
11
0.070476
21
0.019023
31
0.0
0
LINE
8
0
6
CONTINUOUS
10
0.070476
20
0.019023
30
0.0
11
0.071500
21
0.019023
31
0.0
0
LINE
8
0
6
CONTINUOUS
10
0.067644
20
0.019023
30
0.0
11
0.067500
21
0.019023
31
0.0
0
LINE
8
0
6
CONTINUOUS
10
0.068028
20
0.019023
30
0.0
11
0.067644
21
0.019023
31
0.0
0
LINE
8
0
6
CONTINUOUS
10
0.068668
20
0.019023
30
0.0
11
0.068028
21
0.019023
31
0.0
0
LINE
8
0
6
CONTINUOUS
10
0.069516
20
0.019023
30
0.0
11
0.068668
21
0.019023
31
0.0
0
LINE
8
0
6
CONTINUOUS
10
0.070476
20
0.019023
30
0.0
11
0.069516
21
0.019023
31
0.0
0
LINE
8
0
6
CONTINUOUS
10
0.071500
20
0.019023
30
0.0
11
0.070476
21
0.019023
31
0.0
0
LINE
8
0
6
CONTINUOUS
10
0.067644
20
0.019023
30
0.0
11
0.067500
21
0.019023
31
0.0
0
LINE
8
0
6
CONTINUOUS
10
0.068028
20
0.019023
30
0.0
11
0.067644
21
0.019023
31
0.0
0
LINE
8
0
6
CONTINUOUS
10
0.068668
20
0.019023
30
0.0
11
0.068028
21
0.019023
31
0.0
0
LINE
8
0
6
CONTINUOUS
10
0.069516
20
0.019023
30
0.0
11
0.068668
21
0.019023
31
0.0
0
LINE
8
0
6
CONTINUOUS
10
0.070476
20
0.019023
30
0.0
11
0.069516
21
0.019023
31
0.0
0
LINE
8
0
6
CONTINUOUS
10
0.071500
20
0.019023
30
0.0
11
0.070476
21
0.019023
31
0.0
0
LINE
8
0
6
CONTINUOUS
10
0.067500
20
0.019023
30
0.0
11
0.067644
21
0.019023
31
0.0
0
LINE
8
0
6
CONTINUOUS
10
0.067644
20
0.019023
30
0.0
11
0.068028
21
0.019023
31
0.0
0
LINE
8
0
6
CONTINUOUS
10
0.068028
20
0.019023
30
0.0
11
0.068668
21
0.019023
31
0.0
0
LINE
8
0
6
CONTINUOUS
10
0.068668
20
0.019023
30
0.0
11
0.069516
21
0.019023
31
0.0
0
LINE
8
0
6
CONTINUOUS
10
0.069516
20
0.019023
30
0.0
11
0.070476
21
0.019023
31
0.0
0
LINE
8
0
6
CONTINUOUS
10
0.070476
20
0.019023
30
0.0
11
0.071500
21
0.019023
31
0.0
0
LINE
8
0
6
CONTINUOUS
10
0.075500
20
0.019023
30
0.0
11
0.075356
21
0.019023
31
0.0
0
LINE
8
0
6
CONTINUOUS
10
0.075356
20
0.019023
30
0.0
11
0.074972
21
0.019023
31
0.0
0
LINE
8
0
6
CONTINUOUS
10
0.074972
20
0.019023
30
0.0
11
0.074332
21
0.019023
31
0.0
0
LINE
8
0
6
CONTINUOUS
10
0.074332
20
0.019023
30
0.0
11
0.073484
21
0.019023
31
0.0
0
LINE
8
0
6
CONTINUOUS
10
0.073484
20
0.019023
30
0.0
11
0.072524
21
0.019023
31
0.0
0
LINE
8
0
6
CONTINUOUS
10
0.072524
20
0.019023
30
0.0
11
0.071500
21
0.019023
31
0.0
0
LINE
8
0
6
CONTINUOUS
10
0.075356
20
0.019023
30
0.0
11
0.075500
21
0.019023
31
0.0
0
LINE
8
0
6
CONTINUOUS
10
0.074972
20
0.019023
30
0.0
11
0.075356
21
0.019023
31
0.0
0
LINE
8
0
6
CONTINUOUS
10
0.074332
20
0.019023
30
0.0
11
0.074972
21
0.019023
31
0.0
0
LINE
8
0
6
CONTINUOUS
10
0.073484
20
0.019023
30
0.0
11
0.074332
21
0.019023
31
0.0
0
LINE
8
0
6
CONTINUOUS
10
0.072524
20
0.019023
30
0.0
11
0.073484
21
0.019023
31
0.0
0
LINE
8
0
6
CONTINUOUS
10
0.071500
20
0.019023
30
0.0
11
0.072524
21
0.019023
31
0.0
0
LINE
8
0
6
CONTINUOUS
10
0.075356
20
0.019023
30
0.0
11
0.075500
21
0.019023
31
0.0
0
LINE
8
0
6
CONTINUOUS
10
0.074972
20
0.019023
30
0.0
11
0.075356
21
0.019023
31
0.0
0
LINE
8
0
6
CONTINUOUS
10
0.074332
20
0.019023
30
0.0
11
0.074972
21
0.019023
31
0.0
0
LINE
8
0
6
CONTINUOUS
10
0.073484
20
0.019023
30
0.0
11
0.074332
21
0.019023
31
0.0
0
LINE
8
0
6
CONTINUOUS
10
0.072524
20
0.019023
30
0.0
11
0.073484
21
0.019023
31
0.0
0
LINE
8
0
6
CONTINUOUS
10
0.071500
20
0.019023
30
0.0
11
0.072524
21
0.019023
31
0.0
0
LINE
8
0
6
CONTINUOUS
10
0.075500
20
0.019023
30
0.0
11
0.075356
21
0.019023
31
0.0
0
LINE
8
0
6
CONTINUOUS
10
0.075356
20
0.019023
30
0.0
11
0.074972
21
0.019023
31
0.0
0
LINE
8
0
6
CONTINUOUS
10
0.074972
20
0.019023
30
0.0
11
0.074332
21
0.019023
31
0.0
0
LINE
8
0
6
CONTINUOUS
10
0.074332
20
0.019023
30
0.0
11
0.073484
21
0.019023
31
0.0
0
LINE
8
0
6
CONTINUOUS
10
0.073484
20
0.019023
30
0.0
11
0.072524
21
0.019023
31
0.0
0
LINE
8
0
6
CONTINUOUS
10
0.072524
20
0.019023
30
0.0
11
0.071500
21
0.019023
31
0.0
0
LINE
8
0
6
CONTINUOUS
10
0.074500
20
0.019023
30
0.0
11
0.069500
21
0.019023
31
0.0
0
LINE
8
0
6
CONTINUOUS
10
0.074500
20
0.019023
30
0.0
11
0.069500
21
0.019023
31
0.0
0
LINE
8
0
6
CONTINUOUS
10
0.069500
20
0.019023
30
0.0
11
0.074500
21
0.019023
31
0.0
0
LINE
8
0
6
CONTINUOUS
10
0.069500
20
0.019023
30
0.0
11
0.074500
21
0.019023
31
0.0
0
LINE
8
0
6
CONTINUOUS
10
0.061890
20
0.019023
30
0.0
11
0.062034
21
0.019023
31
0.0
0
LINE
8
0
6
CONTINUOUS
10
0.062034
20
0.019023
30
0.0
11
0.062418
21
0.019023
31
0.0
0
LINE
8
0
6
CONTINUOUS
10
0.062418
20
0.019023
30
0.0
11
0.063058
21
0.019023
31
0.0
0
LINE
8
0
6
CONTINUOUS
10
0.063058
20
0.019023
30
0.0
11
0.063906
21
0.019023
31
0.0
0
LINE
8
0
6
CONTINUOUS
10
0.063906
20
0.019023
30
0.0
11
0.064866
21
0.019023
31
0.0
0
LINE
8
0
6
CONTINUOUS
10
0.064866
20
0.019023
30
0.0
11
0.065890
21
0.019023
31
0.0
0
LINE
8
0
6
CONTINUOUS
10
0.062034
20
0.019023
30
0.0
11
0.061890
21
0.019023
31
0.0
0
LINE
8
0
6
CONTINUOUS
10
0.062418
20
0.019023
30
0.0
11
0.062034
21
0.019023
31
0.0
0
LINE
8
0
6
CONTINUOUS
10
0.063058
20
0.019023
30
0.0
11
0.062418
21
0.019023
31
0.0
0
LINE
8
0
6
CONTINUOUS
10
0.063906
20
0.019023
30
0.0
11
0.063058
21
0.019023
31
0.0
0
LINE
8
0
6
CONTINUOUS
10
0.064866
20
0.019023
30
0.0
11
0.063906
21
0.019023
31
0.0
0
LINE
8
0
6
CONTINUOUS
10
0.065890
20
0.019023
30
0.0
11
0.064866
21
0.019023
31
0.0
0
LINE
8
0
6
CONTINUOUS
10
0.062034
20
0.019023
30
0.0
11
0.061890
21
0.019023
31
0.0
0
LINE
8
0
6
CONTINUOUS
10
0.062418
20
0.019023
30
0.0
11
0.062034
21
0.019023
31
0.0
0
LINE
8
0
6
CONTINUOUS
10
0.063058
20
0.019023
30
0.0
11
0.062418
21
0.019023
31
0.0
0
LINE
8
0
6
CONTINUOUS
10
0.063906
20
0.019023
30
0.0
11
0.063058
21
0.019023
31
0.0
0
LINE
8
0
6
CONTINUOUS
10
0.064866
20
0.019023
30
0.0
11
0.063906
21
0.019023
31
0.0
0
LINE
8
0
6
CONTINUOUS
10
0.065890
20
0.019023
30
0.0
11
0.064866
21
0.019023
31
0.0
0
LINE
8
0
6
CONTINUOUS
10
0.061890
20
0.019023
30
0.0
11
0.062034
21
0.019023
31
0.0
0
LINE
8
0
6
CONTINUOUS
10
0.062034
20
0.019023
30
0.0
11
0.062418
21
0.019023
31
0.0
0
LINE
8
0
6
CONTINUOUS
10
0.062418
20
0.019023
30
0.0
11
0.063058
21
0.019023
31
0.0
0
LINE
8
0
6
CONTINUOUS
10
0.063058
20
0.019023
30
0.0
11
0.063906
21
0.019023
31
0.0
0
LINE
8
0
6
CONTINUOUS
10
0.063906
20
0.019023
30
0.0
11
0.064866
21
0.019023
31
0.0
0
LINE
8
0
6
CONTINUOUS
10
0.064866
20
0.019023
30
0.0
11
0.065890
21
0.019023
31
0.0
0
LINE
8
0
6
CONTINUOUS
10
0.069890
20
0.019023
30
0.0
11
0.069746
21
0.019023
31
0.0
0
LINE
8
0
6
CONTINUOUS
10
0.069746
20
0.019023
30
0.0
11
0.069362
21
0.019023
31
0.0
0
LINE
8
0
6
CONTINUOUS
10
0.069362
20
0.019023
30
0.0
11
0.068722
21
0.019023
31
0.0
0
LINE
8
0
6
CONTINUOUS
10
0.068722
20
0.019023
30
0.0
11
0.067874
21
0.019023
31
0.0
0
LINE
8
0
6
CONTINUOUS
10
0.067874
20
0.019023
30
0.0
11
0.066914
21
0.019023
31
0.0
0
LINE
8
0
6
CONTINUOUS
10
0.066914
20
0.019023
30
0.0
11
0.065890
21
0.019023
31
0.0
0
LINE
8
0
6
CONTINUOUS
10
0.069746
20
0.019023
30
0.0
11
0.069890
21
0.019023
31
0.0
0
LINE
8
0
6
CONTINUOUS
10
0.069362
20
0.019023
30
0.0
11
0.069746
21
0.019023
31
0.0
0
LINE
8
0
6
CONTINUOUS
10
0.068722
20
0.019023
30
0.0
11
0.069362
21
0.019023
31
0.0
0
LINE
8
0
6
CONTINUOUS
10
0.067874
20
0.019023
30
0.0
11
0.068722
21
0.019023
31
0.0
0
LINE
8
0
6
CONTINUOUS
10
0.066914
20
0.019023
30
0.0
11
0.067874
21
0.019023
31
0.0
0
LINE
8
0
6
CONTINUOUS
10
0.065890
20
0.019023
30
0.0
11
0.066914
21
0.019023
31
0.0
0
LINE
8
0
6
CONTINUOUS
10
0.069746
20
0.019023
30
0.0
11
0.069890
21
0.019023
31
0.0
0
LINE
8
0
6
CONTINUOUS
10
0.069362
20
0.019023
30
0.0
11
0.069746
21
0.019023
31
0.0
0
LINE
8
0
6
CONTINUOUS
10
0.068722
20
0.019023
30
0.0
11
0.069362
21
0.019023
31
0.0
0
LINE
8
0
6
CONTINUOUS
10
0.067874
20
0.019023
30
0.0
11
0.068722
21
0.019023
31
0.0
0
LINE
8
0
6
CONTINUOUS
10
0.066914
20
0.019023
30
0.0
11
0.067874
21
0.019023
31
0.0
0
LINE
8
0
6
CONTINUOUS
10
0.065890
20
0.019023
30
0.0
11
0.066914
21
0.019023
31
0.0
0
LINE
8
0
6
CONTINUOUS
10
0.069890
20
0.019023
30
0.0
11
0.069746
21
0.019023
31
0.0
0
LINE
8
0
6
CONTINUOUS
10
0.069746
20
0.019023
30
0.0
11
0.069362
21
0.019023
31
0.0
0
LINE
8
0
6
CONTINUOUS
10
0.069362
20
0.019023
30
0.0
11
0.068722
21
0.019023
31
0.0
0
LINE
8
0
6
CONTINUOUS
10
0.068722
20
0.019023
30
0.0
11
0.067874
21
0.019023
31
0.0
0
LINE
8
0
6
CONTINUOUS
10
0.067874
20
0.019023
30
0.0
11
0.066914
21
0.019023
31
0.0
0
LINE
8
0
6
CONTINUOUS
10
0.066914
20
0.019023
30
0.0
11
0.065890
21
0.019023
31
0.0
0
LINE
8
0
6
CONTINUOUS
10
0.070496
20
0.019023
30
0.0
11
0.069197
21
0.019023
31
0.0
0
LINE
8
0
6
CONTINUOUS
10
0.069197
20
0.019023
30
0.0
11
0.052778
21
0.019023
31
0.0
0
LINE
8
0
6
CONTINUOUS
10
0.052778
20
0.019023
30
0.0
11
0.050815
21
0.019023
31
0.0
0
LINE
8
0
6
CONTINUOUS
10
0.072023
20
0.019023
30
0.0
11
0.069888
21
0.019023
31
0.0
0
LINE
8
0
6
CONTINUOUS
10
0.069888
20
0.019023
30
0.0
11
0.050751
21
0.019023
31
0.0
0
LINE
8
0
6
CONTINUOUS
10
0.050751
20
0.019023
30
0.0
11
0.049557
21
0.019023
31
0.0
0
LINE
8
0
6
CONTINUOUS
10
0.070496
20
0.019023
30
0.0
11
0.072023
21
0.019023
31
0.0
0
LINE
8
0
6
CONTINUOUS
10
0.050815
20
0.019023
30
0.0
11
0.052778
21
0.019023
31
0.0
0
LINE
8
0
6
CONTINUOUS
10
0.052778
20
0.019023
30
0.0
11
0.070496
21
0.019023
31
0.0
0
LINE
8
0
6
CONTINUOUS
10
0.049557
20
0.019023
30
0.0
11
0.050815
21
0.019023
31
0.0
0
LINE
8
0
6
CONTINUOUS
10
0.050815
20
0.019023
30
0.0
11
0.049557
21
0.019023
31
0.0
0
LINE
8
0
6
CONTINUOUS
10
0.049557
20
0.019023
30
0.0
11
0.069888
21
0.019023
31
0.0
0
LINE
8
0
6
CONTINUOUS
10
0.069888
20
0.019023
30
0.0
11
0.072023
21
0.019023
31
0.0
0
LINE
8
0
6
CONTINUOUS
10
0.072023
20
0.019023
30
0.0
11
0.071264
21
0.019023
31
0.0
0
LINE
8
0
6
CONTINUOUS
10
0.071264
20
0.019023
30
0.0
11
0.070496
21
0.019023
31
0.0
0
LINE
8
0
6
CONTINUOUS
10
0.069158
20
0.019023
30
0.0
11
0.058993
21
0.019023
31
0.0
0
LINE
8
0
6
CONTINUOUS
10
0.068815
20
0.019023
30
0.0
11
0.058184
21
0.019023
31
0.0
0
LINE
8
0
6
CONTINUOUS
10
0.069158
20
0.019023
30
0.0
11
0.068815
21
0.019023
31
0.0
0
LINE
8
0
6
CONTINUOUS
10
0.058993
20
0.019023
30
0.0
11
0.069158
21
0.019023
31
0.0
0
LINE
8
0
6
CONTINUOUS
10
0.058184
20
0.019023
30
0.0
11
0.058993
21
0.019023
31
0.0
0
LINE
8
0
6
CONTINUOUS
10
0.058993
20
0.019023
30
0.0
11
0.058184
21
0.019023
31
0.0
0
LINE
8
0
6
CONTINUOUS
10
0.058184
20
0.019023
30
0.0
11
0.068815
21
0.019023
31
0.0
0
LINE
8
0
6
CONTINUOUS
10
0.068815
20
0.019023
30
0.0
11
0.069158
21
0.019023
31
0.0
0
LINE
8
0
6
CONTINUOUS
10
0.067500
20
0.019023
30
0.0
11
0.067644
21
0.019023
31
0.0
0
LINE
8
0
6
CONTINUOUS
10
0.067644
20
0.019023
30
0.0
11
0.068028
21
0.019023
31
0.0
0
LINE
8
0
6
CONTINUOUS
10
0.068028
20
0.019023
30
0.0
11
0.068668
21
0.019023
31
0.0
0
LINE
8
0
6
CONTINUOUS
10
0.068668
20
0.019023
30
0.0
11
0.069516
21
0.019023
31
0.0
0
LINE
8
0
6
CONTINUOUS
10
0.069516
20
0.019023
30
0.0
11
0.070476
21
0.019023
31
0.0
0
LINE
8
0
6
CONTINUOUS
10
0.070476
20
0.019023
30
0.0
11
0.071500
21
0.019023
31
0.0
0
LINE
8
0
6
CONTINUOUS
10
0.067644
20
0.019023
30
0.0
11
0.067500
21
0.019023
31
0.0
0
LINE
8
0
6
CONTINUOUS
10
0.068028
20
0.019023
30
0.0
11
0.067644
21
0.019023
31
0.0
0
LINE
8
0
6
CONTINUOUS
10
0.068668
20
0.019023
30
0.0
11
0.068028
21
0.019023
31
0.0
0
LINE
8
0
6
CONTINUOUS
10
0.069516
20
0.019023
30
0.0
11
0.069190
21
0.019023
31
0.0
0
LINE
8
0
6
CONTINUOUS
10
0.069190
20
0.019023
30
0.0
11
0.068668
21
0.019023
31
0.0
0
LINE
8
0
6
CONTINUOUS
10
0.070476
20
0.019023
30
0.0
11
0.069516
21
0.019023
31
0.0
0
LINE
8
0
6
CONTINUOUS
10
0.071500
20
0.019023
30
0.0
11
0.070492
21
0.019023
31
0.0
0
LINE
8
0
6
CONTINUOUS
10
0.067644
20
0.019023
30
0.0
11
0.067500
21
0.019023
31
0.0
0
LINE
8
0
6
CONTINUOUS
10
0.068028
20
0.019023
30
0.0
11
0.067644
21
0.019023
31
0.0
0
LINE
8
0
6
CONTINUOUS
10
0.068668
20
0.019023
30
0.0
11
0.068028
21
0.019023
31
0.0
0
LINE
8
0
6
CONTINUOUS
10
0.069516
20
0.019023
30
0.0
11
0.068668
21
0.019023
31
0.0
0
LINE
8
0
6
CONTINUOUS
10
0.070476
20
0.019023
30
0.0
11
0.069516
21
0.019023
31
0.0
0
LINE
8
0
6
CONTINUOUS
10
0.071500
20
0.019023
30
0.0
11
0.070476
21
0.019023
31
0.0
0
LINE
8
0
6
CONTINUOUS
10
0.067500
20
0.019023
30
0.0
11
0.067644
21
0.019023
31
0.0
0
LINE
8
0
6
CONTINUOUS
10
0.067644
20
0.019023
30
0.0
11
0.068028
21
0.019023
31
0.0
0
LINE
8
0
6
CONTINUOUS
10
0.068028
20
0.019023
30
0.0
11
0.068668
21
0.019023
31
0.0
0
LINE
8
0
6
CONTINUOUS
10
0.068668
20
0.019023
30
0.0
11
0.069516
21
0.019023
31
0.0
0
LINE
8
0
6
CONTINUOUS
10
0.069516
20
0.019023
30
0.0
11
0.070476
21
0.019023
31
0.0
0
LINE
8
0
6
CONTINUOUS
10
0.070476
20
0.019023
30
0.0
11
0.071500
21
0.019023
31
0.0
0
LINE
8
0
6
CONTINUOUS
10
0.075500
20
0.019023
30
0.0
11
0.075356
21
0.019023
31
0.0
0
LINE
8
0
6
CONTINUOUS
10
0.075356
20
0.019023
30
0.0
11
0.074972
21
0.019023
31
0.0
0
LINE
8
0
6
CONTINUOUS
10
0.074972
20
0.019023
30
0.0
11
0.074332
21
0.019023
31
0.0
0
LINE
8
0
6
CONTINUOUS
10
0.074332
20
0.019023
30
0.0
11
0.073484
21
0.019023
31
0.0
0
LINE
8
0
6
CONTINUOUS
10
0.073484
20
0.019023
30
0.0
11
0.072524
21
0.019023
31
0.0
0
LINE
8
0
6
CONTINUOUS
10
0.072524
20
0.019023
30
0.0
11
0.071500
21
0.019023
31
0.0
0
LINE
8
0
6
CONTINUOUS
10
0.075356
20
0.019023
30
0.0
11
0.075500
21
0.019023
31
0.0
0
LINE
8
0
6
CONTINUOUS
10
0.074972
20
0.019023
30
0.0
11
0.075356
21
0.019023
31
0.0
0
LINE
8
0
6
CONTINUOUS
10
0.074332
20
0.019023
30
0.0
11
0.074972
21
0.019023
31
0.0
0
LINE
8
0
6
CONTINUOUS
10
0.073484
20
0.019023
30
0.0
11
0.074332
21
0.019023
31
0.0
0
LINE
8
0
6
CONTINUOUS
10
0.072524
20
0.019023
30
0.0
11
0.073484
21
0.019023
31
0.0
0
LINE
8
0
6
CONTINUOUS
10
0.071500
20
0.019023
30
0.0
11
0.072524
21
0.019023
31
0.0
0
LINE
8
0
6
CONTINUOUS
10
0.075356
20
0.019023
30
0.0
11
0.075500
21
0.019023
31
0.0
0
LINE
8
0
6
CONTINUOUS
10
0.074972
20
0.019023
30
0.0
11
0.075160
21
0.019023
31
0.0
0
LINE
8
0
6
CONTINUOUS
10
0.075160
20
0.019023
30
0.0
11
0.075356
21
0.019023
31
0.0
0
LINE
8
0
6
CONTINUOUS
10
0.074332
20
0.019023
30
0.0
11
0.074972
21
0.019023
31
0.0
0
LINE
8
0
6
CONTINUOUS
10
0.073484
20
0.019023
30
0.0
11
0.074332
21
0.019023
31
0.0
0
LINE
8
0
6
CONTINUOUS
10
0.072524
20
0.019023
30
0.0
11
0.073484
21
0.019023
31
0.0
0
LINE
8
0
6
CONTINUOUS
10
0.071500
20
0.019023
30
0.0
11
0.072524
21
0.019023
31
0.0
0
LINE
8
0
6
CONTINUOUS
10
0.075500
20
0.019023
30
0.0
11
0.075356
21
0.019023
31
0.0
0
LINE
8
0
6
CONTINUOUS
10
0.075356
20
0.019023
30
0.0
11
0.074972
21
0.019023
31
0.0
0
LINE
8
0
6
CONTINUOUS
10
0.074972
20
0.019023
30
0.0
11
0.074332
21
0.019023
31
0.0
0
LINE
8
0
6
CONTINUOUS
10
0.074332
20
0.019023
30
0.0
11
0.073484
21
0.019023
31
0.0
0
LINE
8
0
6
CONTINUOUS
10
0.073484
20
0.019023
30
0.0
11
0.072524
21
0.019023
31
0.0
0
LINE
8
0
6
CONTINUOUS
10
0.072524
20
0.019023
30
0.0
11
0.071500
21
0.019023
31
0.0
0
LINE
8
0
6
CONTINUOUS
10
0.046749
20
0.019023
30
0.0
11
0.047773
21
0.019023
31
0.0
0
LINE
8
0
6
CONTINUOUS
10
0.047773
20
0.019023
30
0.0
11
0.048733
21
0.019023
31
0.0
0
LINE
8
0
6
CONTINUOUS
10
0.048733
20
0.019023
30
0.0
11
0.049581
21
0.019023
31
0.0
0
LINE
8
0
6
CONTINUOUS
10
0.049581
20
0.019023
30
0.0
11
0.050221
21
0.019023
31
0.0
0
LINE
8
0
6
CONTINUOUS
10
0.050221
20
0.019023
30
0.0
11
0.050605
21
0.019023
31
0.0
0
LINE
8
0
6
CONTINUOUS
10
0.050605
20
0.019023
30
0.0
11
0.050749
21
0.019023
31
0.0
0
LINE
8
0
6
CONTINUOUS
10
0.047773
20
0.019023
30
0.0
11
0.046749
21
0.019023
31
0.0
0
LINE
8
0
6
CONTINUOUS
10
0.048733
20
0.019023
30
0.0
11
0.047773
21
0.019023
31
0.0
0
LINE
8
0
6
CONTINUOUS
10
0.049581
20
0.019023
30
0.0
11
0.048733
21
0.019023
31
0.0
0
LINE
8
0
6
CONTINUOUS
10
0.050221
20
0.019023
30
0.0
11
0.049581
21
0.019023
31
0.0
0
LINE
8
0
6
CONTINUOUS
10
0.050605
20
0.019023
30
0.0
11
0.050221
21
0.019023
31
0.0
0
LINE
8
0
6
CONTINUOUS
10
0.050749
20
0.019023
30
0.0
11
0.050605
21
0.019023
31
0.0
0
LINE
8
0
6
CONTINUOUS
10
0.045725
20
0.019023
30
0.0
11
0.046749
21
0.019023
31
0.0
0
LINE
8
0
6
CONTINUOUS
10
0.044765
20
0.019023
30
0.0
11
0.045725
21
0.019023
31
0.0
0
LINE
8
0
6
CONTINUOUS
10
0.043917
20
0.019023
30
0.0
11
0.044765
21
0.019023
31
0.0
0
LINE
8
0
6
CONTINUOUS
10
0.043277
20
0.019023
30
0.0
11
0.043917
21
0.019023
31
0.0
0
LINE
8
0
6
CONTINUOUS
10
0.042893
20
0.019023
30
0.0
11
0.043277
21
0.019023
31
0.0
0
LINE
8
0
6
CONTINUOUS
10
0.042749
20
0.019023
30
0.0
11
0.042893
21
0.019023
31
0.0
0
LINE
8
0
6
CONTINUOUS
10
0.046749
20
0.019023
30
0.0
11
0.045725
21
0.019023
31
0.0
0
LINE
8
0
6
CONTINUOUS
10
0.045725
20
0.019023
30
0.0
11
0.044765
21
0.019023
31
0.0
0
LINE
8
0
6
CONTINUOUS
10
0.044765
20
0.019023
30
0.0
11
0.043917
21
0.019023
31
0.0
0
LINE
8
0
6
CONTINUOUS
10
0.043917
20
0.019023
30
0.0
11
0.043277
21
0.019023
31
0.0
0
LINE
8
0
6
CONTINUOUS
10
0.043277
20
0.019023
30
0.0
11
0.042893
21
0.019023
31
0.0
0
LINE
8
0
6
CONTINUOUS
10
0.042893
20
0.019023
30
0.0
11
0.042749
21
0.019023
31
0.0
0
LINE
8
0
6
CONTINUOUS
10
0.046749
20
0.019023
30
0.0
11
0.045725
21
0.019023
31
0.0
0
LINE
8
0
6
CONTINUOUS
10
0.045725
20
0.019023
30
0.0
11
0.044765
21
0.019023
31
0.0
0
LINE
8
0
6
CONTINUOUS
10
0.044765
20
0.019023
30
0.0
11
0.043917
21
0.019023
31
0.0
0
LINE
8
0
6
CONTINUOUS
10
0.043917
20
0.019023
30
0.0
11
0.043277
21
0.019023
31
0.0
0
LINE
8
0
6
CONTINUOUS
10
0.043277
20
0.019023
30
0.0
11
0.042893
21
0.019023
31
0.0
0
LINE
8
0
6
CONTINUOUS
10
0.042893
20
0.019023
30
0.0
11
0.042749
21
0.019023
31
0.0
0
LINE
8
0
6
CONTINUOUS
10
0.045725
20
0.019023
30
0.0
11
0.046749
21
0.019023
31
0.0
0
LINE
8
0
6
CONTINUOUS
10
0.044765
20
0.019023
30
0.0
11
0.045725
21
0.019023
31
0.0
0
LINE
8
0
6
CONTINUOUS
10
0.043917
20
0.019023
30
0.0
11
0.044765
21
0.019023
31
0.0
0
LINE
8
0
6
CONTINUOUS
10
0.043277
20
0.019023
30
0.0
11
0.043917
21
0.019023
31
0.0
0
LINE
8
0
6
CONTINUOUS
10
0.042893
20
0.019023
30
0.0
11
0.043277
21
0.019023
31
0.0
0
LINE
8
0
6
CONTINUOUS
10
0.042749
20
0.019023
30
0.0
11
0.042893
21
0.019023
31
0.0
0
LINE
8
0
6
CONTINUOUS
10
0.047773
20
0.019023
30
0.0
11
0.046749
21
0.019023
31
0.0
0
LINE
8
0
6
CONTINUOUS
10
0.048733
20
0.019023
30
0.0
11
0.047926
21
0.019023
31
0.0
0
LINE
8
0
6
CONTINUOUS
10
0.047926
20
0.019023
30
0.0
11
0.047773
21
0.019023
31
0.0
0
LINE
8
0
6
CONTINUOUS
10
0.049581
20
0.019023
30
0.0
11
0.048733
21
0.019023
31
0.0
0
LINE
8
0
6
CONTINUOUS
10
0.050221
20
0.019023
30
0.0
11
0.049581
21
0.019023
31
0.0
0
LINE
8
0
6
CONTINUOUS
10
0.050605
20
0.019023
30
0.0
11
0.050544
21
0.019023
31
0.0
0
LINE
8
0
6
CONTINUOUS
10
0.050544
20
0.019023
30
0.0
11
0.050221
21
0.019023
31
0.0
0
LINE
8
0
6
CONTINUOUS
10
0.050749
20
0.019023
30
0.0
11
0.050605
21
0.019023
31
0.0
0
LINE
8
0
6
CONTINUOUS
10
0.046749
20
0.019023
30
0.0
11
0.047773
21
0.019023
31
0.0
0
LINE
8
0
6
CONTINUOUS
10
0.047773
20
0.019023
30
0.0
11
0.048733
21
0.019023
31
0.0
0
LINE
8
0
6
CONTINUOUS
10
0.048733
20
0.019023
30
0.0
11
0.049581
21
0.019023
31
0.0
0
LINE
8
0
6
CONTINUOUS
10
0.049581
20
0.019023
30
0.0
11
0.050221
21
0.019023
31
0.0
0
LINE
8
0
6
CONTINUOUS
10
0.050221
20
0.019023
30
0.0
11
0.050605
21
0.019023
31
0.0
0
LINE
8
0
6
CONTINUOUS
10
0.050605
20
0.019023
30
0.0
11
0.050749
21
0.019023
31
0.0
0
LINE
8
0
6
CONTINUOUS
10
0.026529
20
0.019023
30
0.0
11
0.027081
21
0.019023
31
0.0
0
LINE
8
0
6
CONTINUOUS
10
0.027081
20
0.019023
30
0.0
11
0.034057
21
0.019023
31
0.0
0
LINE
8
0
6
CONTINUOUS
10
0.034057
20
0.019023
30
0.0
11
0.034891
21
0.019023
31
0.0
0
LINE
8
0
6
CONTINUOUS
10
0.027338
20
0.019023
30
0.0
11
0.028312
21
0.019023
31
0.0
0
LINE
8
0
6
CONTINUOUS
10
0.028312
20
0.019023
30
0.0
11
0.037044
21
0.019023
31
0.0
0
LINE
8
0
6
CONTINUOUS
10
0.037044
20
0.019023
30
0.0
11
0.037589
21
0.019023
31
0.0
0
LINE
8
0
6
CONTINUOUS
10
0.026529
20
0.019023
30
0.0
11
0.027338
21
0.019023
31
0.0
0
LINE
8
0
6
CONTINUOUS
10
0.034891
20
0.019023
30
0.0
11
0.034057
21
0.019023
31
0.0
0
LINE
8
0
6
CONTINUOUS
10
0.034057
20
0.019023
30
0.0
11
0.026529
21
0.019023
31
0.0
0
LINE
8
0
6
CONTINUOUS
10
0.037589
20
0.019023
30
0.0
11
0.034891
21
0.019023
31
0.0
0
LINE
8
0
6
CONTINUOUS
10
0.034891
20
0.019023
30
0.0
11
0.037589
21
0.019023
31
0.0
0
LINE
8
0
6
CONTINUOUS
10
0.037589
20
0.019023
30
0.0
11
0.037044
21
0.019023
31
0.0
0
LINE
8
0
6
CONTINUOUS
10
0.037044
20
0.019023
30
0.0
11
0.028312
21
0.019023
31
0.0
0
LINE
8
0
6
CONTINUOUS
10
0.028312
20
0.019023
30
0.0
11
0.027786
21
0.019023
31
0.0
0
LINE
8
0
6
CONTINUOUS
10
0.027786
20
0.019023
30
0.0
11
0.027338
21
0.019023
31
0.0
0
LINE
8
0
6
CONTINUOUS
10
0.027338
20
0.019023
30
0.0
11
0.026936
21
0.019023
31
0.0
0
LINE
8
0
6
CONTINUOUS
10
0.026936
20
0.019023
30
0.0
11
0.026529
21
0.019023
31
0.0
0
LINE
8
0
6
CONTINUOUS
10
0.021476
20
0.019023
30
0.0
11
0.019696
21
0.019023
31
0.0
0
LINE
8
0
6
CONTINUOUS
10
0.023446
20
0.019023
30
0.0
11
0.023241
21
0.019023
31
0.0
0
LINE
8
0
6
CONTINUOUS
10
0.023241
20
0.019023
30
0.0
11
0.021765
21
0.019023
31
0.0
0
LINE
8
0
6
CONTINUOUS
10
0.021765
20
0.019023
30
0.0
11
0.021674
21
0.019023
31
0.0
0
LINE
8
0
6
CONTINUOUS
10
0.021476
20
0.019023
30
0.0
11
0.023446
21
0.019023
31
0.0
0
LINE
8
0
6
CONTINUOUS
10
0.019696
20
0.019023
30
0.0
11
0.019774
21
0.019023
31
0.0
0
LINE
8
0
6
CONTINUOUS
10
0.019774
20
0.019023
30
0.0
11
0.021346
21
0.019023
31
0.0
0
LINE
8
0
6
CONTINUOUS
10
0.021346
20
0.019023
30
0.0
11
0.021476
21
0.019023
31
0.0
0
LINE
8
0
6
CONTINUOUS
10
0.021674
20
0.019023
30
0.0
11
0.019696
21
0.019023
31
0.0
0
LINE
8
0
6
CONTINUOUS
10
0.019696
20
0.019023
30
0.0
11
0.021674
21
0.019023
31
0.0
0
LINE
8
0
6
CONTINUOUS
10
0.021674
20
0.019023
30
0.0
11
0.023446
21
0.019023
31
0.0
0
LINE
8
0
6
CONTINUOUS
10
0.023446
20
0.019023
30
0.0
11
0.021476
21
0.019023
31
0.0
0
LINE
8
0
6
CONTINUOUS
10
0.023850
20
0.019023
30
0.0
11
0.024874
21
0.019023
31
0.0
0
LINE
8
0
6
CONTINUOUS
10
0.024874
20
0.019023
30
0.0
11
0.025834
21
0.019023
31
0.0
0
LINE
8
0
6
CONTINUOUS
10
0.025834
20
0.019023
30
0.0
11
0.026682
21
0.019023
31
0.0
0
LINE
8
0
6
CONTINUOUS
10
0.026682
20
0.019023
30
0.0
11
0.027322
21
0.019023
31
0.0
0
LINE
8
0
6
CONTINUOUS
10
0.027322
20
0.019023
30
0.0
11
0.027706
21
0.019023
31
0.0
0
LINE
8
0
6
CONTINUOUS
10
0.027706
20
0.019023
30
0.0
11
0.027850
21
0.019023
31
0.0
0
LINE
8
0
6
CONTINUOUS
10
0.024874
20
0.019023
30
0.0
11
0.023850
21
0.019023
31
0.0
0
LINE
8
0
6
CONTINUOUS
10
0.025834
20
0.019023
30
0.0
11
0.024874
21
0.019023
31
0.0
0
LINE
8
0
6
CONTINUOUS
10
0.026682
20
0.019023
30
0.0
11
0.025834
21
0.019023
31
0.0
0
LINE
8
0
6
CONTINUOUS
10
0.027322
20
0.019023
30
0.0
11
0.027076
21
0.019023
31
0.0
0
LINE
8
0
6
CONTINUOUS
10
0.027076
20
0.019023
30
0.0
11
0.026682
21
0.019023
31
0.0
0
LINE
8
0
6
CONTINUOUS
10
0.027706
20
0.019023
30
0.0
11
0.027322
21
0.019023
31
0.0
0
LINE
8
0
6
CONTINUOUS
10
0.027850
20
0.019023
30
0.0
11
0.027786
21
0.019023
31
0.0
0
LINE
8
0
6
CONTINUOUS
10
0.027786
20
0.019023
30
0.0
11
0.027708
21
0.019023
31
0.0
0
LINE
8
0
6
CONTINUOUS
10
0.022826
20
0.019023
30
0.0
11
0.023241
21
0.019023
31
0.0
0
LINE
8
0
6
CONTINUOUS
10
0.023241
20
0.019023
30
0.0
11
0.023850
21
0.019023
31
0.0
0
LINE
8
0
6
CONTINUOUS
10
0.021866
20
0.019023
30
0.0
11
0.022826
21
0.019023
31
0.0
0
LINE
8
0
6
CONTINUOUS
10
0.021018
20
0.019023
30
0.0
11
0.021346
21
0.019023
31
0.0
0
LINE
8
0
6
CONTINUOUS
10
0.021346
20
0.019023
30
0.0
11
0.021866
21
0.019023
31
0.0
0
LINE
8
0
6
CONTINUOUS
10
0.020378
20
0.019023
30
0.0
11
0.021018
21
0.019023
31
0.0
0
LINE
8
0
6
CONTINUOUS
10
0.019994
20
0.019023
30
0.0
11
0.020378
21
0.019023
31
0.0
0
LINE
8
0
6
CONTINUOUS
10
0.019850
20
0.019023
30
0.0
11
0.019994
21
0.019023
31
0.0
0
LINE
8
0
6
CONTINUOUS
10
0.023850
20
0.019023
30
0.0
11
0.022826
21
0.019023
31
0.0
0
LINE
8
0
6
CONTINUOUS
10
0.022826
20
0.019023
30
0.0
11
0.021866
21
0.019023
31
0.0
0
LINE
8
0
6
CONTINUOUS
10
0.021866
20
0.019023
30
0.0
11
0.021018
21
0.019023
31
0.0
0
LINE
8
0
6
CONTINUOUS
10
0.021018
20
0.019023
30
0.0
11
0.020378
21
0.019023
31
0.0
0
LINE
8
0
6
CONTINUOUS
10
0.020378
20
0.019023
30
0.0
11
0.019994
21
0.019023
31
0.0
0
LINE
8
0
6
CONTINUOUS
10
0.019994
20
0.019023
30
0.0
11
0.019850
21
0.019023
31
0.0
0
LINE
8
0
6
CONTINUOUS
10
0.023850
20
0.019023
30
0.0
11
0.022826
21
0.019023
31
0.0
0
LINE
8
0
6
CONTINUOUS
10
0.022826
20
0.019023
30
0.0
11
0.021866
21
0.019023
31
0.0
0
LINE
8
0
6
CONTINUOUS
10
0.021866
20
0.019023
30
0.0
11
0.021018
21
0.019023
31
0.0
0
LINE
8
0
6
CONTINUOUS
10
0.021018
20
0.019023
30
0.0
11
0.020378
21
0.019023
31
0.0
0
LINE
8
0
6
CONTINUOUS
10
0.020378
20
0.019023
30
0.0
11
0.019994
21
0.019023
31
0.0
0
LINE
8
0
6
CONTINUOUS
10
0.019994
20
0.019023
30
0.0
11
0.019850
21
0.019023
31
0.0
0
LINE
8
0
6
CONTINUOUS
10
0.022826
20
0.019023
30
0.0
11
0.023850
21
0.019023
31
0.0
0
LINE
8
0
6
CONTINUOUS
10
0.021866
20
0.019023
30
0.0
11
0.022826
21
0.019023
31
0.0
0
LINE
8
0
6
CONTINUOUS
10
0.021018
20
0.019023
30
0.0
11
0.021866
21
0.019023
31
0.0
0
LINE
8
0
6
CONTINUOUS
10
0.020390
20
0.019023
30
0.0
11
0.021018
21
0.019023
31
0.0
0
LINE
8
0
6
CONTINUOUS
10
0.019994
20
0.019023
30
0.0
11
0.020378
21
0.019023
31
0.0
0
LINE
8
0
6
CONTINUOUS
10
0.019850
20
0.019023
30
0.0
11
0.019994
21
0.019023
31
0.0
0
LINE
8
0
6
CONTINUOUS
10
0.024874
20
0.019023
30
0.0
11
0.023850
21
0.019023
31
0.0
0
LINE
8
0
6
CONTINUOUS
10
0.025834
20
0.019023
30
0.0
11
0.025364
21
0.019023
31
0.0
0
LINE
8
0
6
CONTINUOUS
10
0.025364
20
0.019023
30
0.0
11
0.024874
21
0.019023
31
0.0
0
LINE
8
0
6
CONTINUOUS
10
0.026682
20
0.019023
30
0.0
11
0.025834
21
0.019023
31
0.0
0
LINE
8
0
6
CONTINUOUS
10
0.027322
20
0.019023
30
0.0
11
0.026682
21
0.019023
31
0.0
0
LINE
8
0
6
CONTINUOUS
10
0.027706
20
0.019023
30
0.0
11
0.027322
21
0.019023
31
0.0
0
LINE
8
0
6
CONTINUOUS
10
0.027850
20
0.019023
30
0.0
11
0.027706
21
0.019023
31
0.0
0
LINE
8
0
6
CONTINUOUS
10
0.023850
20
0.019023
30
0.0
11
0.024874
21
0.019023
31
0.0
0
LINE
8
0
6
CONTINUOUS
10
0.024874
20
0.019023
30
0.0
11
0.025834
21
0.019023
31
0.0
0
LINE
8
0
6
CONTINUOUS
10
0.025834
20
0.019023
30
0.0
11
0.026682
21
0.019023
31
0.0
0
LINE
8
0
6
CONTINUOUS
10
0.026682
20
0.019023
30
0.0
11
0.027322
21
0.019023
31
0.0
0
LINE
8
0
6
CONTINUOUS
10
0.027322
20
0.019023
30
0.0
11
0.027706
21
0.019023
31
0.0
0
LINE
8
0
6
CONTINUOUS
10
0.027706
20
0.019023
30
0.0
11
0.027850
21
0.019023
31
0.0
0
LINE
8
0
6
CONTINUOUS
10
0.000095
20
0.019023
30
0.0
11
-0.000929
21
0.019023
31
0.0
0
LINE
8
0
6
CONTINUOUS
10
-0.000929
20
0.019023
30
0.0
11
-0.001889
21
0.019023
31
0.0
0
LINE
8
0
6
CONTINUOUS
10
-0.001889
20
0.019023
30
0.0
11
-0.002737
21
0.019023
31
0.0
0
LINE
8
0
6
CONTINUOUS
10
-0.002737
20
0.019023
30
0.0
11
-0.003377
21
0.019023
31
0.0
0
LINE
8
0
6
CONTINUOUS
10
-0.003377
20
0.019023
30
0.0
11
-0.003761
21
0.019023
31
0.0
0
LINE
8
0
6
CONTINUOUS
10
-0.003761
20
0.019023
30
0.0
11
-0.003905
21
0.019023
31
0.0
0
LINE
8
0
6
CONTINUOUS
10
-0.000929
20
0.019023
30
0.0
11
0.000095
21
0.019023
31
0.0
0
LINE
8
0
6
CONTINUOUS
10
-0.001889
20
0.019023
30
0.0
11
-0.000929
21
0.019023
31
0.0
0
LINE
8
0
6
CONTINUOUS
10
-0.002737
20
0.019023
30
0.0
11
-0.001889
21
0.019023
31
0.0
0
LINE
8
0
6
CONTINUOUS
10
-0.003377
20
0.019023
30
0.0
11
-0.002737
21
0.019023
31
0.0
0
LINE
8
0
6
CONTINUOUS
10
-0.003761
20
0.019023
30
0.0
11
-0.003377
21
0.019023
31
0.0
0
LINE
8
0
6
CONTINUOUS
10
-0.003905
20
0.019023
30
0.0
11
-0.003761
21
0.019023
31
0.0
0
LINE
8
0
6
CONTINUOUS
10
0.001119
20
0.019023
30
0.0
11
0.000095
21
0.019023
31
0.0
0
LINE
8
0
6
CONTINUOUS
10
0.002079
20
0.019023
30
0.0
11
0.001119
21
0.019023
31
0.0
0
LINE
8
0
6
CONTINUOUS
10
0.002927
20
0.019023
30
0.0
11
0.002079
21
0.019023
31
0.0
0
LINE
8
0
6
CONTINUOUS
10
0.003567
20
0.019023
30
0.0
11
0.002927
21
0.019023
31
0.0
0
LINE
8
0
6
CONTINUOUS
10
0.003951
20
0.019023
30
0.0
11
0.003567
21
0.019023
31
0.0
0
LINE
8
0
6
CONTINUOUS
10
0.004095
20
0.019023
30
0.0
11
0.003951
21
0.019023
31
0.0
0
LINE
8
0
6
CONTINUOUS
10
0.000095
20
0.019023
30
0.0
11
0.001119
21
0.019023
31
0.0
0
LINE
8
0
6
CONTINUOUS
10
0.001119
20
0.019023
30
0.0
11
0.002079
21
0.019023
31
0.0
0
LINE
8
0
6
CONTINUOUS
10
0.002079
20
0.019023
30
0.0
11
0.002927
21
0.019023
31
0.0
0
LINE
8
0
6
CONTINUOUS
10
0.002927
20
0.019023
30
0.0
11
0.003567
21
0.019023
31
0.0
0
LINE
8
0
6
CONTINUOUS
10
0.003567
20
0.019023
30
0.0
11
0.003951
21
0.019023
31
0.0
0
LINE
8
0
6
CONTINUOUS
10
0.003951
20
0.019023
30
0.0
11
0.004095
21
0.019023
31
0.0
0
LINE
8
0
6
CONTINUOUS
10
0.000095
20
0.019023
30
0.0
11
0.001119
21
0.019023
31
0.0
0
LINE
8
0
6
CONTINUOUS
10
0.001119
20
0.019023
30
0.0
11
0.002079
21
0.019023
31
0.0
0
LINE
8
0
6
CONTINUOUS
10
0.002079
20
0.019023
30
0.0
11
0.002927
21
0.019023
31
0.0
0
LINE
8
0
6
CONTINUOUS
10
0.002927
20
0.019023
30
0.0
11
0.003567
21
0.019023
31
0.0
0
LINE
8
0
6
CONTINUOUS
10
0.003567
20
0.019023
30
0.0
11
0.003951
21
0.019023
31
0.0
0
LINE
8
0
6
CONTINUOUS
10
0.003951
20
0.019023
30
0.0
11
0.004095
21
0.019023
31
0.0
0
LINE
8
0
6
CONTINUOUS
10
0.001119
20
0.019023
30
0.0
11
0.000095
21
0.019023
31
0.0
0
LINE
8
0
6
CONTINUOUS
10
0.002079
20
0.019023
30
0.0
11
0.001119
21
0.019023
31
0.0
0
LINE
8
0
6
CONTINUOUS
10
0.002927
20
0.019023
30
0.0
11
0.002079
21
0.019023
31
0.0
0
LINE
8
0
6
CONTINUOUS
10
0.003567
20
0.019023
30
0.0
11
0.002927
21
0.019023
31
0.0
0
LINE
8
0
6
CONTINUOUS
10
0.003951
20
0.019023
30
0.0
11
0.003567
21
0.019023
31
0.0
0
LINE
8
0
6
CONTINUOUS
10
0.004095
20
0.019023
30
0.0
11
0.003951
21
0.019023
31
0.0
0
LINE
8
0
6
CONTINUOUS
10
-0.000929
20
0.019023
30
0.0
11
0.000095
21
0.019023
31
0.0
0
LINE
8
0
6
CONTINUOUS
10
-0.001889
20
0.019023
30
0.0
11
-0.001000
21
0.019023
31
0.0
0
LINE
8
0
6
CONTINUOUS
10
-0.001000
20
0.019023
30
0.0
11
-0.000929
21
0.019023
31
0.0
0
LINE
8
0
6
CONTINUOUS
10
-0.002737
20
0.019023
30
0.0
11
-0.001889
21
0.019023
31
0.0
0
LINE
8
0
6
CONTINUOUS
10
-0.003377
20
0.019023
30
0.0
11
-0.002737
21
0.019023
31
0.0
0
LINE
8
0
6
CONTINUOUS
10
-0.003761
20
0.019023
30
0.0
11
-0.003377
21
0.019023
31
0.0
0
LINE
8
0
6
CONTINUOUS
10
-0.003905
20
0.019023
30
0.0
11
-0.003761
21
0.019023
31
0.0
0
LINE
8
0
6
CONTINUOUS
10
0.000095
20
0.019023
30
0.0
11
-0.000929
21
0.019023
31
0.0
0
LINE
8
0
6
CONTINUOUS
10
-0.000929
20
0.019023
30
0.0
11
-0.001889
21
0.019023
31
0.0
0
LINE
8
0
6
CONTINUOUS
10
-0.001889
20
0.019023
30
0.0
11
-0.002737
21
0.019023
31
0.0
0
LINE
8
0
6
CONTINUOUS
10
-0.002737
20
0.019023
30
0.0
11
-0.003377
21
0.019023
31
0.0
0
LINE
8
0
6
CONTINUOUS
10
-0.003377
20
0.019023
30
0.0
11
-0.003761
21
0.019023
31
0.0
0
LINE
8
0
6
CONTINUOUS
10
-0.003761
20
0.019023
30
0.0
11
-0.003905
21
0.019023
31
0.0
0
LINE
8
0
6
CONTINUOUS
10
0.001000
20
0.019023
30
0.0
11
-0.001000
21
0.019023
31
0.0
0
LINE
8
0
6
CONTINUOUS
10
-0.001000
20
0.019023
30
0.0
11
0.001000
21
0.019023
31
0.0
0
LINE
8
0
6
CONTINUOUS
10
0.001000
20
0.019023
30
0.0
11
-0.001000
21
0.019023
31
0.0
0
LINE
8
0
6
CONTINUOUS
10
-0.001000
20
0.019023
30
0.0
11
0.001000
21
0.019023
31
0.0
0
LINE
8
0
6
CONTINUOUS
10
-0.021476
20
0.019023
30
0.0
11
-0.019696
21
0.019023
31
0.0
0
LINE
8
0
6
CONTINUOUS
10
-0.023446
20
0.019023
30
0.0
11
-0.023241
21
0.019023
31
0.0
0
LINE
8
0
6
CONTINUOUS
10
-0.023241
20
0.019023
30
0.0
11
-0.021765
21
0.019023
31
0.0
0
LINE
8
0
6
CONTINUOUS
10
-0.021765
20
0.019023
30
0.0
11
-0.021674
21
0.019023
31
0.0
0
LINE
8
0
6
CONTINUOUS
10
-0.021476
20
0.019023
30
0.0
11
-0.023446
21
0.019023
31
0.0
0
LINE
8
0
6
CONTINUOUS
10
-0.019696
20
0.019023
30
0.0
11
-0.019774
21
0.019023
31
0.0
0
LINE
8
0
6
CONTINUOUS
10
-0.019774
20
0.019023
30
0.0
11
-0.021346
21
0.019023
31
0.0
0
LINE
8
0
6
CONTINUOUS
10
-0.021346
20
0.019023
30
0.0
11
-0.021476
21
0.019023
31
0.0
0
LINE
8
0
6
CONTINUOUS
10
-0.021674
20
0.019023
30
0.0
11
-0.019696
21
0.019023
31
0.0
0
LINE
8
0
6
CONTINUOUS
10
-0.019696
20
0.019023
30
0.0
11
-0.021674
21
0.019023
31
0.0
0
LINE
8
0
6
CONTINUOUS
10
-0.021674
20
0.019023
30
0.0
11
-0.023446
21
0.019023
31
0.0
0
LINE
8
0
6
CONTINUOUS
10
-0.023446
20
0.019023
30
0.0
11
-0.021476
21
0.019023
31
0.0
0
LINE
8
0
6
CONTINUOUS
10
-0.023850
20
0.019023
30
0.0
11
-0.024874
21
0.019023
31
0.0
0
LINE
8
0
6
CONTINUOUS
10
-0.024874
20
0.019023
30
0.0
11
-0.025834
21
0.019023
31
0.0
0
LINE
8
0
6
CONTINUOUS
10
-0.025834
20
0.019023
30
0.0
11
-0.026682
21
0.019023
31
0.0
0
LINE
8
0
6
CONTINUOUS
10
-0.026682
20
0.019023
30
0.0
11
-0.027322
21
0.019023
31
0.0
0
LINE
8
0
6
CONTINUOUS
10
-0.027322
20
0.019023
30
0.0
11
-0.027706
21
0.019023
31
0.0
0
LINE
8
0
6
CONTINUOUS
10
-0.027706
20
0.019023
30
0.0
11
-0.027850
21
0.019023
31
0.0
0
LINE
8
0
6
CONTINUOUS
10
-0.024874
20
0.019023
30
0.0
11
-0.023850
21
0.019023
31
0.0
0
LINE
8
0
6
CONTINUOUS
10
-0.025834
20
0.019023
30
0.0
11
-0.024874
21
0.019023
31
0.0
0
LINE
8
0
6
CONTINUOUS
10
-0.026682
20
0.019023
30
0.0
11
-0.025834
21
0.019023
31
0.0
0
LINE
8
0
6
CONTINUOUS
10
-0.027322
20
0.019023
30
0.0
11
-0.027076
21
0.019023
31
0.0
0
LINE
8
0
6
CONTINUOUS
10
-0.027076
20
0.019023
30
0.0
11
-0.026682
21
0.019023
31
0.0
0
LINE
8
0
6
CONTINUOUS
10
-0.027706
20
0.019023
30
0.0
11
-0.027322
21
0.019023
31
0.0
0
LINE
8
0
6
CONTINUOUS
10
-0.027850
20
0.019023
30
0.0
11
-0.027786
21
0.019023
31
0.0
0
LINE
8
0
6
CONTINUOUS
10
-0.027786
20
0.019023
30
0.0
11
-0.027708
21
0.019023
31
0.0
0
LINE
8
0
6
CONTINUOUS
10
-0.022826
20
0.019023
30
0.0
11
-0.023241
21
0.019023
31
0.0
0
LINE
8
0
6
CONTINUOUS
10
-0.023241
20
0.019023
30
0.0
11
-0.023850
21
0.019023
31
0.0
0
LINE
8
0
6
CONTINUOUS
10
-0.021866
20
0.019023
30
0.0
11
-0.022826
21
0.019023
31
0.0
0
LINE
8
0
6
CONTINUOUS
10
-0.021018
20
0.019023
30
0.0
11
-0.021346
21
0.019023
31
0.0
0
LINE
8
0
6
CONTINUOUS
10
-0.021346
20
0.019023
30
0.0
11
-0.021866
21
0.019023
31
0.0
0
LINE
8
0
6
CONTINUOUS
10
-0.020378
20
0.019023
30
0.0
11
-0.021018
21
0.019023
31
0.0
0
LINE
8
0
6
CONTINUOUS
10
-0.019994
20
0.019023
30
0.0
11
-0.020378
21
0.019023
31
0.0
0
LINE
8
0
6
CONTINUOUS
10
-0.019850
20
0.019023
30
0.0
11
-0.019994
21
0.019023
31
0.0
0
LINE
8
0
6
CONTINUOUS
10
-0.023850
20
0.019023
30
0.0
11
-0.022826
21
0.019023
31
0.0
0
LINE
8
0
6
CONTINUOUS
10
-0.022826
20
0.019023
30
0.0
11
-0.021866
21
0.019023
31
0.0
0
LINE
8
0
6
CONTINUOUS
10
-0.021866
20
0.019023
30
0.0
11
-0.021018
21
0.019023
31
0.0
0
LINE
8
0
6
CONTINUOUS
10
-0.021018
20
0.019023
30
0.0
11
-0.020378
21
0.019023
31
0.0
0
LINE
8
0
6
CONTINUOUS
10
-0.020378
20
0.019023
30
0.0
11
-0.019994
21
0.019023
31
0.0
0
LINE
8
0
6
CONTINUOUS
10
-0.019994
20
0.019023
30
0.0
11
-0.019850
21
0.019023
31
0.0
0
LINE
8
0
6
CONTINUOUS
10
-0.023850
20
0.019023
30
0.0
11
-0.022826
21
0.019023
31
0.0
0
LINE
8
0
6
CONTINUOUS
10
-0.022826
20
0.019023
30
0.0
11
-0.021866
21
0.019023
31
0.0
0
LINE
8
0
6
CONTINUOUS
10
-0.021866
20
0.019023
30
0.0
11
-0.021018
21
0.019023
31
0.0
0
LINE
8
0
6
CONTINUOUS
10
-0.021018
20
0.019023
30
0.0
11
-0.020378
21
0.019023
31
0.0
0
LINE
8
0
6
CONTINUOUS
10
-0.020378
20
0.019023
30
0.0
11
-0.019994
21
0.019023
31
0.0
0
LINE
8
0
6
CONTINUOUS
10
-0.019994
20
0.019023
30
0.0
11
-0.019850
21
0.019023
31
0.0
0
LINE
8
0
6
CONTINUOUS
10
-0.022826
20
0.019023
30
0.0
11
-0.023850
21
0.019023
31
0.0
0
LINE
8
0
6
CONTINUOUS
10
-0.021866
20
0.019023
30
0.0
11
-0.022826
21
0.019023
31
0.0
0
LINE
8
0
6
CONTINUOUS
10
-0.021018
20
0.019023
30
0.0
11
-0.021866
21
0.019023
31
0.0
0
LINE
8
0
6
CONTINUOUS
10
-0.020390
20
0.019023
30
0.0
11
-0.021018
21
0.019023
31
0.0
0
LINE
8
0
6
CONTINUOUS
10
-0.019994
20
0.019023
30
0.0
11
-0.020378
21
0.019023
31
0.0
0
LINE
8
0
6
CONTINUOUS
10
-0.019850
20
0.019023
30
0.0
11
-0.019994
21
0.019023
31
0.0
0
LINE
8
0
6
CONTINUOUS
10
-0.024874
20
0.019023
30
0.0
11
-0.023850
21
0.019023
31
0.0
0
LINE
8
0
6
CONTINUOUS
10
-0.025834
20
0.019023
30
0.0
11
-0.025364
21
0.019023
31
0.0
0
LINE
8
0
6
CONTINUOUS
10
-0.025364
20
0.019023
30
0.0
11
-0.024874
21
0.019023
31
0.0
0
LINE
8
0
6
CONTINUOUS
10
-0.026682
20
0.019023
30
0.0
11
-0.025834
21
0.019023
31
0.0
0
LINE
8
0
6
CONTINUOUS
10
-0.027322
20
0.019023
30
0.0
11
-0.026682
21
0.019023
31
0.0
0
LINE
8
0
6
CONTINUOUS
10
-0.027706
20
0.019023
30
0.0
11
-0.027322
21
0.019023
31
0.0
0
LINE
8
0
6
CONTINUOUS
10
-0.027850
20
0.019023
30
0.0
11
-0.027706
21
0.019023
31
0.0
0
LINE
8
0
6
CONTINUOUS
10
-0.023850
20
0.019023
30
0.0
11
-0.024874
21
0.019023
31
0.0
0
LINE
8
0
6
CONTINUOUS
10
-0.024874
20
0.019023
30
0.0
11
-0.025834
21
0.019023
31
0.0
0
LINE
8
0
6
CONTINUOUS
10
-0.025834
20
0.019023
30
0.0
11
-0.026682
21
0.019023
31
0.0
0
LINE
8
0
6
CONTINUOUS
10
-0.026682
20
0.019023
30
0.0
11
-0.027322
21
0.019023
31
0.0
0
LINE
8
0
6
CONTINUOUS
10
-0.027322
20
0.019023
30
0.0
11
-0.027706
21
0.019023
31
0.0
0
LINE
8
0
6
CONTINUOUS
10
-0.027706
20
0.019023
30
0.0
11
-0.027850
21
0.019023
31
0.0
0
LINE
8
0
6
CONTINUOUS
10
-0.026529
20
0.019023
30
0.0
11
-0.027081
21
0.019023
31
0.0
0
LINE
8
0
6
CONTINUOUS
10
-0.027081
20
0.019023
30
0.0
11
-0.034057
21
0.019023
31
0.0
0
LINE
8
0
6
CONTINUOUS
10
-0.034057
20
0.019023
30
0.0
11
-0.034891
21
0.019023
31
0.0
0
LINE
8
0
6
CONTINUOUS
10
-0.027338
20
0.019023
30
0.0
11
-0.027786
21
0.019023
31
0.0
0
LINE
8
0
6
CONTINUOUS
10
-0.027786
20
0.019023
30
0.0
11
-0.028313
21
0.019023
31
0.0
0
LINE
8
0
6
CONTINUOUS
10
-0.028313
20
0.019023
30
0.0
11
-0.037044
21
0.019023
31
0.0
0
LINE
8
0
6
CONTINUOUS
10
-0.037044
20
0.019023
30
0.0
11
-0.037588
21
0.019023
31
0.0
0
LINE
8
0
6
CONTINUOUS
10
-0.026529
20
0.019023
30
0.0
11
-0.027338
21
0.019023
31
0.0
0
LINE
8
0
6
CONTINUOUS
10
-0.034891
20
0.019023
30
0.0
11
-0.034057
21
0.019023
31
0.0
0
LINE
8
0
6
CONTINUOUS
10
-0.034057
20
0.019023
30
0.0
11
-0.027081
21
0.019023
31
0.0
0
LINE
8
0
6
CONTINUOUS
10
-0.027081
20
0.019023
30
0.0
11
-0.026529
21
0.019023
31
0.0
0
LINE
8
0
6
CONTINUOUS
10
-0.037588
20
0.019023
30
0.0
11
-0.034891
21
0.019023
31
0.0
0
LINE
8
0
6
CONTINUOUS
10
-0.034891
20
0.019023
30
0.0
11
-0.037588
21
0.019023
31
0.0
0
LINE
8
0
6
CONTINUOUS
10
-0.037588
20
0.019023
30
0.0
11
-0.037044
21
0.019023
31
0.0
0
LINE
8
0
6
CONTINUOUS
10
-0.037044
20
0.019023
30
0.0
11
-0.028313
21
0.019023
31
0.0
0
LINE
8
0
6
CONTINUOUS
10
-0.028313
20
0.019023
30
0.0
11
-0.027786
21
0.019023
31
0.0
0
LINE
8
0
6
CONTINUOUS
10
-0.027786
20
0.019023
30
0.0
11
-0.027338
21
0.019023
31
0.0
0
LINE
8
0
6
CONTINUOUS
10
-0.027338
20
0.019023
30
0.0
11
-0.026936
21
0.019023
31
0.0
0
LINE
8
0
6
CONTINUOUS
10
-0.026936
20
0.019023
30
0.0
11
-0.026529
21
0.019023
31
0.0
0
LINE
8
0
6
CONTINUOUS
10
-0.069158
20
0.019023
30
0.0
11
-0.058993
21
0.019023
31
0.0
0
LINE
8
0
6
CONTINUOUS
10
-0.068815
20
0.019023
30
0.0
11
-0.058184
21
0.019023
31
0.0
0
LINE
8
0
6
CONTINUOUS
10
-0.069158
20
0.019023
30
0.0
11
-0.068815
21
0.019023
31
0.0
0
LINE
8
0
6
CONTINUOUS
10
-0.058993
20
0.019023
30
0.0
11
-0.069158
21
0.019023
31
0.0
0
LINE
8
0
6
CONTINUOUS
10
-0.058184
20
0.019023
30
0.0
11
-0.058993
21
0.019023
31
0.0
0
LINE
8
0
6
CONTINUOUS
10
-0.058993
20
0.019023
30
0.0
11
-0.058184
21
0.019023
31
0.0
0
LINE
8
0
6
CONTINUOUS
10
-0.058184
20
0.019023
30
0.0
11
-0.068815
21
0.019023
31
0.0
0
LINE
8
0
6
CONTINUOUS
10
-0.068815
20
0.019023
30
0.0
11
-0.069158
21
0.019023
31
0.0
0
LINE
8
0
6
CONTINUOUS
10
-0.067500
20
0.019023
30
0.0
11
-0.067644
21
0.019023
31
0.0
0
LINE
8
0
6
CONTINUOUS
10
-0.067644
20
0.019023
30
0.0
11
-0.068028
21
0.019023
31
0.0
0
LINE
8
0
6
CONTINUOUS
10
-0.068028
20
0.019023
30
0.0
11
-0.068668
21
0.019023
31
0.0
0
LINE
8
0
6
CONTINUOUS
10
-0.068668
20
0.019023
30
0.0
11
-0.069516
21
0.019023
31
0.0
0
LINE
8
0
6
CONTINUOUS
10
-0.069516
20
0.019023
30
0.0
11
-0.070476
21
0.019023
31
0.0
0
LINE
8
0
6
CONTINUOUS
10
-0.070476
20
0.019023
30
0.0
11
-0.071500
21
0.019023
31
0.0
0
LINE
8
0
6
CONTINUOUS
10
-0.067644
20
0.019023
30
0.0
11
-0.067500
21
0.019023
31
0.0
0
LINE
8
0
6
CONTINUOUS
10
-0.068028
20
0.019023
30
0.0
11
-0.067644
21
0.019023
31
0.0
0
LINE
8
0
6
CONTINUOUS
10
-0.068668
20
0.019023
30
0.0
11
-0.068028
21
0.019023
31
0.0
0
LINE
8
0
6
CONTINUOUS
10
-0.069516
20
0.019023
30
0.0
11
-0.068668
21
0.019023
31
0.0
0
LINE
8
0
6
CONTINUOUS
10
-0.070476
20
0.019023
30
0.0
11
-0.069516
21
0.019023
31
0.0
0
LINE
8
0
6
CONTINUOUS
10
-0.071500
20
0.019023
30
0.0
11
-0.070476
21
0.019023
31
0.0
0
LINE
8
0
6
CONTINUOUS
10
-0.067644
20
0.019023
30
0.0
11
-0.067500
21
0.019023
31
0.0
0
LINE
8
0
6
CONTINUOUS
10
-0.068028
20
0.019023
30
0.0
11
-0.067644
21
0.019023
31
0.0
0
LINE
8
0
6
CONTINUOUS
10
-0.068668
20
0.019023
30
0.0
11
-0.068028
21
0.019023
31
0.0
0
LINE
8
0
6
CONTINUOUS
10
-0.069516
20
0.019023
30
0.0
11
-0.068668
21
0.019023
31
0.0
0
LINE
8
0
6
CONTINUOUS
10
-0.070476
20
0.019023
30
0.0
11
-0.069516
21
0.019023
31
0.0
0
LINE
8
0
6
CONTINUOUS
10
-0.071500
20
0.019023
30
0.0
11
-0.070476
21
0.019023
31
0.0
0
LINE
8
0
6
CONTINUOUS
10
-0.067500
20
0.019023
30
0.0
11
-0.067644
21
0.019023
31
0.0
0
LINE
8
0
6
CONTINUOUS
10
-0.067644
20
0.019023
30
0.0
11
-0.068028
21
0.019023
31
0.0
0
LINE
8
0
6
CONTINUOUS
10
-0.068028
20
0.019023
30
0.0
11
-0.068668
21
0.019023
31
0.0
0
LINE
8
0
6
CONTINUOUS
10
-0.068668
20
0.019023
30
0.0
11
-0.069516
21
0.019023
31
0.0
0
LINE
8
0
6
CONTINUOUS
10
-0.069516
20
0.019023
30
0.0
11
-0.070476
21
0.019023
31
0.0
0
LINE
8
0
6
CONTINUOUS
10
-0.070476
20
0.019023
30
0.0
11
-0.071500
21
0.019023
31
0.0
0
LINE
8
0
6
CONTINUOUS
10
-0.075500
20
0.019023
30
0.0
11
-0.075356
21
0.019023
31
0.0
0
LINE
8
0
6
CONTINUOUS
10
-0.075356
20
0.019023
30
0.0
11
-0.074972
21
0.019023
31
0.0
0
LINE
8
0
6
CONTINUOUS
10
-0.074972
20
0.019023
30
0.0
11
-0.074332
21
0.019023
31
0.0
0
LINE
8
0
6
CONTINUOUS
10
-0.074332
20
0.019023
30
0.0
11
-0.073484
21
0.019023
31
0.0
0
LINE
8
0
6
CONTINUOUS
10
-0.073484
20
0.019023
30
0.0
11
-0.072524
21
0.019023
31
0.0
0
LINE
8
0
6
CONTINUOUS
10
-0.072524
20
0.019023
30
0.0
11
-0.071500
21
0.019023
31
0.0
0
LINE
8
0
6
CONTINUOUS
10
-0.075356
20
0.019023
30
0.0
11
-0.075500
21
0.019023
31
0.0
0
LINE
8
0
6
CONTINUOUS
10
-0.074972
20
0.019023
30
0.0
11
-0.075356
21
0.019023
31
0.0
0
LINE
8
0
6
CONTINUOUS
10
-0.074332
20
0.019023
30
0.0
11
-0.074972
21
0.019023
31
0.0
0
LINE
8
0
6
CONTINUOUS
10
-0.073484
20
0.019023
30
0.0
11
-0.074332
21
0.019023
31
0.0
0
LINE
8
0
6
CONTINUOUS
10
-0.072524
20
0.019023
30
0.0
11
-0.073484
21
0.019023
31
0.0
0
LINE
8
0
6
CONTINUOUS
10
-0.071500
20
0.019023
30
0.0
11
-0.072524
21
0.019023
31
0.0
0
LINE
8
0
6
CONTINUOUS
10
-0.075356
20
0.019023
30
0.0
11
-0.075500
21
0.019023
31
0.0
0
LINE
8
0
6
CONTINUOUS
10
-0.074972
20
0.019023
30
0.0
11
-0.075160
21
0.019023
31
0.0
0
LINE
8
0
6
CONTINUOUS
10
-0.075160
20
0.019023
30
0.0
11
-0.075356
21
0.019023
31
0.0
0
LINE
8
0
6
CONTINUOUS
10
-0.074332
20
0.019023
30
0.0
11
-0.074972
21
0.019023
31
0.0
0
LINE
8
0
6
CONTINUOUS
10
-0.073484
20
0.019023
30
0.0
11
-0.074332
21
0.019023
31
0.0
0
LINE
8
0
6
CONTINUOUS
10
-0.072524
20
0.019023
30
0.0
11
-0.073484
21
0.019023
31
0.0
0
LINE
8
0
6
CONTINUOUS
10
-0.071500
20
0.019023
30
0.0
11
-0.072524
21
0.019023
31
0.0
0
LINE
8
0
6
CONTINUOUS
10
-0.075500
20
0.019023
30
0.0
11
-0.075356
21
0.019023
31
0.0
0
LINE
8
0
6
CONTINUOUS
10
-0.075356
20
0.019023
30
0.0
11
-0.074972
21
0.019023
31
0.0
0
LINE
8
0
6
CONTINUOUS
10
-0.074972
20
0.019023
30
0.0
11
-0.074332
21
0.019023
31
0.0
0
LINE
8
0
6
CONTINUOUS
10
-0.074332
20
0.019023
30
0.0
11
-0.073484
21
0.019023
31
0.0
0
LINE
8
0
6
CONTINUOUS
10
-0.073484
20
0.019023
30
0.0
11
-0.072524
21
0.019023
31
0.0
0
LINE
8
0
6
CONTINUOUS
10
-0.072524
20
0.019023
30
0.0
11
-0.071500
21
0.019023
31
0.0
0
LINE
8
0
6
CONTINUOUS
10
-0.070496
20
0.019023
30
0.0
11
-0.069197
21
0.019023
31
0.0
0
LINE
8
0
6
CONTINUOUS
10
-0.069197
20
0.019023
30
0.0
11
-0.052778
21
0.019023
31
0.0
0
LINE
8
0
6
CONTINUOUS
10
-0.052778
20
0.019023
30
0.0
11
-0.050815
21
0.019023
31
0.0
0
LINE
8
0
6
CONTINUOUS
10
-0.072023
20
0.019023
30
0.0
11
-0.069887
21
0.019023
31
0.0
0
LINE
8
0
6
CONTINUOUS
10
-0.069887
20
0.019023
30
0.0
11
-0.049557
21
0.019023
31
0.0
0
LINE
8
0
6
CONTINUOUS
10
-0.070496
20
0.019023
30
0.0
11
-0.072023
21
0.019023
31
0.0
0
LINE
8
0
6
CONTINUOUS
10
-0.050815
20
0.019023
30
0.0
11
-0.070496
21
0.019023
31
0.0
0
LINE
8
0
6
CONTINUOUS
10
-0.049557
20
0.019023
30
0.0
11
-0.050815
21
0.019023
31
0.0
0
LINE
8
0
6
CONTINUOUS
10
-0.050815
20
0.019023
30
0.0
11
-0.049557
21
0.019023
31
0.0
0
LINE
8
0
6
CONTINUOUS
10
-0.049557
20
0.019023
30
0.0
11
-0.069887
21
0.019023
31
0.0
0
LINE
8
0
6
CONTINUOUS
10
-0.069887
20
0.019023
30
0.0
11
-0.072023
21
0.019023
31
0.0
0
LINE
8
0
6
CONTINUOUS
10
-0.072023
20
0.019023
30
0.0
11
-0.071264
21
0.019023
31
0.0
0
LINE
8
0
6
CONTINUOUS
10
-0.071264
20
0.019023
30
0.0
11
-0.070496
21
0.019023
31
0.0
0
LINE
8
0
6
CONTINUOUS
10
-0.046749
20
0.019023
30
0.0
11
-0.047773
21
0.019023
31
0.0
0
LINE
8
0
6
CONTINUOUS
10
-0.047773
20
0.019023
30
0.0
11
-0.048733
21
0.019023
31
0.0
0
LINE
8
0
6
CONTINUOUS
10
-0.048733
20
0.019023
30
0.0
11
-0.049581
21
0.019023
31
0.0
0
LINE
8
0
6
CONTINUOUS
10
-0.049581
20
0.019023
30
0.0
11
-0.050221
21
0.019023
31
0.0
0
LINE
8
0
6
CONTINUOUS
10
-0.050221
20
0.019023
30
0.0
11
-0.050605
21
0.019023
31
0.0
0
LINE
8
0
6
CONTINUOUS
10
-0.050605
20
0.019023
30
0.0
11
-0.050749
21
0.019023
31
0.0
0
LINE
8
0
6
CONTINUOUS
10
-0.047773
20
0.019023
30
0.0
11
-0.046749
21
0.019023
31
0.0
0
LINE
8
0
6
CONTINUOUS
10
-0.048733
20
0.019023
30
0.0
11
-0.047773
21
0.019023
31
0.0
0
LINE
8
0
6
CONTINUOUS
10
-0.049581
20
0.019023
30
0.0
11
-0.048733
21
0.019023
31
0.0
0
LINE
8
0
6
CONTINUOUS
10
-0.050221
20
0.019023
30
0.0
11
-0.049581
21
0.019023
31
0.0
0
LINE
8
0
6
CONTINUOUS
10
-0.050605
20
0.019023
30
0.0
11
-0.050221
21
0.019023
31
0.0
0
LINE
8
0
6
CONTINUOUS
10
-0.050749
20
0.019023
30
0.0
11
-0.050605
21
0.019023
31
0.0
0
LINE
8
0
6
CONTINUOUS
10
-0.045725
20
0.019023
30
0.0
11
-0.046749
21
0.019023
31
0.0
0
LINE
8
0
6
CONTINUOUS
10
-0.044765
20
0.019023
30
0.0
11
-0.045725
21
0.019023
31
0.0
0
LINE
8
0
6
CONTINUOUS
10
-0.043917
20
0.019023
30
0.0
11
-0.044765
21
0.019023
31
0.0
0
LINE
8
0
6
CONTINUOUS
10
-0.043277
20
0.019023
30
0.0
11
-0.043917
21
0.019023
31
0.0
0
LINE
8
0
6
CONTINUOUS
10
-0.042893
20
0.019023
30
0.0
11
-0.043277
21
0.019023
31
0.0
0
LINE
8
0
6
CONTINUOUS
10
-0.042749
20
0.019023
30
0.0
11
-0.042893
21
0.019023
31
0.0
0
LINE
8
0
6
CONTINUOUS
10
-0.046749
20
0.019023
30
0.0
11
-0.045725
21
0.019023
31
0.0
0
LINE
8
0
6
CONTINUOUS
10
-0.045725
20
0.019023
30
0.0
11
-0.044765
21
0.019023
31
0.0
0
LINE
8
0
6
CONTINUOUS
10
-0.044765
20
0.019023
30
0.0
11
-0.043917
21
0.019023
31
0.0
0
LINE
8
0
6
CONTINUOUS
10
-0.043917
20
0.019023
30
0.0
11
-0.043277
21
0.019023
31
0.0
0
LINE
8
0
6
CONTINUOUS
10
-0.043277
20
0.019023
30
0.0
11
-0.042893
21
0.019023
31
0.0
0
LINE
8
0
6
CONTINUOUS
10
-0.042893
20
0.019023
30
0.0
11
-0.042749
21
0.019023
31
0.0
0
LINE
8
0
6
CONTINUOUS
10
-0.046749
20
0.019023
30
0.0
11
-0.045725
21
0.019023
31
0.0
0
LINE
8
0
6
CONTINUOUS
10
-0.045725
20
0.019023
30
0.0
11
-0.044765
21
0.019023
31
0.0
0
LINE
8
0
6
CONTINUOUS
10
-0.044765
20
0.019023
30
0.0
11
-0.043917
21
0.019023
31
0.0
0
LINE
8
0
6
CONTINUOUS
10
-0.043917
20
0.019023
30
0.0
11
-0.043277
21
0.019023
31
0.0
0
LINE
8
0
6
CONTINUOUS
10
-0.043277
20
0.019023
30
0.0
11
-0.042893
21
0.019023
31
0.0
0
LINE
8
0
6
CONTINUOUS
10
-0.042893
20
0.019023
30
0.0
11
-0.042749
21
0.019023
31
0.0
0
LINE
8
0
6
CONTINUOUS
10
-0.045725
20
0.019023
30
0.0
11
-0.046749
21
0.019023
31
0.0
0
LINE
8
0
6
CONTINUOUS
10
-0.044765
20
0.019023
30
0.0
11
-0.045725
21
0.019023
31
0.0
0
LINE
8
0
6
CONTINUOUS
10
-0.043917
20
0.019023
30
0.0
11
-0.044765
21
0.019023
31
0.0
0
LINE
8
0
6
CONTINUOUS
10
-0.043277
20
0.019023
30
0.0
11
-0.043917
21
0.019023
31
0.0
0
LINE
8
0
6
CONTINUOUS
10
-0.042893
20
0.019023
30
0.0
11
-0.043277
21
0.019023
31
0.0
0
LINE
8
0
6
CONTINUOUS
10
-0.042749
20
0.019023
30
0.0
11
-0.042893
21
0.019023
31
0.0
0
LINE
8
0
6
CONTINUOUS
10
-0.047773
20
0.019023
30
0.0
11
-0.046749
21
0.019023
31
0.0
0
LINE
8
0
6
CONTINUOUS
10
-0.048733
20
0.019023
30
0.0
11
-0.047926
21
0.019023
31
0.0
0
LINE
8
0
6
CONTINUOUS
10
-0.047926
20
0.019023
30
0.0
11
-0.047773
21
0.019023
31
0.0
0
LINE
8
0
6
CONTINUOUS
10
-0.049581
20
0.019023
30
0.0
11
-0.048733
21
0.019023
31
0.0
0
LINE
8
0
6
CONTINUOUS
10
-0.050221
20
0.019023
30
0.0
11
-0.049581
21
0.019023
31
0.0
0
LINE
8
0
6
CONTINUOUS
10
-0.050605
20
0.019023
30
0.0
11
-0.050544
21
0.019023
31
0.0
0
LINE
8
0
6
CONTINUOUS
10
-0.050544
20
0.019023
30
0.0
11
-0.050221
21
0.019023
31
0.0
0
LINE
8
0
6
CONTINUOUS
10
-0.050749
20
0.019023
30
0.0
11
-0.050605
21
0.019023
31
0.0
0
LINE
8
0
6
CONTINUOUS
10
-0.046749
20
0.019023
30
0.0
11
-0.047773
21
0.019023
31
0.0
0
LINE
8
0
6
CONTINUOUS
10
-0.047773
20
0.019023
30
0.0
11
-0.048733
21
0.019023
31
0.0
0
LINE
8
0
6
CONTINUOUS
10
-0.048733
20
0.019023
30
0.0
11
-0.049581
21
0.019023
31
0.0
0
LINE
8
0
6
CONTINUOUS
10
-0.049581
20
0.019023
30
0.0
11
-0.050221
21
0.019023
31
0.0
0
LINE
8
0
6
CONTINUOUS
10
-0.050221
20
0.019023
30
0.0
11
-0.050605
21
0.019023
31
0.0
0
LINE
8
0
6
CONTINUOUS
10
-0.050605
20
0.019023
30
0.0
11
-0.050749
21
0.019023
31
0.0
0
LINE
8
0
6
CONTINUOUS
10
-0.067500
20
0.019023
30
0.0
11
-0.067644
21
0.019023
31
0.0
0
LINE
8
0
6
CONTINUOUS
10
-0.067644
20
0.019023
30
0.0
11
-0.068028
21
0.019023
31
0.0
0
LINE
8
0
6
CONTINUOUS
10
-0.068028
20
0.019023
30
0.0
11
-0.068668
21
0.019023
31
0.0
0
LINE
8
0
6
CONTINUOUS
10
-0.068668
20
0.019023
30
0.0
11
-0.069516
21
0.019023
31
0.0
0
LINE
8
0
6
CONTINUOUS
10
-0.069516
20
0.019023
30
0.0
11
-0.070476
21
0.019023
31
0.0
0
LINE
8
0
6
CONTINUOUS
10
-0.070476
20
0.019023
30
0.0
11
-0.071500
21
0.019023
31
0.0
0
LINE
8
0
6
CONTINUOUS
10
-0.067644
20
0.019023
30
0.0
11
-0.067500
21
0.019023
31
0.0
0
LINE
8
0
6
CONTINUOUS
10
-0.068028
20
0.019023
30
0.0
11
-0.067644
21
0.019023
31
0.0
0
LINE
8
0
6
CONTINUOUS
10
-0.068668
20
0.019023
30
0.0
11
-0.068028
21
0.019023
31
0.0
0
LINE
8
0
6
CONTINUOUS
10
-0.069516
20
0.019023
30
0.0
11
-0.068668
21
0.019023
31
0.0
0
LINE
8
0
6
CONTINUOUS
10
-0.070476
20
0.019023
30
0.0
11
-0.069516
21
0.019023
31
0.0
0
LINE
8
0
6
CONTINUOUS
10
-0.071500
20
0.019023
30
0.0
11
-0.070476
21
0.019023
31
0.0
0
LINE
8
0
6
CONTINUOUS
10
-0.067644
20
0.019023
30
0.0
11
-0.067500
21
0.019023
31
0.0
0
LINE
8
0
6
CONTINUOUS
10
-0.068028
20
0.019023
30
0.0
11
-0.067644
21
0.019023
31
0.0
0
LINE
8
0
6
CONTINUOUS
10
-0.068668
20
0.019023
30
0.0
11
-0.068028
21
0.019023
31
0.0
0
LINE
8
0
6
CONTINUOUS
10
-0.069516
20
0.019023
30
0.0
11
-0.068668
21
0.019023
31
0.0
0
LINE
8
0
6
CONTINUOUS
10
-0.070476
20
0.019023
30
0.0
11
-0.069516
21
0.019023
31
0.0
0
LINE
8
0
6
CONTINUOUS
10
-0.071500
20
0.019023
30
0.0
11
-0.070476
21
0.019023
31
0.0
0
LINE
8
0
6
CONTINUOUS
10
-0.067500
20
0.019023
30
0.0
11
-0.067644
21
0.019023
31
0.0
0
LINE
8
0
6
CONTINUOUS
10
-0.067644
20
0.019023
30
0.0
11
-0.068028
21
0.019023
31
0.0
0
LINE
8
0
6
CONTINUOUS
10
-0.068028
20
0.019023
30
0.0
11
-0.068668
21
0.019023
31
0.0
0
LINE
8
0
6
CONTINUOUS
10
-0.068668
20
0.019023
30
0.0
11
-0.069516
21
0.019023
31
0.0
0
LINE
8
0
6
CONTINUOUS
10
-0.069516
20
0.019023
30
0.0
11
-0.070476
21
0.019023
31
0.0
0
LINE
8
0
6
CONTINUOUS
10
-0.070476
20
0.019023
30
0.0
11
-0.071500
21
0.019023
31
0.0
0
LINE
8
0
6
CONTINUOUS
10
-0.075500
20
0.019023
30
0.0
11
-0.075356
21
0.019023
31
0.0
0
LINE
8
0
6
CONTINUOUS
10
-0.075356
20
0.019023
30
0.0
11
-0.074972
21
0.019023
31
0.0
0
LINE
8
0
6
CONTINUOUS
10
-0.074972
20
0.019023
30
0.0
11
-0.074332
21
0.019023
31
0.0
0
LINE
8
0
6
CONTINUOUS
10
-0.074332
20
0.019023
30
0.0
11
-0.073484
21
0.019023
31
0.0
0
LINE
8
0
6
CONTINUOUS
10
-0.073484
20
0.019023
30
0.0
11
-0.072524
21
0.019023
31
0.0
0
LINE
8
0
6
CONTINUOUS
10
-0.072524
20
0.019023
30
0.0
11
-0.071500
21
0.019023
31
0.0
0
LINE
8
0
6
CONTINUOUS
10
-0.075356
20
0.019023
30
0.0
11
-0.075500
21
0.019023
31
0.0
0
LINE
8
0
6
CONTINUOUS
10
-0.074972
20
0.019023
30
0.0
11
-0.075356
21
0.019023
31
0.0
0
LINE
8
0
6
CONTINUOUS
10
-0.074332
20
0.019023
30
0.0
11
-0.074972
21
0.019023
31
0.0
0
LINE
8
0
6
CONTINUOUS
10
-0.073484
20
0.019023
30
0.0
11
-0.074332
21
0.019023
31
0.0
0
LINE
8
0
6
CONTINUOUS
10
-0.072524
20
0.019023
30
0.0
11
-0.073484
21
0.019023
31
0.0
0
LINE
8
0
6
CONTINUOUS
10
-0.071500
20
0.019023
30
0.0
11
-0.072524
21
0.019023
31
0.0
0
LINE
8
0
6
CONTINUOUS
10
-0.075356
20
0.019023
30
0.0
11
-0.075500
21
0.019023
31
0.0
0
LINE
8
0
6
CONTINUOUS
10
-0.074972
20
0.019023
30
0.0
11
-0.075356
21
0.019023
31
0.0
0
LINE
8
0
6
CONTINUOUS
10
-0.074332
20
0.019023
30
0.0
11
-0.074972
21
0.019023
31
0.0
0
LINE
8
0
6
CONTINUOUS
10
-0.073484
20
0.019023
30
0.0
11
-0.074332
21
0.019023
31
0.0
0
LINE
8
0
6
CONTINUOUS
10
-0.072524
20
0.019023
30
0.0
11
-0.073484
21
0.019023
31
0.0
0
LINE
8
0
6
CONTINUOUS
10
-0.071500
20
0.019023
30
0.0
11
-0.072524
21
0.019023
31
0.0
0
LINE
8
0
6
CONTINUOUS
10
-0.075500
20
0.019023
30
0.0
11
-0.075356
21
0.019023
31
0.0
0
LINE
8
0
6
CONTINUOUS
10
-0.075356
20
0.019023
30
0.0
11
-0.074972
21
0.019023
31
0.0
0
LINE
8
0
6
CONTINUOUS
10
-0.074972
20
0.019023
30
0.0
11
-0.074332
21
0.019023
31
0.0
0
LINE
8
0
6
CONTINUOUS
10
-0.074332
20
0.019023
30
0.0
11
-0.073484
21
0.019023
31
0.0
0
LINE
8
0
6
CONTINUOUS
10
-0.073484
20
0.019023
30
0.0
11
-0.072524
21
0.019023
31
0.0
0
LINE
8
0
6
CONTINUOUS
10
-0.072524
20
0.019023
30
0.0
11
-0.071500
21
0.019023
31
0.0
0
LINE
8
0
6
CONTINUOUS
10
-0.074500
20
0.019023
30
0.0
11
-0.069500
21
0.019023
31
0.0
0
LINE
8
0
6
CONTINUOUS
10
-0.074500
20
0.019023
30
0.0
11
-0.069500
21
0.019023
31
0.0
0
LINE
8
0
6
CONTINUOUS
10
-0.069500
20
0.019023
30
0.0
11
-0.074500
21
0.019023
31
0.0
0
LINE
8
0
6
CONTINUOUS
10
-0.069500
20
0.019023
30
0.0
11
-0.074500
21
0.019023
31
0.0
0
LINE
8
0
6
CONTINUOUS
10
-0.061890
20
0.019023
30
0.0
11
-0.062034
21
0.019023
31
0.0
0
LINE
8
0
6
CONTINUOUS
10
-0.062034
20
0.019023
30
0.0
11
-0.062418
21
0.019023
31
0.0
0
LINE
8
0
6
CONTINUOUS
10
-0.062418
20
0.019023
30
0.0
11
-0.063058
21
0.019023
31
0.0
0
LINE
8
0
6
CONTINUOUS
10
-0.063058
20
0.019023
30
0.0
11
-0.063906
21
0.019023
31
0.0
0
LINE
8
0
6
CONTINUOUS
10
-0.063906
20
0.019023
30
0.0
11
-0.064866
21
0.019023
31
0.0
0
LINE
8
0
6
CONTINUOUS
10
-0.064866
20
0.019023
30
0.0
11
-0.065890
21
0.019023
31
0.0
0
LINE
8
0
6
CONTINUOUS
10
-0.062034
20
0.019023
30
0.0
11
-0.061890
21
0.019023
31
0.0
0
LINE
8
0
6
CONTINUOUS
10
-0.062418
20
0.019023
30
0.0
11
-0.062034
21
0.019023
31
0.0
0
LINE
8
0
6
CONTINUOUS
10
-0.063058
20
0.019023
30
0.0
11
-0.062418
21
0.019023
31
0.0
0
LINE
8
0
6
CONTINUOUS
10
-0.063906
20
0.019023
30
0.0
11
-0.063058
21
0.019023
31
0.0
0
LINE
8
0
6
CONTINUOUS
10
-0.064866
20
0.019023
30
0.0
11
-0.063906
21
0.019023
31
0.0
0
LINE
8
0
6
CONTINUOUS
10
-0.065890
20
0.019023
30
0.0
11
-0.064866
21
0.019023
31
0.0
0
LINE
8
0
6
CONTINUOUS
10
-0.062034
20
0.019023
30
0.0
11
-0.061890
21
0.019023
31
0.0
0
LINE
8
0
6
CONTINUOUS
10
-0.062418
20
0.019023
30
0.0
11
-0.062034
21
0.019023
31
0.0
0
LINE
8
0
6
CONTINUOUS
10
-0.063058
20
0.019023
30
0.0
11
-0.062418
21
0.019023
31
0.0
0
LINE
8
0
6
CONTINUOUS
10
-0.063906
20
0.019023
30
0.0
11
-0.063058
21
0.019023
31
0.0
0
LINE
8
0
6
CONTINUOUS
10
-0.064866
20
0.019023
30
0.0
11
-0.063906
21
0.019023
31
0.0
0
LINE
8
0
6
CONTINUOUS
10
-0.065890
20
0.019023
30
0.0
11
-0.064866
21
0.019023
31
0.0
0
LINE
8
0
6
CONTINUOUS
10
-0.061890
20
0.019023
30
0.0
11
-0.062034
21
0.019023
31
0.0
0
LINE
8
0
6
CONTINUOUS
10
-0.062034
20
0.019023
30
0.0
11
-0.062418
21
0.019023
31
0.0
0
LINE
8
0
6
CONTINUOUS
10
-0.062418
20
0.019023
30
0.0
11
-0.063058
21
0.019023
31
0.0
0
LINE
8
0
6
CONTINUOUS
10
-0.063058
20
0.019023
30
0.0
11
-0.063906
21
0.019023
31
0.0
0
LINE
8
0
6
CONTINUOUS
10
-0.063906
20
0.019023
30
0.0
11
-0.064866
21
0.019023
31
0.0
0
LINE
8
0
6
CONTINUOUS
10
-0.064866
20
0.019023
30
0.0
11
-0.065890
21
0.019023
31
0.0
0
LINE
8
0
6
CONTINUOUS
10
-0.069890
20
0.019023
30
0.0
11
-0.069746
21
0.019023
31
0.0
0
LINE
8
0
6
CONTINUOUS
10
-0.069746
20
0.019023
30
0.0
11
-0.069362
21
0.019023
31
0.0
0
LINE
8
0
6
CONTINUOUS
10
-0.069362
20
0.019023
30
0.0
11
-0.068722
21
0.019023
31
0.0
0
LINE
8
0
6
CONTINUOUS
10
-0.068722
20
0.019023
30
0.0
11
-0.067874
21
0.019023
31
0.0
0
LINE
8
0
6
CONTINUOUS
10
-0.067874
20
0.019023
30
0.0
11
-0.066914
21
0.019023
31
0.0
0
LINE
8
0
6
CONTINUOUS
10
-0.066914
20
0.019023
30
0.0
11
-0.065890
21
0.019023
31
0.0
0
LINE
8
0
6
CONTINUOUS
10
-0.069746
20
0.019023
30
0.0
11
-0.069890
21
0.019023
31
0.0
0
LINE
8
0
6
CONTINUOUS
10
-0.069362
20
0.019023
30
0.0
11
-0.069746
21
0.019023
31
0.0
0
LINE
8
0
6
CONTINUOUS
10
-0.068722
20
0.019023
30
0.0
11
-0.069362
21
0.019023
31
0.0
0
LINE
8
0
6
CONTINUOUS
10
-0.067874
20
0.019023
30
0.0
11
-0.068722
21
0.019023
31
0.0
0
LINE
8
0
6
CONTINUOUS
10
-0.066914
20
0.019023
30
0.0
11
-0.067874
21
0.019023
31
0.0
0
LINE
8
0
6
CONTINUOUS
10
-0.065890
20
0.019023
30
0.0
11
-0.066914
21
0.019023
31
0.0
0
LINE
8
0
6
CONTINUOUS
10
-0.069746
20
0.019023
30
0.0
11
-0.069890
21
0.019023
31
0.0
0
LINE
8
0
6
CONTINUOUS
10
-0.069362
20
0.019023
30
0.0
11
-0.069746
21
0.019023
31
0.0
0
LINE
8
0
6
CONTINUOUS
10
-0.068722
20
0.019023
30
0.0
11
-0.069362
21
0.019023
31
0.0
0
LINE
8
0
6
CONTINUOUS
10
-0.067874
20
0.019023
30
0.0
11
-0.068722
21
0.019023
31
0.0
0
LINE
8
0
6
CONTINUOUS
10
-0.066914
20
0.019023
30
0.0
11
-0.067874
21
0.019023
31
0.0
0
LINE
8
0
6
CONTINUOUS
10
-0.065890
20
0.019023
30
0.0
11
-0.066914
21
0.019023
31
0.0
0
LINE
8
0
6
CONTINUOUS
10
-0.069890
20
0.019023
30
0.0
11
-0.069746
21
0.019023
31
0.0
0
LINE
8
0
6
CONTINUOUS
10
-0.069746
20
0.019023
30
0.0
11
-0.069362
21
0.019023
31
0.0
0
LINE
8
0
6
CONTINUOUS
10
-0.069362
20
0.019023
30
0.0
11
-0.068722
21
0.019023
31
0.0
0
LINE
8
0
6
CONTINUOUS
10
-0.068722
20
0.019023
30
0.0
11
-0.067874
21
0.019023
31
0.0
0
LINE
8
0
6
CONTINUOUS
10
-0.067874
20
0.019023
30
0.0
11
-0.066914
21
0.019023
31
0.0
0
LINE
8
0
6
CONTINUOUS
10
-0.066914
20
0.019023
30
0.0
11
-0.065890
21
0.019023
31
0.0
0
LINE
8
0
6
CONTINUOUS
10
-0.069158
20
0.019023
30
0.0
11
-0.061000
21
0.019023
31
0.0
0
LINE
8
0
6
CONTINUOUS
10
-0.068815
20
0.019023
30
0.0
11
-0.061000
21
0.019023
31
0.0
0
LINE
8
0
6
CONTINUOUS
10
-0.069158
20
0.019023
30
0.0
11
-0.068815
21
0.019023
31
0.0
0
LINE
8
0
6
CONTINUOUS
10
-0.061000
20
0.019023
30
0.0
11
-0.069158
21
0.019023
31
0.0
0
LINE
8
0
6
CONTINUOUS
10
-0.061000
20
0.019023
30
0.0
11
-0.068815
21
0.019023
31
0.0
0
LINE
8
0
6
CONTINUOUS
10
-0.068815
20
0.019023
30
0.0
11
-0.069158
21
0.019023
31
0.0
0
LINE
8
0
6
CONTINUOUS
10
-0.070496
20
0.019023
30
0.0
11
-0.061000
21
0.019023
31
0.0
0
LINE
8
0
6
CONTINUOUS
10
-0.072023
20
0.019023
30
0.0
11
-0.061000
21
0.019023
31
0.0
0
LINE
8
0
6
CONTINUOUS
10
-0.070496
20
0.019023
30
0.0
11
-0.072023
21
0.019023
31
0.0
0
LINE
8
0
6
CONTINUOUS
10
-0.061000
20
0.019023
30
0.0
11
-0.070496
21
0.019023
31
0.0
0
LINE
8
0
6
CONTINUOUS
10
-0.061000
20
0.019023
30
0.0
11
-0.072023
21
0.019023
31
0.0
0
LINE
8
0
6
CONTINUOUS
10
-0.072023
20
0.019023
30
0.0
11
-0.070496
21
0.019023
31
0.0
0
LINE
8
0
6
CONTINUOUS
10
0.038304
20
0.019023
30
0.0
11
0.044352
21
0.019023
31
0.0
0
LINE
8
0
6
CONTINUOUS
10
0.031248
20
0.019023
30
0.0
11
0.034056
21
0.019023
31
0.0
0
LINE
8
0
6
CONTINUOUS
10
0.034056
20
0.019023
30
0.0
11
0.037044
21
0.019023
31
0.0
0
LINE
8
0
6
CONTINUOUS
10
0.037044
20
0.019023
30
0.0
11
0.038304
21
0.019023
31
0.0
0
LINE
8
0
6
CONTINUOUS
10
0.023940
20
0.019023
30
0.0
11
0.031248
21
0.019023
31
0.0
0
LINE
8
0
6
CONTINUOUS
10
0.016128
20
0.019023
30
0.0
11
0.019774
21
0.019023
31
0.0
0
LINE
8
0
6
CONTINUOUS
10
0.019774
20
0.019023
30
0.0
11
0.021765
21
0.019023
31
0.0
0
LINE
8
0
6
CONTINUOUS
10
0.021765
20
0.019023
30
0.0
11
0.023940
21
0.019023
31
0.0
0
LINE
8
0
6
CONTINUOUS
10
0.008316
20
0.019023
30
0.0
11
0.016128
21
0.019023
31
0.0
0
LINE
8
0
6
CONTINUOUS
10
0.000000
20
0.019023
30
0.0
11
0.008316
21
0.019023
31
0.0
0
LINE
8
0
6
CONTINUOUS
10
0.044352
20
0.019023
30
0.0
11
0.038304
21
0.019023
31
0.0
0
LINE
8
0
6
CONTINUOUS
10
0.038304
20
0.019023
30
0.0
11
0.031248
21
0.019023
31
0.0
0
LINE
8
0
6
CONTINUOUS
10
0.031248
20
0.019023
30
0.0
11
0.023940
21
0.019023
31
0.0
0
LINE
8
0
6
CONTINUOUS
10
0.023940
20
0.019023
30
0.0
11
0.016128
21
0.019023
31
0.0
0
LINE
8
0
6
CONTINUOUS
10
0.016128
20
0.019023
30
0.0
11
0.008316
21
0.019023
31
0.0
0
LINE
8
0
6
CONTINUOUS
10
0.008316
20
0.019023
30
0.0
11
0.000000
21
0.019023
31
0.0
0
LINE
8
0
6
CONTINUOUS
10
0.044352
20
0.019023
30
0.0
11
0.049896
21
0.019023
31
0.0
0
LINE
8
0
6
CONTINUOUS
10
0.049896
20
0.019023
30
0.0
11
0.054684
21
0.019023
31
0.0
0
LINE
8
0
6
CONTINUOUS
10
0.054684
20
0.019023
30
0.0
11
0.057960
21
0.019023
31
0.0
0
LINE
8
0
6
CONTINUOUS
10
0.057960
20
0.019023
30
0.0
11
0.060732
21
0.019023
31
0.0
0
LINE
8
0
6
CONTINUOUS
10
0.060732
20
0.019023
30
0.0
11
0.062244
21
0.019023
31
0.0
0
LINE
8
0
6
CONTINUOUS
10
0.062244
20
0.019023
30
0.0
11
0.063000
21
0.019023
31
0.0
0
LINE
8
0
6
CONTINUOUS
10
0.049896
20
0.019023
30
0.0
11
0.044352
21
0.019023
31
0.0
0
LINE
8
0
6
CONTINUOUS
10
0.054684
20
0.019023
30
0.0
11
0.049896
21
0.019023
31
0.0
0
LINE
8
0
6
CONTINUOUS
10
0.057960
20
0.019023
30
0.0
11
0.054684
21
0.019023
31
0.0
0
LINE
8
0
6
CONTINUOUS
10
0.060732
20
0.019023
30
0.0
11
0.057960
21
0.019023
31
0.0
0
LINE
8
0
6
CONTINUOUS
10
0.062244
20
0.019023
30
0.0
11
0.060732
21
0.019023
31
0.0
0
LINE
8
0
6
CONTINUOUS
10
0.063000
20
0.019023
30
0.0
11
0.062244
21
0.019023
31
0.0
0
LINE
8
0
6
CONTINUOUS
10
-0.049896
20
0.019023
30
0.0
11
-0.044352
21
0.019023
31
0.0
0
LINE
8
0
6
CONTINUOUS
10
-0.054684
20
0.019023
30
0.0
11
-0.052779
21
0.019023
31
0.0
0
LINE
8
0
6
CONTINUOUS
10
-0.052779
20
0.019023
30
0.0
11
-0.049896
21
0.019023
31
0.0
0
LINE
8
0
6
CONTINUOUS
10
-0.057960
20
0.019023
30
0.0
11
-0.054684
21
0.019023
31
0.0
0
LINE
8
0
6
CONTINUOUS
10
-0.060732
20
0.019023
30
0.0
11
-0.057960
21
0.019023
31
0.0
0
LINE
8
0
6
CONTINUOUS
10
-0.062244
20
0.019023
30
0.0
11
-0.060732
21
0.019023
31
0.0
0
LINE
8
0
6
CONTINUOUS
10
-0.063000
20
0.019023
30
0.0
11
-0.062244
21
0.019023
31
0.0
0
LINE
8
0
6
CONTINUOUS
10
-0.044352
20
0.019023
30
0.0
11
-0.049896
21
0.019023
31
0.0
0
LINE
8
0
6
CONTINUOUS
10
-0.049896
20
0.019023
30
0.0
11
-0.054684
21
0.019023
31
0.0
0
LINE
8
0
6
CONTINUOUS
10
-0.054684
20
0.019023
30
0.0
11
-0.057960
21
0.019023
31
0.0
0
LINE
8
0
6
CONTINUOUS
10
-0.057960
20
0.019023
30
0.0
11
-0.060732
21
0.019023
31
0.0
0
LINE
8
0
6
CONTINUOUS
10
-0.060732
20
0.019023
30
0.0
11
-0.062244
21
0.019023
31
0.0
0
LINE
8
0
6
CONTINUOUS
10
-0.062244
20
0.019023
30
0.0
11
-0.063000
21
0.019023
31
0.0
0
LINE
8
0
6
CONTINUOUS
10
-0.044352
20
0.019023
30
0.0
11
-0.038304
21
0.019023
31
0.0
0
LINE
8
0
6
CONTINUOUS
10
-0.038304
20
0.019023
30
0.0
11
-0.031248
21
0.019023
31
0.0
0
LINE
8
0
6
CONTINUOUS
10
-0.031248
20
0.019023
30
0.0
11
-0.023940
21
0.019023
31
0.0
0
LINE
8
0
6
CONTINUOUS
10
-0.023940
20
0.019023
30
0.0
11
-0.016128
21
0.019023
31
0.0
0
LINE
8
0
6
CONTINUOUS
10
-0.016128
20
0.019023
30
0.0
11
-0.008316
21
0.019023
31
0.0
0
LINE
8
0
6
CONTINUOUS
10
-0.008316
20
0.019023
30
0.0
11
0.000000
21
0.019023
31
0.0
0
LINE
8
0
6
CONTINUOUS
10
-0.038304
20
0.019023
30
0.0
11
-0.044352
21
0.019023
31
0.0
0
LINE
8
0
6
CONTINUOUS
10
-0.031248
20
0.019023
30
0.0
11
-0.038304
21
0.019023
31
0.0
0
LINE
8
0
6
CONTINUOUS
10
-0.023940
20
0.019023
30
0.0
11
-0.031248
21
0.019023
31
0.0
0
LINE
8
0
6
CONTINUOUS
10
-0.016128
20
0.019023
30
0.0
11
-0.023940
21
0.019023
31
0.0
0
LINE
8
0
6
CONTINUOUS
10
-0.008316
20
0.019023
30
0.0
11
-0.016128
21
0.019023
31
0.0
0
LINE
8
0
6
CONTINUOUS
10
0.000000
20
0.019023
30
0.0
11
-0.008316
21
0.019023
31
0.0
0
LINE
8
0
6
CONTINUOUS
10
0.062244
20
0.019023
30
0.0
11
0.061000
21
0.019023
31
0.0
0
LINE
8
0
6
CONTINUOUS
10
0.063000
20
0.019023
30
0.0
11
0.062244
21
0.019023
31
0.0
0
LINE
8
0
6
CONTINUOUS
10
0.061000
20
0.019023
30
0.0
11
0.062244
21
0.019023
31
0.0
0
LINE
8
0
6
CONTINUOUS
10
0.062244
20
0.019023
30
0.0
11
0.063000
21
0.019023
31
0.0
0
LINE
8
0
6
CONTINUOUS
10
-0.061000
20
0.019023
30
0.0
11
-0.062244
21
0.019023
31
0.0
0
LINE
8
0
6
CONTINUOUS
10
-0.062244
20
0.019023
30
0.0
11
-0.063000
21
0.019023
31
0.0
0
LINE
8
0
6
CONTINUOUS
10
-0.062244
20
0.019023
30
0.0
11
-0.061000
21
0.019023
31
0.0
0
LINE
8
0
6
CONTINUOUS
10
-0.063000
20
0.019023
30
0.0
11
-0.062244
21
0.019023
31
0.0
0
LINE
8
0
6
CONTINUOUS
10
0.075500
20
0.019023
30
0.0
11
0.075160
21
0.019023
31
0.0
0
LINE
8
0
6
CONTINUOUS
10
0.075160
20
0.019023
30
0.0
11
0.073500
21
0.019023
31
0.0
0
LINE
8
0
6
CONTINUOUS
10
0.075500
20
0.015023
30
0.0
11
0.075500
21
0.019023
31
0.0
0
LINE
8
0
6
CONTINUOUS
10
0.075500
20
0.019023
30
0.0
11
0.073500
21
0.019023
31
0.0
0
LINE
8
0
6
CONTINUOUS
10
0.075500
20
0.019023
30
0.0
11
0.073500
21
0.019023
31
0.0
0
LINE
8
0
6
CONTINUOUS
10
0.075500
20
0.019023
30
0.0
11
0.075500
21
0.015023
31
0.0
0
LINE
8
0
6
CONTINUOUS
10
0.025500
20
0.015023
30
0.0
11
0.023850
21
0.015023
31
0.0
0
LINE
8
0
6
CONTINUOUS
10
0.023850
20
0.015023
30
0.0
11
-0.023850
21
0.015023
31
0.0
0
LINE
8
0
6
CONTINUOUS
10
-0.023850
20
0.015023
30
0.0
11
-0.025500
21
0.015023
31
0.0
0
LINE
8
0
6
CONTINUOUS
10
0.025500
20
0.019023
30
0.0
11
0.025364
21
0.019023
31
0.0
0
LINE
8
0
6
CONTINUOUS
10
0.025364
20
0.019023
30
0.0
11
0.024700
21
0.019023
31
0.0
0
LINE
8
0
6
CONTINUOUS
10
0.025500
20
0.015023
30
0.0
11
0.025500
21
0.019023
31
0.0
0
LINE
8
0
6
CONTINUOUS
10
-0.025500
20
0.019023
30
0.0
11
-0.025364
21
0.019023
31
0.0
0
LINE
8
0
6
CONTINUOUS
10
-0.025364
20
0.019023
30
0.0
11
-0.024700
21
0.019023
31
0.0
0
LINE
8
0
6
CONTINUOUS
10
0.025500
20
0.019023
30
0.0
11
-0.025500
21
0.019023
31
0.0
0
LINE
8
0
6
CONTINUOUS
10
0.024700
20
0.019023
30
0.0
11
0.025364
21
0.019023
31
0.0
0
LINE
8
0
6
CONTINUOUS
10
0.025364
20
0.019023
30
0.0
11
0.025500
21
0.019023
31
0.0
0
LINE
8
0
6
CONTINUOUS
10
-0.024700
20
0.019023
30
0.0
11
-0.020390
21
0.019023
31
0.0
0
LINE
8
0
6
CONTINUOUS
10
-0.020390
20
0.019023
30
0.0
11
-0.001000
21
0.019023
31
0.0
0
LINE
8
0
6
CONTINUOUS
10
-0.001000
20
0.019023
30
0.0
11
0.001000
21
0.019023
31
0.0
0
LINE
8
0
6
CONTINUOUS
10
0.001000
20
0.019023
30
0.0
11
0.020390
21
0.019023
31
0.0
0
LINE
8
0
6
CONTINUOUS
10
0.020390
20
0.019023
30
0.0
11
0.024700
21
0.019023
31
0.0
0
LINE
8
0
6
CONTINUOUS
10
0.024700
20
0.019023
30
0.0
11
-0.024700
21
0.019023
31
0.0
0
LINE
8
0
6
CONTINUOUS
10
-0.025500
20
0.019023
30
0.0
11
-0.025500
21
0.015023
31
0.0
0
LINE
8
0
6
CONTINUOUS
10
-0.024700
20
0.019023
30
0.0
11
-0.025500
21
0.019023
31
0.0
0
LINE
8
0
6
CONTINUOUS
10
0.025500
20
0.015023
30
0.0
11
0.025500
21
0.019023
31
0.0
0
LINE
8
0
6
CONTINUOUS
10
-0.025500
20
0.015023
30
0.0
11
0.025500
21
0.015023
31
0.0
0
LINE
8
0
6
CONTINUOUS
10
-0.025500
20
0.019023
30
0.0
11
-0.025500
21
0.015023
31
0.0
0
LINE
8
0
6
CONTINUOUS
10
0.025500
20
0.019023
30
0.0
11
0.023850
21
0.019023
31
0.0
0
LINE
8
0
6
CONTINUOUS
10
0.023850
20
0.019023
30
0.0
11
-0.023850
21
0.019023
31
0.0
0
LINE
8
0
6
CONTINUOUS
10
-0.023850
20
0.019023
30
0.0
11
-0.025500
21
0.019023
31
0.0
0
LINE
8
0
6
CONTINUOUS
10
-0.025500
20
0.015023
30
0.0
11
-0.074375
21
0.015023
31
0.0
0
LINE
8
0
6
CONTINUOUS
10
-0.074375
20
0.015023
30
0.0
11
-0.075500
21
0.015023
31
0.0
0
LINE
8
0
6
CONTINUOUS
10
-0.024700
20
0.019023
30
0.0
11
-0.025364
21
0.019023
31
0.0
0
LINE
8
0
6
CONTINUOUS
10
-0.025364
20
0.019023
30
0.0
11
-0.025500
21
0.019023
31
0.0
0
LINE
8
0
6
CONTINUOUS
10
-0.025500
20
0.019023
30
0.0
11
-0.025500
21
0.015023
31
0.0
0
LINE
8
0
6
CONTINUOUS
10
-0.075500
20
0.019023
30
0.0
11
-0.075160
21
0.019023
31
0.0
0
LINE
8
0
6
CONTINUOUS
10
-0.075160
20
0.019023
30
0.0
11
-0.073500
21
0.019023
31
0.0
0
LINE
8
0
6
CONTINUOUS
10
-0.025500
20
0.019023
30
0.0
11
-0.075500
21
0.019023
31
0.0
0
LINE
8
0
6
CONTINUOUS
10
-0.024700
20
0.019023
30
0.0
11
-0.025364
21
0.019023
31
0.0
0
LINE
8
0
6
CONTINUOUS
10
-0.025364
20
0.019023
30
0.0
11
-0.025500
21
0.019023
31
0.0
0
LINE
8
0
6
CONTINUOUS
10
-0.073500
20
0.019023
30
0.0
11
-0.071264
21
0.019023
31
0.0
0
LINE
8
0
6
CONTINUOUS
10
-0.071264
20
0.019023
30
0.0
11
-0.050544
21
0.019023
31
0.0
0
LINE
8
0
6
CONTINUOUS
10
-0.050544
20
0.019023
30
0.0
11
-0.027708
21
0.019023
31
0.0
0
LINE
8
0
6
CONTINUOUS
10
-0.027708
20
0.019023
30
0.0
11
-0.026936
21
0.019023
31
0.0
0
LINE
8
0
6
CONTINUOUS
10
-0.026936
20
0.019023
30
0.0
11
-0.024700
21
0.019023
31
0.0
0
LINE
8
0
6
CONTINUOUS
10
-0.024700
20
0.019023
30
0.0
11
-0.073500
21
0.019023
31
0.0
0
LINE
8
0
6
CONTINUOUS
10
-0.075500
20
0.019023
30
0.0
11
-0.075500
21
0.015023
31
0.0
0
LINE
8
0
6
CONTINUOUS
10
-0.073500
20
0.019023
30
0.0
11
-0.075500
21
0.019023
31
0.0
0
LINE
8
0
6
CONTINUOUS
10
-0.025500
20
0.015023
30
0.0
11
-0.025500
21
0.019023
31
0.0
0
LINE
8
0
6
CONTINUOUS
10
-0.075500
20
0.015023
30
0.0
11
-0.025500
21
0.015023
31
0.0
0
LINE
8
0
6
CONTINUOUS
10
-0.075500
20
0.019023
30
0.0
11
-0.075500
21
0.015023
31
0.0
0
LINE
8
0
6
CONTINUOUS
10
-0.025500
20
0.019023
30
0.0
11
-0.026625
21
0.019023
31
0.0
0
LINE
8
0
6
CONTINUOUS
10
-0.026625
20
0.019023
30
0.0
11
-0.026725
21
0.019023
31
0.0
0
LINE
8
0
6
CONTINUOUS
10
-0.026725
20
0.019023
30
0.0
11
-0.074275
21
0.019023
31
0.0
0
LINE
8
0
6
CONTINUOUS
10
-0.074275
20
0.019023
30
0.0
11
-0.074375
21
0.019023
31
0.0
0
LINE
8
0
6
CONTINUOUS
10
-0.074375
20
0.019023
30
0.0
11
-0.075500
21
0.019023
31
0.0
0
LINE
8
0
6
CONTINUOUS
10
0.075500
20
0.015023
30
0.0
11
0.025500
21
0.015023
31
0.0
0
LINE
8
0
6
CONTINUOUS
10
0.025500
20
0.019023
30
0.0
11
0.025364
21
0.019023
31
0.0
0
LINE
8
0
6
CONTINUOUS
10
0.025364
20
0.019023
30
0.0
11
0.024700
21
0.019023
31
0.0
0
LINE
8
0
6
CONTINUOUS
10
0.025500
20
0.015023
30
0.0
11
0.025500
21
0.019023
31
0.0
0
LINE
8
0
6
CONTINUOUS
10
0.025500
20
0.019023
30
0.0
11
0.075500
21
0.019023
31
0.0
0
LINE
8
0
6
CONTINUOUS
10
0.024700
20
0.019023
30
0.0
11
0.025364
21
0.019023
31
0.0
0
LINE
8
0
6
CONTINUOUS
10
0.025364
20
0.019023
30
0.0
11
0.025500
21
0.019023
31
0.0
0
LINE
8
0
6
CONTINUOUS
10
0.073500
20
0.019023
30
0.0
11
0.071264
21
0.019023
31
0.0
0
LINE
8
0
6
CONTINUOUS
10
0.071264
20
0.019023
30
0.0
11
0.050544
21
0.019023
31
0.0
0
LINE
8
0
6
CONTINUOUS
10
0.050544
20
0.019023
30
0.0
11
0.047926
21
0.019023
31
0.0
0
LINE
8
0
6
CONTINUOUS
10
0.047926
20
0.019023
30
0.0
11
0.026936
21
0.019023
31
0.0
0
LINE
8
0
6
CONTINUOUS
10
0.026936
20
0.019023
30
0.0
11
0.024700
21
0.019023
31
0.0
0
LINE
8
0
6
CONTINUOUS
10
0.073500
20
0.019023
30
0.0
11
0.071264
21
0.019023
31
0.0
0
LINE
8
0
6
CONTINUOUS
10
0.071264
20
0.019023
30
0.0
11
0.070492
21
0.019023
31
0.0
0
LINE
8
0
6
CONTINUOUS
10
0.070492
20
0.019023
30
0.0
11
0.069888
21
0.019023
31
0.0
0
LINE
8
0
6
CONTINUOUS
10
0.069888
20
0.019023
30
0.0
11
0.050544
21
0.019023
31
0.0
0
LINE
8
0
6
CONTINUOUS
10
0.050544
20
0.019023
30
0.0
11
0.047926
21
0.019023
31
0.0
0
LINE
8
0
6
CONTINUOUS
10
0.047926
20
0.019023
30
0.0
11
0.028312
21
0.019023
31
0.0
0
LINE
8
0
6
CONTINUOUS
10
0.028312
20
0.019023
30
0.0
11
0.027708
21
0.019023
31
0.0
0
LINE
8
0
6
CONTINUOUS
10
0.027708
20
0.019023
30
0.0
11
0.026936
21
0.019023
31
0.0
0
LINE
8
0
6
CONTINUOUS
10
0.026936
20
0.019023
30
0.0
11
0.024700
21
0.019023
31
0.0
0
LINE
8
0
6
CONTINUOUS
10
0.075500
20
0.015023
30
0.0
11
0.075500
21
0.019023
31
0.0
0
LINE
8
0
6
CONTINUOUS
10
0.075500
20
0.019023
30
0.0
11
0.075160
21
0.019023
31
0.0
0
LINE
8
0
6
CONTINUOUS
10
0.075160
20
0.019023
30
0.0
11
0.073500
21
0.019023
31
0.0
0
LINE
8
0
6
CONTINUOUS
10
0.025500
20
0.019023
30
0.0
11
0.025500
21
0.015023
31
0.0
0
LINE
8
0
6
CONTINUOUS
10
0.075500
20
0.019023
30
0.0
11
0.025500
21
0.019023
31
0.0
0
LINE
8
0
6
CONTINUOUS
10
0.075500
20
0.015023
30
0.0
11
0.075500
21
0.019023
31
0.0
0
LINE
8
0
6
CONTINUOUS
10
0.025500
20
0.015023
30
0.0
11
0.026625
21
0.015023
31
0.0
0
LINE
8
0
6
CONTINUOUS
10
0.026725
20
0.015023
30
0.0
11
0.074275
21
0.015023
31
0.0
0
LINE
8
0
6
CONTINUOUS
10
0.074375
20
0.015023
30
0.0
11
0.075500
21
0.015023
31
0.0
0
LINE
8
0
6
CONTINUOUS
10
-0.073500
20
0.019023
30
0.0
11
-0.075160
21
0.019023
31
0.0
0
LINE
8
0
6
CONTINUOUS
10
-0.075160
20
0.019023
30
0.0
11
-0.075500
21
0.019023
31
0.0
0
LINE
8
0
6
CONTINUOUS
10
-0.075500
20
0.019023
30
0.0
11
-0.075500
21
0.015023
31
0.0
0
LINE
8
0
6
CONTINUOUS
10
-0.075500
20
0.019023
30
0.0
11
-0.073500
21
0.019023
31
0.0
0
LINE
8
0
6
CONTINUOUS
10
-0.073500
20
0.019023
30
0.0
11
-0.075500
21
0.019023
31
0.0
0
LINE
8
0
6
CONTINUOUS
10
-0.073500
20
0.019023
30
0.0
11
-0.075500
21
0.019023
31
0.0
0
LINE
8
0
6
CONTINUOUS
10
-0.075500
20
0.015023
30
0.0
11
-0.075500
21
0.019023
31
0.0
0
LINE
8
0
6
CONTINUOUS
10
0.073500
20
0.019023
30
0.0
11
0.075500
21
0.019023
31
0.0
0
LINE
8
0
6
CONTINUOUS
10
0.061000
20
0.019023
30
0.0
11
0.073500
21
0.019023
31
0.0
0
LINE
8
0
6
CONTINUOUS
10
0.075500
20
0.019023
30
0.0
11
0.061000
21
0.019023
31
0.0
0
LINE
8
0
6
CONTINUOUS
10
0.061000
20
0.019023
30
0.0
11
0.073500
21
0.019023
31
0.0
0
LINE
8
0
6
CONTINUOUS
10
0.075500
20
0.019023
30
0.0
11
0.073500
21
0.019023
31
0.0
0
LINE
8
0
6
CONTINUOUS
10
0.061000
20
0.019023
30
0.0
11
0.075500
21
0.019023
31
0.0
0
LINE
8
0
6
CONTINUOUS
10
-0.073500
20
0.019023
30
0.0
11
-0.075500
21
0.019023
31
0.0
0
LINE
8
0
6
CONTINUOUS
10
-0.061000
20
0.019023
30
0.0
11
-0.073500
21
0.019023
31
0.0
0
LINE
8
0
6
CONTINUOUS
10
-0.075500
20
0.019023
30
0.0
11
-0.061000
21
0.019023
31
0.0
0
LINE
8
0
6
CONTINUOUS
10
-0.073500
20
0.019023
30
0.0
11
-0.061000
21
0.019023
31
0.0
0
LINE
8
0
6
CONTINUOUS
10
-0.073500
20
0.019023
30
0.0
11
-0.075500
21
0.019023
31
0.0
0
LINE
8
0
6
CONTINUOUS
10
-0.075500
20
0.019023
30
0.0
11
-0.061000
21
0.019023
31
0.0
0
LINE
8
0
6
CONTINUOUS
10
-0.023308
20
0.088023
30
0.0
11
-0.015732
21
0.088023
31
0.0
0
LINE
8
0
6
CONTINUOUS
10
-0.015732
20
0.088023
30
0.0
11
-0.007962
21
0.088023
31
0.0
0
LINE
8
0
6
CONTINUOUS
10
-0.007962
20
0.088023
30
0.0
11
0.000000
21
0.088023
31
0.0
0
LINE
8
0
6
CONTINUOUS
10
0.000000
20
0.088023
30
0.0
11
0.007962
21
0.088023
31
0.0
0
LINE
8
0
6
CONTINUOUS
10
0.007962
20
0.088023
30
0.0
11
0.015732
21
0.088023
31
0.0
0
LINE
8
0
6
CONTINUOUS
10
0.015732
20
0.088023
30
0.0
11
0.023308
21
0.088023
31
0.0
0
LINE
8
0
6
CONTINUOUS
10
-0.015732
20
0.088023
30
0.0
11
-0.023308
21
0.088023
31
0.0
0
LINE
8
0
6
CONTINUOUS
10
-0.007962
20
0.088023
30
0.0
11
-0.015732
21
0.088023
31
0.0
0
LINE
8
0
6
CONTINUOUS
10
0.000000
20
0.088023
30
0.0
11
-0.007962
21
0.088023
31
0.0
0
LINE
8
0
6
CONTINUOUS
10
0.007962
20
0.088023
30
0.0
11
0.000000
21
0.088023
31
0.0
0
LINE
8
0
6
CONTINUOUS
10
0.015732
20
0.088023
30
0.0
11
0.007962
21
0.088023
31
0.0
0
LINE
8
0
6
CONTINUOUS
10
0.023308
20
0.088023
30
0.0
11
0.015732
21
0.088023
31
0.0
0
LINE
8
0
6
CONTINUOUS
10
-0.056248
20
0.088023
30
0.0
11
-0.058817
21
0.088023
31
0.0
0
LINE
8
0
6
CONTINUOUS
10
-0.058817
20
0.088023
30
0.0
11
-0.060358
21
0.088023
31
0.0
0
LINE
8
0
6
CONTINUOUS
10
-0.060358
20
0.088023
30
0.0
11
-0.061000
21
0.088023
31
0.0
0
LINE
8
0
6
CONTINUOUS
10
-0.061000
20
0.088023
30
0.0
11
-0.060358
21
0.088023
31
0.0
0
LINE
8
0
6
CONTINUOUS
10
-0.060358
20
0.088023
30
0.0
11
-0.058817
21
0.088023
31
0.0
0
LINE
8
0
6
CONTINUOUS
10
-0.058817
20
0.088023
30
0.0
11
-0.056248
21
0.088023
31
0.0
0
LINE
8
0
6
CONTINUOUS
10
0.058817
20
0.088023
30
0.0
11
0.056248
21
0.088023
31
0.0
0
LINE
8
0
6
CONTINUOUS
10
0.060358
20
0.088023
30
0.0
11
0.058817
21
0.088023
31
0.0
0
LINE
8
0
6
CONTINUOUS
10
0.061000
20
0.088023
30
0.0
11
0.060358
21
0.088023
31
0.0
0
LINE
8
0
6
CONTINUOUS
10
0.060358
20
0.088023
30
0.0
11
0.061000
21
0.088023
31
0.0
0
LINE
8
0
6
CONTINUOUS
10
0.058817
20
0.088023
30
0.0
11
0.060358
21
0.088023
31
0.0
0
LINE
8
0
6
CONTINUOUS
10
0.056248
20
0.088023
30
0.0
11
0.058817
21
0.088023
31
0.0
0
LINE
8
0
6
CONTINUOUS
10
0.051096
20
0.088023
30
0.0
11
0.049018
21
0.088023
31
0.0
0
LINE
8
0
6
CONTINUOUS
10
0.052895
20
0.088023
30
0.0
11
0.049018
21
0.088023
31
0.0
0
LINE
8
0
6
CONTINUOUS
10
0.055777
20
0.088023
30
0.0
11
0.052895
21
0.088023
31
0.0
0
LINE
8
0
6
CONTINUOUS
10
0.051096
20
0.088023
30
0.0
11
0.055777
21
0.088023
31
0.0
0
LINE
8
0
6
CONTINUOUS
10
0.049018
20
0.088023
30
0.0
11
0.051096
21
0.088023
31
0.0
0
LINE
8
0
6
CONTINUOUS
10
0.049018
20
0.088023
30
0.0
11
0.052895
21
0.088023
31
0.0
0
LINE
8
0
6
CONTINUOUS
10
0.052895
20
0.088023
30
0.0
11
0.055777
21
0.088023
31
0.0
0
LINE
8
0
6
CONTINUOUS
10
0.055777
20
0.088023
30
0.0
11
0.051096
21
0.088023
31
0.0
0
LINE
8
0
6
CONTINUOUS
10
0.046326
20
0.081023
30
0.0
11
0.032330
21
0.081023
31
0.0
0
LINE
8
0
6
CONTINUOUS
10
0.030590
20
0.088023
30
0.0
11
0.035109
21
0.088023
31
0.0
0
LINE
8
0
6
CONTINUOUS
10
0.047779
20
0.088023
30
0.0
11
0.045644
21
0.088023
31
0.0
0
LINE
8
0
6
CONTINUOUS
10
0.045644
20
0.088023
30
0.0
11
0.035744
21
0.088023
31
0.0
0
LINE
8
0
6
CONTINUOUS
10
0.035744
20
0.088023
30
0.0
11
0.035109
21
0.088023
31
0.0
0
LINE
8
0
6
CONTINUOUS
10
0.046946
20
0.088023
30
0.0
11
0.047779
21
0.088023
31
0.0
0
LINE
8
0
6
CONTINUOUS
10
0.030590
20
0.088023
30
0.0
11
0.032254
21
0.088023
31
0.0
0
LINE
8
0
6
CONTINUOUS
10
0.032254
20
0.088023
30
0.0
11
0.046328
21
0.088023
31
0.0
0
LINE
8
0
6
CONTINUOUS
10
0.046328
20
0.088023
30
0.0
11
0.046946
21
0.088023
31
0.0
0
LINE
8
0
6
CONTINUOUS
10
0.035109
20
0.088023
30
0.0
11
0.030590
21
0.088023
31
0.0
0
LINE
8
0
6
CONTINUOUS
10
0.035109
20
0.088023
30
0.0
11
0.035744
21
0.088023
31
0.0
0
LINE
8
0
6
CONTINUOUS
10
0.035744
20
0.088023
30
0.0
11
0.045644
21
0.088023
31
0.0
0
LINE
8
0
6
CONTINUOUS
10
0.045644
20
0.088023
30
0.0
11
0.047779
21
0.088023
31
0.0
0
LINE
8
0
6
CONTINUOUS
10
0.047779
20
0.088023
30
0.0
11
0.046946
21
0.088023
31
0.0
0
LINE
8
0
6
CONTINUOUS
10
0.031493
20
0.081023
30
0.0
11
0.046946
21
0.081023
31
0.0
0
LINE
8
0
6
CONTINUOUS
10
0.046946
20
0.088023
30
0.0
11
0.030590
21
0.088023
31
0.0
0
LINE
8
0
6
CONTINUOUS
10
0.041436
20
0.088023
30
0.0
11
0.043695
21
0.088023
31
0.0
0
LINE
8
0
6
CONTINUOUS
10
0.049724
20
0.088023
30
0.0
11
0.043695
21
0.088023
31
0.0
0
LINE
8
0
6
CONTINUOUS
10
0.047602
20
0.088023
30
0.0
11
0.049724
21
0.088023
31
0.0
0
LINE
8
0
6
CONTINUOUS
10
0.041436
20
0.088023
30
0.0
11
0.047602
21
0.088023
31
0.0
0
LINE
8
0
6
CONTINUOUS
10
0.043695
20
0.088023
30
0.0
11
0.041436
21
0.088023
31
0.0
0
LINE
8
0
6
CONTINUOUS
10
0.043695
20
0.088023
30
0.0
11
0.049724
21
0.088023
31
0.0
0
LINE
8
0
6
CONTINUOUS
10
0.049724
20
0.088023
30
0.0
11
0.047602
21
0.088023
31
0.0
0
LINE
8
0
6
CONTINUOUS
10
0.047602
20
0.088023
30
0.0
11
0.041436
21
0.088023
31
0.0
0
LINE
8
0
6
CONTINUOUS
10
0.052593
20
0.088023
30
0.0
11
0.051399
21
0.088023
31
0.0
0
LINE
8
0
6
CONTINUOUS
10
0.050801
20
0.088023
30
0.0
11
0.052593
21
0.088023
31
0.0
0
LINE
8
0
6
CONTINUOUS
10
0.051399
20
0.088023
30
0.0
11
0.050279
21
0.088023
31
0.0
0
LINE
8
0
6
CONTINUOUS
10
0.049121
20
0.088023
30
0.0
11
0.050801
21
0.088023
31
0.0
0
LINE
8
0
6
CONTINUOUS
10
0.050279
20
0.088023
30
0.0
11
0.049289
21
0.088023
31
0.0
0
LINE
8
0
6
CONTINUOUS
10
0.047637
20
0.088023
30
0.0
11
0.049121
21
0.088023
31
0.0
0
LINE
8
0
6
CONTINUOUS
10
0.049289
20
0.088023
30
0.0
11
0.048543
21
0.088023
31
0.0
0
LINE
8
0
6
CONTINUOUS
10
0.046517
20
0.088023
30
0.0
11
0.047637
21
0.088023
31
0.0
0
LINE
8
0
6
CONTINUOUS
10
0.048543
20
0.088023
30
0.0
11
0.048095
21
0.088023
31
0.0
0
LINE
8
0
6
CONTINUOUS
10
0.045845
20
0.088023
30
0.0
11
0.046517
21
0.088023
31
0.0
0
LINE
8
0
6
CONTINUOUS
10
0.048095
20
0.088023
30
0.0
11
0.047927
21
0.088023
31
0.0
0
LINE
8
0
6
CONTINUOUS
10
0.045593
20
0.088023
30
0.0
11
0.045644
21
0.088023
31
0.0
0
LINE
8
0
6
CONTINUOUS
10
0.045644
20
0.088023
30
0.0
11
0.045845
21
0.088023
31
0.0
0
LINE
8
0
6
CONTINUOUS
10
0.052593
20
0.088023
30
0.0
11
0.050801
21
0.088023
31
0.0
0
LINE
8
0
6
CONTINUOUS
10
0.050801
20
0.088023
30
0.0
11
0.049121
21
0.088023
31
0.0
0
LINE
8
0
6
CONTINUOUS
10
0.049121
20
0.088023
30
0.0
11
0.047637
21
0.088023
31
0.0
0
LINE
8
0
6
CONTINUOUS
10
0.047637
20
0.088023
30
0.0
11
0.046517
21
0.088023
31
0.0
0
LINE
8
0
6
CONTINUOUS
10
0.046517
20
0.088023
30
0.0
11
0.045845
21
0.088023
31
0.0
0
LINE
8
0
6
CONTINUOUS
10
0.045845
20
0.088023
30
0.0
11
0.045644
21
0.088023
31
0.0
0
LINE
8
0
6
CONTINUOUS
10
0.045644
20
0.088023
30
0.0
11
0.045593
21
0.088023
31
0.0
0
LINE
8
0
6
CONTINUOUS
10
0.051399
20
0.088023
30
0.0
11
0.052593
21
0.088023
31
0.0
0
LINE
8
0
6
CONTINUOUS
10
0.050279
20
0.088023
30
0.0
11
0.051399
21
0.088023
31
0.0
0
LINE
8
0
6
CONTINUOUS
10
0.049289
20
0.088023
30
0.0
11
0.050279
21
0.088023
31
0.0
0
LINE
8
0
6
CONTINUOUS
10
0.048543
20
0.088023
30
0.0
11
0.049289
21
0.088023
31
0.0
0
LINE
8
0
6
CONTINUOUS
10
0.048095
20
0.088023
30
0.0
11
0.048543
21
0.088023
31
0.0
0
LINE
8
0
6
CONTINUOUS
10
0.047927
20
0.088023
30
0.0
11
0.048095
21
0.088023
31
0.0
0
LINE
8
0
6
CONTINUOUS
10
0.054385
20
0.088023
30
0.0
11
0.052593
21
0.088023
31
0.0
0
LINE
8
0
6
CONTINUOUS
10
0.056065
20
0.088023
30
0.0
11
0.054385
21
0.088023
31
0.0
0
LINE
8
0
6
CONTINUOUS
10
0.057549
20
0.088023
30
0.0
11
0.056065
21
0.088023
31
0.0
0
LINE
8
0
6
CONTINUOUS
10
0.058669
20
0.088023
30
0.0
11
0.057549
21
0.088023
31
0.0
0
LINE
8
0
6
CONTINUOUS
10
0.059341
20
0.088023
30
0.0
11
0.058669
21
0.088023
31
0.0
0
LINE
8
0
6
CONTINUOUS
10
0.059593
20
0.088023
30
0.0
11
0.059341
21
0.088023
31
0.0
0
LINE
8
0
6
CONTINUOUS
10
0.052593
20
0.088023
30
0.0
11
0.053788
21
0.088023
31
0.0
0
LINE
8
0
6
CONTINUOUS
10
0.053788
20
0.088023
30
0.0
11
0.054908
21
0.088023
31
0.0
0
LINE
8
0
6
CONTINUOUS
10
0.054908
20
0.088023
30
0.0
11
0.055897
21
0.088023
31
0.0
0
LINE
8
0
6
CONTINUOUS
10
0.055897
20
0.088023
30
0.0
11
0.056644
21
0.088023
31
0.0
0
LINE
8
0
6
CONTINUOUS
10
0.056644
20
0.088023
30
0.0
11
0.057092
21
0.088023
31
0.0
0
LINE
8
0
6
CONTINUOUS
10
0.057092
20
0.088023
30
0.0
11
0.057260
21
0.088023
31
0.0
0
LINE
8
0
6
CONTINUOUS
10
0.052593
20
0.088023
30
0.0
11
0.054385
21
0.088023
31
0.0
0
LINE
8
0
6
CONTINUOUS
10
0.053788
20
0.088023
30
0.0
11
0.052593
21
0.088023
31
0.0
0
LINE
8
0
6
CONTINUOUS
10
0.054385
20
0.088023
30
0.0
11
0.056065
21
0.088023
31
0.0
0
LINE
8
0
6
CONTINUOUS
10
0.054908
20
0.088023
30
0.0
11
0.053788
21
0.088023
31
0.0
0
LINE
8
0
6
CONTINUOUS
10
0.056065
20
0.088023
30
0.0
11
0.057549
21
0.088023
31
0.0
0
LINE
8
0
6
CONTINUOUS
10
0.055897
20
0.088023
30
0.0
11
0.054908
21
0.088023
31
0.0
0
LINE
8
0
6
CONTINUOUS
10
0.057549
20
0.088023
30
0.0
11
0.058669
21
0.088023
31
0.0
0
LINE
8
0
6
CONTINUOUS
10
0.056644
20
0.088023
30
0.0
11
0.055897
21
0.088023
31
0.0
0
LINE
8
0
6
CONTINUOUS
10
0.058669
20
0.088023
30
0.0
11
0.059341
21
0.088023
31
0.0
0
LINE
8
0
6
CONTINUOUS
10
0.057092
20
0.088023
30
0.0
11
0.056644
21
0.088023
31
0.0
0
LINE
8
0
6
CONTINUOUS
10
0.059341
20
0.088023
30
0.0
11
0.059593
21
0.088023
31
0.0
0
LINE
8
0
6
CONTINUOUS
10
0.057260
20
0.088023
30
0.0
11
0.057092
21
0.088023
31
0.0
0
LINE
8
0
6
CONTINUOUS
10
0.050801
20
0.088023
30
0.0
11
0.052593
21
0.088023
31
0.0
0
LINE
8
0
6
CONTINUOUS
10
0.052593
20
0.081023
30
0.0
11
0.050801
21
0.081023
31
0.0
0
LINE
8
0
6
CONTINUOUS
10
0.050801
20
0.081023
30
0.0
11
0.049121
21
0.081023
31
0.0
0
LINE
8
0
6
CONTINUOUS
10
0.049121
20
0.088023
30
0.0
11
0.050801
21
0.088023
31
0.0
0
LINE
8
0
6
CONTINUOUS
10
0.049121
20
0.081023
30
0.0
11
0.047637
21
0.081023
31
0.0
0
LINE
8
0
6
CONTINUOUS
10
0.047637
20
0.088023
30
0.0
11
0.049121
21
0.088023
31
0.0
0
LINE
8
0
6
CONTINUOUS
10
0.047637
20
0.081023
30
0.0
11
0.046517
21
0.081023
31
0.0
0
LINE
8
0
6
CONTINUOUS
10
0.046517
20
0.088023
30
0.0
11
0.047637
21
0.088023
31
0.0
0
LINE
8
0
6
CONTINUOUS
10
0.046517
20
0.081023
30
0.0
11
0.046326
21
0.081023
31
0.0
0
LINE
8
0
6
CONTINUOUS
10
0.045845
20
0.088023
30
0.0
11
0.046328
21
0.088023
31
0.0
0
LINE
8
0
6
CONTINUOUS
10
0.046328
20
0.088023
30
0.0
11
0.046517
21
0.088023
31
0.0
0
LINE
8
0
6
CONTINUOUS
10
0.045593
20
0.088023
30
0.0
11
0.045845
21
0.088023
31
0.0
0
LINE
8
0
6
CONTINUOUS
10
0.052593
20
0.088023
30
0.0
11
0.051399
21
0.088023
31
0.0
0
LINE
8
0
6
CONTINUOUS
10
0.051399
20
0.088023
30
0.0
11
0.050279
21
0.088023
31
0.0
0
LINE
8
0
6
CONTINUOUS
10
0.050279
20
0.088023
30
0.0
11
0.049289
21
0.088023
31
0.0
0
LINE
8
0
6
CONTINUOUS
10
0.049289
20
0.088023
30
0.0
11
0.048543
21
0.088023
31
0.0
0
LINE
8
0
6
CONTINUOUS
10
0.048543
20
0.088023
30
0.0
11
0.048095
21
0.088023
31
0.0
0
LINE
8
0
6
CONTINUOUS
10
0.048095
20
0.088023
30
0.0
11
0.047927
21
0.088023
31
0.0
0
LINE
8
0
6
CONTINUOUS
10
0.050801
20
0.081023
30
0.0
11
0.052593
21
0.081023
31
0.0
0
LINE
8
0
6
CONTINUOUS
10
0.049121
20
0.081023
30
0.0
11
0.050801
21
0.081023
31
0.0
0
LINE
8
0
6
CONTINUOUS
10
0.047637
20
0.081023
30
0.0
11
0.049121
21
0.081023
31
0.0
0
LINE
8
0
6
CONTINUOUS
10
0.046517
20
0.081023
30
0.0
11
0.047637
21
0.081023
31
0.0
0
LINE
8
0
6
CONTINUOUS
10
0.046326
20
0.081023
30
0.0
11
0.046517
21
0.081023
31
0.0
0
LINE
8
0
6
CONTINUOUS
10
0.052593
20
0.088023
30
0.0
11
0.050801
21
0.088023
31
0.0
0
LINE
8
0
6
CONTINUOUS
10
0.051399
20
0.088023
30
0.0
11
0.052593
21
0.088023
31
0.0
0
LINE
8
0
6
CONTINUOUS
10
0.050801
20
0.088023
30
0.0
11
0.049121
21
0.088023
31
0.0
0
LINE
8
0
6
CONTINUOUS
10
0.050279
20
0.088023
30
0.0
11
0.051399
21
0.088023
31
0.0
0
LINE
8
0
6
CONTINUOUS
10
0.049121
20
0.088023
30
0.0
11
0.047637
21
0.088023
31
0.0
0
LINE
8
0
6
CONTINUOUS
10
0.049289
20
0.088023
30
0.0
11
0.050279
21
0.088023
31
0.0
0
LINE
8
0
6
CONTINUOUS
10
0.047637
20
0.088023
30
0.0
11
0.046517
21
0.088023
31
0.0
0
LINE
8
0
6
CONTINUOUS
10
0.048543
20
0.088023
30
0.0
11
0.049289
21
0.088023
31
0.0
0
LINE
8
0
6
CONTINUOUS
10
0.046517
20
0.088023
30
0.0
11
0.045845
21
0.088023
31
0.0
0
LINE
8
0
6
CONTINUOUS
10
0.048095
20
0.088023
30
0.0
11
0.048543
21
0.088023
31
0.0
0
LINE
8
0
6
CONTINUOUS
10
0.045845
20
0.088023
30
0.0
11
0.045593
21
0.088023
31
0.0
0
LINE
8
0
6
CONTINUOUS
10
0.047927
20
0.088023
30
0.0
11
0.048095
21
0.088023
31
0.0
0
LINE
8
0
6
CONTINUOUS
10
0.052593
20
0.088023
30
0.0
11
0.053788
21
0.088023
31
0.0
0
LINE
8
0
6
CONTINUOUS
10
0.054385
20
0.088023
30
0.0
11
0.052593
21
0.088023
31
0.0
0
LINE
8
0
6
CONTINUOUS
10
0.053788
20
0.088023
30
0.0
11
0.054908
21
0.088023
31
0.0
0
LINE
8
0
6
CONTINUOUS
10
0.056065
20
0.088023
30
0.0
11
0.054385
21
0.088023
31
0.0
0
LINE
8
0
6
CONTINUOUS
10
0.054908
20
0.088023
30
0.0
11
0.055897
21
0.088023
31
0.0
0
LINE
8
0
6
CONTINUOUS
10
0.057549
20
0.088023
30
0.0
11
0.056065
21
0.088023
31
0.0
0
LINE
8
0
6
CONTINUOUS
10
0.055897
20
0.088023
30
0.0
11
0.056644
21
0.088023
31
0.0
0
LINE
8
0
6
CONTINUOUS
10
0.058669
20
0.088023
30
0.0
11
0.057549
21
0.088023
31
0.0
0
LINE
8
0
6
CONTINUOUS
10
0.056644
20
0.088023
30
0.0
11
0.057092
21
0.088023
31
0.0
0
LINE
8
0
6
CONTINUOUS
10
0.059341
20
0.088023
30
0.0
11
0.058669
21
0.088023
31
0.0
0
LINE
8
0
6
CONTINUOUS
10
0.057092
20
0.088023
30
0.0
11
0.057260
21
0.088023
31
0.0
0
LINE
8
0
6
CONTINUOUS
10
0.059593
20
0.088023
30
0.0
11
0.059341
21
0.088023
31
0.0
0
LINE
8
0
6
CONTINUOUS
10
0.052593
20
0.081023
30
0.0
11
0.054385
21
0.081023
31
0.0
0
LINE
8
0
6
CONTINUOUS
10
0.054385
20
0.081023
30
0.0
11
0.056065
21
0.081023
31
0.0
0
LINE
8
0
6
CONTINUOUS
10
0.056065
20
0.081023
30
0.0
11
0.057549
21
0.081023
31
0.0
0
LINE
8
0
6
CONTINUOUS
10
0.057549
20
0.081023
30
0.0
11
0.058669
21
0.081023
31
0.0
0
LINE
8
0
6
CONTINUOUS
10
0.058669
20
0.081023
30
0.0
11
0.059341
21
0.081023
31
0.0
0
LINE
8
0
6
CONTINUOUS
10
0.059341
20
0.081023
30
0.0
11
0.059593
21
0.081023
31
0.0
0
LINE
8
0
6
CONTINUOUS
10
0.054385
20
0.081023
30
0.0
11
0.052593
21
0.081023
31
0.0
0
LINE
8
0
6
CONTINUOUS
10
0.052593
20
0.088023
30
0.0
11
0.054385
21
0.088023
31
0.0
0
LINE
8
0
6
CONTINUOUS
10
0.056065
20
0.081023
30
0.0
11
0.054385
21
0.081023
31
0.0
0
LINE
8
0
6
CONTINUOUS
10
0.054385
20
0.088023
30
0.0
11
0.056065
21
0.088023
31
0.0
0
LINE
8
0
6
CONTINUOUS
10
0.057549
20
0.081023
30
0.0
11
0.056065
21
0.081023
31
0.0
0
LINE
8
0
6
CONTINUOUS
10
0.056065
20
0.088023
30
0.0
11
0.057549
21
0.088023
31
0.0
0
LINE
8
0
6
CONTINUOUS
10
0.058669
20
0.081023
30
0.0
11
0.057549
21
0.081023
31
0.0
0
LINE
8
0
6
CONTINUOUS
10
0.057549
20
0.088023
30
0.0
11
0.058669
21
0.088023
31
0.0
0
LINE
8
0
6
CONTINUOUS
10
0.059341
20
0.081023
30
0.0
11
0.058669
21
0.081023
31
0.0
0
LINE
8
0
6
CONTINUOUS
10
0.058669
20
0.088023
30
0.0
11
0.059341
21
0.088023
31
0.0
0
LINE
8
0
6
CONTINUOUS
10
0.059593
20
0.081023
30
0.0
11
0.059341
21
0.081023
31
0.0
0
LINE
8
0
6
CONTINUOUS
10
0.059593
20
0.088023
30
0.0
11
0.059593
21
0.081023
31
0.0
0
LINE
8
0
6
CONTINUOUS
10
0.059341
20
0.088023
30
0.0
11
0.059593
21
0.088023
31
0.0
0
LINE
8
0
6
CONTINUOUS
10
0.053788
20
0.088023
30
0.0
11
0.052593
21
0.088023
31
0.0
0
LINE
8
0
6
CONTINUOUS
10
0.054908
20
0.088023
30
0.0
11
0.053788
21
0.088023
31
0.0
0
LINE
8
0
6
CONTINUOUS
10
0.055897
20
0.088023
30
0.0
11
0.054908
21
0.088023
31
0.0
0
LINE
8
0
6
CONTINUOUS
10
0.056644
20
0.088023
30
0.0
11
0.055897
21
0.088023
31
0.0
0
LINE
8
0
6
CONTINUOUS
10
0.057092
20
0.088023
30
0.0
11
0.056644
21
0.088023
31
0.0
0
LINE
8
0
6
CONTINUOUS
10
0.057260
20
0.088023
30
0.0
11
0.057092
21
0.088023
31
0.0
0
LINE
8
0
6
CONTINUOUS
10
-0.051096
20
0.088023
30
0.0
11
-0.049018
21
0.088023
31
0.0
0
LINE
8
0
6
CONTINUOUS
10
-0.052895
20
0.088023
30
0.0
11
-0.049018
21
0.088023
31
0.0
0
LINE
8
0
6
CONTINUOUS
10
-0.055777
20
0.088023
30
0.0
11
-0.052895
21
0.088023
31
0.0
0
LINE
8
0
6
CONTINUOUS
10
-0.051096
20
0.088023
30
0.0
11
-0.055777
21
0.088023
31
0.0
0
LINE
8
0
6
CONTINUOUS
10
-0.049018
20
0.088023
30
0.0
11
-0.051096
21
0.088023
31
0.0
0
LINE
8
0
6
CONTINUOUS
10
-0.049018
20
0.088023
30
0.0
11
-0.052895
21
0.088023
31
0.0
0
LINE
8
0
6
CONTINUOUS
10
-0.052895
20
0.088023
30
0.0
11
-0.055777
21
0.088023
31
0.0
0
LINE
8
0
6
CONTINUOUS
10
-0.055777
20
0.088023
30
0.0
11
-0.051096
21
0.088023
31
0.0
0
LINE
8
0
6
CONTINUOUS
10
-0.052593
20
0.088023
30
0.0
11
-0.051399
21
0.088023
31
0.0
0
LINE
8
0
6
CONTINUOUS
10
-0.050801
20
0.088023
30
0.0
11
-0.052593
21
0.088023
31
0.0
0
LINE
8
0
6
CONTINUOUS
10
-0.051399
20
0.088023
30
0.0
11
-0.050279
21
0.088023
31
0.0
0
LINE
8
0
6
CONTINUOUS
10
-0.049121
20
0.088023
30
0.0
11
-0.050801
21
0.088023
31
0.0
0
LINE
8
0
6
CONTINUOUS
10
-0.050279
20
0.088023
30
0.0
11
-0.049289
21
0.088023
31
0.0
0
LINE
8
0
6
CONTINUOUS
10
-0.047637
20
0.088023
30
0.0
11
-0.049121
21
0.088023
31
0.0
0
LINE
8
0
6
CONTINUOUS
10
-0.049289
20
0.088023
30
0.0
11
-0.048543
21
0.088023
31
0.0
0
LINE
8
0
6
CONTINUOUS
10
-0.046517
20
0.088023
30
0.0
11
-0.047637
21
0.088023
31
0.0
0
LINE
8
0
6
CONTINUOUS
10
-0.048543
20
0.088023
30
0.0
11
-0.048095
21
0.088023
31
0.0
0
LINE
8
0
6
CONTINUOUS
10
-0.045845
20
0.088023
30
0.0
11
-0.046517
21
0.088023
31
0.0
0
LINE
8
0
6
CONTINUOUS
10
-0.048095
20
0.088023
30
0.0
11
-0.047927
21
0.088023
31
0.0
0
LINE
8
0
6
CONTINUOUS
10
-0.045593
20
0.088023
30
0.0
11
-0.045644
21
0.088023
31
0.0
0
LINE
8
0
6
CONTINUOUS
10
-0.045644
20
0.088023
30
0.0
11
-0.045845
21
0.088023
31
0.0
0
LINE
8
0
6
CONTINUOUS
10
-0.052593
20
0.088023
30
0.0
11
-0.050801
21
0.088023
31
0.0
0
LINE
8
0
6
CONTINUOUS
10
-0.050801
20
0.088023
30
0.0
11
-0.049121
21
0.088023
31
0.0
0
LINE
8
0
6
CONTINUOUS
10
-0.049121
20
0.088023
30
0.0
11
-0.047637
21
0.088023
31
0.0
0
LINE
8
0
6
CONTINUOUS
10
-0.047637
20
0.088023
30
0.0
11
-0.046517
21
0.088023
31
0.0
0
LINE
8
0
6
CONTINUOUS
10
-0.046517
20
0.088023
30
0.0
11
-0.045845
21
0.088023
31
0.0
0
LINE
8
0
6
CONTINUOUS
10
-0.045845
20
0.088023
30
0.0
11
-0.045593
21
0.088023
31
0.0
0
LINE
8
0
6
CONTINUOUS
10
-0.051399
20
0.088023
30
0.0
11
-0.052593
21
0.088023
31
0.0
0
LINE
8
0
6
CONTINUOUS
10
-0.050279
20
0.088023
30
0.0
11
-0.051399
21
0.088023
31
0.0
0
LINE
8
0
6
CONTINUOUS
10
-0.049289
20
0.088023
30
0.0
11
-0.050279
21
0.088023
31
0.0
0
LINE
8
0
6
CONTINUOUS
10
-0.048543
20
0.088023
30
0.0
11
-0.049289
21
0.088023
31
0.0
0
LINE
8
0
6
CONTINUOUS
10
-0.048095
20
0.088023
30
0.0
11
-0.048543
21
0.088023
31
0.0
0
LINE
8
0
6
CONTINUOUS
10
-0.047927
20
0.088023
30
0.0
11
-0.048095
21
0.088023
31
0.0
0
LINE
8
0
6
CONTINUOUS
10
-0.054385
20
0.088023
30
0.0
11
-0.052593
21
0.088023
31
0.0
0
LINE
8
0
6
CONTINUOUS
10
-0.056065
20
0.088023
30
0.0
11
-0.054385
21
0.088023
31
0.0
0
LINE
8
0
6
CONTINUOUS
10
-0.057549
20
0.088023
30
0.0
11
-0.056065
21
0.088023
31
0.0
0
LINE
8
0
6
CONTINUOUS
10
-0.058669
20
0.088023
30
0.0
11
-0.057549
21
0.088023
31
0.0
0
LINE
8
0
6
CONTINUOUS
10
-0.059341
20
0.088023
30
0.0
11
-0.058669
21
0.088023
31
0.0
0
LINE
8
0
6
CONTINUOUS
10
-0.059593
20
0.088023
30
0.0
11
-0.059341
21
0.088023
31
0.0
0
LINE
8
0
6
CONTINUOUS
10
-0.052593
20
0.088023
30
0.0
11
-0.053788
21
0.088023
31
0.0
0
LINE
8
0
6
CONTINUOUS
10
-0.053788
20
0.088023
30
0.0
11
-0.054908
21
0.088023
31
0.0
0
LINE
8
0
6
CONTINUOUS
10
-0.054908
20
0.088023
30
0.0
11
-0.055897
21
0.088023
31
0.0
0
LINE
8
0
6
CONTINUOUS
10
-0.055897
20
0.088023
30
0.0
11
-0.056644
21
0.088023
31
0.0
0
LINE
8
0
6
CONTINUOUS
10
-0.056644
20
0.088023
30
0.0
11
-0.057092
21
0.088023
31
0.0
0
LINE
8
0
6
CONTINUOUS
10
-0.057092
20
0.088023
30
0.0
11
-0.057260
21
0.088023
31
0.0
0
LINE
8
0
6
CONTINUOUS
10
-0.052593
20
0.088023
30
0.0
11
-0.054385
21
0.088023
31
0.0
0
LINE
8
0
6
CONTINUOUS
10
-0.053788
20
0.088023
30
0.0
11
-0.052593
21
0.088023
31
0.0
0
LINE
8
0
6
CONTINUOUS
10
-0.054385
20
0.088023
30
0.0
11
-0.056065
21
0.088023
31
0.0
0
LINE
8
0
6
CONTINUOUS
10
-0.054908
20
0.088023
30
0.0
11
-0.053788
21
0.088023
31
0.0
0
LINE
8
0
6
CONTINUOUS
10
-0.056065
20
0.088023
30
0.0
11
-0.057549
21
0.088023
31
0.0
0
LINE
8
0
6
CONTINUOUS
10
-0.055897
20
0.088023
30
0.0
11
-0.054908
21
0.088023
31
0.0
0
LINE
8
0
6
CONTINUOUS
10
-0.057549
20
0.088023
30
0.0
11
-0.058669
21
0.088023
31
0.0
0
LINE
8
0
6
CONTINUOUS
10
-0.056644
20
0.088023
30
0.0
11
-0.055897
21
0.088023
31
0.0
0
LINE
8
0
6
CONTINUOUS
10
-0.058669
20
0.088023
30
0.0
11
-0.059341
21
0.088023
31
0.0
0
LINE
8
0
6
CONTINUOUS
10
-0.057092
20
0.088023
30
0.0
11
-0.056644
21
0.088023
31
0.0
0
LINE
8
0
6
CONTINUOUS
10
-0.059341
20
0.088023
30
0.0
11
-0.059593
21
0.088023
31
0.0
0
LINE
8
0
6
CONTINUOUS
10
-0.057260
20
0.088023
30
0.0
11
-0.057092
21
0.088023
31
0.0
0
LINE
8
0
6
CONTINUOUS
10
-0.050801
20
0.088023
30
0.0
11
-0.052593
21
0.088023
31
0.0
0
LINE
8
0
6
CONTINUOUS
10
-0.052593
20
0.081023
30
0.0
11
-0.050801
21
0.081023
31
0.0
0
LINE
8
0
6
CONTINUOUS
10
-0.050801
20
0.081023
30
0.0
11
-0.049121
21
0.081023
31
0.0
0
LINE
8
0
6
CONTINUOUS
10
-0.049121
20
0.088023
30
0.0
11
-0.050801
21
0.088023
31
0.0
0
LINE
8
0
6
CONTINUOUS
10
-0.049121
20
0.081023
30
0.0
11
-0.047637
21
0.081023
31
0.0
0
LINE
8
0
6
CONTINUOUS
10
-0.047637
20
0.088023
30
0.0
11
-0.049121
21
0.088023
31
0.0
0
LINE
8
0
6
CONTINUOUS
10
-0.047637
20
0.081023
30
0.0
11
-0.046517
21
0.081023
31
0.0
0
LINE
8
0
6
CONTINUOUS
10
-0.046517
20
0.088023
30
0.0
11
-0.047637
21
0.088023
31
0.0
0
LINE
8
0
6
CONTINUOUS
10
-0.046517
20
0.081023
30
0.0
11
-0.046327
21
0.081023
31
0.0
0
LINE
8
0
6
CONTINUOUS
10
-0.045845
20
0.088023
30
0.0
11
-0.046328
21
0.088023
31
0.0
0
LINE
8
0
6
CONTINUOUS
10
-0.046328
20
0.088023
30
0.0
11
-0.046517
21
0.088023
31
0.0
0
LINE
8
0
6
CONTINUOUS
10
-0.045593
20
0.088023
30
0.0
11
-0.045845
21
0.088023
31
0.0
0
LINE
8
0
6
CONTINUOUS
10
-0.052593
20
0.088023
30
0.0
11
-0.051399
21
0.088023
31
0.0
0
LINE
8
0
6
CONTINUOUS
10
-0.051399
20
0.088023
30
0.0
11
-0.050279
21
0.088023
31
0.0
0
LINE
8
0
6
CONTINUOUS
10
-0.050279
20
0.088023
30
0.0
11
-0.049289
21
0.088023
31
0.0
0
LINE
8
0
6
CONTINUOUS
10
-0.049289
20
0.088023
30
0.0
11
-0.048543
21
0.088023
31
0.0
0
LINE
8
0
6
CONTINUOUS
10
-0.048543
20
0.088023
30
0.0
11
-0.048095
21
0.088023
31
0.0
0
LINE
8
0
6
CONTINUOUS
10
-0.048095
20
0.088023
30
0.0
11
-0.047927
21
0.088023
31
0.0
0
LINE
8
0
6
CONTINUOUS
10
-0.050801
20
0.081023
30
0.0
11
-0.052593
21
0.081023
31
0.0
0
LINE
8
0
6
CONTINUOUS
10
-0.049121
20
0.081023
30
0.0
11
-0.050801
21
0.081023
31
0.0
0
LINE
8
0
6
CONTINUOUS
10
-0.047637
20
0.081023
30
0.0
11
-0.049121
21
0.081023
31
0.0
0
LINE
8
0
6
CONTINUOUS
10
-0.046517
20
0.081023
30
0.0
11
-0.047637
21
0.081023
31
0.0
0
LINE
8
0
6
CONTINUOUS
10
-0.046327
20
0.081023
30
0.0
11
-0.046517
21
0.081023
31
0.0
0
LINE
8
0
6
CONTINUOUS
10
-0.052593
20
0.088023
30
0.0
11
-0.050801
21
0.088023
31
0.0
0
LINE
8
0
6
CONTINUOUS
10
-0.051399
20
0.088023
30
0.0
11
-0.052593
21
0.088023
31
0.0
0
LINE
8
0
6
CONTINUOUS
10
-0.050801
20
0.088023
30
0.0
11
-0.049121
21
0.088023
31
0.0
0
LINE
8
0
6
CONTINUOUS
10
-0.050279
20
0.088023
30
0.0
11
-0.051399
21
0.088023
31
0.0
0
LINE
8
0
6
CONTINUOUS
10
-0.049121
20
0.088023
30
0.0
11
-0.047637
21
0.088023
31
0.0
0
LINE
8
0
6
CONTINUOUS
10
-0.049289
20
0.088023
30
0.0
11
-0.050279
21
0.088023
31
0.0
0
LINE
8
0
6
CONTINUOUS
10
-0.047637
20
0.088023
30
0.0
11
-0.046517
21
0.088023
31
0.0
0
LINE
8
0
6
CONTINUOUS
10
-0.048543
20
0.088023
30
0.0
11
-0.049289
21
0.088023
31
0.0
0
LINE
8
0
6
CONTINUOUS
10
-0.046517
20
0.088023
30
0.0
11
-0.045845
21
0.088023
31
0.0
0
LINE
8
0
6
CONTINUOUS
10
-0.048095
20
0.088023
30
0.0
11
-0.048543
21
0.088023
31
0.0
0
LINE
8
0
6
CONTINUOUS
10
-0.045845
20
0.088023
30
0.0
11
-0.045593
21
0.088023
31
0.0
0
LINE
8
0
6
CONTINUOUS
10
-0.047927
20
0.088023
30
0.0
11
-0.048095
21
0.088023
31
0.0
0
LINE
8
0
6
CONTINUOUS
10
-0.052593
20
0.088023
30
0.0
11
-0.053788
21
0.088023
31
0.0
0
LINE
8
0
6
CONTINUOUS
10
-0.054385
20
0.088023
30
0.0
11
-0.052593
21
0.088023
31
0.0
0
LINE
8
0
6
CONTINUOUS
10
-0.053788
20
0.088023
30
0.0
11
-0.054908
21
0.088023
31
0.0
0
LINE
8
0
6
CONTINUOUS
10
-0.056065
20
0.088023
30
0.0
11
-0.054385
21
0.088023
31
0.0
0
LINE
8
0
6
CONTINUOUS
10
-0.054908
20
0.088023
30
0.0
11
-0.055897
21
0.088023
31
0.0
0
LINE
8
0
6
CONTINUOUS
10
-0.057549
20
0.088023
30
0.0
11
-0.056065
21
0.088023
31
0.0
0
LINE
8
0
6
CONTINUOUS
10
-0.055897
20
0.088023
30
0.0
11
-0.056644
21
0.088023
31
0.0
0
LINE
8
0
6
CONTINUOUS
10
-0.058669
20
0.088023
30
0.0
11
-0.057549
21
0.088023
31
0.0
0
LINE
8
0
6
CONTINUOUS
10
-0.056644
20
0.088023
30
0.0
11
-0.057092
21
0.088023
31
0.0
0
LINE
8
0
6
CONTINUOUS
10
-0.059341
20
0.088023
30
0.0
11
-0.058669
21
0.088023
31
0.0
0
LINE
8
0
6
CONTINUOUS
10
-0.057092
20
0.088023
30
0.0
11
-0.057260
21
0.088023
31
0.0
0
LINE
8
0
6
CONTINUOUS
10
-0.059593
20
0.088023
30
0.0
11
-0.059341
21
0.088023
31
0.0
0
LINE
8
0
6
CONTINUOUS
10
-0.052593
20
0.081023
30
0.0
11
-0.054385
21
0.081023
31
0.0
0
LINE
8
0
6
CONTINUOUS
10
-0.054385
20
0.081023
30
0.0
11
-0.056065
21
0.081023
31
0.0
0
LINE
8
0
6
CONTINUOUS
10
-0.056065
20
0.081023
30
0.0
11
-0.057549
21
0.081023
31
0.0
0
LINE
8
0
6
CONTINUOUS
10
-0.057549
20
0.081023
30
0.0
11
-0.058669
21
0.081023
31
0.0
0
LINE
8
0
6
CONTINUOUS
10
-0.058669
20
0.081023
30
0.0
11
-0.059341
21
0.081023
31
0.0
0
LINE
8
0
6
CONTINUOUS
10
-0.059341
20
0.081023
30
0.0
11
-0.059593
21
0.081023
31
0.0
0
LINE
8
0
6
CONTINUOUS
10
-0.054385
20
0.081023
30
0.0
11
-0.052593
21
0.081023
31
0.0
0
LINE
8
0
6
CONTINUOUS
10
-0.052593
20
0.088023
30
0.0
11
-0.054385
21
0.088023
31
0.0
0
LINE
8
0
6
CONTINUOUS
10
-0.056065
20
0.081023
30
0.0
11
-0.054385
21
0.081023
31
0.0
0
LINE
8
0
6
CONTINUOUS
10
-0.054385
20
0.088023
30
0.0
11
-0.056065
21
0.088023
31
0.0
0
LINE
8
0
6
CONTINUOUS
10
-0.057549
20
0.081023
30
0.0
11
-0.056065
21
0.081023
31
0.0
0
LINE
8
0
6
CONTINUOUS
10
-0.056065
20
0.088023
30
0.0
11
-0.057549
21
0.088023
31
0.0
0
LINE
8
0
6
CONTINUOUS
10
-0.058669
20
0.081023
30
0.0
11
-0.057549
21
0.081023
31
0.0
0
LINE
8
0
6
CONTINUOUS
10
-0.057549
20
0.088023
30
0.0
11
-0.058669
21
0.088023
31
0.0
0
LINE
8
0
6
CONTINUOUS
10
-0.059341
20
0.081023
30
0.0
11
-0.058669
21
0.081023
31
0.0
0
LINE
8
0
6
CONTINUOUS
10
-0.058669
20
0.088023
30
0.0
11
-0.059341
21
0.088023
31
0.0
0
LINE
8
0
6
CONTINUOUS
10
-0.059593
20
0.081023
30
0.0
11
-0.059341
21
0.081023
31
0.0
0
LINE
8
0
6
CONTINUOUS
10
-0.059593
20
0.088023
30
0.0
11
-0.059593
21
0.081023
31
0.0
0
LINE
8
0
6
CONTINUOUS
10
-0.059341
20
0.088023
30
0.0
11
-0.059593
21
0.088023
31
0.0
0
LINE
8
0
6
CONTINUOUS
10
-0.053788
20
0.088023
30
0.0
11
-0.052593
21
0.088023
31
0.0
0
LINE
8
0
6
CONTINUOUS
10
-0.054908
20
0.088023
30
0.0
11
-0.053788
21
0.088023
31
0.0
0
LINE
8
0
6
CONTINUOUS
10
-0.055897
20
0.088023
30
0.0
11
-0.054908
21
0.088023
31
0.0
0
LINE
8
0
6
CONTINUOUS
10
-0.056644
20
0.088023
30
0.0
11
-0.055897
21
0.088023
31
0.0
0
LINE
8
0
6
CONTINUOUS
10
-0.057092
20
0.088023
30
0.0
11
-0.056644
21
0.088023
31
0.0
0
LINE
8
0
6
CONTINUOUS
10
-0.057260
20
0.088023
30
0.0
11
-0.057092
21
0.088023
31
0.0
0
LINE
8
0
6
CONTINUOUS
10
-0.041436
20
0.088023
30
0.0
11
-0.043695
21
0.088023
31
0.0
0
LINE
8
0
6
CONTINUOUS
10
-0.049724
20
0.088023
30
0.0
11
-0.043695
21
0.088023
31
0.0
0
LINE
8
0
6
CONTINUOUS
10
-0.047602
20
0.088023
30
0.0
11
-0.049724
21
0.088023
31
0.0
0
LINE
8
0
6
CONTINUOUS
10
-0.041436
20
0.088023
30
0.0
11
-0.041982
21
0.088023
31
0.0
0
LINE
8
0
6
CONTINUOUS
10
-0.041982
20
0.088023
30
0.0
11
-0.046783
21
0.088023
31
0.0
0
LINE
8
0
6
CONTINUOUS
10
-0.046783
20
0.088023
30
0.0
11
-0.047602
21
0.088023
31
0.0
0
LINE
8
0
6
CONTINUOUS
10
-0.043695
20
0.088023
30
0.0
11
-0.041436
21
0.088023
31
0.0
0
LINE
8
0
6
CONTINUOUS
10
-0.043695
20
0.088023
30
0.0
11
-0.049724
21
0.088023
31
0.0
0
LINE
8
0
6
CONTINUOUS
10
-0.049724
20
0.088023
30
0.0
11
-0.047602
21
0.088023
31
0.0
0
LINE
8
0
6
CONTINUOUS
10
-0.047602
20
0.088023
30
0.0
11
-0.041436
21
0.088023
31
0.0
0
LINE
8
0
6
CONTINUOUS
10
-0.046327
20
0.081023
30
0.0
11
-0.032330
21
0.081023
31
0.0
0
LINE
8
0
6
CONTINUOUS
10
-0.030589
20
0.088023
30
0.0
11
-0.035109
21
0.088023
31
0.0
0
LINE
8
0
6
CONTINUOUS
10
-0.047779
20
0.088023
30
0.0
11
-0.045644
21
0.088023
31
0.0
0
LINE
8
0
6
CONTINUOUS
10
-0.045644
20
0.088023
30
0.0
11
-0.035744
21
0.088023
31
0.0
0
LINE
8
0
6
CONTINUOUS
10
-0.035744
20
0.088023
30
0.0
11
-0.035109
21
0.088023
31
0.0
0
LINE
8
0
6
CONTINUOUS
10
-0.046947
20
0.088023
30
0.0
11
-0.047779
21
0.088023
31
0.0
0
LINE
8
0
6
CONTINUOUS
10
-0.030589
20
0.088023
30
0.0
11
-0.032254
21
0.088023
31
0.0
0
LINE
8
0
6
CONTINUOUS
10
-0.032254
20
0.088023
30
0.0
11
-0.046328
21
0.088023
31
0.0
0
LINE
8
0
6
CONTINUOUS
10
-0.046328
20
0.088023
30
0.0
11
-0.046947
21
0.088023
31
0.0
0
LINE
8
0
6
CONTINUOUS
10
-0.035109
20
0.088023
30
0.0
11
-0.030590
21
0.088023
31
0.0
0
LINE
8
0
6
CONTINUOUS
10
-0.035109
20
0.088023
30
0.0
11
-0.035744
21
0.088023
31
0.0
0
LINE
8
0
6
CONTINUOUS
10
-0.035744
20
0.088023
30
0.0
11
-0.047779
21
0.088023
31
0.0
0
LINE
8
0
6
CONTINUOUS
10
-0.047779
20
0.088023
30
0.0
11
-0.046947
21
0.088023
31
0.0
0
LINE
8
0
6
CONTINUOUS
10
-0.031493
20
0.081023
30
0.0
11
-0.046947
21
0.081023
31
0.0
0
LINE
8
0
6
CONTINUOUS
10
-0.046947
20
0.088023
30
0.0
11
-0.030590
21
0.088023
31
0.0
0
LINE
8
0
6
CONTINUOUS
10
0.051096
20
0.088023
30
0.0
11
0.049018
21
0.088023
31
0.0
0
LINE
8
0
6
CONTINUOUS
10
0.052895
20
0.088023
30
0.0
11
0.049018
21
0.088023
31
0.0
0
LINE
8
0
6
CONTINUOUS
10
0.055777
20
0.088023
30
0.0
11
0.052895
21
0.088023
31
0.0
0
LINE
8
0
6
CONTINUOUS
10
0.051096
20
0.088023
30
0.0
11
0.055777
21
0.088023
31
0.0
0
LINE
8
0
6
CONTINUOUS
10
0.049018
20
0.088023
30
0.0
11
0.051096
21
0.088023
31
0.0
0
LINE
8
0
6
CONTINUOUS
10
0.049018
20
0.088023
30
0.0
11
0.052895
21
0.088023
31
0.0
0
LINE
8
0
6
CONTINUOUS
10
0.052895
20
0.088023
30
0.0
11
0.055777
21
0.088023
31
0.0
0
LINE
8
0
6
CONTINUOUS
10
0.055777
20
0.088023
30
0.0
11
0.051096
21
0.088023
31
0.0
0
LINE
8
0
6
CONTINUOUS
10
0.052593
20
0.088023
30
0.0
11
0.051399
21
0.088023
31
0.0
0
LINE
8
0
6
CONTINUOUS
10
0.050801
20
0.088023
30
0.0
11
0.052593
21
0.088023
31
0.0
0
LINE
8
0
6
CONTINUOUS
10
0.051399
20
0.088023
30
0.0
11
0.050279
21
0.088023
31
0.0
0
LINE
8
0
6
CONTINUOUS
10
0.049121
20
0.088023
30
0.0
11
0.050801
21
0.088023
31
0.0
0
LINE
8
0
6
CONTINUOUS
10
0.050279
20
0.088023
30
0.0
11
0.049289
21
0.088023
31
0.0
0
LINE
8
0
6
CONTINUOUS
10
0.047637
20
0.088023
30
0.0
11
0.049121
21
0.088023
31
0.0
0
LINE
8
0
6
CONTINUOUS
10
0.049289
20
0.088023
30
0.0
11
0.048543
21
0.088023
31
0.0
0
LINE
8
0
6
CONTINUOUS
10
0.046517
20
0.088023
30
0.0
11
0.047637
21
0.088023
31
0.0
0
LINE
8
0
6
CONTINUOUS
10
0.048543
20
0.088023
30
0.0
11
0.048095
21
0.088023
31
0.0
0
LINE
8
0
6
CONTINUOUS
10
0.045845
20
0.088023
30
0.0
11
0.046517
21
0.088023
31
0.0
0
LINE
8
0
6
CONTINUOUS
10
0.048095
20
0.088023
30
0.0
11
0.047927
21
0.088023
31
0.0
0
LINE
8
0
6
CONTINUOUS
10
0.045593
20
0.088023
30
0.0
11
0.045845
21
0.088023
31
0.0
0
LINE
8
0
6
CONTINUOUS
10
0.052593
20
0.088023
30
0.0
11
0.050801
21
0.088023
31
0.0
0
LINE
8
0
6
CONTINUOUS
10
0.050801
20
0.088023
30
0.0
11
0.049121
21
0.088023
31
0.0
0
LINE
8
0
6
CONTINUOUS
10
0.049121
20
0.088023
30
0.0
11
0.047637
21
0.088023
31
0.0
0
LINE
8
0
6
CONTINUOUS
10
0.047637
20
0.088023
30
0.0
11
0.046517
21
0.088023
31
0.0
0
LINE
8
0
6
CONTINUOUS
10
0.046517
20
0.088023
30
0.0
11
0.045845
21
0.088023
31
0.0
0
LINE
8
0
6
CONTINUOUS
10
0.045845
20
0.088023
30
0.0
11
0.045593
21
0.088023
31
0.0
0
LINE
8
0
6
CONTINUOUS
10
0.051399
20
0.088023
30
0.0
11
0.052593
21
0.088023
31
0.0
0
LINE
8
0
6
CONTINUOUS
10
0.050279
20
0.088023
30
0.0
11
0.051399
21
0.088023
31
0.0
0
LINE
8
0
6
CONTINUOUS
10
0.049289
20
0.088023
30
0.0
11
0.050279
21
0.088023
31
0.0
0
LINE
8
0
6
CONTINUOUS
10
0.048543
20
0.088023
30
0.0
11
0.049289
21
0.088023
31
0.0
0
LINE
8
0
6
CONTINUOUS
10
0.048095
20
0.088023
30
0.0
11
0.048543
21
0.088023
31
0.0
0
LINE
8
0
6
CONTINUOUS
10
0.047927
20
0.088023
30
0.0
11
0.048095
21
0.088023
31
0.0
0
LINE
8
0
6
CONTINUOUS
10
0.054385
20
0.088023
30
0.0
11
0.052593
21
0.088023
31
0.0
0
LINE
8
0
6
CONTINUOUS
10
0.056065
20
0.088023
30
0.0
11
0.054385
21
0.088023
31
0.0
0
LINE
8
0
6
CONTINUOUS
10
0.057549
20
0.088023
30
0.0
11
0.056065
21
0.088023
31
0.0
0
LINE
8
0
6
CONTINUOUS
10
0.058669
20
0.088023
30
0.0
11
0.057549
21
0.088023
31
0.0
0
LINE
8
0
6
CONTINUOUS
10
0.059341
20
0.088023
30
0.0
11
0.058669
21
0.088023
31
0.0
0
LINE
8
0
6
CONTINUOUS
10
0.059593
20
0.088023
30
0.0
11
0.059341
21
0.088023
31
0.0
0
LINE
8
0
6
CONTINUOUS
10
0.052593
20
0.088023
30
0.0
11
0.053788
21
0.088023
31
0.0
0
LINE
8
0
6
CONTINUOUS
10
0.053788
20
0.088023
30
0.0
11
0.054908
21
0.088023
31
0.0
0
LINE
8
0
6
CONTINUOUS
10
0.054908
20
0.088023
30
0.0
11
0.055897
21
0.088023
31
0.0
0
LINE
8
0
6
CONTINUOUS
10
0.055897
20
0.088023
30
0.0
11
0.056644
21
0.088023
31
0.0
0
LINE
8
0
6
CONTINUOUS
10
0.056644
20
0.088023
30
0.0
11
0.057092
21
0.088023
31
0.0
0
LINE
8
0
6
CONTINUOUS
10
0.057092
20
0.088023
30
0.0
11
0.057260
21
0.088023
31
0.0
0
LINE
8
0
6
CONTINUOUS
10
0.052593
20
0.088023
30
0.0
11
0.054385
21
0.088023
31
0.0
0
LINE
8
0
6
CONTINUOUS
10
0.053788
20
0.088023
30
0.0
11
0.052593
21
0.088023
31
0.0
0
LINE
8
0
6
CONTINUOUS
10
0.054385
20
0.088023
30
0.0
11
0.056065
21
0.088023
31
0.0
0
LINE
8
0
6
CONTINUOUS
10
0.054908
20
0.088023
30
0.0
11
0.053788
21
0.088023
31
0.0
0
LINE
8
0
6
CONTINUOUS
10
0.056065
20
0.088023
30
0.0
11
0.057549
21
0.088023
31
0.0
0
LINE
8
0
6
CONTINUOUS
10
0.055897
20
0.088023
30
0.0
11
0.054908
21
0.088023
31
0.0
0
LINE
8
0
6
CONTINUOUS
10
0.057549
20
0.088023
30
0.0
11
0.058669
21
0.088023
31
0.0
0
LINE
8
0
6
CONTINUOUS
10
0.056644
20
0.088023
30
0.0
11
0.055897
21
0.088023
31
0.0
0
LINE
8
0
6
CONTINUOUS
10
0.058669
20
0.088023
30
0.0
11
0.059341
21
0.088023
31
0.0
0
LINE
8
0
6
CONTINUOUS
10
0.057092
20
0.088023
30
0.0
11
0.056644
21
0.088023
31
0.0
0
LINE
8
0
6
CONTINUOUS
10
0.059341
20
0.088023
30
0.0
11
0.059593
21
0.088023
31
0.0
0
LINE
8
0
6
CONTINUOUS
10
0.057260
20
0.088023
30
0.0
11
0.057092
21
0.088023
31
0.0
0
LINE
8
0
6
CONTINUOUS
10
0.050801
20
0.088023
30
0.0
11
0.052593
21
0.088023
31
0.0
0
LINE
8
0
6
CONTINUOUS
10
0.049121
20
0.088023
30
0.0
11
0.050801
21
0.088023
31
0.0
0
LINE
8
0
6
CONTINUOUS
10
0.047637
20
0.088023
30
0.0
11
0.049121
21
0.088023
31
0.0
0
LINE
8
0
6
CONTINUOUS
10
0.046517
20
0.088023
30
0.0
11
0.047637
21
0.088023
31
0.0
0
LINE
8
0
6
CONTINUOUS
10
0.045845
20
0.088023
30
0.0
11
0.046517
21
0.088023
31
0.0
0
LINE
8
0
6
CONTINUOUS
10
0.045593
20
0.088023
30
0.0
11
0.045845
21
0.088023
31
0.0
0
LINE
8
0
6
CONTINUOUS
10
0.052593
20
0.088023
30
0.0
11
0.051399
21
0.088023
31
0.0
0
LINE
8
0
6
CONTINUOUS
10
0.051399
20
0.088023
30
0.0
11
0.050279
21
0.088023
31
0.0
0
LINE
8
0
6
CONTINUOUS
10
0.050279
20
0.088023
30
0.0
11
0.049289
21
0.088023
31
0.0
0
LINE
8
0
6
CONTINUOUS
10
0.049289
20
0.088023
30
0.0
11
0.048543
21
0.088023
31
0.0
0
LINE
8
0
6
CONTINUOUS
10
0.048543
20
0.088023
30
0.0
11
0.048095
21
0.088023
31
0.0
0
LINE
8
0
6
CONTINUOUS
10
0.048095
20
0.088023
30
0.0
11
0.047927
21
0.088023
31
0.0
0
LINE
8
0
6
CONTINUOUS
10
0.052593
20
0.088023
30
0.0
11
0.050801
21
0.088023
31
0.0
0
LINE
8
0
6
CONTINUOUS
10
0.051399
20
0.088023
30
0.0
11
0.052593
21
0.088023
31
0.0
0
LINE
8
0
6
CONTINUOUS
10
0.050801
20
0.088023
30
0.0
11
0.049121
21
0.088023
31
0.0
0
LINE
8
0
6
CONTINUOUS
10
0.050279
20
0.088023
30
0.0
11
0.051399
21
0.088023
31
0.0
0
LINE
8
0
6
CONTINUOUS
10
0.049121
20
0.088023
30
0.0
11
0.047637
21
0.088023
31
0.0
0
LINE
8
0
6
CONTINUOUS
10
0.049289
20
0.088023
30
0.0
11
0.050279
21
0.088023
31
0.0
0
LINE
8
0
6
CONTINUOUS
10
0.047637
20
0.088023
30
0.0
11
0.046517
21
0.088023
31
0.0
0
LINE
8
0
6
CONTINUOUS
10
0.048543
20
0.088023
30
0.0
11
0.049289
21
0.088023
31
0.0
0
LINE
8
0
6
CONTINUOUS
10
0.046517
20
0.088023
30
0.0
11
0.045845
21
0.088023
31
0.0
0
LINE
8
0
6
CONTINUOUS
10
0.048095
20
0.088023
30
0.0
11
0.048543
21
0.088023
31
0.0
0
LINE
8
0
6
CONTINUOUS
10
0.045845
20
0.088023
30
0.0
11
0.045593
21
0.088023
31
0.0
0
LINE
8
0
6
CONTINUOUS
10
0.047927
20
0.088023
30
0.0
11
0.048095
21
0.088023
31
0.0
0
LINE
8
0
6
CONTINUOUS
10
0.052593
20
0.088023
30
0.0
11
0.053788
21
0.088023
31
0.0
0
LINE
8
0
6
CONTINUOUS
10
0.054385
20
0.088023
30
0.0
11
0.052593
21
0.088023
31
0.0
0
LINE
8
0
6
CONTINUOUS
10
0.053788
20
0.088023
30
0.0
11
0.054908
21
0.088023
31
0.0
0
LINE
8
0
6
CONTINUOUS
10
0.056065
20
0.088023
30
0.0
11
0.054385
21
0.088023
31
0.0
0
LINE
8
0
6
CONTINUOUS
10
0.054908
20
0.088023
30
0.0
11
0.055897
21
0.088023
31
0.0
0
LINE
8
0
6
CONTINUOUS
10
0.057549
20
0.088023
30
0.0
11
0.056065
21
0.088023
31
0.0
0
LINE
8
0
6
CONTINUOUS
10
0.055897
20
0.088023
30
0.0
11
0.056644
21
0.088023
31
0.0
0
LINE
8
0
6
CONTINUOUS
10
0.058669
20
0.088023
30
0.0
11
0.057549
21
0.088023
31
0.0
0
LINE
8
0
6
CONTINUOUS
10
0.056644
20
0.088023
30
0.0
11
0.057092
21
0.088023
31
0.0
0
LINE
8
0
6
CONTINUOUS
10
0.059341
20
0.088023
30
0.0
11
0.058669
21
0.088023
31
0.0
0
LINE
8
0
6
CONTINUOUS
10
0.057092
20
0.088023
30
0.0
11
0.057260
21
0.088023
31
0.0
0
LINE
8
0
6
CONTINUOUS
10
0.059593
20
0.088023
30
0.0
11
0.059341
21
0.088023
31
0.0
0
LINE
8
0
6
CONTINUOUS
10
0.052593
20
0.088023
30
0.0
11
0.054385
21
0.088023
31
0.0
0
LINE
8
0
6
CONTINUOUS
10
0.054385
20
0.088023
30
0.0
11
0.056065
21
0.088023
31
0.0
0
LINE
8
0
6
CONTINUOUS
10
0.056065
20
0.088023
30
0.0
11
0.057549
21
0.088023
31
0.0
0
LINE
8
0
6
CONTINUOUS
10
0.057549
20
0.088023
30
0.0
11
0.058669
21
0.088023
31
0.0
0
LINE
8
0
6
CONTINUOUS
10
0.058669
20
0.088023
30
0.0
11
0.059341
21
0.088023
31
0.0
0
LINE
8
0
6
CONTINUOUS
10
0.059341
20
0.088023
30
0.0
11
0.059593
21
0.088023
31
0.0
0
LINE
8
0
6
CONTINUOUS
10
0.053788
20
0.088023
30
0.0
11
0.052593
21
0.088023
31
0.0
0
LINE
8
0
6
CONTINUOUS
10
0.054908
20
0.088023
30
0.0
11
0.053788
21
0.088023
31
0.0
0
LINE
8
0
6
CONTINUOUS
10
0.055897
20
0.088023
30
0.0
11
0.054908
21
0.088023
31
0.0
0
LINE
8
0
6
CONTINUOUS
10
0.056644
20
0.088023
30
0.0
11
0.055897
21
0.088023
31
0.0
0
LINE
8
0
6
CONTINUOUS
10
0.057092
20
0.088023
30
0.0
11
0.056644
21
0.088023
31
0.0
0
LINE
8
0
6
CONTINUOUS
10
0.057260
20
0.088023
30
0.0
11
0.057092
21
0.088023
31
0.0
0
LINE
8
0
6
CONTINUOUS
10
0.041436
20
0.088023
30
0.0
11
0.043695
21
0.088023
31
0.0
0
LINE
8
0
6
CONTINUOUS
10
0.049724
20
0.088023
30
0.0
11
0.043695
21
0.088023
31
0.0
0
LINE
8
0
6
CONTINUOUS
10
0.047602
20
0.088023
30
0.0
11
0.049724
21
0.088023
31
0.0
0
LINE
8
0
6
CONTINUOUS
10
0.041436
20
0.088023
30
0.0
11
0.047602
21
0.088023
31
0.0
0
LINE
8
0
6
CONTINUOUS
10
0.043695
20
0.088023
30
0.0
11
0.041436
21
0.088023
31
0.0
0
LINE
8
0
6
CONTINUOUS
10
0.043695
20
0.088023
30
0.0
11
0.049724
21
0.088023
31
0.0
0
LINE
8
0
6
CONTINUOUS
10
0.049724
20
0.088023
30
0.0
11
0.047602
21
0.088023
31
0.0
0
LINE
8
0
6
CONTINUOUS
10
0.047602
20
0.088023
30
0.0
11
0.041436
21
0.088023
31
0.0
0
LINE
8
0
6
CONTINUOUS
10
0.030590
20
0.088023
30
0.0
11
0.035109
21
0.088023
31
0.0
0
LINE
8
0
6
CONTINUOUS
10
0.047779
20
0.088023
30
0.0
11
0.035109
21
0.088023
31
0.0
0
LINE
8
0
6
CONTINUOUS
10
0.046946
20
0.088023
30
0.0
11
0.047779
21
0.088023
31
0.0
0
LINE
8
0
6
CONTINUOUS
10
0.030590
20
0.088023
30
0.0
11
0.046946
21
0.088023
31
0.0
0
LINE
8
0
6
CONTINUOUS
10
0.035109
20
0.088023
30
0.0
11
0.030590
21
0.088023
31
0.0
0
LINE
8
0
6
CONTINUOUS
10
0.035109
20
0.088023
30
0.0
11
0.047779
21
0.088023
31
0.0
0
LINE
8
0
6
CONTINUOUS
10
0.047779
20
0.088023
30
0.0
11
0.046946
21
0.088023
31
0.0
0
LINE
8
0
6
CONTINUOUS
10
0.046946
20
0.088023
30
0.0
11
0.030590
21
0.088023
31
0.0
0
LINE
8
0
6
CONTINUOUS
10
-0.051096
20
0.088023
30
0.0
11
-0.049018
21
0.088023
31
0.0
0
LINE
8
0
6
CONTINUOUS
10
-0.052895
20
0.088023
30
0.0
11
-0.049018
21
0.088023
31
0.0
0
LINE
8
0
6
CONTINUOUS
10
-0.055777
20
0.088023
30
0.0
11
-0.052895
21
0.088023
31
0.0
0
LINE
8
0
6
CONTINUOUS
10
-0.051096
20
0.088023
30
0.0
11
-0.055777
21
0.088023
31
0.0
0
LINE
8
0
6
CONTINUOUS
10
-0.049018
20
0.088023
30
0.0
11
-0.051096
21
0.088023
31
0.0
0
LINE
8
0
6
CONTINUOUS
10
-0.049018
20
0.088023
30
0.0
11
-0.052895
21
0.088023
31
0.0
0
LINE
8
0
6
CONTINUOUS
10
-0.052895
20
0.088023
30
0.0
11
-0.055777
21
0.088023
31
0.0
0
LINE
8
0
6
CONTINUOUS
10
-0.055777
20
0.088023
30
0.0
11
-0.051096
21
0.088023
31
0.0
0
LINE
8
0
6
CONTINUOUS
10
-0.030589
20
0.088023
30
0.0
11
-0.035109
21
0.088023
31
0.0
0
LINE
8
0
6
CONTINUOUS
10
-0.047779
20
0.088023
30
0.0
11
-0.035109
21
0.088023
31
0.0
0
LINE
8
0
6
CONTINUOUS
10
-0.046947
20
0.088023
30
0.0
11
-0.047779
21
0.088023
31
0.0
0
LINE
8
0
6
CONTINUOUS
10
-0.030589
20
0.088023
30
0.0
11
-0.046947
21
0.088023
31
0.0
0
LINE
8
0
6
CONTINUOUS
10
-0.035109
20
0.088023
30
0.0
11
-0.030589
21
0.088023
31
0.0
0
LINE
8
0
6
CONTINUOUS
10
-0.035109
20
0.088023
30
0.0
11
-0.047779
21
0.088023
31
0.0
0
LINE
8
0
6
CONTINUOUS
10
-0.047779
20
0.088023
30
0.0
11
-0.046947
21
0.088023
31
0.0
0
LINE
8
0
6
CONTINUOUS
10
-0.046947
20
0.088023
30
0.0
11
-0.030589
21
0.088023
31
0.0
0
LINE
8
0
6
CONTINUOUS
10
-0.041436
20
0.088023
30
0.0
11
-0.043695
21
0.088023
31
0.0
0
LINE
8
0
6
CONTINUOUS
10
-0.049724
20
0.088023
30
0.0
11
-0.043695
21
0.088023
31
0.0
0
LINE
8
0
6
CONTINUOUS
10
-0.047602
20
0.088023
30
0.0
11
-0.049724
21
0.088023
31
0.0
0
LINE
8
0
6
CONTINUOUS
10
-0.041436
20
0.088023
30
0.0
11
-0.047602
21
0.088023
31
0.0
0
LINE
8
0
6
CONTINUOUS
10
-0.043695
20
0.088023
30
0.0
11
-0.041436
21
0.088023
31
0.0
0
LINE
8
0
6
CONTINUOUS
10
-0.043695
20
0.088023
30
0.0
11
-0.049724
21
0.088023
31
0.0
0
LINE
8
0
6
CONTINUOUS
10
-0.049724
20
0.088023
30
0.0
11
-0.047602
21
0.088023
31
0.0
0
LINE
8
0
6
CONTINUOUS
10
-0.047602
20
0.088023
30
0.0
11
-0.041436
21
0.088023
31
0.0
0
LINE
8
0
6
CONTINUOUS
10
-0.052593
20
0.088023
30
0.0
11
-0.051399
21
0.088023
31
0.0
0
LINE
8
0
6
CONTINUOUS
10
-0.050801
20
0.088023
30
0.0
11
-0.052593
21
0.088023
31
0.0
0
LINE
8
0
6
CONTINUOUS
10
-0.051399
20
0.088023
30
0.0
11
-0.050279
21
0.088023
31
0.0
0
LINE
8
0
6
CONTINUOUS
10
-0.049121
20
0.088023
30
0.0
11
-0.050801
21
0.088023
31
0.0
0
LINE
8
0
6
CONTINUOUS
10
-0.050279
20
0.088023
30
0.0
11
-0.049289
21
0.088023
31
0.0
0
LINE
8
0
6
CONTINUOUS
10
-0.047637
20
0.088023
30
0.0
11
-0.049121
21
0.088023
31
0.0
0
LINE
8
0
6
CONTINUOUS
10
-0.049289
20
0.088023
30
0.0
11
-0.048543
21
0.088023
31
0.0
0
LINE
8
0
6
CONTINUOUS
10
-0.046517
20
0.088023
30
0.0
11
-0.047637
21
0.088023
31
0.0
0
LINE
8
0
6
CONTINUOUS
10
-0.048543
20
0.088023
30
0.0
11
-0.048095
21
0.088023
31
0.0
0
LINE
8
0
6
CONTINUOUS
10
-0.045845
20
0.088023
30
0.0
11
-0.046517
21
0.088023
31
0.0
0
LINE
8
0
6
CONTINUOUS
10
-0.048095
20
0.088023
30
0.0
11
-0.047927
21
0.088023
31
0.0
0
LINE
8
0
6
CONTINUOUS
10
-0.045593
20
0.088023
30
0.0
11
-0.045845
21
0.088023
31
0.0
0
LINE
8
0
6
CONTINUOUS
10
-0.052593
20
0.088023
30
0.0
11
-0.050801
21
0.088023
31
0.0
0
LINE
8
0
6
CONTINUOUS
10
-0.050801
20
0.088023
30
0.0
11
-0.049121
21
0.088023
31
0.0
0
LINE
8
0
6
CONTINUOUS
10
-0.049121
20
0.088023
30
0.0
11
-0.047637
21
0.088023
31
0.0
0
LINE
8
0
6
CONTINUOUS
10
-0.047637
20
0.088023
30
0.0
11
-0.046517
21
0.088023
31
0.0
0
LINE
8
0
6
CONTINUOUS
10
-0.046517
20
0.088023
30
0.0
11
-0.045845
21
0.088023
31
0.0
0
LINE
8
0
6
CONTINUOUS
10
-0.045845
20
0.088023
30
0.0
11
-0.045593
21
0.088023
31
0.0
0
LINE
8
0
6
CONTINUOUS
10
-0.051399
20
0.088023
30
0.0
11
-0.052593
21
0.088023
31
0.0
0
LINE
8
0
6
CONTINUOUS
10
-0.050279
20
0.088023
30
0.0
11
-0.051399
21
0.088023
31
0.0
0
LINE
8
0
6
CONTINUOUS
10
-0.049289
20
0.088023
30
0.0
11
-0.050279
21
0.088023
31
0.0
0
LINE
8
0
6
CONTINUOUS
10
-0.048543
20
0.088023
30
0.0
11
-0.049289
21
0.088023
31
0.0
0
LINE
8
0
6
CONTINUOUS
10
-0.048095
20
0.088023
30
0.0
11
-0.048543
21
0.088023
31
0.0
0
LINE
8
0
6
CONTINUOUS
10
-0.047927
20
0.088023
30
0.0
11
-0.048095
21
0.088023
31
0.0
0
LINE
8
0
6
CONTINUOUS
10
-0.054385
20
0.088023
30
0.0
11
-0.052593
21
0.088023
31
0.0
0
LINE
8
0
6
CONTINUOUS
10
-0.056065
20
0.088023
30
0.0
11
-0.054385
21
0.088023
31
0.0
0
LINE
8
0
6
CONTINUOUS
10
-0.057549
20
0.088023
30
0.0
11
-0.056065
21
0.088023
31
0.0
0
LINE
8
0
6
CONTINUOUS
10
-0.058669
20
0.088023
30
0.0
11
-0.057549
21
0.088023
31
0.0
0
LINE
8
0
6
CONTINUOUS
10
-0.059341
20
0.088023
30
0.0
11
-0.058669
21
0.088023
31
0.0
0
LINE
8
0
6
CONTINUOUS
10
-0.059593
20
0.088023
30
0.0
11
-0.059341
21
0.088023
31
0.0
0
LINE
8
0
6
CONTINUOUS
10
-0.052593
20
0.088023
30
0.0
11
-0.053788
21
0.088023
31
0.0
0
LINE
8
0
6
CONTINUOUS
10
-0.053788
20
0.088023
30
0.0
11
-0.054908
21
0.088023
31
0.0
0
LINE
8
0
6
CONTINUOUS
10
-0.054908
20
0.088023
30
0.0
11
-0.055897
21
0.088023
31
0.0
0
LINE
8
0
6
CONTINUOUS
10
-0.055897
20
0.088023
30
0.0
11
-0.056644
21
0.088023
31
0.0
0
LINE
8
0
6
CONTINUOUS
10
-0.056644
20
0.088023
30
0.0
11
-0.057092
21
0.088023
31
0.0
0
LINE
8
0
6
CONTINUOUS
10
-0.057092
20
0.088023
30
0.0
11
-0.057260
21
0.088023
31
0.0
0
LINE
8
0
6
CONTINUOUS
10
-0.052593
20
0.088023
30
0.0
11
-0.054385
21
0.088023
31
0.0
0
LINE
8
0
6
CONTINUOUS
10
-0.053788
20
0.088023
30
0.0
11
-0.052593
21
0.088023
31
0.0
0
LINE
8
0
6
CONTINUOUS
10
-0.054385
20
0.088023
30
0.0
11
-0.056065
21
0.088023
31
0.0
0
LINE
8
0
6
CONTINUOUS
10
-0.054908
20
0.088023
30
0.0
11
-0.053788
21
0.088023
31
0.0
0
LINE
8
0
6
CONTINUOUS
10
-0.056065
20
0.088023
30
0.0
11
-0.057549
21
0.088023
31
0.0
0
LINE
8
0
6
CONTINUOUS
10
-0.055897
20
0.088023
30
0.0
11
-0.054908
21
0.088023
31
0.0
0
LINE
8
0
6
CONTINUOUS
10
-0.057549
20
0.088023
30
0.0
11
-0.058669
21
0.088023
31
0.0
0
LINE
8
0
6
CONTINUOUS
10
-0.056644
20
0.088023
30
0.0
11
-0.055897
21
0.088023
31
0.0
0
LINE
8
0
6
CONTINUOUS
10
-0.058669
20
0.088023
30
0.0
11
-0.059341
21
0.088023
31
0.0
0
LINE
8
0
6
CONTINUOUS
10
-0.057092
20
0.088023
30
0.0
11
-0.056644
21
0.088023
31
0.0
0
LINE
8
0
6
CONTINUOUS
10
-0.059341
20
0.088023
30
0.0
11
-0.059593
21
0.088023
31
0.0
0
LINE
8
0
6
CONTINUOUS
10
-0.057260
20
0.088023
30
0.0
11
-0.057092
21
0.088023
31
0.0
0
LINE
8
0
6
CONTINUOUS
10
-0.050801
20
0.088023
30
0.0
11
-0.052593
21
0.088023
31
0.0
0
LINE
8
0
6
CONTINUOUS
10
-0.049121
20
0.088023
30
0.0
11
-0.050801
21
0.088023
31
0.0
0
LINE
8
0
6
CONTINUOUS
10
-0.047637
20
0.088023
30
0.0
11
-0.049121
21
0.088023
31
0.0
0
LINE
8
0
6
CONTINUOUS
10
-0.046517
20
0.088023
30
0.0
11
-0.047637
21
0.088023
31
0.0
0
LINE
8
0
6
CONTINUOUS
10
-0.045845
20
0.088023
30
0.0
11
-0.046517
21
0.088023
31
0.0
0
LINE
8
0
6
CONTINUOUS
10
-0.045593
20
0.088023
30
0.0
11
-0.045845
21
0.088023
31
0.0
0
LINE
8
0
6
CONTINUOUS
10
-0.052593
20
0.088023
30
0.0
11
-0.051399
21
0.088023
31
0.0
0
LINE
8
0
6
CONTINUOUS
10
-0.051399
20
0.088023
30
0.0
11
-0.050279
21
0.088023
31
0.0
0
LINE
8
0
6
CONTINUOUS
10
-0.050279
20
0.088023
30
0.0
11
-0.049289
21
0.088023
31
0.0
0
LINE
8
0
6
CONTINUOUS
10
-0.049289
20
0.088023
30
0.0
11
-0.048543
21
0.088023
31
0.0
0
LINE
8
0
6
CONTINUOUS
10
-0.048543
20
0.088023
30
0.0
11
-0.048095
21
0.088023
31
0.0
0
LINE
8
0
6
CONTINUOUS
10
-0.048095
20
0.088023
30
0.0
11
-0.047927
21
0.088023
31
0.0
0
LINE
8
0
6
CONTINUOUS
10
-0.052593
20
0.088023
30
0.0
11
-0.050801
21
0.088023
31
0.0
0
LINE
8
0
6
CONTINUOUS
10
-0.051399
20
0.088023
30
0.0
11
-0.052593
21
0.088023
31
0.0
0
LINE
8
0
6
CONTINUOUS
10
-0.050801
20
0.088023
30
0.0
11
-0.049121
21
0.088023
31
0.0
0
LINE
8
0
6
CONTINUOUS
10
-0.050279
20
0.088023
30
0.0
11
-0.051399
21
0.088023
31
0.0
0
LINE
8
0
6
CONTINUOUS
10
-0.049121
20
0.088023
30
0.0
11
-0.047637
21
0.088023
31
0.0
0
LINE
8
0
6
CONTINUOUS
10
-0.049289
20
0.088023
30
0.0
11
-0.050279
21
0.088023
31
0.0
0
LINE
8
0
6
CONTINUOUS
10
-0.047637
20
0.088023
30
0.0
11
-0.046517
21
0.088023
31
0.0
0
LINE
8
0
6
CONTINUOUS
10
-0.048543
20
0.088023
30
0.0
11
-0.049289
21
0.088023
31
0.0
0
LINE
8
0
6
CONTINUOUS
10
-0.046517
20
0.088023
30
0.0
11
-0.045845
21
0.088023
31
0.0
0
LINE
8
0
6
CONTINUOUS
10
-0.048095
20
0.088023
30
0.0
11
-0.048543
21
0.088023
31
0.0
0
LINE
8
0
6
CONTINUOUS
10
-0.045845
20
0.088023
30
0.0
11
-0.045593
21
0.088023
31
0.0
0
LINE
8
0
6
CONTINUOUS
10
-0.047927
20
0.088023
30
0.0
11
-0.048095
21
0.088023
31
0.0
0
LINE
8
0
6
CONTINUOUS
10
-0.052593
20
0.088023
30
0.0
11
-0.053788
21
0.088023
31
0.0
0
LINE
8
0
6
CONTINUOUS
10
-0.054385
20
0.088023
30
0.0
11
-0.052593
21
0.088023
31
0.0
0
LINE
8
0
6
CONTINUOUS
10
-0.053788
20
0.088023
30
0.0
11
-0.054908
21
0.088023
31
0.0
0
LINE
8
0
6
CONTINUOUS
10
-0.056065
20
0.088023
30
0.0
11
-0.054385
21
0.088023
31
0.0
0
LINE
8
0
6
CONTINUOUS
10
-0.054908
20
0.088023
30
0.0
11
-0.055897
21
0.088023
31
0.0
0
LINE
8
0
6
CONTINUOUS
10
-0.057549
20
0.088023
30
0.0
11
-0.056065
21
0.088023
31
0.0
0
LINE
8
0
6
CONTINUOUS
10
-0.055897
20
0.088023
30
0.0
11
-0.056644
21
0.088023
31
0.0
0
LINE
8
0
6
CONTINUOUS
10
-0.058669
20
0.088023
30
0.0
11
-0.057549
21
0.088023
31
0.0
0
LINE
8
0
6
CONTINUOUS
10
-0.056644
20
0.088023
30
0.0
11
-0.057092
21
0.088023
31
0.0
0
LINE
8
0
6
CONTINUOUS
10
-0.059341
20
0.088023
30
0.0
11
-0.058669
21
0.088023
31
0.0
0
LINE
8
0
6
CONTINUOUS
10
-0.057092
20
0.088023
30
0.0
11
-0.057260
21
0.088023
31
0.0
0
LINE
8
0
6
CONTINUOUS
10
-0.059593
20
0.088023
30
0.0
11
-0.059341
21
0.088023
31
0.0
0
LINE
8
0
6
CONTINUOUS
10
-0.052593
20
0.088023
30
0.0
11
-0.054385
21
0.088023
31
0.0
0
LINE
8
0
6
CONTINUOUS
10
-0.054385
20
0.088023
30
0.0
11
-0.056065
21
0.088023
31
0.0
0
LINE
8
0
6
CONTINUOUS
10
-0.056065
20
0.088023
30
0.0
11
-0.057549
21
0.088023
31
0.0
0
LINE
8
0
6
CONTINUOUS
10
-0.057549
20
0.088023
30
0.0
11
-0.058669
21
0.088023
31
0.0
0
LINE
8
0
6
CONTINUOUS
10
-0.058669
20
0.088023
30
0.0
11
-0.059341
21
0.088023
31
0.0
0
LINE
8
0
6
CONTINUOUS
10
-0.059341
20
0.088023
30
0.0
11
-0.059593
21
0.088023
31
0.0
0
LINE
8
0
6
CONTINUOUS
10
-0.053788
20
0.088023
30
0.0
11
-0.052593
21
0.088023
31
0.0
0
LINE
8
0
6
CONTINUOUS
10
-0.054908
20
0.088023
30
0.0
11
-0.053788
21
0.088023
31
0.0
0
LINE
8
0
6
CONTINUOUS
10
-0.055897
20
0.088023
30
0.0
11
-0.054908
21
0.088023
31
0.0
0
LINE
8
0
6
CONTINUOUS
10
-0.056644
20
0.088023
30
0.0
11
-0.055897
21
0.088023
31
0.0
0
LINE
8
0
6
CONTINUOUS
10
-0.057092
20
0.088023
30
0.0
11
-0.056644
21
0.088023
31
0.0
0
LINE
8
0
6
CONTINUOUS
10
-0.057260
20
0.088023
30
0.0
11
-0.057092
21
0.088023
31
0.0
0
LINE
8
0
6
CONTINUOUS
10
0.015732
20
0.088023
30
0.0
11
0.023308
21
0.088023
31
0.0
0
LINE
8
0
6
CONTINUOUS
10
0.007962
20
0.088023
30
0.0
11
0.015732
21
0.088023
31
0.0
0
LINE
8
0
6
CONTINUOUS
10
0.000000
20
0.088023
30
0.0
11
0.007962
21
0.088023
31
0.0
0
LINE
8
0
6
CONTINUOUS
10
0.057604
20
0.071143
30
0.0
11
0.057350
21
0.066023
31
0.0
0
LINE
8
0
6
CONTINUOUS
10
0.061000
20
0.066023
30
0.0
11
0.061000
21
0.071143
31
0.0
0
LINE
8
0
6
CONTINUOUS
10
0.061000
20
0.071143
30
0.0
11
0.061000
21
0.075943
31
0.0
0
LINE
8
0
6
CONTINUOUS
10
0.058260
20
0.075943
30
0.0
11
0.057604
21
0.071143
31
0.0
0
LINE
8
0
6
CONTINUOUS
10
0.061000
20
0.075943
30
0.0
11
0.061000
21
0.080183
31
0.0
0
LINE
8
0
6
CONTINUOUS
10
0.059110
20
0.080183
30
0.0
11
0.058260
21
0.075943
31
0.0
0
LINE
8
0
6
CONTINUOUS
10
0.061000
20
0.080183
30
0.0
11
0.061000
21
0.083383
31
0.0
0
LINE
8
0
6
CONTINUOUS
10
0.059912
20
0.083383
30
0.0
11
0.059822
21
0.083023
31
0.0
0
LINE
8
0
6
CONTINUOUS
10
0.061000
20
0.083383
30
0.0
11
0.061000
21
0.085303
31
0.0
0
LINE
8
0
6
CONTINUOUS
10
0.060593
20
0.085303
30
0.0
11
0.059912
21
0.083383
31
0.0
0
LINE
8
0
6
CONTINUOUS
10
0.061000
20
0.085303
30
0.0
11
0.061000
21
0.086023
31
0.0
0
LINE
8
0
6
CONTINUOUS
10
0.061000
20
0.086023
30
0.0
11
0.060593
21
0.085303
31
0.0
0
LINE
8
0
6
CONTINUOUS
10
0.061000
20
0.060903
30
0.0
11
0.061000
21
0.066023
31
0.0
0
LINE
8
0
6
CONTINUOUS
10
0.057350
20
0.066023
30
0.0
11
0.057604
21
0.060903
31
0.0
0
LINE
8
0
6
CONTINUOUS
10
0.061000
20
0.056103
30
0.0
11
0.061000
21
0.060903
31
0.0
0
LINE
8
0
6
CONTINUOUS
10
0.057604
20
0.060903
30
0.0
11
0.058260
21
0.056103
31
0.0
0
LINE
8
0
6
CONTINUOUS
10
0.061000
20
0.051863
30
0.0
11
0.061000
21
0.056103
31
0.0
0
LINE
8
0
6
CONTINUOUS
10
0.058260
20
0.056103
30
0.0
11
0.059110
21
0.051863
31
0.0
0
LINE
8
0
6
CONTINUOUS
10
0.061000
20
0.048663
30
0.0
11
0.061000
21
0.051863
31
0.0
0
LINE
8
0
6
CONTINUOUS
10
0.059110
20
0.051863
30
0.0
11
0.059912
21
0.048663
31
0.0
0
LINE
8
0
6
CONTINUOUS
10
0.061000
20
0.046743
30
0.0
11
0.061000
21
0.048663
31
0.0
0
LINE
8
0
6
CONTINUOUS
10
0.059912
20
0.048663
30
0.0
11
0.060593
21
0.046743
31
0.0
0
LINE
8
0
6
CONTINUOUS
10
0.061000
20
0.046023
30
0.0
11
0.061000
21
0.046743
31
0.0
0
LINE
8
0
6
CONTINUOUS
10
0.060593
20
0.046743
30
0.0
11
0.061000
21
0.046023
31
0.0
0
LINE
8
0
6
CONTINUOUS
10
0.056248
20
0.088023
30
0.0
11
0.058817
21
0.088023
31
0.0
0
LINE
8
0
6
CONTINUOUS
10
0.058817
20
0.088023
30
0.0
11
0.060358
21
0.088023
31
0.0
0
LINE
8
0
6
CONTINUOUS
10
0.060358
20
0.088023
30
0.0
11
0.061000
21
0.088023
31
0.0
0
LINE
8
0
6
CONTINUOUS
10
0.058817
20
0.088023
30
0.0
11
0.056248
21
0.088023
31
0.0
0
LINE
8
0
6
CONTINUOUS
10
0.057350
20
0.066023
30
0.0
11
0.057604
21
0.071143
31
0.0
0
LINE
8
0
6
CONTINUOUS
10
0.057604
20
0.071143
30
0.0
11
0.058260
21
0.075943
31
0.0
0
LINE
8
0
6
CONTINUOUS
10
0.058260
20
0.075943
30
0.0
11
0.059110
21
0.080183
31
0.0
0
LINE
8
0
6
CONTINUOUS
10
0.059822
20
0.083023
30
0.0
11
0.059912
21
0.083383
31
0.0
0
LINE
8
0
6
CONTINUOUS
10
0.060358
20
0.088023
30
0.0
11
0.058817
21
0.088023
31
0.0
0
LINE
8
0
6
CONTINUOUS
10
0.059912
20
0.083383
30
0.0
11
0.060593
21
0.085303
31
0.0
0
LINE
8
0
6
CONTINUOUS
10
0.061000
20
0.088023
30
0.0
11
0.060358
21
0.088023
31
0.0
0
LINE
8
0
6
CONTINUOUS
10
0.061000
20
0.086023
30
0.0
11
0.061000
21
0.088023
31
0.0
0
LINE
8
0
6
CONTINUOUS
10
0.060593
20
0.085303
30
0.0
11
0.061000
21
0.086023
31
0.0
0
LINE
8
0
6
CONTINUOUS
10
0.057604
20
0.060903
30
0.0
11
0.057350
21
0.066023
31
0.0
0
LINE
8
0
6
CONTINUOUS
10
0.058260
20
0.056103
30
0.0
11
0.057604
21
0.060903
31
0.0
0
LINE
8
0
6
CONTINUOUS
10
0.059110
20
0.051863
30
0.0
11
0.058260
21
0.056103
31
0.0
0
LINE
8
0
6
CONTINUOUS
10
0.059912
20
0.048663
30
0.0
11
0.059110
21
0.051863
31
0.0
0
LINE
8
0
6
CONTINUOUS
10
0.060593
20
0.046743
30
0.0
11
0.059912
21
0.048663
31
0.0
0
LINE
8
0
6
CONTINUOUS
10
0.061000
20
-0.019977
30
0.0
11
0.061000
21
0.015023
31
0.0
0
LINE
8
0
6
CONTINUOUS
10
0.061000
20
0.019023
30
0.0
11
0.061000
21
0.046023
31
0.0
0
LINE
8
0
6
CONTINUOUS
10
0.061000
20
0.046023
30
0.0
11
0.060593
21
0.046743
31
0.0
0
LINE
8
0
6
CONTINUOUS
10
0.043085
20
0.088023
30
0.0
11
0.044178
21
0.088023
31
0.0
0
LINE
8
0
6
CONTINUOUS
10
0.044178
20
0.088023
30
0.0
11
0.048286
21
0.088023
31
0.0
0
LINE
8
0
6
CONTINUOUS
10
0.048286
20
0.088023
30
0.0
11
0.052845
21
0.088023
31
0.0
0
LINE
8
0
6
CONTINUOUS
10
0.052845
20
0.088023
30
0.0
11
0.056248
21
0.088023
31
0.0
0
LINE
8
0
6
CONTINUOUS
10
0.048286
20
0.088023
30
0.0
11
0.044178
21
0.088023
31
0.0
0
LINE
8
0
6
CONTINUOUS
10
0.044178
20
0.088023
30
0.0
11
0.043085
21
0.088023
31
0.0
0
LINE
8
0
6
CONTINUOUS
10
0.052845
20
0.088023
30
0.0
11
0.048286
21
0.088023
31
0.0
0
LINE
8
0
6
CONTINUOUS
10
0.056248
20
0.088023
30
0.0
11
0.052845
21
0.088023
31
0.0
0
LINE
8
0
6
CONTINUOUS
10
0.037114
20
0.088023
30
0.0
11
0.043085
21
0.088023
31
0.0
0
LINE
8
0
6
CONTINUOUS
10
0.030372
20
0.088023
30
0.0
11
0.037114
21
0.088023
31
0.0
0
LINE
8
0
6
CONTINUOUS
10
0.023308
20
0.088023
30
0.0
11
0.030372
21
0.088023
31
0.0
0
LINE
8
0
6
CONTINUOUS
10
0.043085
20
0.088023
30
0.0
11
0.037114
21
0.088023
31
0.0
0
LINE
8
0
6
CONTINUOUS
10
0.037114
20
0.088023
30
0.0
11
0.030372
21
0.088023
31
0.0
0
LINE
8
0
6
CONTINUOUS
10
0.030372
20
0.088023
30
0.0
11
0.023308
21
0.088023
31
0.0
0
LINE
8
0
6
CONTINUOUS
10
0.019304
20
0.060903
30
0.0
11
0.020000
21
0.066023
31
0.0
0
LINE
8
0
6
CONTINUOUS
10
0.017361
20
0.056103
30
0.0
11
0.019304
21
0.060903
31
0.0
0
LINE
8
0
6
CONTINUOUS
10
0.014179
20
0.051863
30
0.0
11
0.017361
21
0.056103
31
0.0
0
LINE
8
0
6
CONTINUOUS
10
0.009929
20
0.048663
30
0.0
11
0.014179
21
0.051863
31
0.0
0
LINE
8
0
6
CONTINUOUS
10
0.005144
20
0.046743
30
0.0
11
0.009929
21
0.048663
31
0.0
0
LINE
8
0
6
CONTINUOUS
10
0.000000
20
0.046023
30
0.0
11
0.005144
21
0.046743
31
0.0
0
LINE
8
0
6
CONTINUOUS
10
0.020000
20
0.066023
30
0.0
11
0.019304
21
0.071143
31
0.0
0
LINE
8
0
6
CONTINUOUS
10
0.019304
20
0.071143
30
0.0
11
0.017361
21
0.075943
31
0.0
0
LINE
8
0
6
CONTINUOUS
10
0.017361
20
0.075943
30
0.0
11
0.014179
21
0.080183
31
0.0
0
LINE
8
0
6
CONTINUOUS
10
0.014179
20
0.080183
30
0.0
11
0.009929
21
0.083383
31
0.0
0
LINE
8
0
6
CONTINUOUS
10
0.009929
20
0.083383
30
0.0
11
0.005144
21
0.085303
31
0.0
0
LINE
8
0
6
CONTINUOUS
10
0.005144
20
0.085303
30
0.0
11
0.000000
21
0.086023
31
0.0
0
LINE
8
0
6
CONTINUOUS
10
0.023308
20
0.088023
30
0.0
11
0.015732
21
0.088023
31
0.0
0
LINE
8
0
6
CONTINUOUS
10
0.019304
20
0.071143
30
0.0
11
0.020000
21
0.066023
31
0.0
0
LINE
8
0
6
CONTINUOUS
10
0.017361
20
0.075943
30
0.0
11
0.019304
21
0.071143
31
0.0
0
LINE
8
0
6
CONTINUOUS
10
0.015732
20
0.088023
30
0.0
11
0.007962
21
0.088023
31
0.0
0
LINE
8
0
6
CONTINUOUS
10
0.009929
20
0.083383
30
0.0
11
0.014179
21
0.080183
31
0.0
0
LINE
8
0
6
CONTINUOUS
10
0.007962
20
0.088023
30
0.0
11
0.000000
21
0.088023
31
0.0
0
LINE
8
0
6
CONTINUOUS
10
0.000000
20
0.086023
30
0.0
11
0.005144
21
0.085303
31
0.0
0
LINE
8
0
6
CONTINUOUS
10
0.017361
20
0.056103
30
0.0
11
0.014179
21
0.051863
31
0.0
0
LINE
8
0
6
CONTINUOUS
10
0.009929
20
0.048663
30
0.0
11
0.005144
21
0.046743
31
0.0
0
LINE
8
0
6
CONTINUOUS
10
0.005144
20
0.046743
30
0.0
11
0.000000
21
0.046023
31
0.0
0
LINE
8
0
6
CONTINUOUS
10
0.043085
20
0.088023
30
0.0
11
0.037114
21
0.088023
31
0.0
0
LINE
8
0
6
CONTINUOUS
10
0.037114
20
0.088023
30
0.0
11
0.035751
21
0.088023
31
0.0
0
LINE
8
0
6
CONTINUOUS
10
0.035751
20
0.088023
30
0.0
11
0.032254
21
0.088023
31
0.0
0
LINE
8
0
6
CONTINUOUS
10
0.032254
20
0.088023
30
0.0
11
0.030372
21
0.088023
31
0.0
0
LINE
8
0
6
CONTINUOUS
10
0.030372
20
0.088023
30
0.0
11
0.023308
21
0.088023
31
0.0
0
LINE
8
0
6
CONTINUOUS
10
0.037114
20
0.088023
30
0.0
11
0.043085
21
0.088023
31
0.0
0
LINE
8
0
6
CONTINUOUS
10
0.030372
20
0.088023
30
0.0
11
0.037114
21
0.088023
31
0.0
0
LINE
8
0
6
CONTINUOUS
10
0.023308
20
0.088023
30
0.0
11
0.030372
21
0.088023
31
0.0
0
LINE
8
0
6
CONTINUOUS
10
0.048286
20
0.088023
30
0.0
11
0.043085
21
0.088023
31
0.0
0
LINE
8
0
6
CONTINUOUS
10
0.052845
20
0.088023
30
0.0
11
0.048286
21
0.088023
31
0.0
0
LINE
8
0
6
CONTINUOUS
10
0.056248
20
0.088023
30
0.0
11
0.052845
21
0.088023
31
0.0
0
LINE
8
0
6
CONTINUOUS
10
0.043085
20
0.088023
30
0.0
11
0.048286
21
0.088023
31
0.0
0
LINE
8
0
6
CONTINUOUS
10
0.048286
20
0.088023
30
0.0
11
0.052845
21
0.088023
31
0.0
0
LINE
8
0
6
CONTINUOUS
10
0.052845
20
0.088023
30
0.0
11
0.056248
21
0.088023
31
0.0
0
LINE
8
0
6
CONTINUOUS
10
-0.057604
20
0.060903
30
0.0
11
-0.057350
21
0.066023
31
0.0
0
LINE
8
0
6
CONTINUOUS
10
-0.061000
20
0.066023
30
0.0
11
-0.061000
21
0.060903
31
0.0
0
LINE
8
0
6
CONTINUOUS
10
-0.061000
20
0.060903
30
0.0
11
-0.061000
21
0.056103
31
0.0
0
LINE
8
0
6
CONTINUOUS
10
-0.058260
20
0.056103
30
0.0
11
-0.057604
21
0.060903
31
0.0
0
LINE
8
0
6
CONTINUOUS
10
-0.061000
20
0.056103
30
0.0
11
-0.061000
21
0.051863
31
0.0
0
LINE
8
0
6
CONTINUOUS
10
-0.059110
20
0.051863
30
0.0
11
-0.058260
21
0.056103
31
0.0
0
LINE
8
0
6
CONTINUOUS
10
-0.061000
20
0.051863
30
0.0
11
-0.061000
21
0.048663
31
0.0
0
LINE
8
0
6
CONTINUOUS
10
-0.059912
20
0.048663
30
0.0
11
-0.059110
21
0.051863
31
0.0
0
LINE
8
0
6
CONTINUOUS
10
-0.061000
20
0.048663
30
0.0
11
-0.061000
21
0.046743
31
0.0
0
LINE
8
0
6
CONTINUOUS
10
-0.060593
20
0.046743
30
0.0
11
-0.059912
21
0.048663
31
0.0
0
LINE
8
0
6
CONTINUOUS
10
-0.061000
20
0.046743
30
0.0
11
-0.061000
21
0.046023
31
0.0
0
LINE
8
0
6
CONTINUOUS
10
-0.061000
20
0.046023
30
0.0
11
-0.060593
21
0.046743
31
0.0
0
LINE
8
0
6
CONTINUOUS
10
-0.061000
20
0.071143
30
0.0
11
-0.061000
21
0.066023
31
0.0
0
LINE
8
0
6
CONTINUOUS
10
-0.057350
20
0.066023
30
0.0
11
-0.057604
21
0.071143
31
0.0
0
LINE
8
0
6
CONTINUOUS
10
-0.061000
20
0.075943
30
0.0
11
-0.061000
21
0.071143
31
0.0
0
LINE
8
0
6
CONTINUOUS
10
-0.057604
20
0.071143
30
0.0
11
-0.058260
21
0.075943
31
0.0
0
LINE
8
0
6
CONTINUOUS
10
-0.061000
20
0.080183
30
0.0
11
-0.061000
21
0.075943
31
0.0
0
LINE
8
0
6
CONTINUOUS
10
-0.058260
20
0.075943
30
0.0
11
-0.059110
21
0.080183
31
0.0
0
LINE
8
0
6
CONTINUOUS
10
-0.061000
20
0.083383
30
0.0
11
-0.061000
21
0.080183
31
0.0
0
LINE
8
0
6
CONTINUOUS
10
-0.059822
20
0.083023
30
0.0
11
-0.059912
21
0.083383
31
0.0
0
LINE
8
0
6
CONTINUOUS
10
-0.061000
20
0.085303
30
0.0
11
-0.061000
21
0.083383
31
0.0
0
LINE
8
0
6
CONTINUOUS
10
-0.059912
20
0.083383
30
0.0
11
-0.060593
21
0.085303
31
0.0
0
LINE
8
0
6
CONTINUOUS
10
-0.061000
20
0.086023
30
0.0
11
-0.061000
21
0.085303
31
0.0
0
LINE
8
0
6
CONTINUOUS
10
-0.060593
20
0.085303
30
0.0
11
-0.061000
21
0.086023
31
0.0
0
LINE
8
0
6
CONTINUOUS
10
-0.056248
20
0.088023
30
0.0
11
-0.058817
21
0.088023
31
0.0
0
LINE
8
0
6
CONTINUOUS
10
-0.057604
20
0.071143
30
0.0
11
-0.057350
21
0.066023
31
0.0
0
LINE
8
0
6
CONTINUOUS
10
-0.058260
20
0.075943
30
0.0
11
-0.057604
21
0.071143
31
0.0
0
LINE
8
0
6
CONTINUOUS
10
-0.059110
20
0.080183
30
0.0
11
-0.058260
21
0.075943
31
0.0
0
LINE
8
0
6
CONTINUOUS
10
-0.058817
20
0.088023
30
0.0
11
-0.060358
21
0.088023
31
0.0
0
LINE
8
0
6
CONTINUOUS
10
-0.059912
20
0.083383
30
0.0
11
-0.059822
21
0.083023
31
0.0
0
LINE
8
0
6
CONTINUOUS
10
-0.060358
20
0.088023
30
0.0
11
-0.061000
21
0.088023
31
0.0
0
LINE
8
0
6
CONTINUOUS
10
-0.060593
20
0.085303
30
0.0
11
-0.059912
21
0.083383
31
0.0
0
LINE
8
0
6
CONTINUOUS
10
-0.061000
20
0.086023
30
0.0
11
-0.060593
21
0.085303
31
0.0
0
LINE
8
0
6
CONTINUOUS
10
-0.057350
20
0.066023
30
0.0
11
-0.057604
21
0.060903
31
0.0
0
LINE
8
0
6
CONTINUOUS
10
-0.057604
20
0.060903
30
0.0
11
-0.058260
21
0.056103
31
0.0
0
LINE
8
0
6
CONTINUOUS
10
-0.058260
20
0.056103
30
0.0
11
-0.059110
21
0.051863
31
0.0
0
LINE
8
0
6
CONTINUOUS
10
-0.059110
20
0.051863
30
0.0
11
-0.059912
21
0.048663
31
0.0
0
LINE
8
0
6
CONTINUOUS
10
-0.059912
20
0.048663
30
0.0
11
-0.060593
21
0.046743
31
0.0
0
LINE
8
0
6
CONTINUOUS
10
-0.060593
20
0.046743
30
0.0
11
-0.061000
21
0.046023
31
0.0
0
LINE
8
0
6
CONTINUOUS
10
-0.015732
20
0.088023
30
0.0
11
-0.023308
21
0.088023
31
0.0
0
LINE
8
0
6
CONTINUOUS
10
-0.017361
20
0.075943
30
0.0
11
-0.014179
21
0.080183
31
0.0
0
LINE
8
0
6
CONTINUOUS
10
-0.007962
20
0.088023
30
0.0
11
-0.015732
21
0.088023
31
0.0
0
LINE
8
0
6
CONTINUOUS
10
-0.009929
20
0.083383
30
0.0
11
-0.005144
21
0.085303
31
0.0
0
LINE
8
0
6
CONTINUOUS
10
0.000000
20
0.088023
30
0.0
11
-0.007962
21
0.088023
31
0.0
0
LINE
8
0
6
CONTINUOUS
10
-0.005144
20
0.085303
30
0.0
11
0.000000
21
0.086023
31
0.0
0
LINE
8
0
6
CONTINUOUS
10
-0.019304
20
0.071143
30
0.0
11
-0.020000
21
0.066023
31
0.0
0
LINE
8
0
6
CONTINUOUS
10
-0.017361
20
0.075943
30
0.0
11
-0.019304
21
0.071143
31
0.0
0
LINE
8
0
6
CONTINUOUS
10
-0.014179
20
0.080183
30
0.0
11
-0.017361
21
0.075943
31
0.0
0
LINE
8
0
6
CONTINUOUS
10
-0.009929
20
0.083383
30
0.0
11
-0.014179
21
0.080183
31
0.0
0
LINE
8
0
6
CONTINUOUS
10
-0.005144
20
0.085303
30
0.0
11
-0.009929
21
0.083383
31
0.0
0
LINE
8
0
6
CONTINUOUS
10
0.000000
20
0.086023
30
0.0
11
-0.005144
21
0.085303
31
0.0
0
LINE
8
0
6
CONTINUOUS
10
-0.020000
20
0.066023
30
0.0
11
-0.019304
21
0.060903
31
0.0
0
LINE
8
0
6
CONTINUOUS
10
-0.019304
20
0.060903
30
0.0
11
-0.017361
21
0.056103
31
0.0
0
LINE
8
0
6
CONTINUOUS
10
-0.017361
20
0.056103
30
0.0
11
-0.014179
21
0.051863
31
0.0
0
LINE
8
0
6
CONTINUOUS
10
-0.014179
20
0.051863
30
0.0
11
-0.009929
21
0.048663
31
0.0
0
LINE
8
0
6
CONTINUOUS
10
-0.009929
20
0.048663
30
0.0
11
-0.005144
21
0.046743
31
0.0
0
LINE
8
0
6
CONTINUOUS
10
-0.005144
20
0.046743
30
0.0
11
0.000000
21
0.046023
31
0.0
0
LINE
8
0
6
CONTINUOUS
10
-0.019304
20
0.060903
30
0.0
11
-0.020000
21
0.066023
31
0.0
0
LINE
8
0
6
CONTINUOUS
10
-0.017361
20
0.056103
30
0.0
11
-0.019304
21
0.060903
31
0.0
0
LINE
8
0
6
CONTINUOUS
10
-0.009929
20
0.048663
30
0.0
11
-0.014179
21
0.051863
31
0.0
0
LINE
8
0
6
CONTINUOUS
10
0.000000
20
0.046023
30
0.0
11
-0.005144
21
0.046743
31
0.0
0
LINE
8
0
6
CONTINUOUS
10
-0.043085
20
0.088023
30
0.0
11
-0.048286
21
0.088023
31
0.0
0
LINE
8
0
6
CONTINUOUS
10
-0.048286
20
0.088023
30
0.0
11
-0.052845
21
0.088023
31
0.0
0
LINE
8
0
6
CONTINUOUS
10
-0.052845
20
0.088023
30
0.0
11
-0.056248
21
0.088023
31
0.0
0
LINE
8
0
6
CONTINUOUS
10
-0.048286
20
0.088023
30
0.0
11
-0.043085
21
0.088023
31
0.0
0
LINE
8
0
6
CONTINUOUS
10
-0.052845
20
0.088023
30
0.0
11
-0.048286
21
0.088023
31
0.0
0
LINE
8
0
6
CONTINUOUS
10
-0.056248
20
0.088023
30
0.0
11
-0.052845
21
0.088023
31
0.0
0
LINE
8
0
6
CONTINUOUS
10
-0.037114
20
0.088023
30
0.0
11
-0.043085
21
0.088023
31
0.0
0
LINE
8
0
6
CONTINUOUS
10
-0.030372
20
0.088023
30
0.0
11
-0.032254
21
0.088023
31
0.0
0
LINE
8
0
6
CONTINUOUS
10
-0.032254
20
0.088023
30
0.0
11
-0.035750
21
0.088023
31
0.0
0
LINE
8
0
6
CONTINUOUS
10
-0.035750
20
0.088023
30
0.0
11
-0.037114
21
0.088023
31
0.0
0
LINE
8
0
6
CONTINUOUS
10
-0.023308
20
0.088023
30
0.0
11
-0.030372
21
0.088023
31
0.0
0
LINE
8
0
6
CONTINUOUS
10
-0.043085
20
0.088023
30
0.0
11
-0.037114
21
0.088023
31
0.0
0
LINE
8
0
6
CONTINUOUS
10
-0.037114
20
0.088023
30
0.0
11
-0.030372
21
0.088023
31
0.0
0
LINE
8
0
6
CONTINUOUS
10
-0.030372
20
0.088023
30
0.0
11
-0.023308
21
0.088023
31
0.0
0
LINE
8
0
6
CONTINUOUS
10
-0.023308
20
0.088023
30
0.0
11
-0.015732
21
0.088023
31
0.0
0
LINE
8
0
6
CONTINUOUS
10
-0.015732
20
0.088023
30
0.0
11
-0.007962
21
0.088023
31
0.0
0
LINE
8
0
6
CONTINUOUS
10
-0.007962
20
0.088023
30
0.0
11
0.000000
21
0.088023
31
0.0
0
LINE
8
0
6
CONTINUOUS
10
-0.043085
20
0.088023
30
0.0
11
-0.037114
21
0.088023
31
0.0
0
LINE
8
0
6
CONTINUOUS
10
-0.037114
20
0.088023
30
0.0
11
-0.032254
21
0.088023
31
0.0
0
LINE
8
0
6
CONTINUOUS
10
-0.032254
20
0.088023
30
0.0
11
-0.030372
21
0.088023
31
0.0
0
LINE
8
0
6
CONTINUOUS
10
-0.030372
20
0.088023
30
0.0
11
-0.023308
21
0.088023
31
0.0
0
LINE
8
0
6
CONTINUOUS
10
-0.037114
20
0.088023
30
0.0
11
-0.043085
21
0.088023
31
0.0
0
LINE
8
0
6
CONTINUOUS
10
-0.030372
20
0.088023
30
0.0
11
-0.032254
21
0.088023
31
0.0
0
LINE
8
0
6
CONTINUOUS
10
-0.032254
20
0.088023
30
0.0
11
-0.037114
21
0.088023
31
0.0
0
LINE
8
0
6
CONTINUOUS
10
-0.023308
20
0.088023
30
0.0
11
-0.030372
21
0.088023
31
0.0
0
LINE
8
0
6
CONTINUOUS
10
-0.058817
20
0.088023
30
0.0
11
-0.056248
21
0.088023
31
0.0
0
LINE
8
0
6
CONTINUOUS
10
-0.060358
20
0.088023
30
0.0
11
-0.058817
21
0.088023
31
0.0
0
LINE
8
0
6
CONTINUOUS
10
-0.061000
20
0.088023
30
0.0
11
-0.060358
21
0.088023
31
0.0
0
LINE
8
0
6
CONTINUOUS
10
-0.061000
20
0.086023
30
0.0
11
-0.061000
21
0.088023
31
0.0
0
LINE
8
0
6
CONTINUOUS
10
-0.061000
20
-0.019977
30
0.0
11
-0.061000
21
0.015023
31
0.0
0
LINE
8
0
6
CONTINUOUS
10
-0.061000
20
0.019023
30
0.0
11
-0.061000
21
0.046023
31
0.0
0
LINE
8
0
6
CONTINUOUS
10
-0.048286
20
0.088023
30
0.0
11
-0.043085
21
0.088023
31
0.0
0
LINE
8
0
6
CONTINUOUS
10
-0.052845
20
0.088023
30
0.0
11
-0.048286
21
0.088023
31
0.0
0
LINE
8
0
6
CONTINUOUS
10
-0.056248
20
0.088023
30
0.0
11
-0.052845
21
0.088023
31
0.0
0
LINE
8
0
6
CONTINUOUS
10
-0.043085
20
0.088023
30
0.0
11
-0.048286
21
0.088023
31
0.0
0
LINE
8
0
6
CONTINUOUS
10
-0.048286
20
0.088023
30
0.0
11
-0.052845
21
0.088023
31
0.0
0
LINE
8
0
6
CONTINUOUS
10
-0.052845
20
0.088023
30
0.0
11
-0.056248
21
0.088023
31
0.0
0
LINE
8
0
6
CONTINUOUS
10
0.014571
20
0.066023
30
0.0
11
0.014047
21
0.069753
31
0.0
0
LINE
8
0
6
CONTINUOUS
10
0.014047
20
0.069753
30
0.0
11
0.012648
21
0.073250
31
0.0
0
LINE
8
0
6
CONTINUOUS
10
0.012648
20
0.073250
30
0.0
11
0.010317
21
0.076339
31
0.0
0
LINE
8
0
6
CONTINUOUS
10
0.010317
20
0.076339
30
0.0
11
0.007227
21
0.078671
31
0.0
0
LINE
8
0
6
CONTINUOUS
10
0.007227
20
0.078671
30
0.0
11
0.003730
21
0.080070
31
0.0
0
LINE
8
0
6
CONTINUOUS
10
0.003730
20
0.080070
30
0.0
11
-0.000000
21
0.080594
31
0.0
0
LINE
8
0
6
CONTINUOUS
10
0.014047
20
0.069753
30
0.0
11
0.014571
21
0.066023
31
0.0
0
LINE
8
0
6
CONTINUOUS
10
0.012648
20
0.073250
30
0.0
11
0.014047
21
0.069753
31
0.0
0
LINE
8
0
6
CONTINUOUS
10
0.010317
20
0.076339
30
0.0
11
0.012648
21
0.073250
31
0.0
0
LINE
8
0
6
CONTINUOUS
10
0.007227
20
0.078671
30
0.0
11
0.010317
21
0.076339
31
0.0
0
LINE
8
0
6
CONTINUOUS
10
0.003730
20
0.080070
30
0.0
11
0.007227
21
0.078671
31
0.0
0
LINE
8
0
6
CONTINUOUS
10
-0.000000
20
0.080594
30
0.0
11
0.003730
21
0.080070
31
0.0
0
LINE
8
0
6
CONTINUOUS
10
0.014571
20
0.066023
30
0.0
11
0.014047
21
0.062293
31
0.0
0
LINE
8
0
6
CONTINUOUS
10
0.014047
20
0.062293
30
0.0
11
0.012648
21
0.058795
31
0.0
0
LINE
8
0
6
CONTINUOUS
10
0.012648
20
0.058795
30
0.0
11
0.010317
21
0.055706
31
0.0
0
LINE
8
0
6
CONTINUOUS
10
0.010317
20
0.055706
30
0.0
11
0.007227
21
0.053375
31
0.0
0
LINE
8
0
6
CONTINUOUS
10
0.007227
20
0.053375
30
0.0
11
0.003730
21
0.051976
31
0.0
0
LINE
8
0
6
CONTINUOUS
10
0.003730
20
0.051976
30
0.0
11
-0.000000
21
0.051451
31
0.0
0
LINE
8
0
6
CONTINUOUS
10
0.014047
20
0.062293
30
0.0
11
0.014571
21
0.066023
31
0.0
0
LINE
8
0
6
CONTINUOUS
10
0.012648
20
0.058795
30
0.0
11
0.014047
21
0.062293
31
0.0
0
LINE
8
0
6
CONTINUOUS
10
0.010317
20
0.055706
30
0.0
11
0.012648
21
0.058795
31
0.0
0
LINE
8
0
6
CONTINUOUS
10
0.007227
20
0.053375
30
0.0
11
0.010317
21
0.055706
31
0.0
0
LINE
8
0
6
CONTINUOUS
10
0.003730
20
0.051976
30
0.0
11
0.007227
21
0.053375
31
0.0
0
LINE
8
0
6
CONTINUOUS
10
-0.000000
20
0.051451
30
0.0
11
0.003730
21
0.051976
31
0.0
0
LINE
8
0
6
CONTINUOUS
10
-0.014571
20
0.066023
30
0.0
11
-0.014047
21
0.062293
31
0.0
0
LINE
8
0
6
CONTINUOUS
10
-0.014047
20
0.062293
30
0.0
11
-0.012648
21
0.058795
31
0.0
0
LINE
8
0
6
CONTINUOUS
10
-0.012648
20
0.058795
30
0.0
11
-0.010317
21
0.055706
31
0.0
0
LINE
8
0
6
CONTINUOUS
10
-0.010317
20
0.055706
30
0.0
11
-0.007227
21
0.053375
31
0.0
0
LINE
8
0
6
CONTINUOUS
10
-0.007227
20
0.053375
30
0.0
11
-0.003730
21
0.051976
31
0.0
0
LINE
8
0
6
CONTINUOUS
10
-0.003730
20
0.051976
30
0.0
11
-0.000000
21
0.051451
31
0.0
0
LINE
8
0
6
CONTINUOUS
10
-0.014047
20
0.062293
30
0.0
11
-0.014571
21
0.066023
31
0.0
0
LINE
8
0
6
CONTINUOUS
10
-0.012648
20
0.058795
30
0.0
11
-0.014047
21
0.062293
31
0.0
0
LINE
8
0
6
CONTINUOUS
10
-0.010317
20
0.055706
30
0.0
11
-0.012648
21
0.058795
31
0.0
0
LINE
8
0
6
CONTINUOUS
10
-0.007227
20
0.053375
30
0.0
11
-0.010317
21
0.055706
31
0.0
0
LINE
8
0
6
CONTINUOUS
10
-0.003730
20
0.051976
30
0.0
11
-0.007227
21
0.053375
31
0.0
0
LINE
8
0
6
CONTINUOUS
10
-0.000000
20
0.051451
30
0.0
11
-0.003730
21
0.051976
31
0.0
0
LINE
8
0
6
CONTINUOUS
10
-0.014571
20
0.066023
30
0.0
11
-0.014047
21
0.069753
31
0.0
0
LINE
8
0
6
CONTINUOUS
10
-0.014047
20
0.069753
30
0.0
11
-0.012648
21
0.073250
31
0.0
0
LINE
8
0
6
CONTINUOUS
10
-0.012648
20
0.073250
30
0.0
11
-0.010317
21
0.076339
31
0.0
0
LINE
8
0
6
CONTINUOUS
10
-0.010317
20
0.076339
30
0.0
11
-0.007227
21
0.078671
31
0.0
0
LINE
8
0
6
CONTINUOUS
10
-0.007227
20
0.078671
30
0.0
11
-0.003730
21
0.080070
31
0.0
0
LINE
8
0
6
CONTINUOUS
10
-0.003730
20
0.080070
30
0.0
11
-0.000000
21
0.080594
31
0.0
0
LINE
8
0
6
CONTINUOUS
10
-0.014047
20
0.069753
30
0.0
11
-0.014571
21
0.066023
31
0.0
0
LINE
8
0
6
CONTINUOUS
10
-0.012648
20
0.073250
30
0.0
11
-0.014047
21
0.069753
31
0.0
0
LINE
8
0
6
CONTINUOUS
10
-0.010317
20
0.076339
30
0.0
11
-0.012648
21
0.073250
31
0.0
0
LINE
8
0
6
CONTINUOUS
10
-0.007227
20
0.078671
30
0.0
11
-0.010317
21
0.076339
31
0.0
0
LINE
8
0
6
CONTINUOUS
10
-0.003730
20
0.080070
30
0.0
11
-0.007227
21
0.078671
31
0.0
0
LINE
8
0
6
CONTINUOUS
10
-0.000000
20
0.080594
30
0.0
11
-0.003730
21
0.080070
31
0.0
0
LINE
8
0
6
CONTINUOUS
10
0.016388
20
0.070375
30
0.0
11
0.017000
21
0.066023
31
0.0
0
LINE
8
0
6
CONTINUOUS
10
0.014756
20
0.074455
30
0.0
11
0.016388
21
0.070375
31
0.0
0
LINE
8
0
6
CONTINUOUS
10
0.012036
20
0.078059
30
0.0
11
0.014756
21
0.074455
31
0.0
0
LINE
8
0
6
CONTINUOUS
10
0.008432
20
0.080779
30
0.0
11
0.012036
21
0.078059
31
0.0
0
LINE
8
0
6
CONTINUOUS
10
0.004352
20
0.082411
30
0.0
11
0.008432
21
0.080779
31
0.0
0
LINE
8
0
6
CONTINUOUS
10
0.000000
20
0.083023
30
0.0
11
0.004352
21
0.082411
31
0.0
0
LINE
8
0
6
CONTINUOUS
10
0.020000
20
0.066023
30
0.0
11
0.019280
21
0.071143
31
0.0
0
LINE
8
0
6
CONTINUOUS
10
0.019280
20
0.071143
30
0.0
11
0.017360
21
0.075943
31
0.0
0
LINE
8
0
6
CONTINUOUS
10
0.017360
20
0.075943
30
0.0
11
0.014160
21
0.080183
31
0.0
0
LINE
8
0
6
CONTINUOUS
10
0.014160
20
0.080183
30
0.0
11
0.009920
21
0.083383
31
0.0
0
LINE
8
0
6
CONTINUOUS
10
0.009920
20
0.083383
30
0.0
11
0.005120
21
0.085303
31
0.0
0
LINE
8
0
6
CONTINUOUS
10
0.005120
20
0.085303
30
0.0
11
0.000000
21
0.086023
31
0.0
0
LINE
8
0
6
CONTINUOUS
10
0.017000
20
0.066023
30
0.0
11
0.016388
21
0.070375
31
0.0
0
LINE
8
0
6
CONTINUOUS
10
0.019280
20
0.071143
30
0.0
11
0.020000
21
0.066023
31
0.0
0
LINE
8
0
6
CONTINUOUS
10
0.016388
20
0.070375
30
0.0
11
0.014756
21
0.074455
31
0.0
0
LINE
8
0
6
CONTINUOUS
10
0.017360
20
0.075943
30
0.0
11
0.019280
21
0.071143
31
0.0
0
LINE
8
0
6
CONTINUOUS
10
0.014756
20
0.074455
30
0.0
11
0.012036
21
0.078059
31
0.0
0
LINE
8
0
6
CONTINUOUS
10
0.014160
20
0.080183
30
0.0
11
0.017360
21
0.075943
31
0.0
0
LINE
8
0
6
CONTINUOUS
10
0.012036
20
0.078059
30
0.0
11
0.008432
21
0.080779
31
0.0
0
LINE
8
0
6
CONTINUOUS
10
0.009920
20
0.083383
30
0.0
11
0.014160
21
0.080183
31
0.0
0
LINE
8
0
6
CONTINUOUS
10
0.008432
20
0.080779
30
0.0
11
0.004352
21
0.082411
31
0.0
0
LINE
8
0
6
CONTINUOUS
10
0.005120
20
0.085303
30
0.0
11
0.009920
21
0.083383
31
0.0
0
LINE
8
0
6
CONTINUOUS
10
0.004352
20
0.082411
30
0.0
11
0.000000
21
0.083023
31
0.0
0
LINE
8
0
6
CONTINUOUS
10
0.000000
20
0.086023
30
0.0
11
0.005120
21
0.085303
31
0.0
0
LINE
8
0
6
CONTINUOUS
10
0.016388
20
0.061671
30
0.0
11
0.017000
21
0.066023
31
0.0
0
LINE
8
0
6
CONTINUOUS
10
0.020000
20
0.066023
30
0.0
11
0.019280
21
0.060903
31
0.0
0
LINE
8
0
6
CONTINUOUS
10
0.014756
20
0.057591
30
0.0
11
0.016388
21
0.061671
31
0.0
0
LINE
8
0
6
CONTINUOUS
10
0.019280
20
0.060903
30
0.0
11
0.017360
21
0.056103
31
0.0
0
LINE
8
0
6
CONTINUOUS
10
0.012036
20
0.053987
30
0.0
11
0.014756
21
0.057591
31
0.0
0
LINE
8
0
6
CONTINUOUS
10
0.017360
20
0.056103
30
0.0
11
0.014160
21
0.051863
31
0.0
0
LINE
8
0
6
CONTINUOUS
10
0.008432
20
0.051267
30
0.0
11
0.012036
21
0.053987
31
0.0
0
LINE
8
0
6
CONTINUOUS
10
0.014160
20
0.051863
30
0.0
11
0.009920
21
0.048663
31
0.0
0
LINE
8
0
6
CONTINUOUS
10
0.004352
20
0.049635
30
0.0
11
0.008432
21
0.051267
31
0.0
0
LINE
8
0
6
CONTINUOUS
10
0.009920
20
0.048663
30
0.0
11
0.005120
21
0.046743
31
0.0
0
LINE
8
0
6
CONTINUOUS
10
0.000000
20
0.049023
30
0.0
11
0.004352
21
0.049635
31
0.0
0
LINE
8
0
6
CONTINUOUS
10
0.005120
20
0.046743
30
0.0
11
0.000000
21
0.046023
31
0.0
0
LINE
8
0
6
CONTINUOUS
10
0.017000
20
0.066023
30
0.0
11
0.016388
21
0.061671
31
0.0
0
LINE
8
0
6
CONTINUOUS
10
0.016388
20
0.061671
30
0.0
11
0.014756
21
0.057591
31
0.0
0
LINE
8
0
6
CONTINUOUS
10
0.014756
20
0.057591
30
0.0
11
0.012036
21
0.053987
31
0.0
0
LINE
8
0
6
CONTINUOUS
10
0.012036
20
0.053987
30
0.0
11
0.008432
21
0.051267
31
0.0
0
LINE
8
0
6
CONTINUOUS
10
0.008432
20
0.051267
30
0.0
11
0.004352
21
0.049635
31
0.0
0
LINE
8
0
6
CONTINUOUS
10
0.004352
20
0.049635
30
0.0
11
0.000000
21
0.049023
31
0.0
0
LINE
8
0
6
CONTINUOUS
10
0.019280
20
0.060903
30
0.0
11
0.020000
21
0.066023
31
0.0
0
LINE
8
0
6
CONTINUOUS
10
0.017360
20
0.056103
30
0.0
11
0.019280
21
0.060903
31
0.0
0
LINE
8
0
6
CONTINUOUS
10
0.014160
20
0.051863
30
0.0
11
0.017360
21
0.056103
31
0.0
0
LINE
8
0
6
CONTINUOUS
10
0.009920
20
0.048663
30
0.0
11
0.014160
21
0.051863
31
0.0
0
LINE
8
0
6
CONTINUOUS
10
0.005120
20
0.046743
30
0.0
11
0.009920
21
0.048663
31
0.0
0
LINE
8
0
6
CONTINUOUS
10
0.000000
20
0.046023
30
0.0
11
0.005120
21
0.046743
31
0.0
0
LINE
8
0
6
CONTINUOUS
10
-0.016388
20
0.061671
30
0.0
11
-0.017000
21
0.066023
31
0.0
0
LINE
8
0
6
CONTINUOUS
10
-0.014756
20
0.057591
30
0.0
11
-0.016388
21
0.061671
31
0.0
0
LINE
8
0
6
CONTINUOUS
10
-0.012036
20
0.053987
30
0.0
11
-0.014756
21
0.057591
31
0.0
0
LINE
8
0
6
CONTINUOUS
10
-0.008432
20
0.051267
30
0.0
11
-0.012036
21
0.053987
31
0.0
0
LINE
8
0
6
CONTINUOUS
10
-0.004352
20
0.049635
30
0.0
11
-0.008432
21
0.051267
31
0.0
0
LINE
8
0
6
CONTINUOUS
10
0.000000
20
0.049023
30
0.0
11
-0.004352
21
0.049635
31
0.0
0
LINE
8
0
6
CONTINUOUS
10
-0.020000
20
0.066023
30
0.0
11
-0.019280
21
0.060903
31
0.0
0
LINE
8
0
6
CONTINUOUS
10
-0.019280
20
0.060903
30
0.0
11
-0.017360
21
0.056103
31
0.0
0
LINE
8
0
6
CONTINUOUS
10
-0.017360
20
0.056103
30
0.0
11
-0.014160
21
0.051863
31
0.0
0
LINE
8
0
6
CONTINUOUS
10
-0.014160
20
0.051863
30
0.0
11
-0.009920
21
0.048663
31
0.0
0
LINE
8
0
6
CONTINUOUS
10
-0.009920
20
0.048663
30
0.0
11
-0.005120
21
0.046743
31
0.0
0
LINE
8
0
6
CONTINUOUS
10
-0.005120
20
0.046743
30
0.0
11
0.000000
21
0.046023
31
0.0
0
LINE
8
0
6
CONTINUOUS
10
-0.017000
20
0.066023
30
0.0
11
-0.016388
21
0.061671
31
0.0
0
LINE
8
0
6
CONTINUOUS
10
-0.019280
20
0.060903
30
0.0
11
-0.020000
21
0.066023
31
0.0
0
LINE
8
0
6
CONTINUOUS
10
-0.016388
20
0.061671
30
0.0
11
-0.014756
21
0.057591
31
0.0
0
LINE
8
0
6
CONTINUOUS
10
-0.017360
20
0.056103
30
0.0
11
-0.019280
21
0.060903
31
0.0
0
LINE
8
0
6
CONTINUOUS
10
-0.014756
20
0.057591
30
0.0
11
-0.012036
21
0.053987
31
0.0
0
LINE
8
0
6
CONTINUOUS
10
-0.014160
20
0.051863
30
0.0
11
-0.017360
21
0.056103
31
0.0
0
LINE
8
0
6
CONTINUOUS
10
-0.012036
20
0.053987
30
0.0
11
-0.008432
21
0.051267
31
0.0
0
LINE
8
0
6
CONTINUOUS
10
-0.009920
20
0.048663
30
0.0
11
-0.014160
21
0.051863
31
0.0
0
LINE
8
0
6
CONTINUOUS
10
-0.008432
20
0.051267
30
0.0
11
-0.004352
21
0.049635
31
0.0
0
LINE
8
0
6
CONTINUOUS
10
-0.005120
20
0.046743
30
0.0
11
-0.009920
21
0.048663
31
0.0
0
LINE
8
0
6
CONTINUOUS
10
-0.004352
20
0.049635
30
0.0
11
0.000000
21
0.049023
31
0.0
0
LINE
8
0
6
CONTINUOUS
10
0.000000
20
0.046023
30
0.0
11
-0.005120
21
0.046743
31
0.0
0
LINE
8
0
6
CONTINUOUS
10
-0.016388
20
0.070375
30
0.0
11
-0.017000
21
0.066023
31
0.0
0
LINE
8
0
6
CONTINUOUS
10
-0.020000
20
0.066023
30
0.0
11
-0.019280
21
0.071143
31
0.0
0
LINE
8
0
6
CONTINUOUS
10
-0.014756
20
0.074455
30
0.0
11
-0.016388
21
0.070375
31
0.0
0
LINE
8
0
6
CONTINUOUS
10
-0.019280
20
0.071143
30
0.0
11
-0.017360
21
0.075943
31
0.0
0
LINE
8
0
6
CONTINUOUS
10
-0.012036
20
0.078059
30
0.0
11
-0.014756
21
0.074455
31
0.0
0
LINE
8
0
6
CONTINUOUS
10
-0.017360
20
0.075943
30
0.0
11
-0.014160
21
0.080183
31
0.0
0
LINE
8
0
6
CONTINUOUS
10
-0.008432
20
0.080779
30
0.0
11
-0.012036
21
0.078059
31
0.0
0
LINE
8
0
6
CONTINUOUS
10
-0.014160
20
0.080183
30
0.0
11
-0.009920
21
0.083383
31
0.0
0
LINE
8
0
6
CONTINUOUS
10
-0.004352
20
0.082411
30
0.0
11
-0.008432
21
0.080779
31
0.0
0
LINE
8
0
6
CONTINUOUS
10
-0.009920
20
0.083383
30
0.0
11
-0.005120
21
0.085303
31
0.0
0
LINE
8
0
6
CONTINUOUS
10
0.000000
20
0.083023
30
0.0
11
-0.004352
21
0.082411
31
0.0
0
LINE
8
0
6
CONTINUOUS
10
-0.005120
20
0.085303
30
0.0
11
0.000000
21
0.086023
31
0.0
0
LINE
8
0
6
CONTINUOUS
10
-0.017000
20
0.066023
30
0.0
11
-0.016388
21
0.070375
31
0.0
0
LINE
8
0
6
CONTINUOUS
10
-0.016388
20
0.070375
30
0.0
11
-0.014756
21
0.074455
31
0.0
0
LINE
8
0
6
CONTINUOUS
10
-0.014756
20
0.074455
30
0.0
11
-0.012036
21
0.078059
31
0.0
0
LINE
8
0
6
CONTINUOUS
10
-0.012036
20
0.078059
30
0.0
11
-0.008432
21
0.080779
31
0.0
0
LINE
8
0
6
CONTINUOUS
10
-0.008432
20
0.080779
30
0.0
11
-0.004352
21
0.082411
31
0.0
0
LINE
8
0
6
CONTINUOUS
10
-0.004352
20
0.082411
30
0.0
11
0.000000
21
0.083023
31
0.0
0
LINE
8
0
6
CONTINUOUS
10
-0.019280
20
0.071143
30
0.0
11
-0.020000
21
0.066023
31
0.0
0
LINE
8
0
6
CONTINUOUS
10
-0.017360
20
0.075943
30
0.0
11
-0.019280
21
0.071143
31
0.0
0
LINE
8
0
6
CONTINUOUS
10
-0.014160
20
0.080183
30
0.0
11
-0.017360
21
0.075943
31
0.0
0
LINE
8
0
6
CONTINUOUS
10
-0.009920
20
0.083383
30
0.0
11
-0.014160
21
0.080183
31
0.0
0
LINE
8
0
6
CONTINUOUS
10
-0.005120
20
0.085303
30
0.0
11
-0.009920
21
0.083383
31
0.0
0
LINE
8
0
6
CONTINUOUS
10
0.000000
20
0.086023
30
0.0
11
-0.005120
21
0.085303
31
0.0
0
LINE
8
0
6
CONTINUOUS
10
0.061000
20
0.071143
30
0.0
11
0.061000
21
0.066023
31
0.0
0
LINE
8
0
6
CONTINUOUS
10
0.063000
20
0.066023
30
0.0
11
0.063000
21
0.071143
31
0.0
0
LINE
8
0
6
CONTINUOUS
10
0.063000
20
0.071143
30
0.0
11
0.063000
21
0.075943
31
0.0
0
LINE
8
0
6
CONTINUOUS
10
0.061000
20
0.075943
30
0.0
11
0.061000
21
0.071143
31
0.0
0
LINE
8
0
6
CONTINUOUS
10
0.063000
20
0.075943
30
0.0
11
0.063000
21
0.080183
31
0.0
0
LINE
8
0
6
CONTINUOUS
10
0.061000
20
0.080183
30
0.0
11
0.061000
21
0.075943
31
0.0
0
LINE
8
0
6
CONTINUOUS
10
0.063000
20
0.080183
30
0.0
11
0.063000
21
0.083383
31
0.0
0
LINE
8
0
6
CONTINUOUS
10
0.061000
20
0.083383
30
0.0
11
0.061000
21
0.080183
31
0.0
0
LINE
8
0
6
CONTINUOUS
10
0.063000
20
0.083383
30
0.0
11
0.063000
21
0.085303
31
0.0
0
LINE
8
0
6
CONTINUOUS
10
0.061000
20
0.085303
30
0.0
11
0.061000
21
0.083383
31
0.0
0
LINE
8
0
6
CONTINUOUS
10
0.063000
20
0.085303
30
0.0
11
0.063000
21
0.086023
31
0.0
0
LINE
8
0
6
CONTINUOUS
10
0.061000
20
0.086023
30
0.0
11
0.061000
21
0.085303
31
0.0
0
LINE
8
0
6
CONTINUOUS
10
0.063000
20
0.071143
30
0.0
11
0.063000
21
0.066023
31
0.0
0
LINE
8
0
6
CONTINUOUS
10
0.063000
20
0.075943
30
0.0
11
0.063000
21
0.071143
31
0.0
0
LINE
8
0
6
CONTINUOUS
10
0.063000
20
0.080183
30
0.0
11
0.063000
21
0.075943
31
0.0
0
LINE
8
0
6
CONTINUOUS
10
0.063000
20
0.083383
30
0.0
11
0.063000
21
0.080183
31
0.0
0
LINE
8
0
6
CONTINUOUS
10
0.063000
20
0.085303
30
0.0
11
0.063000
21
0.083383
31
0.0
0
LINE
8
0
6
CONTINUOUS
10
0.063000
20
0.086023
30
0.0
11
0.063000
21
0.085303
31
0.0
0
LINE
8
0
6
CONTINUOUS
10
0.063000
20
0.066023
30
0.0
11
0.063000
21
0.060903
31
0.0
0
LINE
8
0
6
CONTINUOUS
10
0.063000
20
0.060903
30
0.0
11
0.063000
21
0.056103
31
0.0
0
LINE
8
0
6
CONTINUOUS
10
0.063000
20
0.056103
30
0.0
11
0.063000
21
0.051863
31
0.0
0
LINE
8
0
6
CONTINUOUS
10
0.063000
20
0.051863
30
0.0
11
0.063000
21
0.048663
31
0.0
0
LINE
8
0
6
CONTINUOUS
10
0.063000
20
0.048663
30
0.0
11
0.063000
21
0.046743
31
0.0
0
LINE
8
0
6
CONTINUOUS
10
0.063000
20
0.046743
30
0.0
11
0.063000
21
0.046023
31
0.0
0
LINE
8
0
6
CONTINUOUS
10
0.063000
20
0.060903
30
0.0
11
0.063000
21
0.066023
31
0.0
0
LINE
8
0
6
CONTINUOUS
10
0.061000
20
0.066023
30
0.0
11
0.061000
21
0.060903
31
0.0
0
LINE
8
0
6
CONTINUOUS
10
0.063000
20
0.056103
30
0.0
11
0.063000
21
0.060903
31
0.0
0
LINE
8
0
6
CONTINUOUS
10
0.061000
20
0.060903
30
0.0
11
0.061000
21
0.056103
31
0.0
0
LINE
8
0
6
CONTINUOUS
10
0.063000
20
0.051863
30
0.0
11
0.063000
21
0.056103
31
0.0
0
LINE
8
0
6
CONTINUOUS
10
0.061000
20
0.056103
30
0.0
11
0.061000
21
0.051863
31
0.0
0
LINE
8
0
6
CONTINUOUS
10
0.063000
20
0.048663
30
0.0
11
0.063000
21
0.051863
31
0.0
0
LINE
8
0
6
CONTINUOUS
10
0.061000
20
0.051863
30
0.0
11
0.061000
21
0.048663
31
0.0
0
LINE
8
0
6
CONTINUOUS
10
0.063000
20
0.046743
30
0.0
11
0.063000
21
0.048663
31
0.0
0
LINE
8
0
6
CONTINUOUS
10
0.061000
20
0.048663
30
0.0
11
0.061000
21
0.046743
31
0.0
0
LINE
8
0
6
CONTINUOUS
10
0.063000
20
0.046023
30
0.0
11
0.063000
21
0.046743
31
0.0
0
LINE
8
0
6
CONTINUOUS
10
0.061000
20
0.046743
30
0.0
11
0.061000
21
0.046023
31
0.0
0
LINE
8
0
6
CONTINUOUS
10
0.063000
20
0.046023
30
0.0
11
0.061000
21
0.046023
31
0.0
0
LINE
8
0
6
CONTINUOUS
10
0.061000
20
0.086023
30
0.0
11
0.063000
21
0.086023
31
0.0
0
LINE
8
0
6
CONTINUOUS
10
-0.061000
20
0.071143
30
0.0
11
-0.061000
21
0.066023
31
0.0
0
LINE
8
0
6
CONTINUOUS
10
-0.063000
20
0.066023
30
0.0
11
-0.063000
21
0.071143
31
0.0
0
LINE
8
0
6
CONTINUOUS
10
-0.063000
20
0.071143
30
0.0
11
-0.063000
21
0.075943
31
0.0
0
LINE
8
0
6
CONTINUOUS
10
-0.061000
20
0.075943
30
0.0
11
-0.061000
21
0.071143
31
0.0
0
LINE
8
0
6
CONTINUOUS
10
-0.063000
20
0.075943
30
0.0
11
-0.063000
21
0.080183
31
0.0
0
LINE
8
0
6
CONTINUOUS
10
-0.061000
20
0.080183
30
0.0
11
-0.061000
21
0.075943
31
0.0
0
LINE
8
0
6
CONTINUOUS
10
-0.063000
20
0.080183
30
0.0
11
-0.063000
21
0.083383
31
0.0
0
LINE
8
0
6
CONTINUOUS
10
-0.061000
20
0.083383
30
0.0
11
-0.061000
21
0.080183
31
0.0
0
LINE
8
0
6
CONTINUOUS
10
-0.063000
20
0.083383
30
0.0
11
-0.063000
21
0.085303
31
0.0
0
LINE
8
0
6
CONTINUOUS
10
-0.061000
20
0.085303
30
0.0
11
-0.061000
21
0.083383
31
0.0
0
LINE
8
0
6
CONTINUOUS
10
-0.063000
20
0.085303
30
0.0
11
-0.063000
21
0.086023
31
0.0
0
LINE
8
0
6
CONTINUOUS
10
-0.061000
20
0.086023
30
0.0
11
-0.061000
21
0.085303
31
0.0
0
LINE
8
0
6
CONTINUOUS
10
-0.063000
20
0.071143
30
0.0
11
-0.063000
21
0.066023
31
0.0
0
LINE
8
0
6
CONTINUOUS
10
-0.063000
20
0.075943
30
0.0
11
-0.063000
21
0.071143
31
0.0
0
LINE
8
0
6
CONTINUOUS
10
-0.063000
20
0.080183
30
0.0
11
-0.063000
21
0.075943
31
0.0
0
LINE
8
0
6
CONTINUOUS
10
-0.063000
20
0.083383
30
0.0
11
-0.063000
21
0.080183
31
0.0
0
LINE
8
0
6
CONTINUOUS
10
-0.063000
20
0.085303
30
0.0
11
-0.063000
21
0.083383
31
0.0
0
LINE
8
0
6
CONTINUOUS
10
-0.063000
20
0.086023
30
0.0
11
-0.063000
21
0.085303
31
0.0
0
LINE
8
0
6
CONTINUOUS
10
-0.063000
20
0.066023
30
0.0
11
-0.063000
21
0.060903
31
0.0
0
LINE
8
0
6
CONTINUOUS
10
-0.063000
20
0.060903
30
0.0
11
-0.063000
21
0.056103
31
0.0
0
LINE
8
0
6
CONTINUOUS
10
-0.063000
20
0.056103
30
0.0
11
-0.063000
21
0.051863
31
0.0
0
LINE
8
0
6
CONTINUOUS
10
-0.063000
20
0.051863
30
0.0
11
-0.063000
21
0.048663
31
0.0
0
LINE
8
0
6
CONTINUOUS
10
-0.063000
20
0.048663
30
0.0
11
-0.063000
21
0.046743
31
0.0
0
LINE
8
0
6
CONTINUOUS
10
-0.063000
20
0.046743
30
0.0
11
-0.063000
21
0.046023
31
0.0
0
LINE
8
0
6
CONTINUOUS
10
-0.063000
20
0.060903
30
0.0
11
-0.063000
21
0.066023
31
0.0
0
LINE
8
0
6
CONTINUOUS
10
-0.061000
20
0.066023
30
0.0
11
-0.061000
21
0.060903
31
0.0
0
LINE
8
0
6
CONTINUOUS
10
-0.063000
20
0.056103
30
0.0
11
-0.063000
21
0.060903
31
0.0
0
LINE
8
0
6
CONTINUOUS
10
-0.061000
20
0.060903
30
0.0
11
-0.061000
21
0.056103
31
0.0
0
LINE
8
0
6
CONTINUOUS
10
-0.063000
20
0.051863
30
0.0
11
-0.063000
21
0.056103
31
0.0
0
LINE
8
0
6
CONTINUOUS
10
-0.061000
20
0.056103
30
0.0
11
-0.061000
21
0.051863
31
0.0
0
LINE
8
0
6
CONTINUOUS
10
-0.063000
20
0.048663
30
0.0
11
-0.063000
21
0.051863
31
0.0
0
LINE
8
0
6
CONTINUOUS
10
-0.061000
20
0.051863
30
0.0
11
-0.061000
21
0.048663
31
0.0
0
LINE
8
0
6
CONTINUOUS
10
-0.063000
20
0.046743
30
0.0
11
-0.063000
21
0.048663
31
0.0
0
LINE
8
0
6
CONTINUOUS
10
-0.061000
20
0.048663
30
0.0
11
-0.061000
21
0.046743
31
0.0
0
LINE
8
0
6
CONTINUOUS
10
-0.063000
20
0.046023
30
0.0
11
-0.063000
21
0.046743
31
0.0
0
LINE
8
0
6
CONTINUOUS
10
-0.061000
20
0.046743
30
0.0
11
-0.061000
21
0.046023
31
0.0
0
LINE
8
0
6
CONTINUOUS
10
-0.063000
20
0.046023
30
0.0
11
-0.061000
21
0.046023
31
0.0
0
LINE
8
0
6
CONTINUOUS
10
-0.061000
20
0.086023
30
0.0
11
-0.063000
21
0.086023
31
0.0
0
ENDSEC
0
EOF
