999
unknown String-ID: 20550
0
SECTION
2
HEADER
9
$ACADVER
1
AC1009
9
$DWGCODEPAGE
3
unknown String-ID: 20561
0
ENDSEC
0
SECTION
2
TABLES
0
TABLE
2
LAYER
70
1
0
LAYER
2
0
70
0
62
7
6
CONTINUOUS
0
ENDTAB
0
ENDSEC
0
SECTION
2
ENTITIES
0
LINE
8
0
6
CONTINUOUS
10
0.019977
20
0.070000
30
0.0
11
0.019977
21
-0.000000
31
0.0
0
LINE
8
0
6
CONTINUOUS
10
0.019977
20
0.085000
30
0.0
11
0.019977
21
0.083858
31
0.0
0
LINE
8
0
6
CONTINUOUS
10
0.020880
20
0.085000
30
0.0
11
0.019977
21
0.085000
31
0.0
0
LINE
8
0
6
CONTINUOUS
10
0.019977
20
0.083858
30
0.0
11
0.019977
21
0.080607
31
0.0
0
LINE
8
0
6
CONTINUOUS
10
0.019977
20
0.075740
30
0.0
11
0.019977
21
0.070000
31
0.0
0
LINE
8
0
6
CONTINUOUS
10
0.019977
20
0.080607
30
0.0
11
0.019977
21
0.075740
31
0.0
0
LINE
8
0
6
CONTINUOUS
10
0.019977
20
-0.000000
30
0.0
11
0.019977
21
-0.070000
31
0.0
0
LINE
8
0
6
CONTINUOUS
10
0.019977
20
-0.085000
30
0.0
11
0.020880
21
-0.085000
31
0.0
0
LINE
8
0
6
CONTINUOUS
10
0.019977
20
-0.083858
30
0.0
11
0.019977
21
-0.085000
31
0.0
0
LINE
8
0
6
CONTINUOUS
10
0.019977
20
-0.070000
30
0.0
11
0.019977
21
-0.075740
31
0.0
0
LINE
8
0
6
CONTINUOUS
10
0.019977
20
-0.080607
30
0.0
11
0.019977
21
-0.083858
31
0.0
0
LINE
8
0
6
CONTINUOUS
10
0.019977
20
-0.075740
30
0.0
11
0.019977
21
-0.080607
31
0.0
0
LINE
8
0
6
CONTINUOUS
10
0.039684
20
0.084738
30
0.0
11
0.038977
21
0.085000
31
0.0
0
LINE
8
0
6
CONTINUOUS
10
0.039977
20
0.084106
30
0.0
11
0.039684
21
0.084738
31
0.0
0
LINE
8
0
6
CONTINUOUS
10
0.039977
20
0.082948
30
0.0
11
0.039977
21
0.084106
31
0.0
0
LINE
8
0
6
CONTINUOUS
10
0.039977
20
0.079663
30
0.0
11
0.039977
21
0.082948
31
0.0
0
LINE
8
0
6
CONTINUOUS
10
0.039977
20
0.074746
30
0.0
11
0.039977
21
0.079663
31
0.0
0
LINE
8
0
6
CONTINUOUS
10
0.039977
20
0.068926
30
0.0
11
0.039977
21
0.074746
31
0.0
0
LINE
8
0
6
CONTINUOUS
10
0.039977
20
0.000000
30
0.0
11
0.039977
21
0.068926
31
0.0
0
LINE
8
0
6
CONTINUOUS
10
0.039684
20
-0.084738
30
0.0
11
0.039977
21
-0.084106
31
0.0
0
LINE
8
0
6
CONTINUOUS
10
0.039977
20
-0.084106
30
0.0
11
0.039977
21
-0.082948
31
0.0
0
LINE
8
0
6
CONTINUOUS
10
0.038977
20
-0.085000
30
0.0
11
0.039684
21
-0.084738
31
0.0
0
LINE
8
0
6
CONTINUOUS
10
0.039977
20
-0.082948
30
0.0
11
0.039977
21
-0.079663
31
0.0
0
LINE
8
0
6
CONTINUOUS
10
0.039977
20
-0.079663
30
0.0
11
0.039977
21
-0.074746
31
0.0
0
LINE
8
0
6
CONTINUOUS
10
0.039977
20
-0.074746
30
0.0
11
0.039977
21
-0.068926
31
0.0
0
LINE
8
0
6
CONTINUOUS
10
0.039977
20
-0.068926
30
0.0
11
0.039977
21
0.000000
31
0.0
0
LINE
8
0
6
CONTINUOUS
10
0.038977
20
0.085000
30
0.0
11
0.038027
21
0.085000
31
0.0
0
LINE
8
0
6
CONTINUOUS
10
0.038027
20
-0.085000
30
0.0
11
0.038977
21
-0.085000
31
0.0
0
LINE
8
0
6
CONTINUOUS
10
0.038027
20
0.085000
30
0.0
11
0.020880
21
0.085000
31
0.0
0
LINE
8
0
6
CONTINUOUS
10
0.020880
20
-0.085000
30
0.0
11
0.038027
21
-0.085000
31
0.0
0
LINE
8
0
6
CONTINUOUS
10
0.087839
20
-0.023797
30
0.0
11
0.088023
21
-0.023396
31
0.0
0
LINE
8
0
6
CONTINUOUS
10
0.088023
20
-0.023396
30
0.0
11
0.088023
21
-0.022810
31
0.0
0
LINE
8
0
6
CONTINUOUS
10
0.088023
20
-0.021080
30
0.0
11
0.088023
21
-0.018293
31
0.0
0
LINE
8
0
6
CONTINUOUS
10
0.088023
20
-0.014590
30
0.0
11
0.088023
21
-0.010155
31
0.0
0
LINE
8
0
6
CONTINUOUS
10
0.088023
20
-0.010155
30
0.0
11
0.088023
21
-0.005212
31
0.0
0
LINE
8
0
6
CONTINUOUS
10
0.088023
20
-0.005212
30
0.0
11
0.088023
21
-0.000008
31
0.0
0
LINE
8
0
6
CONTINUOUS
10
0.088023
20
-0.000008
30
0.0
11
0.088023
21
0.005197
31
0.0
0
LINE
8
0
6
CONTINUOUS
10
0.088023
20
0.005197
30
0.0
11
0.088023
21
0.010140
31
0.0
0
LINE
8
0
6
CONTINUOUS
10
0.088023
20
0.010140
30
0.0
11
0.088023
21
0.014575
31
0.0
0
LINE
8
0
6
CONTINUOUS
10
0.088023
20
0.014575
30
0.0
11
0.088023
21
0.018278
31
0.0
0
LINE
8
0
6
CONTINUOUS
10
0.088023
20
0.021065
30
0.0
11
0.088023
21
0.022795
31
0.0
0
LINE
8
0
6
CONTINUOUS
10
0.088023
20
0.023381
30
0.0
11
0.087839
21
0.023782
31
0.0
0
LINE
8
0
6
CONTINUOUS
10
0.088023
20
0.022795
30
0.0
11
0.088023
21
0.023381
31
0.0
0
LINE
8
0
6
CONTINUOUS
10
0.050955
20
0.022023
30
0.0
11
0.049435
21
0.022023
31
0.0
0
LINE
8
0
6
CONTINUOUS
10
0.051223
20
-0.024175
30
0.0
11
0.087025
21
-0.024175
31
0.0
0
LINE
8
0
6
CONTINUOUS
10
0.087024
20
0.024160
30
0.0
11
0.066253
21
0.024160
31
0.0
0
LINE
8
0
6
CONTINUOUS
10
0.057251
20
0.024160
30
0.0
11
0.051223
21
0.024160
31
0.0
0
LINE
8
0
6
CONTINUOUS
10
0.050955
20
-0.024175
30
0.0
11
0.051223
21
-0.024175
31
0.0
0
LINE
8
0
6
CONTINUOUS
10
0.050955
20
-0.023569
30
0.0
11
0.050955
21
-0.024175
31
0.0
0
LINE
8
0
6
CONTINUOUS
10
0.050955
20
-0.000008
30
0.0
11
0.050955
21
-0.005385
31
0.0
0
LINE
8
0
6
CONTINUOUS
10
0.050955
20
-0.018903
30
0.0
11
0.050955
21
-0.021782
31
0.0
0
LINE
8
0
6
CONTINUOUS
10
0.050955
20
0.005370
30
0.0
11
0.050955
21
-0.000008
31
0.0
0
LINE
8
0
6
CONTINUOUS
10
0.050955
20
-0.015076
30
0.0
11
0.050955
21
-0.018903
31
0.0
0
LINE
8
0
6
CONTINUOUS
10
0.050955
20
0.023554
30
0.0
11
0.050955
21
0.021767
31
0.0
0
LINE
8
0
6
CONTINUOUS
10
0.050955
20
0.010478
30
0.0
11
0.050955
21
0.005370
31
0.0
0
LINE
8
0
6
CONTINUOUS
10
0.050955
20
-0.010494
30
0.0
11
0.050955
21
-0.015076
31
0.0
0
LINE
8
0
6
CONTINUOUS
10
0.051223
20
0.024160
30
0.0
11
0.050955
21
0.024160
31
0.0
0
LINE
8
0
6
CONTINUOUS
10
0.050955
20
0.024160
30
0.0
11
0.050955
21
0.023554
31
0.0
0
LINE
8
0
6
CONTINUOUS
10
0.050955
20
0.015061
30
0.0
11
0.050955
21
0.010478
31
0.0
0
LINE
8
0
6
CONTINUOUS
10
0.050955
20
-0.005385
30
0.0
11
0.050955
21
-0.010494
31
0.0
0
LINE
8
0
6
CONTINUOUS
10
0.050955
20
-0.021782
30
0.0
11
0.050955
21
-0.023569
31
0.0
0
LINE
8
0
6
CONTINUOUS
10
0.087099
20
-0.024175
30
0.0
11
0.087516
21
-0.024081
31
0.0
0
LINE
8
0
6
CONTINUOUS
10
0.087516
20
-0.024081
30
0.0
11
0.087839
21
-0.023797
31
0.0
0
LINE
8
0
6
CONTINUOUS
10
0.087516
20
0.024066
30
0.0
11
0.087099
21
0.024160
31
0.0
0
LINE
8
0
6
CONTINUOUS
10
0.087839
20
0.023782
30
0.0
11
0.087516
21
0.024066
31
0.0
0
LINE
8
0
6
CONTINUOUS
10
0.088023
20
0.018278
30
0.0
11
0.088023
21
0.021065
31
0.0
0
LINE
8
0
6
CONTINUOUS
10
0.087025
20
-0.024175
30
0.0
11
0.087099
21
-0.024175
31
0.0
0
LINE
8
0
6
CONTINUOUS
10
0.050955
20
0.021767
30
0.0
11
0.050955
21
0.018888
31
0.0
0
LINE
8
0
6
CONTINUOUS
10
0.087099
20
0.024160
30
0.0
11
0.087024
21
0.024160
31
0.0
0
LINE
8
0
6
CONTINUOUS
10
0.066253
20
0.024160
30
0.0
11
0.066253
21
0.026231
31
0.0
0
LINE
8
0
6
CONTINUOUS
10
0.057249
20
0.026231
30
0.0
11
0.057249
21
0.024160
31
0.0
0
LINE
8
0
6
CONTINUOUS
10
0.065661
20
0.026735
30
0.0
11
0.065595
21
0.026735
31
0.0
0
LINE
8
0
6
CONTINUOUS
10
0.065799
20
0.026735
30
0.0
11
0.065661
21
0.026735
31
0.0
0
LINE
8
0
6
CONTINUOUS
10
0.065730
20
0.026735
30
0.0
11
0.065799
21
0.026735
31
0.0
0
LINE
8
0
6
CONTINUOUS
10
0.057841
20
0.026735
30
0.0
11
0.057703
21
0.026735
31
0.0
0
LINE
8
0
6
CONTINUOUS
10
0.057907
20
0.026735
30
0.0
11
0.057841
21
0.026735
31
0.0
0
LINE
8
0
6
CONTINUOUS
10
0.066253
20
0.026231
30
0.0
11
0.066253
21
0.026285
31
0.0
0
LINE
8
0
6
CONTINUOUS
10
0.057703
20
0.026735
30
0.0
11
0.057476
21
0.026675
31
0.0
0
LINE
8
0
6
CONTINUOUS
10
0.057476
20
0.026675
30
0.0
11
0.057310
21
0.026510
31
0.0
0
LINE
8
0
6
CONTINUOUS
10
0.057310
20
0.026510
30
0.0
11
0.057249
21
0.026285
31
0.0
0
LINE
8
0
6
CONTINUOUS
10
0.058245
20
0.026735
30
0.0
11
0.057841
21
0.026735
31
0.0
0
LINE
8
0
6
CONTINUOUS
10
0.058888
20
0.026735
30
0.0
11
0.058245
21
0.026735
31
0.0
0
LINE
8
0
6
CONTINUOUS
10
0.059727
20
0.026735
30
0.0
11
0.058888
21
0.026735
31
0.0
0
LINE
8
0
6
CONTINUOUS
10
0.060703
20
0.026735
30
0.0
11
0.059727
21
0.026735
31
0.0
0
LINE
8
0
6
CONTINUOUS
10
0.061751
20
0.026735
30
0.0
11
0.060703
21
0.026735
31
0.0
0
LINE
8
0
6
CONTINUOUS
10
0.062798
20
0.026735
30
0.0
11
0.061751
21
0.026735
31
0.0
0
LINE
8
0
6
CONTINUOUS
10
0.063775
20
0.026735
30
0.0
11
0.062798
21
0.026735
31
0.0
0
LINE
8
0
6
CONTINUOUS
10
0.064613
20
0.026735
30
0.0
11
0.063775
21
0.026735
31
0.0
0
LINE
8
0
6
CONTINUOUS
10
0.065256
20
0.026735
30
0.0
11
0.064613
21
0.026735
31
0.0
0
LINE
8
0
6
CONTINUOUS
10
0.065661
20
0.026735
30
0.0
11
0.065256
21
0.026735
31
0.0
0
LINE
8
0
6
CONTINUOUS
10
0.065799
20
0.026735
30
0.0
11
0.065661
21
0.026735
31
0.0
0
LINE
8
0
6
CONTINUOUS
10
0.066026
20
0.026675
30
0.0
11
0.065799
21
0.026735
31
0.0
0
LINE
8
0
6
CONTINUOUS
10
0.066192
20
0.026510
30
0.0
11
0.066026
21
0.026675
31
0.0
0
LINE
8
0
6
CONTINUOUS
10
0.066253
20
0.026285
30
0.0
11
0.066192
21
0.026510
31
0.0
0
LINE
8
0
6
CONTINUOUS
10
0.057249
20
0.026285
30
0.0
11
0.057249
21
0.026231
31
0.0
0
LINE
8
0
6
CONTINUOUS
10
0.065595
20
0.026735
30
0.0
11
0.065197
21
0.026735
31
0.0
0
LINE
8
0
6
CONTINUOUS
10
0.065595
20
0.026735
30
0.0
11
0.065730
21
0.026735
31
0.0
0
LINE
8
0
6
CONTINUOUS
10
0.065197
20
0.026735
30
0.0
11
0.065595
21
0.026735
31
0.0
0
LINE
8
0
6
CONTINUOUS
10
0.064565
20
0.026735
30
0.0
11
0.065197
21
0.026735
31
0.0
0
LINE
8
0
6
CONTINUOUS
10
0.063741
20
0.026735
30
0.0
11
0.064565
21
0.026735
31
0.0
0
LINE
8
0
6
CONTINUOUS
10
0.062781
20
0.026735
30
0.0
11
0.063741
21
0.026735
31
0.0
0
LINE
8
0
6
CONTINUOUS
10
0.061751
20
0.026735
30
0.0
11
0.062781
21
0.026735
31
0.0
0
LINE
8
0
6
CONTINUOUS
10
0.060721
20
0.026735
30
0.0
11
0.061751
21
0.026735
31
0.0
0
LINE
8
0
6
CONTINUOUS
10
0.059761
20
0.026735
30
0.0
11
0.060721
21
0.026735
31
0.0
0
LINE
8
0
6
CONTINUOUS
10
0.058304
20
0.026735
30
0.0
11
0.057907
21
0.026735
31
0.0
0
LINE
8
0
6
CONTINUOUS
10
0.058937
20
0.026735
30
0.0
11
0.058304
21
0.026735
31
0.0
0
LINE
8
0
6
CONTINUOUS
10
0.059761
20
0.026735
30
0.0
11
0.058937
21
0.026735
31
0.0
0
LINE
8
0
6
CONTINUOUS
10
0.060721
20
0.026735
30
0.0
11
0.059761
21
0.026735
31
0.0
0
LINE
8
0
6
CONTINUOUS
10
0.061751
20
0.026735
30
0.0
11
0.060721
21
0.026735
31
0.0
0
LINE
8
0
6
CONTINUOUS
10
0.062781
20
0.026735
30
0.0
11
0.061751
21
0.026735
31
0.0
0
LINE
8
0
6
CONTINUOUS
10
0.063741
20
0.026735
30
0.0
11
0.062781
21
0.026735
31
0.0
0
LINE
8
0
6
CONTINUOUS
10
0.064565
20
0.026735
30
0.0
11
0.063741
21
0.026735
31
0.0
0
LINE
8
0
6
CONTINUOUS
10
0.065197
20
0.026735
30
0.0
11
0.064565
21
0.026735
31
0.0
0
LINE
8
0
6
CONTINUOUS
10
0.049435
20
-0.022038
30
0.0
11
0.050955
21
-0.022038
31
0.0
0
LINE
8
0
6
CONTINUOUS
10
0.049435
20
0.005402
30
0.0
11
0.049435
21
0.010541
31
0.0
0
LINE
8
0
6
CONTINUOUS
10
0.049435
20
-0.019015
30
0.0
11
0.049435
21
-0.015165
31
0.0
0
LINE
8
0
6
CONTINUOUS
10
0.049435
20
0.021896
30
0.0
11
0.049435
21
0.023694
31
0.0
0
LINE
8
0
6
CONTINUOUS
10
0.049435
20
0.018999
30
0.0
11
0.049435
21
0.021896
31
0.0
0
LINE
8
0
6
CONTINUOUS
10
0.049435
20
0.010541
30
0.0
11
0.049435
21
0.015150
31
0.0
0
LINE
8
0
6
CONTINUOUS
10
0.049120
20
0.024303
30
0.0
11
0.039977
21
0.024303
31
0.0
0
LINE
8
0
6
CONTINUOUS
10
0.039977
20
-0.024318
30
0.0
11
0.049120
21
-0.024318
31
0.0
0
LINE
8
0
6
CONTINUOUS
10
0.049120
20
-0.024318
30
0.0
11
0.049435
21
-0.024318
31
0.0
0
LINE
8
0
6
CONTINUOUS
10
0.049435
20
-0.024318
30
0.0
11
0.049435
21
-0.023709
31
0.0
0
LINE
8
0
6
CONTINUOUS
10
0.049435
20
-0.015165
30
0.0
11
0.049435
21
-0.010556
31
0.0
0
LINE
8
0
6
CONTINUOUS
10
0.049435
20
0.024303
30
0.0
11
0.049120
21
0.024303
31
0.0
0
LINE
8
0
6
CONTINUOUS
10
0.049435
20
0.023694
30
0.0
11
0.049435
21
0.024303
31
0.0
0
LINE
8
0
6
CONTINUOUS
10
0.049435
20
-0.000008
30
0.0
11
0.049435
21
0.005402
31
0.0
0
LINE
8
0
6
CONTINUOUS
10
0.049435
20
0.015150
30
0.0
11
0.049435
21
0.018999
31
0.0
0
LINE
8
0
6
CONTINUOUS
10
0.049435
20
-0.005417
30
0.0
11
0.049435
21
-0.000008
31
0.0
0
LINE
8
0
6
CONTINUOUS
10
0.049435
20
-0.010556
30
0.0
11
0.049435
21
-0.005417
31
0.0
0
LINE
8
0
6
CONTINUOUS
10
0.049435
20
-0.021911
30
0.0
11
0.049435
21
-0.019015
31
0.0
0
LINE
8
0
6
CONTINUOUS
10
-0.019023
20
0.075500
30
0.0
11
-0.015023
21
0.075500
31
0.0
0
LINE
8
0
6
CONTINUOUS
10
-0.019023
20
0.075500
30
0.0
11
-0.015023
21
0.075500
31
0.0
0
LINE
8
0
6
CONTINUOUS
10
-0.015023
20
0.075500
30
0.0
11
-0.019023
21
0.075500
31
0.0
0
LINE
8
0
6
CONTINUOUS
10
-0.019023
20
0.075500
30
0.0
11
-0.015023
21
0.075500
31
0.0
0
LINE
8
0
6
CONTINUOUS
10
-0.015023
20
0.075500
30
0.0
11
-0.019023
21
0.075500
31
0.0
0
LINE
8
0
6
CONTINUOUS
10
-0.019023
20
0.075500
30
0.0
11
-0.015023
21
0.075500
31
0.0
0
LINE
8
0
6
CONTINUOUS
10
-0.015023
20
0.075500
30
0.0
11
-0.015023
21
0.026625
31
0.0
0
LINE
8
0
6
CONTINUOUS
10
-0.015023
20
0.026625
30
0.0
11
-0.015023
21
0.025500
31
0.0
0
LINE
8
0
6
CONTINUOUS
10
-0.019023
20
0.075500
30
0.0
11
-0.015023
21
0.075500
31
0.0
0
LINE
8
0
6
CONTINUOUS
10
-0.019023
20
0.075500
30
0.0
11
-0.019023
21
0.025500
31
0.0
0
LINE
8
0
6
CONTINUOUS
10
-0.019023
20
0.025500
30
0.0
11
-0.015023
21
0.025500
31
0.0
0
LINE
8
0
6
CONTINUOUS
10
-0.015023
20
0.075500
30
0.0
11
-0.019023
21
0.075500
31
0.0
0
LINE
8
0
6
CONTINUOUS
10
-0.015023
20
0.025500
30
0.0
11
-0.015023
21
0.075500
31
0.0
0
LINE
8
0
6
CONTINUOUS
10
-0.019023
20
0.025500
30
0.0
11
-0.015023
21
0.025500
31
0.0
0
LINE
8
0
6
CONTINUOUS
10
-0.019023
20
0.075500
30
0.0
11
-0.019023
21
0.074375
31
0.0
0
LINE
8
0
6
CONTINUOUS
10
-0.019023
20
0.074275
30
0.0
11
-0.019023
21
0.026725
31
0.0
0
LINE
8
0
6
CONTINUOUS
10
-0.019023
20
0.026625
30
0.0
11
-0.019023
21
0.025500
31
0.0
0
LINE
8
0
6
CONTINUOUS
10
-0.015023
20
0.075500
30
0.0
11
-0.019023
21
0.075500
31
0.0
0
LINE
8
0
6
CONTINUOUS
10
-0.019023
20
0.075500
30
0.0
11
-0.015023
21
0.075500
31
0.0
0
LINE
8
0
6
CONTINUOUS
10
-0.015023
20
0.025500
30
0.0
11
-0.015023
21
-0.025500
31
0.0
0
LINE
8
0
6
CONTINUOUS
10
-0.019023
20
0.025500
30
0.0
11
-0.015023
21
0.025500
31
0.0
0
LINE
8
0
6
CONTINUOUS
10
-0.019023
20
0.025500
30
0.0
11
-0.019023
21
-0.025500
31
0.0
0
LINE
8
0
6
CONTINUOUS
10
-0.019023
20
-0.025500
30
0.0
11
-0.015023
21
-0.025500
31
0.0
0
LINE
8
0
6
CONTINUOUS
10
-0.015023
20
0.025500
30
0.0
11
-0.019023
21
0.025500
31
0.0
0
LINE
8
0
6
CONTINUOUS
10
-0.015023
20
-0.025500
30
0.0
11
-0.015023
21
0.025500
31
0.0
0
LINE
8
0
6
CONTINUOUS
10
-0.019023
20
-0.025500
30
0.0
11
-0.015023
21
-0.025500
31
0.0
0
LINE
8
0
6
CONTINUOUS
10
-0.019023
20
0.025500
30
0.0
11
-0.019023
21
-0.025500
31
0.0
0
LINE
8
0
6
CONTINUOUS
10
-0.015023
20
-0.025500
30
0.0
11
-0.015023
21
-0.075500
31
0.0
0
LINE
8
0
6
CONTINUOUS
10
-0.019023
20
-0.075500
30
0.0
11
-0.015023
21
-0.075500
31
0.0
0
LINE
8
0
6
CONTINUOUS
10
-0.019023
20
-0.025500
30
0.0
11
-0.019023
21
-0.075500
31
0.0
0
LINE
8
0
6
CONTINUOUS
10
-0.019023
20
-0.025500
30
0.0
11
-0.015023
21
-0.025500
31
0.0
0
LINE
8
0
6
CONTINUOUS
10
-0.019023
20
-0.075500
30
0.0
11
-0.015023
21
-0.075500
31
0.0
0
LINE
8
0
6
CONTINUOUS
10
-0.019023
20
-0.025500
30
0.0
11
-0.019023
21
-0.075500
31
0.0
0
LINE
8
0
6
CONTINUOUS
10
-0.015023
20
-0.025500
30
0.0
11
-0.019023
21
-0.025500
31
0.0
0
LINE
8
0
6
CONTINUOUS
10
-0.015023
20
-0.075500
30
0.0
11
-0.015023
21
-0.025500
31
0.0
0
LINE
8
0
6
CONTINUOUS
10
-0.019023
20
-0.075500
30
0.0
11
-0.015023
21
-0.075500
31
0.0
0
LINE
8
0
6
CONTINUOUS
10
-0.015023
20
-0.075500
30
0.0
11
-0.019023
21
-0.075500
31
0.0
0
LINE
8
0
6
CONTINUOUS
10
-0.088023
20
0.060358
30
0.0
11
-0.088023
21
0.061000
31
0.0
0
LINE
8
0
6
CONTINUOUS
10
-0.088023
20
-0.061000
30
0.0
11
-0.088023
21
-0.060358
31
0.0
0
LINE
8
0
6
CONTINUOUS
10
-0.088023
20
-0.023308
30
0.0
11
-0.088023
21
-0.015732
31
0.0
0
LINE
8
0
6
CONTINUOUS
10
-0.088023
20
-0.015732
30
0.0
11
-0.088023
21
-0.007962
31
0.0
0
LINE
8
0
6
CONTINUOUS
10
-0.088023
20
-0.007962
30
0.0
11
-0.088023
21
0.000000
31
0.0
0
LINE
8
0
6
CONTINUOUS
10
-0.088023
20
0.000000
30
0.0
11
-0.088023
21
0.007962
31
0.0
0
LINE
8
0
6
CONTINUOUS
10
-0.088023
20
0.007962
30
0.0
11
-0.088023
21
0.015732
31
0.0
0
LINE
8
0
6
CONTINUOUS
10
-0.088023
20
0.015732
30
0.0
11
-0.088023
21
0.023308
31
0.0
0
LINE
8
0
6
CONTINUOUS
10
-0.081023
20
0.046946
30
0.0
11
-0.081023
21
0.031493
31
0.0
0
LINE
8
0
6
CONTINUOUS
10
-0.088023
20
0.030590
30
0.0
11
-0.088023
21
0.046946
31
0.0
0
LINE
8
0
6
CONTINUOUS
10
-0.081023
20
0.031493
30
0.0
11
-0.081023
21
0.046946
31
0.0
0
LINE
8
0
6
CONTINUOUS
10
-0.088023
20
0.046946
30
0.0
11
-0.088023
21
0.030590
31
0.0
0
LINE
8
0
6
CONTINUOUS
10
-0.081023
20
0.046525
30
0.0
11
-0.081023
21
0.047645
31
0.0
0
LINE
8
0
6
CONTINUOUS
10
-0.088023
20
0.047645
30
0.0
11
-0.088023
21
0.046525
31
0.0
0
LINE
8
0
6
CONTINUOUS
10
-0.081023
20
0.047645
30
0.0
11
-0.081023
21
0.049129
31
0.0
0
LINE
8
0
6
CONTINUOUS
10
-0.088023
20
0.049129
30
0.0
11
-0.088023
21
0.047645
31
0.0
0
LINE
8
0
6
CONTINUOUS
10
-0.081023
20
0.049129
30
0.0
11
-0.081023
21
0.050809
31
0.0
0
LINE
8
0
6
CONTINUOUS
10
-0.088023
20
0.050809
30
0.0
11
-0.088023
21
0.049129
31
0.0
0
LINE
8
0
6
CONTINUOUS
10
-0.081023
20
0.050809
30
0.0
11
-0.081023
21
0.052601
31
0.0
0
LINE
8
0
6
CONTINUOUS
10
-0.088023
20
0.052601
30
0.0
11
-0.088023
21
0.050809
31
0.0
0
LINE
8
0
6
CONTINUOUS
10
-0.081023
20
0.047645
30
0.0
11
-0.081023
21
0.046525
31
0.0
0
LINE
8
0
6
CONTINUOUS
10
-0.081023
20
0.049129
30
0.0
11
-0.081023
21
0.047645
31
0.0
0
LINE
8
0
6
CONTINUOUS
10
-0.081023
20
0.050809
30
0.0
11
-0.081023
21
0.049129
31
0.0
0
LINE
8
0
6
CONTINUOUS
10
-0.081023
20
0.052601
30
0.0
11
-0.081023
21
0.050809
31
0.0
0
LINE
8
0
6
CONTINUOUS
10
-0.088023
20
0.046525
30
0.0
11
-0.088023
21
0.047645
31
0.0
0
LINE
8
0
6
CONTINUOUS
10
-0.088023
20
0.047645
30
0.0
11
-0.088023
21
0.049129
31
0.0
0
LINE
8
0
6
CONTINUOUS
10
-0.088023
20
0.049129
30
0.0
11
-0.088023
21
0.050809
31
0.0
0
LINE
8
0
6
CONTINUOUS
10
-0.088023
20
0.050809
30
0.0
11
-0.088023
21
0.052601
31
0.0
0
LINE
8
0
6
CONTINUOUS
10
-0.088023
20
0.059349
30
0.0
11
-0.088023
21
0.059601
31
0.0
0
LINE
8
0
6
CONTINUOUS
10
-0.088023
20
0.058677
30
0.0
11
-0.088023
21
0.059349
31
0.0
0
LINE
8
0
6
CONTINUOUS
10
-0.088023
20
0.057557
30
0.0
11
-0.088023
21
0.058677
31
0.0
0
LINE
8
0
6
CONTINUOUS
10
-0.088023
20
0.056073
30
0.0
11
-0.088023
21
0.057557
31
0.0
0
LINE
8
0
6
CONTINUOUS
10
-0.088023
20
0.054393
30
0.0
11
-0.088023
21
0.056073
31
0.0
0
LINE
8
0
6
CONTINUOUS
10
-0.088023
20
0.052601
30
0.0
11
-0.088023
21
0.054393
31
0.0
0
LINE
8
0
6
CONTINUOUS
10
-0.081023
20
0.059601
30
0.0
11
-0.081023
21
0.059349
31
0.0
0
LINE
8
0
6
CONTINUOUS
10
-0.081023
20
0.059349
30
0.0
11
-0.081023
21
0.058677
31
0.0
0
LINE
8
0
6
CONTINUOUS
10
-0.081023
20
0.058677
30
0.0
11
-0.081023
21
0.057557
31
0.0
0
LINE
8
0
6
CONTINUOUS
10
-0.081023
20
0.057557
30
0.0
11
-0.081023
21
0.056073
31
0.0
0
LINE
8
0
6
CONTINUOUS
10
-0.081023
20
0.056073
30
0.0
11
-0.081023
21
0.054393
31
0.0
0
LINE
8
0
6
CONTINUOUS
10
-0.081023
20
0.054393
30
0.0
11
-0.081023
21
0.052601
31
0.0
0
LINE
8
0
6
CONTINUOUS
10
-0.081023
20
0.059601
30
0.0
11
-0.088023
21
0.059601
31
0.0
0
LINE
8
0
6
CONTINUOUS
10
-0.081023
20
0.059349
30
0.0
11
-0.081023
21
0.059601
31
0.0
0
LINE
8
0
6
CONTINUOUS
10
-0.088023
20
0.059601
30
0.0
11
-0.088023
21
0.059349
31
0.0
0
LINE
8
0
6
CONTINUOUS
10
-0.081023
20
0.058677
30
0.0
11
-0.081023
21
0.059349
31
0.0
0
LINE
8
0
6
CONTINUOUS
10
-0.088023
20
0.059349
30
0.0
11
-0.088023
21
0.058677
31
0.0
0
LINE
8
0
6
CONTINUOUS
10
-0.081023
20
0.057557
30
0.0
11
-0.081023
21
0.058677
31
0.0
0
LINE
8
0
6
CONTINUOUS
10
-0.088023
20
0.058677
30
0.0
11
-0.088023
21
0.057557
31
0.0
0
LINE
8
0
6
CONTINUOUS
10
-0.081023
20
0.056073
30
0.0
11
-0.081023
21
0.057557
31
0.0
0
LINE
8
0
6
CONTINUOUS
10
-0.088023
20
0.057557
30
0.0
11
-0.088023
21
0.056073
31
0.0
0
LINE
8
0
6
CONTINUOUS
10
-0.081023
20
0.054393
30
0.0
11
-0.081023
21
0.056073
31
0.0
0
LINE
8
0
6
CONTINUOUS
10
-0.088023
20
0.056073
30
0.0
11
-0.088023
21
0.054393
31
0.0
0
LINE
8
0
6
CONTINUOUS
10
-0.081023
20
0.052601
30
0.0
11
-0.081023
21
0.054393
31
0.0
0
LINE
8
0
6
CONTINUOUS
10
-0.088023
20
0.054393
30
0.0
11
-0.088023
21
0.052601
31
0.0
0
LINE
8
0
6
CONTINUOUS
10
-0.081023
20
-0.046946
30
0.0
11
-0.081023
21
-0.031493
31
0.0
0
LINE
8
0
6
CONTINUOUS
10
-0.088023
20
-0.030589
30
0.0
11
-0.088023
21
-0.046946
31
0.0
0
LINE
8
0
6
CONTINUOUS
10
-0.081023
20
-0.031493
30
0.0
11
-0.081023
21
-0.046946
31
0.0
0
LINE
8
0
6
CONTINUOUS
10
-0.088023
20
-0.046946
30
0.0
11
-0.088023
21
-0.030589
31
0.0
0
LINE
8
0
6
CONTINUOUS
10
-0.081023
20
-0.046525
30
0.0
11
-0.081023
21
-0.047645
31
0.0
0
LINE
8
0
6
CONTINUOUS
10
-0.088023
20
-0.047645
30
0.0
11
-0.088023
21
-0.046525
31
0.0
0
LINE
8
0
6
CONTINUOUS
10
-0.081023
20
-0.047645
30
0.0
11
-0.081023
21
-0.049129
31
0.0
0
LINE
8
0
6
CONTINUOUS
10
-0.088023
20
-0.049129
30
0.0
11
-0.088023
21
-0.047645
31
0.0
0
LINE
8
0
6
CONTINUOUS
10
-0.081023
20
-0.049129
30
0.0
11
-0.081023
21
-0.050809
31
0.0
0
LINE
8
0
6
CONTINUOUS
10
-0.088023
20
-0.050809
30
0.0
11
-0.088023
21
-0.049129
31
0.0
0
LINE
8
0
6
CONTINUOUS
10
-0.081023
20
-0.050809
30
0.0
11
-0.081023
21
-0.052601
31
0.0
0
LINE
8
0
6
CONTINUOUS
10
-0.088023
20
-0.052601
30
0.0
11
-0.088023
21
-0.050809
31
0.0
0
LINE
8
0
6
CONTINUOUS
10
-0.081023
20
-0.047645
30
0.0
11
-0.081023
21
-0.046525
31
0.0
0
LINE
8
0
6
CONTINUOUS
10
-0.081023
20
-0.049129
30
0.0
11
-0.081023
21
-0.047645
31
0.0
0
LINE
8
0
6
CONTINUOUS
10
-0.081023
20
-0.050809
30
0.0
11
-0.081023
21
-0.049129
31
0.0
0
LINE
8
0
6
CONTINUOUS
10
-0.081023
20
-0.052601
30
0.0
11
-0.081023
21
-0.050809
31
0.0
0
LINE
8
0
6
CONTINUOUS
10
-0.088023
20
-0.046525
30
0.0
11
-0.088023
21
-0.047645
31
0.0
0
LINE
8
0
6
CONTINUOUS
10
-0.088023
20
-0.047645
30
0.0
11
-0.088023
21
-0.049129
31
0.0
0
LINE
8
0
6
CONTINUOUS
10
-0.088023
20
-0.049129
30
0.0
11
-0.088023
21
-0.050809
31
0.0
0
LINE
8
0
6
CONTINUOUS
10
-0.088023
20
-0.050809
30
0.0
11
-0.088023
21
-0.052601
31
0.0
0
LINE
8
0
6
CONTINUOUS
10
-0.088023
20
-0.059349
30
0.0
11
-0.088023
21
-0.059601
31
0.0
0
LINE
8
0
6
CONTINUOUS
10
-0.088023
20
-0.058677
30
0.0
11
-0.088023
21
-0.059349
31
0.0
0
LINE
8
0
6
CONTINUOUS
10
-0.088023
20
-0.057557
30
0.0
11
-0.088023
21
-0.058677
31
0.0
0
LINE
8
0
6
CONTINUOUS
10
-0.088023
20
-0.056073
30
0.0
11
-0.088023
21
-0.057557
31
0.0
0
LINE
8
0
6
CONTINUOUS
10
-0.088023
20
-0.054393
30
0.0
11
-0.088023
21
-0.056073
31
0.0
0
LINE
8
0
6
CONTINUOUS
10
-0.088023
20
-0.052601
30
0.0
11
-0.088023
21
-0.054393
31
0.0
0
LINE
8
0
6
CONTINUOUS
10
-0.081023
20
-0.059601
30
0.0
11
-0.081023
21
-0.059349
31
0.0
0
LINE
8
0
6
CONTINUOUS
10
-0.081023
20
-0.059349
30
0.0
11
-0.081023
21
-0.058677
31
0.0
0
LINE
8
0
6
CONTINUOUS
10
-0.081023
20
-0.058677
30
0.0
11
-0.081023
21
-0.057557
31
0.0
0
LINE
8
0
6
CONTINUOUS
10
-0.081023
20
-0.057557
30
0.0
11
-0.081023
21
-0.056073
31
0.0
0
LINE
8
0
6
CONTINUOUS
10
-0.081023
20
-0.056073
30
0.0
11
-0.081023
21
-0.054393
31
0.0
0
LINE
8
0
6
CONTINUOUS
10
-0.081023
20
-0.054393
30
0.0
11
-0.081023
21
-0.052601
31
0.0
0
LINE
8
0
6
CONTINUOUS
10
-0.081023
20
-0.059601
30
0.0
11
-0.088023
21
-0.059601
31
0.0
0
LINE
8
0
6
CONTINUOUS
10
-0.081023
20
-0.059349
30
0.0
11
-0.081023
21
-0.059601
31
0.0
0
LINE
8
0
6
CONTINUOUS
10
-0.088023
20
-0.059601
30
0.0
11
-0.088023
21
-0.059349
31
0.0
0
LINE
8
0
6
CONTINUOUS
10
-0.081023
20
-0.058677
30
0.0
11
-0.081023
21
-0.059349
31
0.0
0
LINE
8
0
6
CONTINUOUS
10
-0.088023
20
-0.059349
30
0.0
11
-0.088023
21
-0.058677
31
0.0
0
LINE
8
0
6
CONTINUOUS
10
-0.081023
20
-0.057557
30
0.0
11
-0.081023
21
-0.058677
31
0.0
0
LINE
8
0
6
CONTINUOUS
10
-0.088023
20
-0.058677
30
0.0
11
-0.088023
21
-0.057557
31
0.0
0
LINE
8
0
6
CONTINUOUS
10
-0.081023
20
-0.056073
30
0.0
11
-0.081023
21
-0.057557
31
0.0
0
LINE
8
0
6
CONTINUOUS
10
-0.088023
20
-0.057557
30
0.0
11
-0.088023
21
-0.056073
31
0.0
0
LINE
8
0
6
CONTINUOUS
10
-0.081023
20
-0.054393
30
0.0
11
-0.081023
21
-0.056073
31
0.0
0
LINE
8
0
6
CONTINUOUS
10
-0.088023
20
-0.056073
30
0.0
11
-0.088023
21
-0.054393
31
0.0
0
LINE
8
0
6
CONTINUOUS
10
-0.081023
20
-0.052601
30
0.0
11
-0.081023
21
-0.054393
31
0.0
0
LINE
8
0
6
CONTINUOUS
10
-0.088023
20
-0.054393
30
0.0
11
-0.088023
21
-0.052601
31
0.0
0
LINE
8
0
6
CONTINUOUS
10
-0.060903
20
0.019304
30
0.0
11
-0.066023
21
0.020000
31
0.0
0
LINE
8
0
6
CONTINUOUS
10
-0.056103
20
0.017361
30
0.0
11
-0.060903
21
0.019304
31
0.0
0
LINE
8
0
6
CONTINUOUS
10
-0.051863
20
0.014179
30
0.0
11
-0.056103
21
0.017361
31
0.0
0
LINE
8
0
6
CONTINUOUS
10
-0.048663
20
0.009929
30
0.0
11
-0.051863
21
0.014179
31
0.0
0
LINE
8
0
6
CONTINUOUS
10
-0.066023
20
0.020000
30
0.0
11
-0.071143
21
0.019304
31
0.0
0
LINE
8
0
6
CONTINUOUS
10
-0.071143
20
0.019304
30
0.0
11
-0.075943
21
0.017361
31
0.0
0
LINE
8
0
6
CONTINUOUS
10
-0.075943
20
0.017361
30
0.0
11
-0.080183
21
0.014179
31
0.0
0
LINE
8
0
6
CONTINUOUS
10
-0.080183
20
0.014179
30
0.0
11
-0.083383
21
0.009929
31
0.0
0
LINE
8
0
6
CONTINUOUS
10
-0.088023
20
0.023308
30
0.0
11
-0.088023
21
0.015732
31
0.0
0
LINE
8
0
6
CONTINUOUS
10
-0.071143
20
0.019304
30
0.0
11
-0.066023
21
0.020000
31
0.0
0
LINE
8
0
6
CONTINUOUS
10
-0.075943
20
0.017361
30
0.0
11
-0.071143
21
0.019304
31
0.0
0
LINE
8
0
6
CONTINUOUS
10
-0.088023
20
0.015732
30
0.0
11
-0.088023
21
0.007962
31
0.0
0
LINE
8
0
6
CONTINUOUS
10
-0.083383
20
0.009929
30
0.0
11
-0.080183
21
0.014179
31
0.0
0
LINE
8
0
6
CONTINUOUS
10
-0.088023
20
0.007962
30
0.0
11
-0.088023
21
0.000000
31
0.0
0
LINE
8
0
6
CONTINUOUS
10
-0.056103
20
0.017361
30
0.0
11
-0.051863
21
0.014179
31
0.0
0
LINE
8
0
6
CONTINUOUS
10
-0.066023
20
0.057350
30
0.0
11
-0.071143
21
0.057604
31
0.0
0
LINE
8
0
6
CONTINUOUS
10
-0.071143
20
0.057604
30
0.0
11
-0.075943
21
0.058260
31
0.0
0
LINE
8
0
6
CONTINUOUS
10
-0.075943
20
0.058260
30
0.0
11
-0.080183
21
0.059110
31
0.0
0
LINE
8
0
6
CONTINUOUS
10
-0.083023
20
0.059822
30
0.0
11
-0.083383
21
0.059912
31
0.0
0
LINE
8
0
6
CONTINUOUS
10
-0.083383
20
0.059912
30
0.0
11
-0.085303
21
0.060593
31
0.0
0
LINE
8
0
6
CONTINUOUS
10
-0.088023
20
0.061000
30
0.0
11
-0.088023
21
0.060358
31
0.0
0
LINE
8
0
6
CONTINUOUS
10
-0.086023
20
0.061000
30
0.0
11
-0.088023
21
0.061000
31
0.0
0
LINE
8
0
6
CONTINUOUS
10
-0.085303
20
0.060593
30
0.0
11
-0.086023
21
0.061000
31
0.0
0
LINE
8
0
6
CONTINUOUS
10
-0.071143
20
0.057604
30
0.0
11
-0.066023
21
0.057350
31
0.0
0
LINE
8
0
6
CONTINUOUS
10
-0.066023
20
0.061000
30
0.0
11
-0.071143
21
0.061000
31
0.0
0
LINE
8
0
6
CONTINUOUS
10
-0.071143
20
0.061000
30
0.0
11
-0.075943
21
0.061000
31
0.0
0
LINE
8
0
6
CONTINUOUS
10
-0.075943
20
0.058260
30
0.0
11
-0.071143
21
0.057604
31
0.0
0
LINE
8
0
6
CONTINUOUS
10
-0.075943
20
0.061000
30
0.0
11
-0.080183
21
0.061000
31
0.0
0
LINE
8
0
6
CONTINUOUS
10
-0.080183
20
0.059110
30
0.0
11
-0.075943
21
0.058260
31
0.0
0
LINE
8
0
6
CONTINUOUS
10
-0.080183
20
0.061000
30
0.0
11
-0.083383
21
0.061000
31
0.0
0
LINE
8
0
6
CONTINUOUS
10
-0.083383
20
0.059912
30
0.0
11
-0.083023
21
0.059822
31
0.0
0
LINE
8
0
6
CONTINUOUS
10
-0.083383
20
0.061000
30
0.0
11
-0.085303
21
0.061000
31
0.0
0
LINE
8
0
6
CONTINUOUS
10
-0.085303
20
0.060593
30
0.0
11
-0.083383
21
0.059912
31
0.0
0
LINE
8
0
6
CONTINUOUS
10
-0.085303
20
0.061000
30
0.0
11
-0.086023
21
0.061000
31
0.0
0
LINE
8
0
6
CONTINUOUS
10
-0.086023
20
0.061000
30
0.0
11
-0.085303
21
0.060593
31
0.0
0
LINE
8
0
6
CONTINUOUS
10
-0.060903
20
0.061000
30
0.0
11
-0.066023
21
0.061000
31
0.0
0
LINE
8
0
6
CONTINUOUS
10
-0.066023
20
0.057350
30
0.0
11
-0.060903
21
0.057604
31
0.0
0
LINE
8
0
6
CONTINUOUS
10
-0.056103
20
0.061000
30
0.0
11
-0.060903
21
0.061000
31
0.0
0
LINE
8
0
6
CONTINUOUS
10
-0.060903
20
0.057604
30
0.0
11
-0.056103
21
0.058260
31
0.0
0
LINE
8
0
6
CONTINUOUS
10
-0.051863
20
0.061000
30
0.0
11
-0.056103
21
0.061000
31
0.0
0
LINE
8
0
6
CONTINUOUS
10
-0.056103
20
0.058260
30
0.0
11
-0.051863
21
0.059110
31
0.0
0
LINE
8
0
6
CONTINUOUS
10
-0.048663
20
0.061000
30
0.0
11
-0.051863
21
0.061000
31
0.0
0
LINE
8
0
6
CONTINUOUS
10
-0.051863
20
0.059110
30
0.0
11
-0.048663
21
0.059912
31
0.0
0
LINE
8
0
6
CONTINUOUS
10
-0.046743
20
0.061000
30
0.0
11
-0.048663
21
0.061000
31
0.0
0
LINE
8
0
6
CONTINUOUS
10
-0.048663
20
0.059912
30
0.0
11
-0.046743
21
0.060593
31
0.0
0
LINE
8
0
6
CONTINUOUS
10
-0.046023
20
0.061000
30
0.0
11
-0.046743
21
0.061000
31
0.0
0
LINE
8
0
6
CONTINUOUS
10
-0.046743
20
0.060593
30
0.0
11
-0.046023
21
0.061000
31
0.0
0
LINE
8
0
6
CONTINUOUS
10
-0.060903
20
0.057604
30
0.0
11
-0.066023
21
0.057350
31
0.0
0
LINE
8
0
6
CONTINUOUS
10
-0.056103
20
0.058260
30
0.0
11
-0.060903
21
0.057604
31
0.0
0
LINE
8
0
6
CONTINUOUS
10
-0.051863
20
0.059110
30
0.0
11
-0.056103
21
0.058260
31
0.0
0
LINE
8
0
6
CONTINUOUS
10
-0.048663
20
0.059912
30
0.0
11
-0.051863
21
0.059110
31
0.0
0
LINE
8
0
6
CONTINUOUS
10
-0.046743
20
0.060593
30
0.0
11
-0.048663
21
0.059912
31
0.0
0
LINE
8
0
6
CONTINUOUS
10
0.019977
20
0.061000
30
0.0
11
-0.015023
21
0.061000
31
0.0
0
LINE
8
0
6
CONTINUOUS
10
-0.019023
20
0.061000
30
0.0
11
-0.046023
21
0.061000
31
0.0
0
LINE
8
0
6
CONTINUOUS
10
-0.046023
20
0.061000
30
0.0
11
-0.046743
21
0.060593
31
0.0
0
LINE
8
0
6
CONTINUOUS
10
-0.088023
20
0.030372
30
0.0
11
-0.088023
21
0.023308
31
0.0
0
LINE
8
0
6
CONTINUOUS
10
-0.088023
20
0.023308
30
0.0
11
-0.088023
21
0.030372
31
0.0
0
LINE
8
0
6
CONTINUOUS
10
-0.060903
20
-0.057604
30
0.0
11
-0.066023
21
-0.057350
31
0.0
0
LINE
8
0
6
CONTINUOUS
10
-0.066023
20
-0.061000
30
0.0
11
-0.060903
21
-0.061000
31
0.0
0
LINE
8
0
6
CONTINUOUS
10
-0.060903
20
-0.061000
30
0.0
11
-0.056103
21
-0.061000
31
0.0
0
LINE
8
0
6
CONTINUOUS
10
-0.056103
20
-0.058260
30
0.0
11
-0.060903
21
-0.057604
31
0.0
0
LINE
8
0
6
CONTINUOUS
10
-0.056103
20
-0.061000
30
0.0
11
-0.051863
21
-0.061000
31
0.0
0
LINE
8
0
6
CONTINUOUS
10
-0.051863
20
-0.059110
30
0.0
11
-0.056103
21
-0.058260
31
0.0
0
LINE
8
0
6
CONTINUOUS
10
-0.051863
20
-0.061000
30
0.0
11
-0.048663
21
-0.061000
31
0.0
0
LINE
8
0
6
CONTINUOUS
10
-0.048663
20
-0.059912
30
0.0
11
-0.051863
21
-0.059110
31
0.0
0
LINE
8
0
6
CONTINUOUS
10
-0.048663
20
-0.061000
30
0.0
11
-0.046743
21
-0.061000
31
0.0
0
LINE
8
0
6
CONTINUOUS
10
-0.046743
20
-0.060593
30
0.0
11
-0.048663
21
-0.059912
31
0.0
0
LINE
8
0
6
CONTINUOUS
10
-0.046743
20
-0.061000
30
0.0
11
-0.046023
21
-0.061000
31
0.0
0
LINE
8
0
6
CONTINUOUS
10
-0.046023
20
-0.061000
30
0.0
11
-0.046743
21
-0.060593
31
0.0
0
LINE
8
0
6
CONTINUOUS
10
-0.071143
20
-0.061000
30
0.0
11
-0.066023
21
-0.061000
31
0.0
0
LINE
8
0
6
CONTINUOUS
10
-0.066023
20
-0.057350
30
0.0
11
-0.071143
21
-0.057604
31
0.0
0
LINE
8
0
6
CONTINUOUS
10
-0.075943
20
-0.061000
30
0.0
11
-0.071143
21
-0.061000
31
0.0
0
LINE
8
0
6
CONTINUOUS
10
-0.071143
20
-0.057604
30
0.0
11
-0.075943
21
-0.058260
31
0.0
0
LINE
8
0
6
CONTINUOUS
10
-0.080183
20
-0.061000
30
0.0
11
-0.075943
21
-0.061000
31
0.0
0
LINE
8
0
6
CONTINUOUS
10
-0.075943
20
-0.058260
30
0.0
11
-0.080183
21
-0.059110
31
0.0
0
LINE
8
0
6
CONTINUOUS
10
-0.083383
20
-0.061000
30
0.0
11
-0.080183
21
-0.061000
31
0.0
0
LINE
8
0
6
CONTINUOUS
10
-0.083023
20
-0.059822
30
0.0
11
-0.083383
21
-0.059912
31
0.0
0
LINE
8
0
6
CONTINUOUS
10
-0.085303
20
-0.061000
30
0.0
11
-0.083383
21
-0.061000
31
0.0
0
LINE
8
0
6
CONTINUOUS
10
-0.083383
20
-0.059912
30
0.0
11
-0.085303
21
-0.060593
31
0.0
0
LINE
8
0
6
CONTINUOUS
10
-0.086023
20
-0.061000
30
0.0
11
-0.085303
21
-0.061000
31
0.0
0
LINE
8
0
6
CONTINUOUS
10
-0.085303
20
-0.060593
30
0.0
11
-0.086023
21
-0.061000
31
0.0
0
LINE
8
0
6
CONTINUOUS
10
-0.071143
20
-0.057604
30
0.0
11
-0.066023
21
-0.057350
31
0.0
0
LINE
8
0
6
CONTINUOUS
10
-0.075943
20
-0.058260
30
0.0
11
-0.071143
21
-0.057604
31
0.0
0
LINE
8
0
6
CONTINUOUS
10
-0.080183
20
-0.059110
30
0.0
11
-0.075943
21
-0.058260
31
0.0
0
LINE
8
0
6
CONTINUOUS
10
-0.083383
20
-0.059912
30
0.0
11
-0.083023
21
-0.059822
31
0.0
0
LINE
8
0
6
CONTINUOUS
10
-0.088023
20
-0.060358
30
0.0
11
-0.088023
21
-0.061000
31
0.0
0
LINE
8
0
6
CONTINUOUS
10
-0.085303
20
-0.060593
30
0.0
11
-0.083383
21
-0.059912
31
0.0
0
LINE
8
0
6
CONTINUOUS
10
-0.088023
20
-0.061000
30
0.0
11
-0.086023
21
-0.061000
31
0.0
0
LINE
8
0
6
CONTINUOUS
10
-0.086023
20
-0.061000
30
0.0
11
-0.085303
21
-0.060593
31
0.0
0
LINE
8
0
6
CONTINUOUS
10
-0.066023
20
-0.057350
30
0.0
11
-0.060903
21
-0.057604
31
0.0
0
LINE
8
0
6
CONTINUOUS
10
-0.060903
20
-0.057604
30
0.0
11
-0.056103
21
-0.058260
31
0.0
0
LINE
8
0
6
CONTINUOUS
10
-0.056103
20
-0.058260
30
0.0
11
-0.051863
21
-0.059110
31
0.0
0
LINE
8
0
6
CONTINUOUS
10
-0.051863
20
-0.059110
30
0.0
11
-0.048663
21
-0.059912
31
0.0
0
LINE
8
0
6
CONTINUOUS
10
-0.048663
20
-0.059912
30
0.0
11
-0.046743
21
-0.060593
31
0.0
0
LINE
8
0
6
CONTINUOUS
10
-0.046023
20
-0.061000
30
0.0
11
-0.019023
21
-0.061000
31
0.0
0
LINE
8
0
6
CONTINUOUS
10
-0.015023
20
-0.061000
30
0.0
11
0.019977
21
-0.061000
31
0.0
0
LINE
8
0
6
CONTINUOUS
10
-0.046743
20
-0.060593
30
0.0
11
-0.046023
21
-0.061000
31
0.0
0
LINE
8
0
6
CONTINUOUS
10
-0.088023
20
-0.015732
30
0.0
11
-0.088023
21
-0.023308
31
0.0
0
LINE
8
0
6
CONTINUOUS
10
-0.075943
20
-0.017361
30
0.0
11
-0.080183
21
-0.014179
31
0.0
0
LINE
8
0
6
CONTINUOUS
10
-0.088023
20
-0.007962
30
0.0
11
-0.088023
21
-0.015732
31
0.0
0
LINE
8
0
6
CONTINUOUS
10
-0.088023
20
0.000000
30
0.0
11
-0.088023
21
-0.007962
31
0.0
0
LINE
8
0
6
CONTINUOUS
10
-0.066023
20
-0.020000
30
0.0
11
-0.060903
21
-0.019304
31
0.0
0
LINE
8
0
6
CONTINUOUS
10
-0.060903
20
-0.019304
30
0.0
11
-0.056103
21
-0.017361
31
0.0
0
LINE
8
0
6
CONTINUOUS
10
-0.056103
20
-0.017361
30
0.0
11
-0.051863
21
-0.014179
31
0.0
0
LINE
8
0
6
CONTINUOUS
10
-0.051863
20
-0.014179
30
0.0
11
-0.048663
21
-0.009929
31
0.0
0
LINE
8
0
6
CONTINUOUS
10
-0.060903
20
-0.019304
30
0.0
11
-0.066023
21
-0.020000
31
0.0
0
LINE
8
0
6
CONTINUOUS
10
-0.056103
20
-0.017361
30
0.0
11
-0.060903
21
-0.019304
31
0.0
0
LINE
8
0
6
CONTINUOUS
10
-0.048663
20
-0.009929
30
0.0
11
-0.051863
21
-0.014179
31
0.0
0
LINE
8
0
6
CONTINUOUS
10
-0.071143
20
-0.019304
30
0.0
11
-0.066023
21
-0.020000
31
0.0
0
LINE
8
0
6
CONTINUOUS
10
-0.075943
20
-0.017361
30
0.0
11
-0.071143
21
-0.019304
31
0.0
0
LINE
8
0
6
CONTINUOUS
10
-0.080183
20
-0.014179
30
0.0
11
-0.075943
21
-0.017361
31
0.0
0
LINE
8
0
6
CONTINUOUS
10
-0.083383
20
-0.009929
30
0.0
11
-0.080183
21
-0.014179
31
0.0
0
LINE
8
0
6
CONTINUOUS
10
-0.088023
20
-0.030372
30
0.0
11
-0.088023
21
-0.030589
31
0.0
0
LINE
8
0
6
CONTINUOUS
10
-0.088023
20
-0.023308
30
0.0
11
-0.088023
21
-0.030372
31
0.0
0
LINE
8
0
6
CONTINUOUS
10
-0.088023
20
-0.030589
30
0.0
11
-0.088023
21
-0.030372
31
0.0
0
LINE
8
0
6
CONTINUOUS
10
-0.088023
20
-0.030372
30
0.0
11
-0.088023
21
-0.023308
31
0.0
0
LINE
8
0
6
CONTINUOUS
10
-0.066023
20
0.014571
30
0.0
11
-0.069753
21
0.014047
31
0.0
0
LINE
8
0
6
CONTINUOUS
10
-0.069753
20
0.014047
30
0.0
11
-0.073250
21
0.012648
31
0.0
0
LINE
8
0
6
CONTINUOUS
10
-0.073250
20
0.012648
30
0.0
11
-0.076339
21
0.010317
31
0.0
0
LINE
8
0
6
CONTINUOUS
10
-0.076339
20
0.010317
30
0.0
11
-0.078671
21
0.007227
31
0.0
0
LINE
8
0
6
CONTINUOUS
10
-0.078671
20
0.007227
30
0.0
11
-0.080070
21
0.003730
31
0.0
0
LINE
8
0
6
CONTINUOUS
10
-0.080070
20
0.003730
30
0.0
11
-0.080594
21
0.000000
31
0.0
0
LINE
8
0
6
CONTINUOUS
10
-0.069753
20
0.014047
30
0.0
11
-0.066023
21
0.014571
31
0.0
0
LINE
8
0
6
CONTINUOUS
10
-0.073250
20
0.012648
30
0.0
11
-0.069753
21
0.014047
31
0.0
0
LINE
8
0
6
CONTINUOUS
10
-0.076339
20
0.010317
30
0.0
11
-0.073250
21
0.012648
31
0.0
0
LINE
8
0
6
CONTINUOUS
10
-0.078671
20
0.007227
30
0.0
11
-0.076339
21
0.010317
31
0.0
0
LINE
8
0
6
CONTINUOUS
10
-0.080070
20
0.003730
30
0.0
11
-0.078671
21
0.007227
31
0.0
0
LINE
8
0
6
CONTINUOUS
10
-0.080594
20
0.000000
30
0.0
11
-0.080070
21
0.003730
31
0.0
0
LINE
8
0
6
CONTINUOUS
10
-0.066023
20
0.014571
30
0.0
11
-0.062293
21
0.014047
31
0.0
0
LINE
8
0
6
CONTINUOUS
10
-0.062293
20
0.014047
30
0.0
11
-0.058795
21
0.012648
31
0.0
0
LINE
8
0
6
CONTINUOUS
10
-0.058795
20
0.012648
30
0.0
11
-0.055706
21
0.010317
31
0.0
0
LINE
8
0
6
CONTINUOUS
10
-0.055706
20
0.010317
30
0.0
11
-0.053375
21
0.007227
31
0.0
0
LINE
8
0
6
CONTINUOUS
10
-0.053375
20
0.007227
30
0.0
11
-0.051976
21
0.003730
31
0.0
0
LINE
8
0
6
CONTINUOUS
10
-0.051976
20
0.003730
30
0.0
11
-0.051451
21
0.000000
31
0.0
0
LINE
8
0
6
CONTINUOUS
10
-0.062293
20
0.014047
30
0.0
11
-0.066023
21
0.014571
31
0.0
0
LINE
8
0
6
CONTINUOUS
10
-0.058795
20
0.012648
30
0.0
11
-0.062293
21
0.014047
31
0.0
0
LINE
8
0
6
CONTINUOUS
10
-0.055706
20
0.010317
30
0.0
11
-0.058795
21
0.012648
31
0.0
0
LINE
8
0
6
CONTINUOUS
10
-0.053375
20
0.007227
30
0.0
11
-0.055706
21
0.010317
31
0.0
0
LINE
8
0
6
CONTINUOUS
10
-0.051976
20
0.003730
30
0.0
11
-0.053375
21
0.007227
31
0.0
0
LINE
8
0
6
CONTINUOUS
10
-0.051451
20
0.000000
30
0.0
11
-0.051976
21
0.003730
31
0.0
0
LINE
8
0
6
CONTINUOUS
10
-0.066023
20
-0.014571
30
0.0
11
-0.062293
21
-0.014047
31
0.0
0
LINE
8
0
6
CONTINUOUS
10
-0.062293
20
-0.014047
30
0.0
11
-0.058795
21
-0.012648
31
0.0
0
LINE
8
0
6
CONTINUOUS
10
-0.058795
20
-0.012648
30
0.0
11
-0.055706
21
-0.010317
31
0.0
0
LINE
8
0
6
CONTINUOUS
10
-0.055706
20
-0.010317
30
0.0
11
-0.053375
21
-0.007227
31
0.0
0
LINE
8
0
6
CONTINUOUS
10
-0.053375
20
-0.007227
30
0.0
11
-0.051976
21
-0.003730
31
0.0
0
LINE
8
0
6
CONTINUOUS
10
-0.051976
20
-0.003730
30
0.0
11
-0.051451
21
0.000000
31
0.0
0
LINE
8
0
6
CONTINUOUS
10
-0.062293
20
-0.014047
30
0.0
11
-0.066023
21
-0.014571
31
0.0
0
LINE
8
0
6
CONTINUOUS
10
-0.058795
20
-0.012648
30
0.0
11
-0.062293
21
-0.014047
31
0.0
0
LINE
8
0
6
CONTINUOUS
10
-0.055706
20
-0.010317
30
0.0
11
-0.058795
21
-0.012648
31
0.0
0
LINE
8
0
6
CONTINUOUS
10
-0.053375
20
-0.007227
30
0.0
11
-0.055706
21
-0.010317
31
0.0
0
LINE
8
0
6
CONTINUOUS
10
-0.051976
20
-0.003730
30
0.0
11
-0.053375
21
-0.007227
31
0.0
0
LINE
8
0
6
CONTINUOUS
10
-0.051451
20
0.000000
30
0.0
11
-0.051976
21
-0.003730
31
0.0
0
LINE
8
0
6
CONTINUOUS
10
-0.066023
20
-0.014571
30
0.0
11
-0.069753
21
-0.014047
31
0.0
0
LINE
8
0
6
CONTINUOUS
10
-0.069753
20
-0.014047
30
0.0
11
-0.073250
21
-0.012648
31
0.0
0
LINE
8
0
6
CONTINUOUS
10
-0.073250
20
-0.012648
30
0.0
11
-0.076339
21
-0.010317
31
0.0
0
LINE
8
0
6
CONTINUOUS
10
-0.076339
20
-0.010317
30
0.0
11
-0.078671
21
-0.007227
31
0.0
0
LINE
8
0
6
CONTINUOUS
10
-0.078671
20
-0.007227
30
0.0
11
-0.080070
21
-0.003730
31
0.0
0
LINE
8
0
6
CONTINUOUS
10
-0.080070
20
-0.003730
30
0.0
11
-0.080594
21
0.000000
31
0.0
0
LINE
8
0
6
CONTINUOUS
10
-0.069753
20
-0.014047
30
0.0
11
-0.066023
21
-0.014571
31
0.0
0
LINE
8
0
6
CONTINUOUS
10
-0.073250
20
-0.012648
30
0.0
11
-0.069753
21
-0.014047
31
0.0
0
LINE
8
0
6
CONTINUOUS
10
-0.076339
20
-0.010317
30
0.0
11
-0.073250
21
-0.012648
31
0.0
0
LINE
8
0
6
CONTINUOUS
10
-0.078671
20
-0.007227
30
0.0
11
-0.076339
21
-0.010317
31
0.0
0
LINE
8
0
6
CONTINUOUS
10
-0.080070
20
-0.003730
30
0.0
11
-0.078671
21
-0.007227
31
0.0
0
LINE
8
0
6
CONTINUOUS
10
-0.080594
20
0.000000
30
0.0
11
-0.080070
21
-0.003730
31
0.0
0
LINE
8
0
6
CONTINUOUS
10
-0.060903
20
0.061000
30
0.0
11
-0.066023
21
0.061000
31
0.0
0
LINE
8
0
6
CONTINUOUS
10
-0.066023
20
0.063000
30
0.0
11
-0.060903
21
0.063000
31
0.0
0
LINE
8
0
6
CONTINUOUS
10
-0.060903
20
0.063000
30
0.0
11
-0.056103
21
0.063000
31
0.0
0
LINE
8
0
6
CONTINUOUS
10
-0.056103
20
0.061000
30
0.0
11
-0.060903
21
0.061000
31
0.0
0
LINE
8
0
6
CONTINUOUS
10
-0.056103
20
0.063000
30
0.0
11
-0.051863
21
0.063000
31
0.0
0
LINE
8
0
6
CONTINUOUS
10
-0.051863
20
0.061000
30
0.0
11
-0.056103
21
0.061000
31
0.0
0
LINE
8
0
6
CONTINUOUS
10
-0.051863
20
0.063000
30
0.0
11
-0.048663
21
0.063000
31
0.0
0
LINE
8
0
6
CONTINUOUS
10
-0.048663
20
0.061000
30
0.0
11
-0.051863
21
0.061000
31
0.0
0
LINE
8
0
6
CONTINUOUS
10
-0.048663
20
0.063000
30
0.0
11
-0.046743
21
0.063000
31
0.0
0
LINE
8
0
6
CONTINUOUS
10
-0.046743
20
0.061000
30
0.0
11
-0.048663
21
0.061000
31
0.0
0
LINE
8
0
6
CONTINUOUS
10
-0.046743
20
0.063000
30
0.0
11
-0.046023
21
0.063000
31
0.0
0
LINE
8
0
6
CONTINUOUS
10
-0.046023
20
0.061000
30
0.0
11
-0.046743
21
0.061000
31
0.0
0
LINE
8
0
6
CONTINUOUS
10
-0.046023
20
0.063000
30
0.0
11
-0.046023
21
0.061000
31
0.0
0
LINE
8
0
6
CONTINUOUS
10
-0.060903
20
0.063000
30
0.0
11
-0.066023
21
0.063000
31
0.0
0
LINE
8
0
6
CONTINUOUS
10
-0.056103
20
0.063000
30
0.0
11
-0.060903
21
0.063000
31
0.0
0
LINE
8
0
6
CONTINUOUS
10
-0.051863
20
0.063000
30
0.0
11
-0.056103
21
0.063000
31
0.0
0
LINE
8
0
6
CONTINUOUS
10
-0.048663
20
0.063000
30
0.0
11
-0.051863
21
0.063000
31
0.0
0
LINE
8
0
6
CONTINUOUS
10
-0.046743
20
0.063000
30
0.0
11
-0.048663
21
0.063000
31
0.0
0
LINE
8
0
6
CONTINUOUS
10
-0.046023
20
0.063000
30
0.0
11
-0.046743
21
0.063000
31
0.0
0
LINE
8
0
6
CONTINUOUS
10
-0.066023
20
0.063000
30
0.0
11
-0.071143
21
0.063000
31
0.0
0
LINE
8
0
6
CONTINUOUS
10
-0.071143
20
0.063000
30
0.0
11
-0.075943
21
0.063000
31
0.0
0
LINE
8
0
6
CONTINUOUS
10
-0.075943
20
0.063000
30
0.0
11
-0.080183
21
0.063000
31
0.0
0
LINE
8
0
6
CONTINUOUS
10
-0.080183
20
0.063000
30
0.0
11
-0.083383
21
0.063000
31
0.0
0
LINE
8
0
6
CONTINUOUS
10
-0.083383
20
0.063000
30
0.0
11
-0.085303
21
0.063000
31
0.0
0
LINE
8
0
6
CONTINUOUS
10
-0.085303
20
0.063000
30
0.0
11
-0.086023
21
0.063000
31
0.0
0
LINE
8
0
6
CONTINUOUS
10
-0.071143
20
0.063000
30
0.0
11
-0.066023
21
0.063000
31
0.0
0
LINE
8
0
6
CONTINUOUS
10
-0.066023
20
0.061000
30
0.0
11
-0.071143
21
0.061000
31
0.0
0
LINE
8
0
6
CONTINUOUS
10
-0.075943
20
0.063000
30
0.0
11
-0.071143
21
0.063000
31
0.0
0
LINE
8
0
6
CONTINUOUS
10
-0.071143
20
0.061000
30
0.0
11
-0.075943
21
0.061000
31
0.0
0
LINE
8
0
6
CONTINUOUS
10
-0.080183
20
0.063000
30
0.0
11
-0.075943
21
0.063000
31
0.0
0
LINE
8
0
6
CONTINUOUS
10
-0.075943
20
0.061000
30
0.0
11
-0.080183
21
0.061000
31
0.0
0
LINE
8
0
6
CONTINUOUS
10
-0.083383
20
0.063000
30
0.0
11
-0.080183
21
0.063000
31
0.0
0
LINE
8
0
6
CONTINUOUS
10
-0.080183
20
0.061000
30
0.0
11
-0.083383
21
0.061000
31
0.0
0
LINE
8
0
6
CONTINUOUS
10
-0.085303
20
0.063000
30
0.0
11
-0.083383
21
0.063000
31
0.0
0
LINE
8
0
6
CONTINUOUS
10
-0.083383
20
0.061000
30
0.0
11
-0.085303
21
0.061000
31
0.0
0
LINE
8
0
6
CONTINUOUS
10
-0.086023
20
0.063000
30
0.0
11
-0.085303
21
0.063000
31
0.0
0
LINE
8
0
6
CONTINUOUS
10
-0.086023
20
0.061000
30
0.0
11
-0.086023
21
0.063000
31
0.0
0
LINE
8
0
6
CONTINUOUS
10
-0.085303
20
0.061000
30
0.0
11
-0.086023
21
0.061000
31
0.0
0
LINE
8
0
6
CONTINUOUS
10
-0.060903
20
-0.061000
30
0.0
11
-0.066023
21
-0.061000
31
0.0
0
LINE
8
0
6
CONTINUOUS
10
-0.066023
20
-0.063000
30
0.0
11
-0.060903
21
-0.063000
31
0.0
0
LINE
8
0
6
CONTINUOUS
10
-0.060903
20
-0.063000
30
0.0
11
-0.056103
21
-0.063000
31
0.0
0
LINE
8
0
6
CONTINUOUS
10
-0.056103
20
-0.061000
30
0.0
11
-0.060903
21
-0.061000
31
0.0
0
LINE
8
0
6
CONTINUOUS
10
-0.056103
20
-0.063000
30
0.0
11
-0.051863
21
-0.063000
31
0.0
0
LINE
8
0
6
CONTINUOUS
10
-0.051863
20
-0.061000
30
0.0
11
-0.056103
21
-0.061000
31
0.0
0
LINE
8
0
6
CONTINUOUS
10
-0.051863
20
-0.063000
30
0.0
11
-0.048663
21
-0.063000
31
0.0
0
LINE
8
0
6
CONTINUOUS
10
-0.048663
20
-0.061000
30
0.0
11
-0.051863
21
-0.061000
31
0.0
0
LINE
8
0
6
CONTINUOUS
10
-0.048663
20
-0.063000
30
0.0
11
-0.046743
21
-0.063000
31
0.0
0
LINE
8
0
6
CONTINUOUS
10
-0.046743
20
-0.061000
30
0.0
11
-0.048663
21
-0.061000
31
0.0
0
LINE
8
0
6
CONTINUOUS
10
-0.046743
20
-0.063000
30
0.0
11
-0.046023
21
-0.063000
31
0.0
0
LINE
8
0
6
CONTINUOUS
10
-0.046023
20
-0.061000
30
0.0
11
-0.046743
21
-0.061000
31
0.0
0
LINE
8
0
6
CONTINUOUS
10
-0.046023
20
-0.063000
30
0.0
11
-0.046023
21
-0.061000
31
0.0
0
LINE
8
0
6
CONTINUOUS
10
-0.060903
20
-0.063000
30
0.0
11
-0.066023
21
-0.063000
31
0.0
0
LINE
8
0
6
CONTINUOUS
10
-0.056103
20
-0.063000
30
0.0
11
-0.060903
21
-0.063000
31
0.0
0
LINE
8
0
6
CONTINUOUS
10
-0.051863
20
-0.063000
30
0.0
11
-0.056103
21
-0.063000
31
0.0
0
LINE
8
0
6
CONTINUOUS
10
-0.048663
20
-0.063000
30
0.0
11
-0.051863
21
-0.063000
31
0.0
0
LINE
8
0
6
CONTINUOUS
10
-0.046743
20
-0.063000
30
0.0
11
-0.048663
21
-0.063000
31
0.0
0
LINE
8
0
6
CONTINUOUS
10
-0.046023
20
-0.063000
30
0.0
11
-0.046743
21
-0.063000
31
0.0
0
LINE
8
0
6
CONTINUOUS
10
-0.066023
20
-0.063000
30
0.0
11
-0.071143
21
-0.063000
31
0.0
0
LINE
8
0
6
CONTINUOUS
10
-0.071143
20
-0.063000
30
0.0
11
-0.075943
21
-0.063000
31
0.0
0
LINE
8
0
6
CONTINUOUS
10
-0.075943
20
-0.063000
30
0.0
11
-0.080183
21
-0.063000
31
0.0
0
LINE
8
0
6
CONTINUOUS
10
-0.080183
20
-0.063000
30
0.0
11
-0.083383
21
-0.063000
31
0.0
0
LINE
8
0
6
CONTINUOUS
10
-0.083383
20
-0.063000
30
0.0
11
-0.085303
21
-0.063000
31
0.0
0
LINE
8
0
6
CONTINUOUS
10
-0.085303
20
-0.063000
30
0.0
11
-0.086023
21
-0.063000
31
0.0
0
LINE
8
0
6
CONTINUOUS
10
-0.071143
20
-0.063000
30
0.0
11
-0.066023
21
-0.063000
31
0.0
0
LINE
8
0
6
CONTINUOUS
10
-0.066023
20
-0.061000
30
0.0
11
-0.071143
21
-0.061000
31
0.0
0
LINE
8
0
6
CONTINUOUS
10
-0.075943
20
-0.063000
30
0.0
11
-0.071143
21
-0.063000
31
0.0
0
LINE
8
0
6
CONTINUOUS
10
-0.071143
20
-0.061000
30
0.0
11
-0.075943
21
-0.061000
31
0.0
0
LINE
8
0
6
CONTINUOUS
10
-0.080183
20
-0.063000
30
0.0
11
-0.075943
21
-0.063000
31
0.0
0
LINE
8
0
6
CONTINUOUS
10
-0.075943
20
-0.061000
30
0.0
11
-0.080183
21
-0.061000
31
0.0
0
LINE
8
0
6
CONTINUOUS
10
-0.083383
20
-0.063000
30
0.0
11
-0.080183
21
-0.063000
31
0.0
0
LINE
8
0
6
CONTINUOUS
10
-0.080183
20
-0.061000
30
0.0
11
-0.083383
21
-0.061000
31
0.0
0
LINE
8
0
6
CONTINUOUS
10
-0.085303
20
-0.063000
30
0.0
11
-0.083383
21
-0.063000
31
0.0
0
LINE
8
0
6
CONTINUOUS
10
-0.083383
20
-0.061000
30
0.0
11
-0.085303
21
-0.061000
31
0.0
0
LINE
8
0
6
CONTINUOUS
10
-0.086023
20
-0.063000
30
0.0
11
-0.085303
21
-0.063000
31
0.0
0
LINE
8
0
6
CONTINUOUS
10
-0.086023
20
-0.061000
30
0.0
11
-0.086023
21
-0.063000
31
0.0
0
LINE
8
0
6
CONTINUOUS
10
-0.085303
20
-0.061000
30
0.0
11
-0.086023
21
-0.061000
31
0.0
0
LINE
8
0
6
CONTINUOUS
10
-0.070375
20
0.016388
30
0.0
11
-0.066023
21
0.017000
31
0.0
0
LINE
8
0
6
CONTINUOUS
10
-0.074455
20
0.014756
30
0.0
11
-0.070375
21
0.016388
31
0.0
0
LINE
8
0
6
CONTINUOUS
10
-0.078059
20
0.012036
30
0.0
11
-0.074455
21
0.014756
31
0.0
0
LINE
8
0
6
CONTINUOUS
10
-0.080779
20
0.008432
30
0.0
11
-0.078059
21
0.012036
31
0.0
0
LINE
8
0
6
CONTINUOUS
10
-0.082411
20
0.004352
30
0.0
11
-0.080779
21
0.008432
31
0.0
0
LINE
8
0
6
CONTINUOUS
10
-0.083023
20
0.000000
30
0.0
11
-0.082411
21
0.004352
31
0.0
0
LINE
8
0
6
CONTINUOUS
10
-0.066023
20
0.020000
30
0.0
11
-0.071143
21
0.019280
31
0.0
0
LINE
8
0
6
CONTINUOUS
10
-0.071143
20
0.019280
30
0.0
11
-0.075943
21
0.017360
31
0.0
0
LINE
8
0
6
CONTINUOUS
10
-0.075943
20
0.017360
30
0.0
11
-0.080183
21
0.014160
31
0.0
0
LINE
8
0
6
CONTINUOUS
10
-0.080183
20
0.014160
30
0.0
11
-0.083383
21
0.009920
31
0.0
0
LINE
8
0
6
CONTINUOUS
10
-0.083383
20
0.009920
30
0.0
11
-0.085303
21
0.005120
31
0.0
0
LINE
8
0
6
CONTINUOUS
10
-0.085303
20
0.005120
30
0.0
11
-0.086023
21
0.000000
31
0.0
0
LINE
8
0
6
CONTINUOUS
10
-0.066023
20
0.017000
30
0.0
11
-0.070375
21
0.016388
31
0.0
0
LINE
8
0
6
CONTINUOUS
10
-0.071143
20
0.019280
30
0.0
11
-0.066023
21
0.020000
31
0.0
0
LINE
8
0
6
CONTINUOUS
10
-0.070375
20
0.016388
30
0.0
11
-0.074455
21
0.014756
31
0.0
0
LINE
8
0
6
CONTINUOUS
10
-0.075943
20
0.017360
30
0.0
11
-0.071143
21
0.019280
31
0.0
0
LINE
8
0
6
CONTINUOUS
10
-0.074455
20
0.014756
30
0.0
11
-0.078059
21
0.012036
31
0.0
0
LINE
8
0
6
CONTINUOUS
10
-0.080183
20
0.014160
30
0.0
11
-0.075943
21
0.017360
31
0.0
0
LINE
8
0
6
CONTINUOUS
10
-0.078059
20
0.012036
30
0.0
11
-0.080779
21
0.008432
31
0.0
0
LINE
8
0
6
CONTINUOUS
10
-0.083383
20
0.009920
30
0.0
11
-0.080183
21
0.014160
31
0.0
0
LINE
8
0
6
CONTINUOUS
10
-0.080779
20
0.008432
30
0.0
11
-0.082411
21
0.004352
31
0.0
0
LINE
8
0
6
CONTINUOUS
10
-0.085303
20
0.005120
30
0.0
11
-0.083383
21
0.009920
31
0.0
0
LINE
8
0
6
CONTINUOUS
10
-0.082411
20
0.004352
30
0.0
11
-0.083023
21
0.000000
31
0.0
0
LINE
8
0
6
CONTINUOUS
10
-0.086023
20
0.000000
30
0.0
11
-0.085303
21
0.005120
31
0.0
0
LINE
8
0
6
CONTINUOUS
10
-0.061671
20
0.016388
30
0.0
11
-0.066023
21
0.017000
31
0.0
0
LINE
8
0
6
CONTINUOUS
10
-0.066023
20
0.020000
30
0.0
11
-0.060903
21
0.019280
31
0.0
0
LINE
8
0
6
CONTINUOUS
10
-0.057591
20
0.014756
30
0.0
11
-0.061671
21
0.016388
31
0.0
0
LINE
8
0
6
CONTINUOUS
10
-0.060903
20
0.019280
30
0.0
11
-0.056103
21
0.017360
31
0.0
0
LINE
8
0
6
CONTINUOUS
10
-0.053987
20
0.012036
30
0.0
11
-0.057591
21
0.014756
31
0.0
0
LINE
8
0
6
CONTINUOUS
10
-0.056103
20
0.017360
30
0.0
11
-0.051863
21
0.014160
31
0.0
0
LINE
8
0
6
CONTINUOUS
10
-0.051267
20
0.008432
30
0.0
11
-0.053987
21
0.012036
31
0.0
0
LINE
8
0
6
CONTINUOUS
10
-0.051863
20
0.014160
30
0.0
11
-0.048663
21
0.009920
31
0.0
0
LINE
8
0
6
CONTINUOUS
10
-0.049635
20
0.004352
30
0.0
11
-0.051267
21
0.008432
31
0.0
0
LINE
8
0
6
CONTINUOUS
10
-0.048663
20
0.009920
30
0.0
11
-0.046743
21
0.005120
31
0.0
0
LINE
8
0
6
CONTINUOUS
10
-0.049023
20
0.000000
30
0.0
11
-0.049635
21
0.004352
31
0.0
0
LINE
8
0
6
CONTINUOUS
10
-0.046743
20
0.005120
30
0.0
11
-0.046023
21
0.000000
31
0.0
0
LINE
8
0
6
CONTINUOUS
10
-0.066023
20
0.017000
30
0.0
11
-0.061671
21
0.016388
31
0.0
0
LINE
8
0
6
CONTINUOUS
10
-0.061671
20
0.016388
30
0.0
11
-0.057591
21
0.014756
31
0.0
0
LINE
8
0
6
CONTINUOUS
10
-0.057591
20
0.014756
30
0.0
11
-0.053987
21
0.012036
31
0.0
0
LINE
8
0
6
CONTINUOUS
10
-0.053987
20
0.012036
30
0.0
11
-0.051267
21
0.008432
31
0.0
0
LINE
8
0
6
CONTINUOUS
10
-0.051267
20
0.008432
30
0.0
11
-0.049635
21
0.004352
31
0.0
0
LINE
8
0
6
CONTINUOUS
10
-0.049635
20
0.004352
30
0.0
11
-0.049023
21
0.000000
31
0.0
0
LINE
8
0
6
CONTINUOUS
10
-0.060903
20
0.019280
30
0.0
11
-0.066023
21
0.020000
31
0.0
0
LINE
8
0
6
CONTINUOUS
10
-0.056103
20
0.017360
30
0.0
11
-0.060903
21
0.019280
31
0.0
0
LINE
8
0
6
CONTINUOUS
10
-0.051863
20
0.014160
30
0.0
11
-0.056103
21
0.017360
31
0.0
0
LINE
8
0
6
CONTINUOUS
10
-0.048663
20
0.009920
30
0.0
11
-0.051863
21
0.014160
31
0.0
0
LINE
8
0
6
CONTINUOUS
10
-0.046743
20
0.005120
30
0.0
11
-0.048663
21
0.009920
31
0.0
0
LINE
8
0
6
CONTINUOUS
10
-0.046023
20
0.000000
30
0.0
11
-0.046743
21
0.005120
31
0.0
0
LINE
8
0
6
CONTINUOUS
10
-0.061671
20
-0.016388
30
0.0
11
-0.066023
21
-0.017000
31
0.0
0
LINE
8
0
6
CONTINUOUS
10
-0.057591
20
-0.014756
30
0.0
11
-0.061671
21
-0.016388
31
0.0
0
LINE
8
0
6
CONTINUOUS
10
-0.053987
20
-0.012036
30
0.0
11
-0.057591
21
-0.014756
31
0.0
0
LINE
8
0
6
CONTINUOUS
10
-0.051267
20
-0.008432
30
0.0
11
-0.053987
21
-0.012036
31
0.0
0
LINE
8
0
6
CONTINUOUS
10
-0.049635
20
-0.004352
30
0.0
11
-0.051267
21
-0.008432
31
0.0
0
LINE
8
0
6
CONTINUOUS
10
-0.049023
20
0.000000
30
0.0
11
-0.049635
21
-0.004352
31
0.0
0
LINE
8
0
6
CONTINUOUS
10
-0.066023
20
-0.020000
30
0.0
11
-0.060903
21
-0.019280
31
0.0
0
LINE
8
0
6
CONTINUOUS
10
-0.060903
20
-0.019280
30
0.0
11
-0.056103
21
-0.017360
31
0.0
0
LINE
8
0
6
CONTINUOUS
10
-0.056103
20
-0.017360
30
0.0
11
-0.051863
21
-0.014160
31
0.0
0
LINE
8
0
6
CONTINUOUS
10
-0.051863
20
-0.014160
30
0.0
11
-0.048663
21
-0.009920
31
0.0
0
LINE
8
0
6
CONTINUOUS
10
-0.048663
20
-0.009920
30
0.0
11
-0.046743
21
-0.005120
31
0.0
0
LINE
8
0
6
CONTINUOUS
10
-0.046743
20
-0.005120
30
0.0
11
-0.046023
21
0.000000
31
0.0
0
LINE
8
0
6
CONTINUOUS
10
-0.066023
20
-0.017000
30
0.0
11
-0.061671
21
-0.016388
31
0.0
0
LINE
8
0
6
CONTINUOUS
10
-0.060903
20
-0.019280
30
0.0
11
-0.066023
21
-0.020000
31
0.0
0
LINE
8
0
6
CONTINUOUS
10
-0.061671
20
-0.016388
30
0.0
11
-0.057591
21
-0.014756
31
0.0
0
LINE
8
0
6
CONTINUOUS
10
-0.056103
20
-0.017360
30
0.0
11
-0.060903
21
-0.019280
31
0.0
0
LINE
8
0
6
CONTINUOUS
10
-0.057591
20
-0.014756
30
0.0
11
-0.053987
21
-0.012036
31
0.0
0
LINE
8
0
6
CONTINUOUS
10
-0.051863
20
-0.014160
30
0.0
11
-0.056103
21
-0.017360
31
0.0
0
LINE
8
0
6
CONTINUOUS
10
-0.053987
20
-0.012036
30
0.0
11
-0.051267
21
-0.008432
31
0.0
0
LINE
8
0
6
CONTINUOUS
10
-0.048663
20
-0.009920
30
0.0
11
-0.051863
21
-0.014160
31
0.0
0
LINE
8
0
6
CONTINUOUS
10
-0.051267
20
-0.008432
30
0.0
11
-0.049635
21
-0.004352
31
0.0
0
LINE
8
0
6
CONTINUOUS
10
-0.046743
20
-0.005120
30
0.0
11
-0.048663
21
-0.009920
31
0.0
0
LINE
8
0
6
CONTINUOUS
10
-0.049635
20
-0.004352
30
0.0
11
-0.049023
21
0.000000
31
0.0
0
LINE
8
0
6
CONTINUOUS
10
-0.046023
20
0.000000
30
0.0
11
-0.046743
21
-0.005120
31
0.0
0
LINE
8
0
6
CONTINUOUS
10
-0.070375
20
-0.016388
30
0.0
11
-0.066023
21
-0.017000
31
0.0
0
LINE
8
0
6
CONTINUOUS
10
-0.066023
20
-0.020000
30
0.0
11
-0.071143
21
-0.019280
31
0.0
0
LINE
8
0
6
CONTINUOUS
10
-0.074455
20
-0.014756
30
0.0
11
-0.070375
21
-0.016388
31
0.0
0
LINE
8
0
6
CONTINUOUS
10
-0.071143
20
-0.019280
30
0.0
11
-0.075943
21
-0.017360
31
0.0
0
LINE
8
0
6
CONTINUOUS
10
-0.078059
20
-0.012036
30
0.0
11
-0.074455
21
-0.014756
31
0.0
0
LINE
8
0
6
CONTINUOUS
10
-0.075943
20
-0.017360
30
0.0
11
-0.080183
21
-0.014160
31
0.0
0
LINE
8
0
6
CONTINUOUS
10
-0.080779
20
-0.008432
30
0.0
11
-0.078059
21
-0.012036
31
0.0
0
LINE
8
0
6
CONTINUOUS
10
-0.080183
20
-0.014160
30
0.0
11
-0.083383
21
-0.009920
31
0.0
0
LINE
8
0
6
CONTINUOUS
10
-0.082411
20
-0.004352
30
0.0
11
-0.080779
21
-0.008432
31
0.0
0
LINE
8
0
6
CONTINUOUS
10
-0.083383
20
-0.009920
30
0.0
11
-0.085303
21
-0.005120
31
0.0
0
LINE
8
0
6
CONTINUOUS
10
-0.083023
20
0.000000
30
0.0
11
-0.082411
21
-0.004352
31
0.0
0
LINE
8
0
6
CONTINUOUS
10
-0.085303
20
-0.005120
30
0.0
11
-0.086023
21
0.000000
31
0.0
0
LINE
8
0
6
CONTINUOUS
10
-0.066023
20
-0.017000
30
0.0
11
-0.070375
21
-0.016388
31
0.0
0
LINE
8
0
6
CONTINUOUS
10
-0.070375
20
-0.016388
30
0.0
11
-0.074455
21
-0.014756
31
0.0
0
LINE
8
0
6
CONTINUOUS
10
-0.074455
20
-0.014756
30
0.0
11
-0.078059
21
-0.012036
31
0.0
0
LINE
8
0
6
CONTINUOUS
10
-0.078059
20
-0.012036
30
0.0
11
-0.080779
21
-0.008432
31
0.0
0
LINE
8
0
6
CONTINUOUS
10
-0.080779
20
-0.008432
30
0.0
11
-0.082411
21
-0.004352
31
0.0
0
LINE
8
0
6
CONTINUOUS
10
-0.082411
20
-0.004352
30
0.0
11
-0.083023
21
0.000000
31
0.0
0
LINE
8
0
6
CONTINUOUS
10
-0.071143
20
-0.019280
30
0.0
11
-0.066023
21
-0.020000
31
0.0
0
LINE
8
0
6
CONTINUOUS
10
-0.075943
20
-0.017360
30
0.0
11
-0.071143
21
-0.019280
31
0.0
0
LINE
8
0
6
CONTINUOUS
10
-0.080183
20
-0.014160
30
0.0
11
-0.075943
21
-0.017360
31
0.0
0
LINE
8
0
6
CONTINUOUS
10
-0.083383
20
-0.009920
30
0.0
11
-0.080183
21
-0.014160
31
0.0
0
LINE
8
0
6
CONTINUOUS
10
-0.085303
20
-0.005120
30
0.0
11
-0.083383
21
-0.009920
31
0.0
0
LINE
8
0
6
CONTINUOUS
10
-0.086023
20
0.000000
30
0.0
11
-0.085303
21
-0.005120
31
0.0
0
LINE
8
0
6
CONTINUOUS
10
0.065650
20
0.023908
30
0.0
11
0.066099
21
0.024031
31
0.0
0
LINE
8
0
6
CONTINUOUS
10
0.066099
20
0.024031
30
0.0
11
0.066251
21
0.024160
31
0.0
0
ENDSEC
0
EOF
