999
unknown String-ID: 20550
0
SECTION
2
HEADER
9
$ACADVER
1
AC1009
9
$DWGCODEPAGE
3
unknown String-ID: 20561
0
ENDSEC
0
SECTION
2
TABLES
0
TABLE
2
LAYER
70
1
0
LAYER
2
0
70
0
62
7
6
CONTINUOUS
0
ENDTAB
0
ENDSEC
0
SECTION
2
ENTITIES
0
LINE
8
0
6
CONTINUOUS
10
0.000000
20
-0.044000
30
0.0
11
-0.033700
21
-0.044000
31
0.0
0
LINE
8
0
6
CONTINUOUS
10
-0.070000
20
-0.044000
30
0.0
11
-0.075740
21
-0.044000
31
0.0
0
LINE
8
0
6
CONTINUOUS
10
-0.085000
20
-0.044000
30
0.0
11
-0.085000
21
-0.044253
31
0.0
0
LINE
8
0
6
CONTINUOUS
10
-0.083858
20
-0.044000
30
0.0
11
-0.085000
21
-0.044000
31
0.0
0
LINE
8
0
6
CONTINUOUS
10
-0.075740
20
-0.044000
30
0.0
11
-0.080607
21
-0.044000
31
0.0
0
LINE
8
0
6
CONTINUOUS
10
-0.080607
20
-0.044000
30
0.0
11
-0.083858
21
-0.044000
31
0.0
0
LINE
8
0
6
CONTINUOUS
10
0.075740
20
-0.044000
30
0.0
11
0.070000
21
-0.044000
31
0.0
0
LINE
8
0
6
CONTINUOUS
10
0.033700
20
-0.044000
30
0.0
11
0.000000
21
-0.044000
31
0.0
0
LINE
8
0
6
CONTINUOUS
10
0.083858
20
-0.044000
30
0.0
11
0.080607
21
-0.044000
31
0.0
0
LINE
8
0
6
CONTINUOUS
10
0.085000
20
-0.044000
30
0.0
11
0.083858
21
-0.044000
31
0.0
0
LINE
8
0
6
CONTINUOUS
10
0.085000
20
-0.044253
30
0.0
11
0.085000
21
-0.044000
31
0.0
0
LINE
8
0
6
CONTINUOUS
10
0.080607
20
-0.044000
30
0.0
11
0.075740
21
-0.044000
31
0.0
0
LINE
8
0
6
CONTINUOUS
10
0.070000
20
-0.044000
30
0.0
11
0.033700
21
-0.044000
31
0.0
0
LINE
8
0
6
CONTINUOUS
10
-0.033700
20
-0.064000
30
0.0
11
0.000000
21
-0.064000
31
0.0
0
LINE
8
0
6
CONTINUOUS
10
-0.075272
20
-0.064000
30
0.0
11
-0.069558
21
-0.064000
31
0.0
0
LINE
8
0
6
CONTINUOUS
10
-0.080115
20
-0.064000
30
0.0
11
-0.075272
21
-0.064000
31
0.0
0
LINE
8
0
6
CONTINUOUS
10
-0.083351
20
-0.064000
30
0.0
11
-0.080115
21
-0.064000
31
0.0
0
LINE
8
0
6
CONTINUOUS
10
-0.085000
20
-0.063000
30
0.0
11
-0.084851
21
-0.063707
31
0.0
0
LINE
8
0
6
CONTINUOUS
10
-0.084490
20
-0.064000
30
0.0
11
-0.083351
21
-0.064000
31
0.0
0
LINE
8
0
6
CONTINUOUS
10
-0.084851
20
-0.063707
30
0.0
11
-0.084490
21
-0.064000
31
0.0
0
LINE
8
0
6
CONTINUOUS
10
-0.069558
20
-0.064000
30
0.0
11
-0.033700
21
-0.064000
31
0.0
0
LINE
8
0
6
CONTINUOUS
10
0.000000
20
-0.064000
30
0.0
11
0.033700
21
-0.064000
31
0.0
0
LINE
8
0
6
CONTINUOUS
10
0.069558
20
-0.064000
30
0.0
11
0.075272
21
-0.064000
31
0.0
0
LINE
8
0
6
CONTINUOUS
10
0.075272
20
-0.064000
30
0.0
11
0.080115
21
-0.064000
31
0.0
0
LINE
8
0
6
CONTINUOUS
10
0.080115
20
-0.064000
30
0.0
11
0.083351
21
-0.064000
31
0.0
0
LINE
8
0
6
CONTINUOUS
10
0.084490
20
-0.064000
30
0.0
11
0.084851
21
-0.063707
31
0.0
0
LINE
8
0
6
CONTINUOUS
10
0.083351
20
-0.064000
30
0.0
11
0.084490
21
-0.064000
31
0.0
0
LINE
8
0
6
CONTINUOUS
10
0.084851
20
-0.063707
30
0.0
11
0.085000
21
-0.063000
31
0.0
0
LINE
8
0
6
CONTINUOUS
10
0.033700
20
-0.064000
30
0.0
11
0.069558
21
-0.064000
31
0.0
0
LINE
8
0
6
CONTINUOUS
10
-0.033700
20
-0.044000
30
0.0
11
-0.070000
21
-0.044000
31
0.0
0
LINE
8
0
6
CONTINUOUS
10
-0.085000
20
-0.062620
30
0.0
11
-0.085000
21
-0.063000
31
0.0
0
LINE
8
0
6
CONTINUOUS
10
0.085000
20
-0.063000
30
0.0
11
0.085000
21
-0.062620
31
0.0
0
LINE
8
0
6
CONTINUOUS
10
-0.085000
20
-0.044253
30
0.0
11
-0.085000
21
-0.062620
31
0.0
0
LINE
8
0
6
CONTINUOUS
10
0.085000
20
-0.062620
30
0.0
11
0.085000
21
-0.044253
31
0.0
0
LINE
8
0
6
CONTINUOUS
10
0.075500
20
-0.009000
30
0.0
11
0.075500
21
-0.005000
31
0.0
0
LINE
8
0
6
CONTINUOUS
10
0.075500
20
-0.005000
30
0.0
11
0.075500
21
-0.009000
31
0.0
0
LINE
8
0
6
CONTINUOUS
10
0.025500
20
-0.009000
30
0.0
11
0.023850
21
-0.009000
31
0.0
0
LINE
8
0
6
CONTINUOUS
10
0.023850
20
-0.009000
30
0.0
11
-0.023850
21
-0.009000
31
0.0
0
LINE
8
0
6
CONTINUOUS
10
-0.023850
20
-0.009000
30
0.0
11
-0.025500
21
-0.009000
31
0.0
0
LINE
8
0
6
CONTINUOUS
10
0.025500
20
-0.009000
30
0.0
11
0.025500
21
-0.005000
31
0.0
0
LINE
8
0
6
CONTINUOUS
10
0.025500
20
-0.005000
30
0.0
11
-0.025500
21
-0.005000
31
0.0
0
LINE
8
0
6
CONTINUOUS
10
-0.025500
20
-0.005000
30
0.0
11
-0.025500
21
-0.009000
31
0.0
0
LINE
8
0
6
CONTINUOUS
10
0.025500
20
-0.009000
30
0.0
11
0.025500
21
-0.005000
31
0.0
0
LINE
8
0
6
CONTINUOUS
10
-0.025500
20
-0.009000
30
0.0
11
0.025500
21
-0.009000
31
0.0
0
LINE
8
0
6
CONTINUOUS
10
-0.025500
20
-0.005000
30
0.0
11
-0.025500
21
-0.009000
31
0.0
0
LINE
8
0
6
CONTINUOUS
10
0.025500
20
-0.005000
30
0.0
11
0.023850
21
-0.005000
31
0.0
0
LINE
8
0
6
CONTINUOUS
10
0.023850
20
-0.005000
30
0.0
11
-0.023850
21
-0.005000
31
0.0
0
LINE
8
0
6
CONTINUOUS
10
-0.023850
20
-0.005000
30
0.0
11
-0.025500
21
-0.005000
31
0.0
0
LINE
8
0
6
CONTINUOUS
10
-0.025500
20
-0.009000
30
0.0
11
-0.074375
21
-0.009000
31
0.0
0
LINE
8
0
6
CONTINUOUS
10
-0.074375
20
-0.009000
30
0.0
11
-0.075500
21
-0.009000
31
0.0
0
LINE
8
0
6
CONTINUOUS
10
-0.025500
20
-0.005000
30
0.0
11
-0.025500
21
-0.009000
31
0.0
0
LINE
8
0
6
CONTINUOUS
10
-0.025500
20
-0.005000
30
0.0
11
-0.075500
21
-0.005000
31
0.0
0
LINE
8
0
6
CONTINUOUS
10
-0.075500
20
-0.005000
30
0.0
11
-0.075500
21
-0.009000
31
0.0
0
LINE
8
0
6
CONTINUOUS
10
-0.025500
20
-0.009000
30
0.0
11
-0.025500
21
-0.005000
31
0.0
0
LINE
8
0
6
CONTINUOUS
10
-0.075500
20
-0.009000
30
0.0
11
-0.025500
21
-0.009000
31
0.0
0
LINE
8
0
6
CONTINUOUS
10
-0.075500
20
-0.005000
30
0.0
11
-0.075500
21
-0.009000
31
0.0
0
LINE
8
0
6
CONTINUOUS
10
-0.025500
20
-0.005000
30
0.0
11
-0.026625
21
-0.005000
31
0.0
0
LINE
8
0
6
CONTINUOUS
10
-0.026725
20
-0.005000
30
0.0
11
-0.074275
21
-0.005000
31
0.0
0
LINE
8
0
6
CONTINUOUS
10
-0.074375
20
-0.005000
30
0.0
11
-0.075500
21
-0.005000
31
0.0
0
LINE
8
0
6
CONTINUOUS
10
0.075500
20
-0.009000
30
0.0
11
0.025500
21
-0.009000
31
0.0
0
LINE
8
0
6
CONTINUOUS
10
0.025500
20
-0.009000
30
0.0
11
0.025500
21
-0.005000
31
0.0
0
LINE
8
0
6
CONTINUOUS
10
0.025500
20
-0.005000
30
0.0
11
0.075500
21
-0.005000
31
0.0
0
LINE
8
0
6
CONTINUOUS
10
0.075500
20
-0.009000
30
0.0
11
0.075500
21
-0.005000
31
0.0
0
LINE
8
0
6
CONTINUOUS
10
0.025500
20
-0.005000
30
0.0
11
0.025500
21
-0.009000
31
0.0
0
LINE
8
0
6
CONTINUOUS
10
0.075500
20
-0.005000
30
0.0
11
0.025500
21
-0.005000
31
0.0
0
LINE
8
0
6
CONTINUOUS
10
0.075500
20
-0.009000
30
0.0
11
0.075500
21
-0.005000
31
0.0
0
LINE
8
0
6
CONTINUOUS
10
0.025500
20
-0.009000
30
0.0
11
0.026625
21
-0.009000
31
0.0
0
LINE
8
0
6
CONTINUOUS
10
0.026725
20
-0.009000
30
0.0
11
0.074275
21
-0.009000
31
0.0
0
LINE
8
0
6
CONTINUOUS
10
0.074375
20
-0.009000
30
0.0
11
0.075500
21
-0.009000
31
0.0
0
LINE
8
0
6
CONTINUOUS
10
-0.075500
20
-0.005000
30
0.0
11
-0.075500
21
-0.009000
31
0.0
0
LINE
8
0
6
CONTINUOUS
10
-0.075500
20
-0.009000
30
0.0
11
-0.075500
21
-0.005000
31
0.0
0
LINE
8
0
6
CONTINUOUS
10
-0.023308
20
0.064000
30
0.0
11
-0.015732
21
0.064000
31
0.0
0
LINE
8
0
6
CONTINUOUS
10
-0.015732
20
0.064000
30
0.0
11
-0.007962
21
0.064000
31
0.0
0
LINE
8
0
6
CONTINUOUS
10
-0.007962
20
0.064000
30
0.0
11
0.000000
21
0.064000
31
0.0
0
LINE
8
0
6
CONTINUOUS
10
0.000000
20
0.064000
30
0.0
11
0.007962
21
0.064000
31
0.0
0
LINE
8
0
6
CONTINUOUS
10
0.007962
20
0.064000
30
0.0
11
0.015732
21
0.064000
31
0.0
0
LINE
8
0
6
CONTINUOUS
10
0.015732
20
0.064000
30
0.0
11
0.023308
21
0.064000
31
0.0
0
LINE
8
0
6
CONTINUOUS
10
-0.061000
20
0.064000
30
0.0
11
-0.060358
21
0.064000
31
0.0
0
LINE
8
0
6
CONTINUOUS
10
-0.060358
20
0.064000
30
0.0
11
-0.059593
21
0.064000
31
0.0
0
LINE
8
0
6
CONTINUOUS
10
0.060358
20
0.064000
30
0.0
11
0.061000
21
0.064000
31
0.0
0
LINE
8
0
6
CONTINUOUS
10
0.059593
20
0.064000
30
0.0
11
0.060358
21
0.064000
31
0.0
0
LINE
8
0
6
CONTINUOUS
10
0.046326
20
0.057000
30
0.0
11
0.032330
21
0.057000
31
0.0
0
LINE
8
0
6
CONTINUOUS
10
0.032254
20
0.064000
30
0.0
11
0.046328
21
0.064000
31
0.0
0
LINE
8
0
6
CONTINUOUS
10
0.031493
20
0.057000
30
0.0
11
0.046946
21
0.057000
31
0.0
0
LINE
8
0
6
CONTINUOUS
10
0.046946
20
0.064000
30
0.0
11
0.030590
21
0.064000
31
0.0
0
LINE
8
0
6
CONTINUOUS
10
0.050801
20
0.064000
30
0.0
11
0.052593
21
0.064000
31
0.0
0
LINE
8
0
6
CONTINUOUS
10
0.052593
20
0.057000
30
0.0
11
0.050801
21
0.057000
31
0.0
0
LINE
8
0
6
CONTINUOUS
10
0.050801
20
0.057000
30
0.0
11
0.049121
21
0.057000
31
0.0
0
LINE
8
0
6
CONTINUOUS
10
0.049121
20
0.064000
30
0.0
11
0.050801
21
0.064000
31
0.0
0
LINE
8
0
6
CONTINUOUS
10
0.049121
20
0.057000
30
0.0
11
0.047637
21
0.057000
31
0.0
0
LINE
8
0
6
CONTINUOUS
10
0.047637
20
0.064000
30
0.0
11
0.049121
21
0.064000
31
0.0
0
LINE
8
0
6
CONTINUOUS
10
0.047637
20
0.057000
30
0.0
11
0.046517
21
0.057000
31
0.0
0
LINE
8
0
6
CONTINUOUS
10
0.046517
20
0.064000
30
0.0
11
0.047637
21
0.064000
31
0.0
0
LINE
8
0
6
CONTINUOUS
10
0.046517
20
0.057000
30
0.0
11
0.046326
21
0.057000
31
0.0
0
LINE
8
0
6
CONTINUOUS
10
0.046328
20
0.064000
30
0.0
11
0.046517
21
0.064000
31
0.0
0
LINE
8
0
6
CONTINUOUS
10
0.050801
20
0.057000
30
0.0
11
0.052593
21
0.057000
31
0.0
0
LINE
8
0
6
CONTINUOUS
10
0.049121
20
0.057000
30
0.0
11
0.050801
21
0.057000
31
0.0
0
LINE
8
0
6
CONTINUOUS
10
0.047637
20
0.057000
30
0.0
11
0.049121
21
0.057000
31
0.0
0
LINE
8
0
6
CONTINUOUS
10
0.046517
20
0.057000
30
0.0
11
0.047637
21
0.057000
31
0.0
0
LINE
8
0
6
CONTINUOUS
10
0.046326
20
0.057000
30
0.0
11
0.046517
21
0.057000
31
0.0
0
LINE
8
0
6
CONTINUOUS
10
0.052593
20
0.064000
30
0.0
11
0.050801
21
0.064000
31
0.0
0
LINE
8
0
6
CONTINUOUS
10
0.050801
20
0.064000
30
0.0
11
0.049121
21
0.064000
31
0.0
0
LINE
8
0
6
CONTINUOUS
10
0.049121
20
0.064000
30
0.0
11
0.047637
21
0.064000
31
0.0
0
LINE
8
0
6
CONTINUOUS
10
0.047637
20
0.064000
30
0.0
11
0.046517
21
0.064000
31
0.0
0
LINE
8
0
6
CONTINUOUS
10
0.054385
20
0.064000
30
0.0
11
0.052593
21
0.064000
31
0.0
0
LINE
8
0
6
CONTINUOUS
10
0.056065
20
0.064000
30
0.0
11
0.054385
21
0.064000
31
0.0
0
LINE
8
0
6
CONTINUOUS
10
0.057549
20
0.064000
30
0.0
11
0.056065
21
0.064000
31
0.0
0
LINE
8
0
6
CONTINUOUS
10
0.058669
20
0.064000
30
0.0
11
0.057549
21
0.064000
31
0.0
0
LINE
8
0
6
CONTINUOUS
10
0.059341
20
0.064000
30
0.0
11
0.058669
21
0.064000
31
0.0
0
LINE
8
0
6
CONTINUOUS
10
0.059593
20
0.064000
30
0.0
11
0.059341
21
0.064000
31
0.0
0
LINE
8
0
6
CONTINUOUS
10
0.052593
20
0.057000
30
0.0
11
0.054385
21
0.057000
31
0.0
0
LINE
8
0
6
CONTINUOUS
10
0.054385
20
0.057000
30
0.0
11
0.056065
21
0.057000
31
0.0
0
LINE
8
0
6
CONTINUOUS
10
0.056065
20
0.057000
30
0.0
11
0.057549
21
0.057000
31
0.0
0
LINE
8
0
6
CONTINUOUS
10
0.057549
20
0.057000
30
0.0
11
0.058669
21
0.057000
31
0.0
0
LINE
8
0
6
CONTINUOUS
10
0.058669
20
0.057000
30
0.0
11
0.059341
21
0.057000
31
0.0
0
LINE
8
0
6
CONTINUOUS
10
0.059341
20
0.057000
30
0.0
11
0.059593
21
0.057000
31
0.0
0
LINE
8
0
6
CONTINUOUS
10
0.054385
20
0.057000
30
0.0
11
0.052593
21
0.057000
31
0.0
0
LINE
8
0
6
CONTINUOUS
10
0.052593
20
0.064000
30
0.0
11
0.054385
21
0.064000
31
0.0
0
LINE
8
0
6
CONTINUOUS
10
0.056065
20
0.057000
30
0.0
11
0.054385
21
0.057000
31
0.0
0
LINE
8
0
6
CONTINUOUS
10
0.054385
20
0.064000
30
0.0
11
0.056065
21
0.064000
31
0.0
0
LINE
8
0
6
CONTINUOUS
10
0.057549
20
0.057000
30
0.0
11
0.056065
21
0.057000
31
0.0
0
LINE
8
0
6
CONTINUOUS
10
0.056065
20
0.064000
30
0.0
11
0.057549
21
0.064000
31
0.0
0
LINE
8
0
6
CONTINUOUS
10
0.058669
20
0.057000
30
0.0
11
0.057549
21
0.057000
31
0.0
0
LINE
8
0
6
CONTINUOUS
10
0.057549
20
0.064000
30
0.0
11
0.058669
21
0.064000
31
0.0
0
LINE
8
0
6
CONTINUOUS
10
0.059341
20
0.057000
30
0.0
11
0.058669
21
0.057000
31
0.0
0
LINE
8
0
6
CONTINUOUS
10
0.058669
20
0.064000
30
0.0
11
0.059341
21
0.064000
31
0.0
0
LINE
8
0
6
CONTINUOUS
10
0.059593
20
0.057000
30
0.0
11
0.059341
21
0.057000
31
0.0
0
LINE
8
0
6
CONTINUOUS
10
0.059593
20
0.064000
30
0.0
11
0.059593
21
0.057000
31
0.0
0
LINE
8
0
6
CONTINUOUS
10
0.059341
20
0.064000
30
0.0
11
0.059593
21
0.064000
31
0.0
0
LINE
8
0
6
CONTINUOUS
10
-0.050801
20
0.064000
30
0.0
11
-0.052593
21
0.064000
31
0.0
0
LINE
8
0
6
CONTINUOUS
10
-0.052593
20
0.057000
30
0.0
11
-0.050801
21
0.057000
31
0.0
0
LINE
8
0
6
CONTINUOUS
10
-0.050801
20
0.057000
30
0.0
11
-0.049121
21
0.057000
31
0.0
0
LINE
8
0
6
CONTINUOUS
10
-0.049121
20
0.064000
30
0.0
11
-0.050801
21
0.064000
31
0.0
0
LINE
8
0
6
CONTINUOUS
10
-0.049121
20
0.057000
30
0.0
11
-0.047637
21
0.057000
31
0.0
0
LINE
8
0
6
CONTINUOUS
10
-0.047637
20
0.064000
30
0.0
11
-0.049121
21
0.064000
31
0.0
0
LINE
8
0
6
CONTINUOUS
10
-0.047637
20
0.057000
30
0.0
11
-0.046517
21
0.057000
31
0.0
0
LINE
8
0
6
CONTINUOUS
10
-0.046517
20
0.064000
30
0.0
11
-0.047637
21
0.064000
31
0.0
0
LINE
8
0
6
CONTINUOUS
10
-0.046517
20
0.057000
30
0.0
11
-0.046327
21
0.057000
31
0.0
0
LINE
8
0
6
CONTINUOUS
10
-0.046328
20
0.064000
30
0.0
11
-0.046517
21
0.064000
31
0.0
0
LINE
8
0
6
CONTINUOUS
10
-0.050801
20
0.057000
30
0.0
11
-0.052593
21
0.057000
31
0.0
0
LINE
8
0
6
CONTINUOUS
10
-0.049121
20
0.057000
30
0.0
11
-0.050801
21
0.057000
31
0.0
0
LINE
8
0
6
CONTINUOUS
10
-0.047637
20
0.057000
30
0.0
11
-0.049121
21
0.057000
31
0.0
0
LINE
8
0
6
CONTINUOUS
10
-0.046517
20
0.057000
30
0.0
11
-0.047637
21
0.057000
31
0.0
0
LINE
8
0
6
CONTINUOUS
10
-0.046327
20
0.057000
30
0.0
11
-0.046517
21
0.057000
31
0.0
0
LINE
8
0
6
CONTINUOUS
10
-0.052593
20
0.064000
30
0.0
11
-0.050801
21
0.064000
31
0.0
0
LINE
8
0
6
CONTINUOUS
10
-0.050801
20
0.064000
30
0.0
11
-0.049121
21
0.064000
31
0.0
0
LINE
8
0
6
CONTINUOUS
10
-0.049121
20
0.064000
30
0.0
11
-0.047637
21
0.064000
31
0.0
0
LINE
8
0
6
CONTINUOUS
10
-0.047637
20
0.064000
30
0.0
11
-0.046517
21
0.064000
31
0.0
0
LINE
8
0
6
CONTINUOUS
10
-0.054385
20
0.064000
30
0.0
11
-0.052593
21
0.064000
31
0.0
0
LINE
8
0
6
CONTINUOUS
10
-0.056065
20
0.064000
30
0.0
11
-0.054385
21
0.064000
31
0.0
0
LINE
8
0
6
CONTINUOUS
10
-0.057549
20
0.064000
30
0.0
11
-0.056065
21
0.064000
31
0.0
0
LINE
8
0
6
CONTINUOUS
10
-0.058669
20
0.064000
30
0.0
11
-0.057549
21
0.064000
31
0.0
0
LINE
8
0
6
CONTINUOUS
10
-0.059341
20
0.064000
30
0.0
11
-0.058669
21
0.064000
31
0.0
0
LINE
8
0
6
CONTINUOUS
10
-0.059593
20
0.064000
30
0.0
11
-0.059341
21
0.064000
31
0.0
0
LINE
8
0
6
CONTINUOUS
10
-0.052593
20
0.057000
30
0.0
11
-0.054385
21
0.057000
31
0.0
0
LINE
8
0
6
CONTINUOUS
10
-0.054385
20
0.057000
30
0.0
11
-0.056065
21
0.057000
31
0.0
0
LINE
8
0
6
CONTINUOUS
10
-0.056065
20
0.057000
30
0.0
11
-0.057549
21
0.057000
31
0.0
0
LINE
8
0
6
CONTINUOUS
10
-0.057549
20
0.057000
30
0.0
11
-0.058669
21
0.057000
31
0.0
0
LINE
8
0
6
CONTINUOUS
10
-0.058669
20
0.057000
30
0.0
11
-0.059341
21
0.057000
31
0.0
0
LINE
8
0
6
CONTINUOUS
10
-0.059341
20
0.057000
30
0.0
11
-0.059593
21
0.057000
31
0.0
0
LINE
8
0
6
CONTINUOUS
10
-0.054385
20
0.057000
30
0.0
11
-0.052593
21
0.057000
31
0.0
0
LINE
8
0
6
CONTINUOUS
10
-0.052593
20
0.064000
30
0.0
11
-0.054385
21
0.064000
31
0.0
0
LINE
8
0
6
CONTINUOUS
10
-0.056065
20
0.057000
30
0.0
11
-0.054385
21
0.057000
31
0.0
0
LINE
8
0
6
CONTINUOUS
10
-0.054385
20
0.064000
30
0.0
11
-0.056065
21
0.064000
31
0.0
0
LINE
8
0
6
CONTINUOUS
10
-0.057549
20
0.057000
30
0.0
11
-0.056065
21
0.057000
31
0.0
0
LINE
8
0
6
CONTINUOUS
10
-0.056065
20
0.064000
30
0.0
11
-0.057549
21
0.064000
31
0.0
0
LINE
8
0
6
CONTINUOUS
10
-0.058669
20
0.057000
30
0.0
11
-0.057549
21
0.057000
31
0.0
0
LINE
8
0
6
CONTINUOUS
10
-0.057549
20
0.064000
30
0.0
11
-0.058669
21
0.064000
31
0.0
0
LINE
8
0
6
CONTINUOUS
10
-0.059341
20
0.057000
30
0.0
11
-0.058669
21
0.057000
31
0.0
0
LINE
8
0
6
CONTINUOUS
10
-0.058669
20
0.064000
30
0.0
11
-0.059341
21
0.064000
31
0.0
0
LINE
8
0
6
CONTINUOUS
10
-0.059593
20
0.057000
30
0.0
11
-0.059341
21
0.057000
31
0.0
0
LINE
8
0
6
CONTINUOUS
10
-0.059593
20
0.064000
30
0.0
11
-0.059593
21
0.057000
31
0.0
0
LINE
8
0
6
CONTINUOUS
10
-0.059341
20
0.064000
30
0.0
11
-0.059593
21
0.064000
31
0.0
0
LINE
8
0
6
CONTINUOUS
10
-0.046327
20
0.057000
30
0.0
11
-0.032330
21
0.057000
31
0.0
0
LINE
8
0
6
CONTINUOUS
10
-0.032254
20
0.064000
30
0.0
11
-0.046328
21
0.064000
31
0.0
0
LINE
8
0
6
CONTINUOUS
10
-0.031493
20
0.057000
30
0.0
11
-0.046947
21
0.057000
31
0.0
0
LINE
8
0
6
CONTINUOUS
10
-0.046947
20
0.064000
30
0.0
11
-0.030590
21
0.064000
31
0.0
0
LINE
8
0
6
CONTINUOUS
10
0.057604
20
0.047120
30
0.0
11
0.057350
21
0.042000
31
0.0
0
LINE
8
0
6
CONTINUOUS
10
0.061000
20
0.042000
30
0.0
11
0.061000
21
0.047120
31
0.0
0
LINE
8
0
6
CONTINUOUS
10
0.061000
20
0.047120
30
0.0
11
0.061000
21
0.051920
31
0.0
0
LINE
8
0
6
CONTINUOUS
10
0.058260
20
0.051920
30
0.0
11
0.057604
21
0.047120
31
0.0
0
LINE
8
0
6
CONTINUOUS
10
0.061000
20
0.051920
30
0.0
11
0.061000
21
0.056160
31
0.0
0
LINE
8
0
6
CONTINUOUS
10
0.059110
20
0.056160
30
0.0
11
0.058260
21
0.051920
31
0.0
0
LINE
8
0
6
CONTINUOUS
10
0.061000
20
0.056160
30
0.0
11
0.061000
21
0.059360
31
0.0
0
LINE
8
0
6
CONTINUOUS
10
0.059912
20
0.059360
30
0.0
11
0.059822
21
0.059000
31
0.0
0
LINE
8
0
6
CONTINUOUS
10
0.061000
20
0.059360
30
0.0
11
0.061000
21
0.061280
31
0.0
0
LINE
8
0
6
CONTINUOUS
10
0.060593
20
0.061280
30
0.0
11
0.059912
21
0.059360
31
0.0
0
LINE
8
0
6
CONTINUOUS
10
0.061000
20
0.061280
30
0.0
11
0.061000
21
0.062000
31
0.0
0
LINE
8
0
6
CONTINUOUS
10
0.061000
20
0.062000
30
0.0
11
0.060593
21
0.061280
31
0.0
0
LINE
8
0
6
CONTINUOUS
10
0.061000
20
0.036880
30
0.0
11
0.061000
21
0.042000
31
0.0
0
LINE
8
0
6
CONTINUOUS
10
0.057350
20
0.042000
30
0.0
11
0.057604
21
0.036880
31
0.0
0
LINE
8
0
6
CONTINUOUS
10
0.061000
20
0.032080
30
0.0
11
0.061000
21
0.036880
31
0.0
0
LINE
8
0
6
CONTINUOUS
10
0.057604
20
0.036880
30
0.0
11
0.058260
21
0.032080
31
0.0
0
LINE
8
0
6
CONTINUOUS
10
0.061000
20
0.027840
30
0.0
11
0.061000
21
0.032080
31
0.0
0
LINE
8
0
6
CONTINUOUS
10
0.058260
20
0.032080
30
0.0
11
0.059110
21
0.027840
31
0.0
0
LINE
8
0
6
CONTINUOUS
10
0.061000
20
0.024640
30
0.0
11
0.061000
21
0.027840
31
0.0
0
LINE
8
0
6
CONTINUOUS
10
0.059110
20
0.027840
30
0.0
11
0.059912
21
0.024640
31
0.0
0
LINE
8
0
6
CONTINUOUS
10
0.061000
20
0.022720
30
0.0
11
0.061000
21
0.024640
31
0.0
0
LINE
8
0
6
CONTINUOUS
10
0.059912
20
0.024640
30
0.0
11
0.060593
21
0.022720
31
0.0
0
LINE
8
0
6
CONTINUOUS
10
0.061000
20
0.022000
30
0.0
11
0.061000
21
0.022720
31
0.0
0
LINE
8
0
6
CONTINUOUS
10
0.060593
20
0.022720
30
0.0
11
0.061000
21
0.022000
31
0.0
0
LINE
8
0
6
CONTINUOUS
10
0.057350
20
0.042000
30
0.0
11
0.057604
21
0.047120
31
0.0
0
LINE
8
0
6
CONTINUOUS
10
0.057604
20
0.047120
30
0.0
11
0.058260
21
0.051920
31
0.0
0
LINE
8
0
6
CONTINUOUS
10
0.058260
20
0.051920
30
0.0
11
0.059110
21
0.056160
31
0.0
0
LINE
8
0
6
CONTINUOUS
10
0.059822
20
0.059000
30
0.0
11
0.059912
21
0.059360
31
0.0
0
LINE
8
0
6
CONTINUOUS
10
0.060358
20
0.064000
30
0.0
11
0.059593
21
0.064000
31
0.0
0
LINE
8
0
6
CONTINUOUS
10
0.059912
20
0.059360
30
0.0
11
0.060593
21
0.061280
31
0.0
0
LINE
8
0
6
CONTINUOUS
10
0.061000
20
0.064000
30
0.0
11
0.060358
21
0.064000
31
0.0
0
LINE
8
0
6
CONTINUOUS
10
0.061000
20
0.062000
30
0.0
11
0.061000
21
0.064000
31
0.0
0
LINE
8
0
6
CONTINUOUS
10
0.060593
20
0.061280
30
0.0
11
0.061000
21
0.062000
31
0.0
0
LINE
8
0
6
CONTINUOUS
10
0.057604
20
0.036880
30
0.0
11
0.057350
21
0.042000
31
0.0
0
LINE
8
0
6
CONTINUOUS
10
0.058260
20
0.032080
30
0.0
11
0.057604
21
0.036880
31
0.0
0
LINE
8
0
6
CONTINUOUS
10
0.059110
20
0.027840
30
0.0
11
0.058260
21
0.032080
31
0.0
0
LINE
8
0
6
CONTINUOUS
10
0.059912
20
0.024640
30
0.0
11
0.059110
21
0.027840
31
0.0
0
LINE
8
0
6
CONTINUOUS
10
0.060593
20
0.022720
30
0.0
11
0.059912
21
0.024640
31
0.0
0
LINE
8
0
6
CONTINUOUS
10
0.061000
20
-0.044000
30
0.0
11
0.061000
21
-0.009000
31
0.0
0
LINE
8
0
6
CONTINUOUS
10
0.061000
20
-0.005000
30
0.0
11
0.061000
21
0.022000
31
0.0
0
LINE
8
0
6
CONTINUOUS
10
0.061000
20
0.022000
30
0.0
11
0.060593
21
0.022720
31
0.0
0
LINE
8
0
6
CONTINUOUS
10
0.019304
20
0.036880
30
0.0
11
0.020000
21
0.042000
31
0.0
0
LINE
8
0
6
CONTINUOUS
10
0.017361
20
0.032080
30
0.0
11
0.019304
21
0.036880
31
0.0
0
LINE
8
0
6
CONTINUOUS
10
0.014179
20
0.027840
30
0.0
11
0.017361
21
0.032080
31
0.0
0
LINE
8
0
6
CONTINUOUS
10
0.009929
20
0.024640
30
0.0
11
0.014179
21
0.027840
31
0.0
0
LINE
8
0
6
CONTINUOUS
10
0.005144
20
0.022720
30
0.0
11
0.009929
21
0.024640
31
0.0
0
LINE
8
0
6
CONTINUOUS
10
0.000000
20
0.022000
30
0.0
11
0.005144
21
0.022720
31
0.0
0
LINE
8
0
6
CONTINUOUS
10
0.020000
20
0.042000
30
0.0
11
0.019304
21
0.047120
31
0.0
0
LINE
8
0
6
CONTINUOUS
10
0.019304
20
0.047120
30
0.0
11
0.017361
21
0.051920
31
0.0
0
LINE
8
0
6
CONTINUOUS
10
0.017361
20
0.051920
30
0.0
11
0.014179
21
0.056160
31
0.0
0
LINE
8
0
6
CONTINUOUS
10
0.014179
20
0.056160
30
0.0
11
0.009929
21
0.059360
31
0.0
0
LINE
8
0
6
CONTINUOUS
10
0.009929
20
0.059360
30
0.0
11
0.005144
21
0.061280
31
0.0
0
LINE
8
0
6
CONTINUOUS
10
0.005144
20
0.061280
30
0.0
11
0.000000
21
0.062000
31
0.0
0
LINE
8
0
6
CONTINUOUS
10
0.023308
20
0.064000
30
0.0
11
0.015732
21
0.064000
31
0.0
0
LINE
8
0
6
CONTINUOUS
10
0.019304
20
0.047120
30
0.0
11
0.020000
21
0.042000
31
0.0
0
LINE
8
0
6
CONTINUOUS
10
0.017361
20
0.051920
30
0.0
11
0.019304
21
0.047120
31
0.0
0
LINE
8
0
6
CONTINUOUS
10
0.015732
20
0.064000
30
0.0
11
0.007962
21
0.064000
31
0.0
0
LINE
8
0
6
CONTINUOUS
10
0.009929
20
0.059360
30
0.0
11
0.014179
21
0.056160
31
0.0
0
LINE
8
0
6
CONTINUOUS
10
0.007962
20
0.064000
30
0.0
11
0.000000
21
0.064000
31
0.0
0
LINE
8
0
6
CONTINUOUS
10
0.000000
20
0.062000
30
0.0
11
0.005144
21
0.061280
31
0.0
0
LINE
8
0
6
CONTINUOUS
10
0.017361
20
0.032080
30
0.0
11
0.014179
21
0.027840
31
0.0
0
LINE
8
0
6
CONTINUOUS
10
0.009929
20
0.024640
30
0.0
11
0.005144
21
0.022720
31
0.0
0
LINE
8
0
6
CONTINUOUS
10
0.005144
20
0.022720
30
0.0
11
0.000000
21
0.022000
31
0.0
0
LINE
8
0
6
CONTINUOUS
10
0.032254
20
0.064000
30
0.0
11
0.030372
21
0.064000
31
0.0
0
LINE
8
0
6
CONTINUOUS
10
0.030372
20
0.064000
30
0.0
11
0.023308
21
0.064000
31
0.0
0
LINE
8
0
6
CONTINUOUS
10
0.030372
20
0.064000
30
0.0
11
0.030590
21
0.064000
31
0.0
0
LINE
8
0
6
CONTINUOUS
10
0.023308
20
0.064000
30
0.0
11
0.030372
21
0.064000
31
0.0
0
LINE
8
0
6
CONTINUOUS
10
-0.057604
20
0.036880
30
0.0
11
-0.057350
21
0.042000
31
0.0
0
LINE
8
0
6
CONTINUOUS
10
-0.061000
20
0.042000
30
0.0
11
-0.061000
21
0.036880
31
0.0
0
LINE
8
0
6
CONTINUOUS
10
-0.061000
20
0.036880
30
0.0
11
-0.061000
21
0.032080
31
0.0
0
LINE
8
0
6
CONTINUOUS
10
-0.058260
20
0.032080
30
0.0
11
-0.057604
21
0.036880
31
0.0
0
LINE
8
0
6
CONTINUOUS
10
-0.061000
20
0.032080
30
0.0
11
-0.061000
21
0.027840
31
0.0
0
LINE
8
0
6
CONTINUOUS
10
-0.059110
20
0.027840
30
0.0
11
-0.058260
21
0.032080
31
0.0
0
LINE
8
0
6
CONTINUOUS
10
-0.061000
20
0.027840
30
0.0
11
-0.061000
21
0.024640
31
0.0
0
LINE
8
0
6
CONTINUOUS
10
-0.059912
20
0.024640
30
0.0
11
-0.059110
21
0.027840
31
0.0
0
LINE
8
0
6
CONTINUOUS
10
-0.061000
20
0.024640
30
0.0
11
-0.061000
21
0.022720
31
0.0
0
LINE
8
0
6
CONTINUOUS
10
-0.060593
20
0.022720
30
0.0
11
-0.059912
21
0.024640
31
0.0
0
LINE
8
0
6
CONTINUOUS
10
-0.061000
20
0.022720
30
0.0
11
-0.061000
21
0.022000
31
0.0
0
LINE
8
0
6
CONTINUOUS
10
-0.061000
20
0.022000
30
0.0
11
-0.060593
21
0.022720
31
0.0
0
LINE
8
0
6
CONTINUOUS
10
-0.061000
20
0.047120
30
0.0
11
-0.061000
21
0.042000
31
0.0
0
LINE
8
0
6
CONTINUOUS
10
-0.057350
20
0.042000
30
0.0
11
-0.057604
21
0.047120
31
0.0
0
LINE
8
0
6
CONTINUOUS
10
-0.061000
20
0.051920
30
0.0
11
-0.061000
21
0.047120
31
0.0
0
LINE
8
0
6
CONTINUOUS
10
-0.057604
20
0.047120
30
0.0
11
-0.058260
21
0.051920
31
0.0
0
LINE
8
0
6
CONTINUOUS
10
-0.061000
20
0.056160
30
0.0
11
-0.061000
21
0.051920
31
0.0
0
LINE
8
0
6
CONTINUOUS
10
-0.058260
20
0.051920
30
0.0
11
-0.059110
21
0.056160
31
0.0
0
LINE
8
0
6
CONTINUOUS
10
-0.061000
20
0.059360
30
0.0
11
-0.061000
21
0.056160
31
0.0
0
LINE
8
0
6
CONTINUOUS
10
-0.059822
20
0.059000
30
0.0
11
-0.059912
21
0.059360
31
0.0
0
LINE
8
0
6
CONTINUOUS
10
-0.061000
20
0.061280
30
0.0
11
-0.061000
21
0.059360
31
0.0
0
LINE
8
0
6
CONTINUOUS
10
-0.059912
20
0.059360
30
0.0
11
-0.060593
21
0.061280
31
0.0
0
LINE
8
0
6
CONTINUOUS
10
-0.061000
20
0.062000
30
0.0
11
-0.061000
21
0.061280
31
0.0
0
LINE
8
0
6
CONTINUOUS
10
-0.060593
20
0.061280
30
0.0
11
-0.061000
21
0.062000
31
0.0
0
LINE
8
0
6
CONTINUOUS
10
-0.057604
20
0.047120
30
0.0
11
-0.057350
21
0.042000
31
0.0
0
LINE
8
0
6
CONTINUOUS
10
-0.058260
20
0.051920
30
0.0
11
-0.057604
21
0.047120
31
0.0
0
LINE
8
0
6
CONTINUOUS
10
-0.059110
20
0.056160
30
0.0
11
-0.058260
21
0.051920
31
0.0
0
LINE
8
0
6
CONTINUOUS
10
-0.059593
20
0.064000
30
0.0
11
-0.060358
21
0.064000
31
0.0
0
LINE
8
0
6
CONTINUOUS
10
-0.059912
20
0.059360
30
0.0
11
-0.059822
21
0.059000
31
0.0
0
LINE
8
0
6
CONTINUOUS
10
-0.060358
20
0.064000
30
0.0
11
-0.061000
21
0.064000
31
0.0
0
LINE
8
0
6
CONTINUOUS
10
-0.060593
20
0.061280
30
0.0
11
-0.059912
21
0.059360
31
0.0
0
LINE
8
0
6
CONTINUOUS
10
-0.061000
20
0.062000
30
0.0
11
-0.060593
21
0.061280
31
0.0
0
LINE
8
0
6
CONTINUOUS
10
-0.057350
20
0.042000
30
0.0
11
-0.057604
21
0.036880
31
0.0
0
LINE
8
0
6
CONTINUOUS
10
-0.057604
20
0.036880
30
0.0
11
-0.058260
21
0.032080
31
0.0
0
LINE
8
0
6
CONTINUOUS
10
-0.058260
20
0.032080
30
0.0
11
-0.059110
21
0.027840
31
0.0
0
LINE
8
0
6
CONTINUOUS
10
-0.059110
20
0.027840
30
0.0
11
-0.059912
21
0.024640
31
0.0
0
LINE
8
0
6
CONTINUOUS
10
-0.059912
20
0.024640
30
0.0
11
-0.060593
21
0.022720
31
0.0
0
LINE
8
0
6
CONTINUOUS
10
-0.060593
20
0.022720
30
0.0
11
-0.061000
21
0.022000
31
0.0
0
LINE
8
0
6
CONTINUOUS
10
-0.015732
20
0.064000
30
0.0
11
-0.023308
21
0.064000
31
0.0
0
LINE
8
0
6
CONTINUOUS
10
-0.017361
20
0.051920
30
0.0
11
-0.014179
21
0.056160
31
0.0
0
LINE
8
0
6
CONTINUOUS
10
-0.007962
20
0.064000
30
0.0
11
-0.015732
21
0.064000
31
0.0
0
LINE
8
0
6
CONTINUOUS
10
-0.009929
20
0.059360
30
0.0
11
-0.005144
21
0.061280
31
0.0
0
LINE
8
0
6
CONTINUOUS
10
0.000000
20
0.064000
30
0.0
11
-0.007962
21
0.064000
31
0.0
0
LINE
8
0
6
CONTINUOUS
10
-0.005144
20
0.061280
30
0.0
11
0.000000
21
0.062000
31
0.0
0
LINE
8
0
6
CONTINUOUS
10
-0.019304
20
0.047120
30
0.0
11
-0.020000
21
0.042000
31
0.0
0
LINE
8
0
6
CONTINUOUS
10
-0.017361
20
0.051920
30
0.0
11
-0.019304
21
0.047120
31
0.0
0
LINE
8
0
6
CONTINUOUS
10
-0.014179
20
0.056160
30
0.0
11
-0.017361
21
0.051920
31
0.0
0
LINE
8
0
6
CONTINUOUS
10
-0.009929
20
0.059360
30
0.0
11
-0.014179
21
0.056160
31
0.0
0
LINE
8
0
6
CONTINUOUS
10
-0.005144
20
0.061280
30
0.0
11
-0.009929
21
0.059360
31
0.0
0
LINE
8
0
6
CONTINUOUS
10
0.000000
20
0.062000
30
0.0
11
-0.005144
21
0.061280
31
0.0
0
LINE
8
0
6
CONTINUOUS
10
-0.020000
20
0.042000
30
0.0
11
-0.019304
21
0.036880
31
0.0
0
LINE
8
0
6
CONTINUOUS
10
-0.019304
20
0.036880
30
0.0
11
-0.017361
21
0.032080
31
0.0
0
LINE
8
0
6
CONTINUOUS
10
-0.017361
20
0.032080
30
0.0
11
-0.014179
21
0.027840
31
0.0
0
LINE
8
0
6
CONTINUOUS
10
-0.014179
20
0.027840
30
0.0
11
-0.009929
21
0.024640
31
0.0
0
LINE
8
0
6
CONTINUOUS
10
-0.009929
20
0.024640
30
0.0
11
-0.005144
21
0.022720
31
0.0
0
LINE
8
0
6
CONTINUOUS
10
-0.005144
20
0.022720
30
0.0
11
0.000000
21
0.022000
31
0.0
0
LINE
8
0
6
CONTINUOUS
10
-0.019304
20
0.036880
30
0.0
11
-0.020000
21
0.042000
31
0.0
0
LINE
8
0
6
CONTINUOUS
10
-0.017361
20
0.032080
30
0.0
11
-0.019304
21
0.036880
31
0.0
0
LINE
8
0
6
CONTINUOUS
10
-0.009929
20
0.024640
30
0.0
11
-0.014179
21
0.027840
31
0.0
0
LINE
8
0
6
CONTINUOUS
10
0.000000
20
0.022000
30
0.0
11
-0.005144
21
0.022720
31
0.0
0
LINE
8
0
6
CONTINUOUS
10
-0.030372
20
0.064000
30
0.0
11
-0.032254
21
0.064000
31
0.0
0
LINE
8
0
6
CONTINUOUS
10
-0.023308
20
0.064000
30
0.0
11
-0.030372
21
0.064000
31
0.0
0
LINE
8
0
6
CONTINUOUS
10
-0.030590
20
0.064000
30
0.0
11
-0.030372
21
0.064000
31
0.0
0
LINE
8
0
6
CONTINUOUS
10
-0.030372
20
0.064000
30
0.0
11
-0.023308
21
0.064000
31
0.0
0
LINE
8
0
6
CONTINUOUS
10
-0.061000
20
0.062000
30
0.0
11
-0.061000
21
0.064000
31
0.0
0
LINE
8
0
6
CONTINUOUS
10
-0.061000
20
-0.044000
30
0.0
11
-0.061000
21
-0.009000
31
0.0
0
LINE
8
0
6
CONTINUOUS
10
-0.061000
20
-0.005000
30
0.0
11
-0.061000
21
0.022000
31
0.0
0
LINE
8
0
6
CONTINUOUS
10
0.014571
20
0.042000
30
0.0
11
0.014047
21
0.045730
31
0.0
0
LINE
8
0
6
CONTINUOUS
10
0.014047
20
0.045730
30
0.0
11
0.012648
21
0.049227
31
0.0
0
LINE
8
0
6
CONTINUOUS
10
0.012648
20
0.049227
30
0.0
11
0.010317
21
0.052317
31
0.0
0
LINE
8
0
6
CONTINUOUS
10
0.010317
20
0.052317
30
0.0
11
0.007227
21
0.054648
31
0.0
0
LINE
8
0
6
CONTINUOUS
10
0.007227
20
0.054648
30
0.0
11
0.003730
21
0.056047
31
0.0
0
LINE
8
0
6
CONTINUOUS
10
0.003730
20
0.056047
30
0.0
11
0.000000
21
0.056571
31
0.0
0
LINE
8
0
6
CONTINUOUS
10
0.014047
20
0.045730
30
0.0
11
0.014571
21
0.042000
31
0.0
0
LINE
8
0
6
CONTINUOUS
10
0.012648
20
0.049227
30
0.0
11
0.014047
21
0.045730
31
0.0
0
LINE
8
0
6
CONTINUOUS
10
0.010317
20
0.052317
30
0.0
11
0.012648
21
0.049227
31
0.0
0
LINE
8
0
6
CONTINUOUS
10
0.007227
20
0.054648
30
0.0
11
0.010317
21
0.052317
31
0.0
0
LINE
8
0
6
CONTINUOUS
10
0.003730
20
0.056047
30
0.0
11
0.007227
21
0.054648
31
0.0
0
LINE
8
0
6
CONTINUOUS
10
0.000000
20
0.056571
30
0.0
11
0.003730
21
0.056047
31
0.0
0
LINE
8
0
6
CONTINUOUS
10
0.014571
20
0.042000
30
0.0
11
0.014047
21
0.038270
31
0.0
0
LINE
8
0
6
CONTINUOUS
10
0.014047
20
0.038270
30
0.0
11
0.012648
21
0.034773
31
0.0
0
LINE
8
0
6
CONTINUOUS
10
0.012648
20
0.034773
30
0.0
11
0.010317
21
0.031683
31
0.0
0
LINE
8
0
6
CONTINUOUS
10
0.010317
20
0.031683
30
0.0
11
0.007227
21
0.029352
31
0.0
0
LINE
8
0
6
CONTINUOUS
10
0.007227
20
0.029352
30
0.0
11
0.003730
21
0.027953
31
0.0
0
LINE
8
0
6
CONTINUOUS
10
0.003730
20
0.027953
30
0.0
11
0.000000
21
0.027429
31
0.0
0
LINE
8
0
6
CONTINUOUS
10
0.014047
20
0.038270
30
0.0
11
0.014571
21
0.042000
31
0.0
0
LINE
8
0
6
CONTINUOUS
10
0.012648
20
0.034773
30
0.0
11
0.014047
21
0.038270
31
0.0
0
LINE
8
0
6
CONTINUOUS
10
0.010317
20
0.031683
30
0.0
11
0.012648
21
0.034773
31
0.0
0
LINE
8
0
6
CONTINUOUS
10
0.007227
20
0.029352
30
0.0
11
0.010317
21
0.031683
31
0.0
0
LINE
8
0
6
CONTINUOUS
10
0.003730
20
0.027953
30
0.0
11
0.007227
21
0.029352
31
0.0
0
LINE
8
0
6
CONTINUOUS
10
0.000000
20
0.027429
30
0.0
11
0.003730
21
0.027953
31
0.0
0
LINE
8
0
6
CONTINUOUS
10
-0.014571
20
0.042000
30
0.0
11
-0.014047
21
0.038270
31
0.0
0
LINE
8
0
6
CONTINUOUS
10
-0.014047
20
0.038270
30
0.0
11
-0.012648
21
0.034773
31
0.0
0
LINE
8
0
6
CONTINUOUS
10
-0.012648
20
0.034773
30
0.0
11
-0.010317
21
0.031683
31
0.0
0
LINE
8
0
6
CONTINUOUS
10
-0.010317
20
0.031683
30
0.0
11
-0.007227
21
0.029352
31
0.0
0
LINE
8
0
6
CONTINUOUS
10
-0.007227
20
0.029352
30
0.0
11
-0.003730
21
0.027953
31
0.0
0
LINE
8
0
6
CONTINUOUS
10
-0.003730
20
0.027953
30
0.0
11
0.000000
21
0.027429
31
0.0
0
LINE
8
0
6
CONTINUOUS
10
-0.014047
20
0.038270
30
0.0
11
-0.014571
21
0.042000
31
0.0
0
LINE
8
0
6
CONTINUOUS
10
-0.012648
20
0.034773
30
0.0
11
-0.014047
21
0.038270
31
0.0
0
LINE
8
0
6
CONTINUOUS
10
-0.010317
20
0.031683
30
0.0
11
-0.012648
21
0.034773
31
0.0
0
LINE
8
0
6
CONTINUOUS
10
-0.007227
20
0.029352
30
0.0
11
-0.010317
21
0.031683
31
0.0
0
LINE
8
0
6
CONTINUOUS
10
-0.003730
20
0.027953
30
0.0
11
-0.007227
21
0.029352
31
0.0
0
LINE
8
0
6
CONTINUOUS
10
0.000000
20
0.027429
30
0.0
11
-0.003730
21
0.027953
31
0.0
0
LINE
8
0
6
CONTINUOUS
10
-0.014571
20
0.042000
30
0.0
11
-0.014047
21
0.045730
31
0.0
0
LINE
8
0
6
CONTINUOUS
10
-0.014047
20
0.045730
30
0.0
11
-0.012648
21
0.049227
31
0.0
0
LINE
8
0
6
CONTINUOUS
10
-0.012648
20
0.049227
30
0.0
11
-0.010317
21
0.052317
31
0.0
0
LINE
8
0
6
CONTINUOUS
10
-0.010317
20
0.052317
30
0.0
11
-0.007227
21
0.054648
31
0.0
0
LINE
8
0
6
CONTINUOUS
10
-0.007227
20
0.054648
30
0.0
11
-0.003730
21
0.056047
31
0.0
0
LINE
8
0
6
CONTINUOUS
10
-0.003730
20
0.056047
30
0.0
11
0.000000
21
0.056571
31
0.0
0
LINE
8
0
6
CONTINUOUS
10
-0.014047
20
0.045730
30
0.0
11
-0.014571
21
0.042000
31
0.0
0
LINE
8
0
6
CONTINUOUS
10
-0.012648
20
0.049227
30
0.0
11
-0.014047
21
0.045730
31
0.0
0
LINE
8
0
6
CONTINUOUS
10
-0.010317
20
0.052317
30
0.0
11
-0.012648
21
0.049227
31
0.0
0
LINE
8
0
6
CONTINUOUS
10
-0.007227
20
0.054648
30
0.0
11
-0.010317
21
0.052317
31
0.0
0
LINE
8
0
6
CONTINUOUS
10
-0.003730
20
0.056047
30
0.0
11
-0.007227
21
0.054648
31
0.0
0
LINE
8
0
6
CONTINUOUS
10
0.000000
20
0.056571
30
0.0
11
-0.003730
21
0.056047
31
0.0
0
LINE
8
0
6
CONTINUOUS
10
0.016388
20
0.046352
30
0.0
11
0.017000
21
0.042000
31
0.0
0
LINE
8
0
6
CONTINUOUS
10
0.014756
20
0.050432
30
0.0
11
0.016388
21
0.046352
31
0.0
0
LINE
8
0
6
CONTINUOUS
10
0.012036
20
0.054036
30
0.0
11
0.014756
21
0.050432
31
0.0
0
LINE
8
0
6
CONTINUOUS
10
0.008432
20
0.056756
30
0.0
11
0.012036
21
0.054036
31
0.0
0
LINE
8
0
6
CONTINUOUS
10
0.004352
20
0.058388
30
0.0
11
0.008432
21
0.056756
31
0.0
0
LINE
8
0
6
CONTINUOUS
10
0.000000
20
0.059000
30
0.0
11
0.004352
21
0.058388
31
0.0
0
LINE
8
0
6
CONTINUOUS
10
0.020000
20
0.042000
30
0.0
11
0.019280
21
0.047120
31
0.0
0
LINE
8
0
6
CONTINUOUS
10
0.019280
20
0.047120
30
0.0
11
0.017360
21
0.051920
31
0.0
0
LINE
8
0
6
CONTINUOUS
10
0.017360
20
0.051920
30
0.0
11
0.014160
21
0.056160
31
0.0
0
LINE
8
0
6
CONTINUOUS
10
0.014160
20
0.056160
30
0.0
11
0.009920
21
0.059360
31
0.0
0
LINE
8
0
6
CONTINUOUS
10
0.009920
20
0.059360
30
0.0
11
0.005120
21
0.061280
31
0.0
0
LINE
8
0
6
CONTINUOUS
10
0.005120
20
0.061280
30
0.0
11
0.000000
21
0.062000
31
0.0
0
LINE
8
0
6
CONTINUOUS
10
0.017000
20
0.042000
30
0.0
11
0.016388
21
0.046352
31
0.0
0
LINE
8
0
6
CONTINUOUS
10
0.019280
20
0.047120
30
0.0
11
0.020000
21
0.042000
31
0.0
0
LINE
8
0
6
CONTINUOUS
10
0.016388
20
0.046352
30
0.0
11
0.014756
21
0.050432
31
0.0
0
LINE
8
0
6
CONTINUOUS
10
0.017360
20
0.051920
30
0.0
11
0.019280
21
0.047120
31
0.0
0
LINE
8
0
6
CONTINUOUS
10
0.014756
20
0.050432
30
0.0
11
0.012036
21
0.054036
31
0.0
0
LINE
8
0
6
CONTINUOUS
10
0.014160
20
0.056160
30
0.0
11
0.017360
21
0.051920
31
0.0
0
LINE
8
0
6
CONTINUOUS
10
0.012036
20
0.054036
30
0.0
11
0.008432
21
0.056756
31
0.0
0
LINE
8
0
6
CONTINUOUS
10
0.009920
20
0.059360
30
0.0
11
0.014160
21
0.056160
31
0.0
0
LINE
8
0
6
CONTINUOUS
10
0.008432
20
0.056756
30
0.0
11
0.004352
21
0.058388
31
0.0
0
LINE
8
0
6
CONTINUOUS
10
0.005120
20
0.061280
30
0.0
11
0.009920
21
0.059360
31
0.0
0
LINE
8
0
6
CONTINUOUS
10
0.004352
20
0.058388
30
0.0
11
0.000000
21
0.059000
31
0.0
0
LINE
8
0
6
CONTINUOUS
10
0.000000
20
0.062000
30
0.0
11
0.005120
21
0.061280
31
0.0
0
LINE
8
0
6
CONTINUOUS
10
0.016388
20
0.037648
30
0.0
11
0.017000
21
0.042000
31
0.0
0
LINE
8
0
6
CONTINUOUS
10
0.020000
20
0.042000
30
0.0
11
0.019280
21
0.036880
31
0.0
0
LINE
8
0
6
CONTINUOUS
10
0.014756
20
0.033568
30
0.0
11
0.016388
21
0.037648
31
0.0
0
LINE
8
0
6
CONTINUOUS
10
0.019280
20
0.036880
30
0.0
11
0.017360
21
0.032080
31
0.0
0
LINE
8
0
6
CONTINUOUS
10
0.012036
20
0.029964
30
0.0
11
0.014756
21
0.033568
31
0.0
0
LINE
8
0
6
CONTINUOUS
10
0.017360
20
0.032080
30
0.0
11
0.014160
21
0.027840
31
0.0
0
LINE
8
0
6
CONTINUOUS
10
0.008432
20
0.027244
30
0.0
11
0.012036
21
0.029964
31
0.0
0
LINE
8
0
6
CONTINUOUS
10
0.014160
20
0.027840
30
0.0
11
0.009920
21
0.024640
31
0.0
0
LINE
8
0
6
CONTINUOUS
10
0.004352
20
0.025612
30
0.0
11
0.008432
21
0.027244
31
0.0
0
LINE
8
0
6
CONTINUOUS
10
0.009920
20
0.024640
30
0.0
11
0.005120
21
0.022720
31
0.0
0
LINE
8
0
6
CONTINUOUS
10
0.000000
20
0.025000
30
0.0
11
0.004352
21
0.025612
31
0.0
0
LINE
8
0
6
CONTINUOUS
10
0.005120
20
0.022720
30
0.0
11
0.000000
21
0.022000
31
0.0
0
LINE
8
0
6
CONTINUOUS
10
0.017000
20
0.042000
30
0.0
11
0.016388
21
0.037648
31
0.0
0
LINE
8
0
6
CONTINUOUS
10
0.016388
20
0.037648
30
0.0
11
0.014756
21
0.033568
31
0.0
0
LINE
8
0
6
CONTINUOUS
10
0.014756
20
0.033568
30
0.0
11
0.012036
21
0.029964
31
0.0
0
LINE
8
0
6
CONTINUOUS
10
0.012036
20
0.029964
30
0.0
11
0.008432
21
0.027244
31
0.0
0
LINE
8
0
6
CONTINUOUS
10
0.008432
20
0.027244
30
0.0
11
0.004352
21
0.025612
31
0.0
0
LINE
8
0
6
CONTINUOUS
10
0.004352
20
0.025612
30
0.0
11
0.000000
21
0.025000
31
0.0
0
LINE
8
0
6
CONTINUOUS
10
0.019280
20
0.036880
30
0.0
11
0.020000
21
0.042000
31
0.0
0
LINE
8
0
6
CONTINUOUS
10
0.017360
20
0.032080
30
0.0
11
0.019280
21
0.036880
31
0.0
0
LINE
8
0
6
CONTINUOUS
10
0.014160
20
0.027840
30
0.0
11
0.017360
21
0.032080
31
0.0
0
LINE
8
0
6
CONTINUOUS
10
0.009920
20
0.024640
30
0.0
11
0.014160
21
0.027840
31
0.0
0
LINE
8
0
6
CONTINUOUS
10
0.005120
20
0.022720
30
0.0
11
0.009920
21
0.024640
31
0.0
0
LINE
8
0
6
CONTINUOUS
10
0.000000
20
0.022000
30
0.0
11
0.005120
21
0.022720
31
0.0
0
LINE
8
0
6
CONTINUOUS
10
-0.016388
20
0.037648
30
0.0
11
-0.017000
21
0.042000
31
0.0
0
LINE
8
0
6
CONTINUOUS
10
-0.014756
20
0.033568
30
0.0
11
-0.016388
21
0.037648
31
0.0
0
LINE
8
0
6
CONTINUOUS
10
-0.012036
20
0.029964
30
0.0
11
-0.014756
21
0.033568
31
0.0
0
LINE
8
0
6
CONTINUOUS
10
-0.008432
20
0.027244
30
0.0
11
-0.012036
21
0.029964
31
0.0
0
LINE
8
0
6
CONTINUOUS
10
-0.004352
20
0.025612
30
0.0
11
-0.008432
21
0.027244
31
0.0
0
LINE
8
0
6
CONTINUOUS
10
0.000000
20
0.025000
30
0.0
11
-0.004352
21
0.025612
31
0.0
0
LINE
8
0
6
CONTINUOUS
10
-0.020000
20
0.042000
30
0.0
11
-0.019280
21
0.036880
31
0.0
0
LINE
8
0
6
CONTINUOUS
10
-0.019280
20
0.036880
30
0.0
11
-0.017360
21
0.032080
31
0.0
0
LINE
8
0
6
CONTINUOUS
10
-0.017360
20
0.032080
30
0.0
11
-0.014160
21
0.027840
31
0.0
0
LINE
8
0
6
CONTINUOUS
10
-0.014160
20
0.027840
30
0.0
11
-0.009920
21
0.024640
31
0.0
0
LINE
8
0
6
CONTINUOUS
10
-0.009920
20
0.024640
30
0.0
11
-0.005120
21
0.022720
31
0.0
0
LINE
8
0
6
CONTINUOUS
10
-0.005120
20
0.022720
30
0.0
11
0.000000
21
0.022000
31
0.0
0
LINE
8
0
6
CONTINUOUS
10
-0.017000
20
0.042000
30
0.0
11
-0.016388
21
0.037648
31
0.0
0
LINE
8
0
6
CONTINUOUS
10
-0.019280
20
0.036880
30
0.0
11
-0.020000
21
0.042000
31
0.0
0
LINE
8
0
6
CONTINUOUS
10
-0.016388
20
0.037648
30
0.0
11
-0.014756
21
0.033568
31
0.0
0
LINE
8
0
6
CONTINUOUS
10
-0.017360
20
0.032080
30
0.0
11
-0.019280
21
0.036880
31
0.0
0
LINE
8
0
6
CONTINUOUS
10
-0.014756
20
0.033568
30
0.0
11
-0.012036
21
0.029964
31
0.0
0
LINE
8
0
6
CONTINUOUS
10
-0.014160
20
0.027840
30
0.0
11
-0.017360
21
0.032080
31
0.0
0
LINE
8
0
6
CONTINUOUS
10
-0.012036
20
0.029964
30
0.0
11
-0.008432
21
0.027244
31
0.0
0
LINE
8
0
6
CONTINUOUS
10
-0.009920
20
0.024640
30
0.0
11
-0.014160
21
0.027840
31
0.0
0
LINE
8
0
6
CONTINUOUS
10
-0.008432
20
0.027244
30
0.0
11
-0.004352
21
0.025612
31
0.0
0
LINE
8
0
6
CONTINUOUS
10
-0.005120
20
0.022720
30
0.0
11
-0.009920
21
0.024640
31
0.0
0
LINE
8
0
6
CONTINUOUS
10
-0.004352
20
0.025612
30
0.0
11
0.000000
21
0.025000
31
0.0
0
LINE
8
0
6
CONTINUOUS
10
0.000000
20
0.022000
30
0.0
11
-0.005120
21
0.022720
31
0.0
0
LINE
8
0
6
CONTINUOUS
10
-0.016388
20
0.046352
30
0.0
11
-0.017000
21
0.042000
31
0.0
0
LINE
8
0
6
CONTINUOUS
10
-0.020000
20
0.042000
30
0.0
11
-0.019280
21
0.047120
31
0.0
0
LINE
8
0
6
CONTINUOUS
10
-0.014756
20
0.050432
30
0.0
11
-0.016388
21
0.046352
31
0.0
0
LINE
8
0
6
CONTINUOUS
10
-0.019280
20
0.047120
30
0.0
11
-0.017360
21
0.051920
31
0.0
0
LINE
8
0
6
CONTINUOUS
10
-0.012036
20
0.054036
30
0.0
11
-0.014756
21
0.050432
31
0.0
0
LINE
8
0
6
CONTINUOUS
10
-0.017360
20
0.051920
30
0.0
11
-0.014160
21
0.056160
31
0.0
0
LINE
8
0
6
CONTINUOUS
10
-0.008432
20
0.056756
30
0.0
11
-0.012036
21
0.054036
31
0.0
0
LINE
8
0
6
CONTINUOUS
10
-0.014160
20
0.056160
30
0.0
11
-0.009920
21
0.059360
31
0.0
0
LINE
8
0
6
CONTINUOUS
10
-0.004352
20
0.058388
30
0.0
11
-0.008432
21
0.056756
31
0.0
0
LINE
8
0
6
CONTINUOUS
10
-0.009920
20
0.059360
30
0.0
11
-0.005120
21
0.061280
31
0.0
0
LINE
8
0
6
CONTINUOUS
10
0.000000
20
0.059000
30
0.0
11
-0.004352
21
0.058388
31
0.0
0
LINE
8
0
6
CONTINUOUS
10
-0.005120
20
0.061280
30
0.0
11
0.000000
21
0.062000
31
0.0
0
LINE
8
0
6
CONTINUOUS
10
-0.017000
20
0.042000
30
0.0
11
-0.016388
21
0.046352
31
0.0
0
LINE
8
0
6
CONTINUOUS
10
-0.016388
20
0.046352
30
0.0
11
-0.014756
21
0.050432
31
0.0
0
LINE
8
0
6
CONTINUOUS
10
-0.014756
20
0.050432
30
0.0
11
-0.012036
21
0.054036
31
0.0
0
LINE
8
0
6
CONTINUOUS
10
-0.012036
20
0.054036
30
0.0
11
-0.008432
21
0.056756
31
0.0
0
LINE
8
0
6
CONTINUOUS
10
-0.008432
20
0.056756
30
0.0
11
-0.004352
21
0.058388
31
0.0
0
LINE
8
0
6
CONTINUOUS
10
-0.004352
20
0.058388
30
0.0
11
0.000000
21
0.059000
31
0.0
0
LINE
8
0
6
CONTINUOUS
10
-0.019280
20
0.047120
30
0.0
11
-0.020000
21
0.042000
31
0.0
0
LINE
8
0
6
CONTINUOUS
10
-0.017360
20
0.051920
30
0.0
11
-0.019280
21
0.047120
31
0.0
0
LINE
8
0
6
CONTINUOUS
10
-0.014160
20
0.056160
30
0.0
11
-0.017360
21
0.051920
31
0.0
0
LINE
8
0
6
CONTINUOUS
10
-0.009920
20
0.059360
30
0.0
11
-0.014160
21
0.056160
31
0.0
0
LINE
8
0
6
CONTINUOUS
10
-0.005120
20
0.061280
30
0.0
11
-0.009920
21
0.059360
31
0.0
0
LINE
8
0
6
CONTINUOUS
10
0.000000
20
0.062000
30
0.0
11
-0.005120
21
0.061280
31
0.0
0
LINE
8
0
6
CONTINUOUS
10
0.061000
20
0.047120
30
0.0
11
0.061000
21
0.042000
31
0.0
0
LINE
8
0
6
CONTINUOUS
10
0.063000
20
0.042000
30
0.0
11
0.063000
21
0.047120
31
0.0
0
LINE
8
0
6
CONTINUOUS
10
0.063000
20
0.047120
30
0.0
11
0.063000
21
0.051920
31
0.0
0
LINE
8
0
6
CONTINUOUS
10
0.061000
20
0.051920
30
0.0
11
0.061000
21
0.047120
31
0.0
0
LINE
8
0
6
CONTINUOUS
10
0.063000
20
0.051920
30
0.0
11
0.063000
21
0.056160
31
0.0
0
LINE
8
0
6
CONTINUOUS
10
0.061000
20
0.056160
30
0.0
11
0.061000
21
0.051920
31
0.0
0
LINE
8
0
6
CONTINUOUS
10
0.063000
20
0.056160
30
0.0
11
0.063000
21
0.059360
31
0.0
0
LINE
8
0
6
CONTINUOUS
10
0.061000
20
0.059360
30
0.0
11
0.061000
21
0.056160
31
0.0
0
LINE
8
0
6
CONTINUOUS
10
0.063000
20
0.059360
30
0.0
11
0.063000
21
0.061280
31
0.0
0
LINE
8
0
6
CONTINUOUS
10
0.061000
20
0.061280
30
0.0
11
0.061000
21
0.059360
31
0.0
0
LINE
8
0
6
CONTINUOUS
10
0.063000
20
0.061280
30
0.0
11
0.063000
21
0.062000
31
0.0
0
LINE
8
0
6
CONTINUOUS
10
0.061000
20
0.062000
30
0.0
11
0.061000
21
0.061280
31
0.0
0
LINE
8
0
6
CONTINUOUS
10
0.063000
20
0.047120
30
0.0
11
0.063000
21
0.042000
31
0.0
0
LINE
8
0
6
CONTINUOUS
10
0.063000
20
0.051920
30
0.0
11
0.063000
21
0.047120
31
0.0
0
LINE
8
0
6
CONTINUOUS
10
0.063000
20
0.056160
30
0.0
11
0.063000
21
0.051920
31
0.0
0
LINE
8
0
6
CONTINUOUS
10
0.063000
20
0.059360
30
0.0
11
0.063000
21
0.056160
31
0.0
0
LINE
8
0
6
CONTINUOUS
10
0.063000
20
0.061280
30
0.0
11
0.063000
21
0.059360
31
0.0
0
LINE
8
0
6
CONTINUOUS
10
0.063000
20
0.062000
30
0.0
11
0.063000
21
0.061280
31
0.0
0
LINE
8
0
6
CONTINUOUS
10
0.063000
20
0.042000
30
0.0
11
0.063000
21
0.036880
31
0.0
0
LINE
8
0
6
CONTINUOUS
10
0.063000
20
0.036880
30
0.0
11
0.063000
21
0.032080
31
0.0
0
LINE
8
0
6
CONTINUOUS
10
0.063000
20
0.032080
30
0.0
11
0.063000
21
0.027840
31
0.0
0
LINE
8
0
6
CONTINUOUS
10
0.063000
20
0.027840
30
0.0
11
0.063000
21
0.024640
31
0.0
0
LINE
8
0
6
CONTINUOUS
10
0.063000
20
0.024640
30
0.0
11
0.063000
21
0.022720
31
0.0
0
LINE
8
0
6
CONTINUOUS
10
0.063000
20
0.022720
30
0.0
11
0.063000
21
0.022000
31
0.0
0
LINE
8
0
6
CONTINUOUS
10
0.063000
20
0.036880
30
0.0
11
0.063000
21
0.042000
31
0.0
0
LINE
8
0
6
CONTINUOUS
10
0.061000
20
0.042000
30
0.0
11
0.061000
21
0.036880
31
0.0
0
LINE
8
0
6
CONTINUOUS
10
0.063000
20
0.032080
30
0.0
11
0.063000
21
0.036880
31
0.0
0
LINE
8
0
6
CONTINUOUS
10
0.061000
20
0.036880
30
0.0
11
0.061000
21
0.032080
31
0.0
0
LINE
8
0
6
CONTINUOUS
10
0.063000
20
0.027840
30
0.0
11
0.063000
21
0.032080
31
0.0
0
LINE
8
0
6
CONTINUOUS
10
0.061000
20
0.032080
30
0.0
11
0.061000
21
0.027840
31
0.0
0
LINE
8
0
6
CONTINUOUS
10
0.063000
20
0.024640
30
0.0
11
0.063000
21
0.027840
31
0.0
0
LINE
8
0
6
CONTINUOUS
10
0.061000
20
0.027840
30
0.0
11
0.061000
21
0.024640
31
0.0
0
LINE
8
0
6
CONTINUOUS
10
0.063000
20
0.022720
30
0.0
11
0.063000
21
0.024640
31
0.0
0
LINE
8
0
6
CONTINUOUS
10
0.061000
20
0.024640
30
0.0
11
0.061000
21
0.022720
31
0.0
0
LINE
8
0
6
CONTINUOUS
10
0.063000
20
0.022000
30
0.0
11
0.063000
21
0.022720
31
0.0
0
LINE
8
0
6
CONTINUOUS
10
0.061000
20
0.022720
30
0.0
11
0.061000
21
0.022000
31
0.0
0
LINE
8
0
6
CONTINUOUS
10
0.063000
20
0.022000
30
0.0
11
0.061000
21
0.022000
31
0.0
0
LINE
8
0
6
CONTINUOUS
10
0.061000
20
0.062000
30
0.0
11
0.063000
21
0.062000
31
0.0
0
LINE
8
0
6
CONTINUOUS
10
-0.061000
20
0.047120
30
0.0
11
-0.061000
21
0.042000
31
0.0
0
LINE
8
0
6
CONTINUOUS
10
-0.063000
20
0.042000
30
0.0
11
-0.063000
21
0.047120
31
0.0
0
LINE
8
0
6
CONTINUOUS
10
-0.063000
20
0.047120
30
0.0
11
-0.063000
21
0.051920
31
0.0
0
LINE
8
0
6
CONTINUOUS
10
-0.061000
20
0.051920
30
0.0
11
-0.061000
21
0.047120
31
0.0
0
LINE
8
0
6
CONTINUOUS
10
-0.063000
20
0.051920
30
0.0
11
-0.063000
21
0.056160
31
0.0
0
LINE
8
0
6
CONTINUOUS
10
-0.061000
20
0.056160
30
0.0
11
-0.061000
21
0.051920
31
0.0
0
LINE
8
0
6
CONTINUOUS
10
-0.063000
20
0.056160
30
0.0
11
-0.063000
21
0.059360
31
0.0
0
LINE
8
0
6
CONTINUOUS
10
-0.061000
20
0.059360
30
0.0
11
-0.061000
21
0.056160
31
0.0
0
LINE
8
0
6
CONTINUOUS
10
-0.063000
20
0.059360
30
0.0
11
-0.063000
21
0.061280
31
0.0
0
LINE
8
0
6
CONTINUOUS
10
-0.061000
20
0.061280
30
0.0
11
-0.061000
21
0.059360
31
0.0
0
LINE
8
0
6
CONTINUOUS
10
-0.063000
20
0.061280
30
0.0
11
-0.063000
21
0.062000
31
0.0
0
LINE
8
0
6
CONTINUOUS
10
-0.061000
20
0.062000
30
0.0
11
-0.061000
21
0.061280
31
0.0
0
LINE
8
0
6
CONTINUOUS
10
-0.063000
20
0.047120
30
0.0
11
-0.063000
21
0.042000
31
0.0
0
LINE
8
0
6
CONTINUOUS
10
-0.063000
20
0.051920
30
0.0
11
-0.063000
21
0.047120
31
0.0
0
LINE
8
0
6
CONTINUOUS
10
-0.063000
20
0.056160
30
0.0
11
-0.063000
21
0.051920
31
0.0
0
LINE
8
0
6
CONTINUOUS
10
-0.063000
20
0.059360
30
0.0
11
-0.063000
21
0.056160
31
0.0
0
LINE
8
0
6
CONTINUOUS
10
-0.063000
20
0.061280
30
0.0
11
-0.063000
21
0.059360
31
0.0
0
LINE
8
0
6
CONTINUOUS
10
-0.063000
20
0.062000
30
0.0
11
-0.063000
21
0.061280
31
0.0
0
LINE
8
0
6
CONTINUOUS
10
-0.063000
20
0.042000
30
0.0
11
-0.063000
21
0.036880
31
0.0
0
LINE
8
0
6
CONTINUOUS
10
-0.063000
20
0.036880
30
0.0
11
-0.063000
21
0.032080
31
0.0
0
LINE
8
0
6
CONTINUOUS
10
-0.063000
20
0.032080
30
0.0
11
-0.063000
21
0.027840
31
0.0
0
LINE
8
0
6
CONTINUOUS
10
-0.063000
20
0.027840
30
0.0
11
-0.063000
21
0.024640
31
0.0
0
LINE
8
0
6
CONTINUOUS
10
-0.063000
20
0.024640
30
0.0
11
-0.063000
21
0.022720
31
0.0
0
LINE
8
0
6
CONTINUOUS
10
-0.063000
20
0.022720
30
0.0
11
-0.063000
21
0.022000
31
0.0
0
LINE
8
0
6
CONTINUOUS
10
-0.063000
20
0.036880
30
0.0
11
-0.063000
21
0.042000
31
0.0
0
LINE
8
0
6
CONTINUOUS
10
-0.061000
20
0.042000
30
0.0
11
-0.061000
21
0.036880
31
0.0
0
LINE
8
0
6
CONTINUOUS
10
-0.063000
20
0.032080
30
0.0
11
-0.063000
21
0.036880
31
0.0
0
LINE
8
0
6
CONTINUOUS
10
-0.061000
20
0.036880
30
0.0
11
-0.061000
21
0.032080
31
0.0
0
LINE
8
0
6
CONTINUOUS
10
-0.063000
20
0.027840
30
0.0
11
-0.063000
21
0.032080
31
0.0
0
LINE
8
0
6
CONTINUOUS
10
-0.061000
20
0.032080
30
0.0
11
-0.061000
21
0.027840
31
0.0
0
LINE
8
0
6
CONTINUOUS
10
-0.063000
20
0.024640
30
0.0
11
-0.063000
21
0.027840
31
0.0
0
LINE
8
0
6
CONTINUOUS
10
-0.061000
20
0.027840
30
0.0
11
-0.061000
21
0.024640
31
0.0
0
LINE
8
0
6
CONTINUOUS
10
-0.063000
20
0.022720
30
0.0
11
-0.063000
21
0.024640
31
0.0
0
LINE
8
0
6
CONTINUOUS
10
-0.061000
20
0.024640
30
0.0
11
-0.061000
21
0.022720
31
0.0
0
LINE
8
0
6
CONTINUOUS
10
-0.063000
20
0.022000
30
0.0
11
-0.063000
21
0.022720
31
0.0
0
LINE
8
0
6
CONTINUOUS
10
-0.061000
20
0.022720
30
0.0
11
-0.061000
21
0.022000
31
0.0
0
LINE
8
0
6
CONTINUOUS
10
-0.063000
20
0.022000
30
0.0
11
-0.061000
21
0.022000
31
0.0
0
LINE
8
0
6
CONTINUOUS
10
-0.061000
20
0.062000
30
0.0
11
-0.063000
21
0.062000
31
0.0
0
ENDSEC
0
EOF
