999
unknown String-ID: 20550
0
SECTION
2
HEADER
9
$ACADVER
1
AC1009
9
$DWGCODEPAGE
3
unknown String-ID: 20561
0
ENDSEC
0
SECTION
2
TABLES
0
TABLE
2
LAYER
70
1
0
LAYER
2
0
70
0
62
7
6
CONTINUOUS
0
ENDTAB
0
ENDSEC
0
SECTION
2
ENTITIES
0
LINE
8
0
6
CONTINUOUS
10
-0.043331
20
0.009632
30
0.0
11
-0.045466
21
0.006784
31
0.0
0
LINE
8
0
6
CONTINUOUS
10
-0.040483
20
0.011767
30
0.0
11
-0.043331
21
0.009632
31
0.0
0
LINE
8
0
6
CONTINUOUS
10
-0.046806
20
0.003517
30
0.0
11
-0.047309
21
0.000000
31
0.0
0
LINE
8
0
6
CONTINUOUS
10
-0.045466
20
0.006784
30
0.0
11
-0.046806
21
0.003517
31
0.0
0
LINE
8
0
6
CONTINUOUS
10
-0.037217
20
0.013106
30
0.0
11
-0.040483
21
0.011767
31
0.0
0
LINE
8
0
6
CONTINUOUS
10
-0.033700
20
0.013609
30
0.0
11
-0.037217
21
0.013106
31
0.0
0
LINE
8
0
6
CONTINUOUS
10
-0.021934
20
0.006784
30
0.0
11
-0.024069
21
0.009632
31
0.0
0
LINE
8
0
6
CONTINUOUS
10
-0.024069
20
0.009632
30
0.0
11
-0.026917
21
0.011767
31
0.0
0
LINE
8
0
6
CONTINUOUS
10
-0.020091
20
0.000000
30
0.0
11
-0.020594
21
0.003517
31
0.0
0
LINE
8
0
6
CONTINUOUS
10
-0.020594
20
0.003517
30
0.0
11
-0.021934
21
0.006784
31
0.0
0
LINE
8
0
6
CONTINUOUS
10
-0.026917
20
0.011767
30
0.0
11
-0.030183
21
0.013106
31
0.0
0
LINE
8
0
6
CONTINUOUS
10
-0.030183
20
0.013106
30
0.0
11
-0.033700
21
0.013609
31
0.0
0
LINE
8
0
6
CONTINUOUS
10
-0.009631
20
0.009632
30
0.0
11
-0.011766
21
0.006784
31
0.0
0
LINE
8
0
6
CONTINUOUS
10
-0.006783
20
0.011767
30
0.0
11
-0.009631
21
0.009632
31
0.0
0
LINE
8
0
6
CONTINUOUS
10
-0.013106
20
0.003517
30
0.0
11
-0.013609
21
0.000000
31
0.0
0
LINE
8
0
6
CONTINUOUS
10
-0.011766
20
0.006784
30
0.0
11
-0.013106
21
0.003517
31
0.0
0
LINE
8
0
6
CONTINUOUS
10
-0.003517
20
0.013106
30
0.0
11
-0.006783
21
0.011767
31
0.0
0
LINE
8
0
6
CONTINUOUS
10
0.000000
20
0.013609
30
0.0
11
-0.003517
21
0.013106
31
0.0
0
LINE
8
0
6
CONTINUOUS
10
0.045466
20
0.006784
30
0.0
11
0.043331
21
0.009632
31
0.0
0
LINE
8
0
6
CONTINUOUS
10
0.043331
20
0.009632
30
0.0
11
0.040483
21
0.011767
31
0.0
0
LINE
8
0
6
CONTINUOUS
10
0.047309
20
0.000000
30
0.0
11
0.046806
21
0.003517
31
0.0
0
LINE
8
0
6
CONTINUOUS
10
0.046806
20
0.003517
30
0.0
11
0.045466
21
0.006784
31
0.0
0
LINE
8
0
6
CONTINUOUS
10
0.040483
20
0.011767
30
0.0
11
0.037217
21
0.013106
31
0.0
0
LINE
8
0
6
CONTINUOUS
10
0.037217
20
0.013106
30
0.0
11
0.033700
21
0.013609
31
0.0
0
LINE
8
0
6
CONTINUOUS
10
0.024069
20
0.009632
30
0.0
11
0.021934
21
0.006784
31
0.0
0
LINE
8
0
6
CONTINUOUS
10
0.026917
20
0.011767
30
0.0
11
0.024069
21
0.009632
31
0.0
0
LINE
8
0
6
CONTINUOUS
10
0.020594
20
0.003517
30
0.0
11
0.020091
21
0.000000
31
0.0
0
LINE
8
0
6
CONTINUOUS
10
0.021934
20
0.006784
30
0.0
11
0.020594
21
0.003517
31
0.0
0
LINE
8
0
6
CONTINUOUS
10
0.030183
20
0.013106
30
0.0
11
0.026917
21
0.011767
31
0.0
0
LINE
8
0
6
CONTINUOUS
10
0.033700
20
0.013609
30
0.0
11
0.030183
21
0.013106
31
0.0
0
LINE
8
0
6
CONTINUOUS
10
0.011766
20
0.006784
30
0.0
11
0.009631
21
0.009632
31
0.0
0
LINE
8
0
6
CONTINUOUS
10
0.009631
20
0.009632
30
0.0
11
0.006783
21
0.011767
31
0.0
0
LINE
8
0
6
CONTINUOUS
10
0.013609
20
0.000000
30
0.0
11
0.013106
21
0.003517
31
0.0
0
LINE
8
0
6
CONTINUOUS
10
0.013106
20
0.003517
30
0.0
11
0.011766
21
0.006784
31
0.0
0
LINE
8
0
6
CONTINUOUS
10
0.006783
20
0.011767
30
0.0
11
0.003517
21
0.013106
31
0.0
0
LINE
8
0
6
CONTINUOUS
10
0.003517
20
0.013106
30
0.0
11
0.000000
21
0.013609
31
0.0
0
LINE
8
0
6
CONTINUOUS
10
-0.045466
20
-0.006784
30
0.0
11
-0.043331
21
-0.009632
31
0.0
0
LINE
8
0
6
CONTINUOUS
10
-0.043331
20
-0.009632
30
0.0
11
-0.040483
21
-0.011767
31
0.0
0
LINE
8
0
6
CONTINUOUS
10
-0.047309
20
0.000000
30
0.0
11
-0.046806
21
-0.003517
31
0.0
0
LINE
8
0
6
CONTINUOUS
10
-0.046806
20
-0.003517
30
0.0
11
-0.045466
21
-0.006784
31
0.0
0
LINE
8
0
6
CONTINUOUS
10
-0.040483
20
-0.011767
30
0.0
11
-0.037217
21
-0.013106
31
0.0
0
LINE
8
0
6
CONTINUOUS
10
-0.037217
20
-0.013106
30
0.0
11
-0.033700
21
-0.013609
31
0.0
0
LINE
8
0
6
CONTINUOUS
10
-0.024069
20
-0.009632
30
0.0
11
-0.021934
21
-0.006784
31
0.0
0
LINE
8
0
6
CONTINUOUS
10
-0.026917
20
-0.011767
30
0.0
11
-0.024069
21
-0.009632
31
0.0
0
LINE
8
0
6
CONTINUOUS
10
-0.020594
20
-0.003517
30
0.0
11
-0.020091
21
0.000000
31
0.0
0
LINE
8
0
6
CONTINUOUS
10
-0.021934
20
-0.006784
30
0.0
11
-0.020594
21
-0.003517
31
0.0
0
LINE
8
0
6
CONTINUOUS
10
-0.030183
20
-0.013106
30
0.0
11
-0.026917
21
-0.011767
31
0.0
0
LINE
8
0
6
CONTINUOUS
10
-0.033700
20
-0.013609
30
0.0
11
-0.030183
21
-0.013106
31
0.0
0
LINE
8
0
6
CONTINUOUS
10
-0.011766
20
-0.006784
30
0.0
11
-0.009631
21
-0.009632
31
0.0
0
LINE
8
0
6
CONTINUOUS
10
-0.009631
20
-0.009632
30
0.0
11
-0.006783
21
-0.011767
31
0.0
0
LINE
8
0
6
CONTINUOUS
10
-0.013609
20
0.000000
30
0.0
11
-0.013106
21
-0.003517
31
0.0
0
LINE
8
0
6
CONTINUOUS
10
-0.013106
20
-0.003517
30
0.0
11
-0.011766
21
-0.006784
31
0.0
0
LINE
8
0
6
CONTINUOUS
10
-0.006783
20
-0.011767
30
0.0
11
-0.003517
21
-0.013106
31
0.0
0
LINE
8
0
6
CONTINUOUS
10
-0.003517
20
-0.013106
30
0.0
11
0.000000
21
-0.013609
31
0.0
0
LINE
8
0
6
CONTINUOUS
10
0.043331
20
-0.009632
30
0.0
11
0.045466
21
-0.006784
31
0.0
0
LINE
8
0
6
CONTINUOUS
10
0.040483
20
-0.011767
30
0.0
11
0.043331
21
-0.009632
31
0.0
0
LINE
8
0
6
CONTINUOUS
10
0.046806
20
-0.003517
30
0.0
11
0.047309
21
0.000000
31
0.0
0
LINE
8
0
6
CONTINUOUS
10
0.045466
20
-0.006784
30
0.0
11
0.046806
21
-0.003517
31
0.0
0
LINE
8
0
6
CONTINUOUS
10
0.037217
20
-0.013106
30
0.0
11
0.040483
21
-0.011767
31
0.0
0
LINE
8
0
6
CONTINUOUS
10
0.033700
20
-0.013609
30
0.0
11
0.037217
21
-0.013106
31
0.0
0
LINE
8
0
6
CONTINUOUS
10
0.021934
20
-0.006784
30
0.0
11
0.024069
21
-0.009632
31
0.0
0
LINE
8
0
6
CONTINUOUS
10
0.024069
20
-0.009632
30
0.0
11
0.026917
21
-0.011767
31
0.0
0
LINE
8
0
6
CONTINUOUS
10
0.020091
20
0.000000
30
0.0
11
0.020594
21
-0.003517
31
0.0
0
LINE
8
0
6
CONTINUOUS
10
0.020594
20
-0.003517
30
0.0
11
0.021934
21
-0.006784
31
0.0
0
LINE
8
0
6
CONTINUOUS
10
0.026917
20
-0.011767
30
0.0
11
0.030183
21
-0.013106
31
0.0
0
LINE
8
0
6
CONTINUOUS
10
0.030183
20
-0.013106
30
0.0
11
0.033700
21
-0.013609
31
0.0
0
LINE
8
0
6
CONTINUOUS
10
0.009631
20
-0.009632
30
0.0
11
0.011766
21
-0.006784
31
0.0
0
LINE
8
0
6
CONTINUOUS
10
0.006783
20
-0.011767
30
0.0
11
0.009631
21
-0.009632
31
0.0
0
LINE
8
0
6
CONTINUOUS
10
0.013106
20
-0.003517
30
0.0
11
0.013609
21
0.000000
31
0.0
0
LINE
8
0
6
CONTINUOUS
10
0.011766
20
-0.006784
30
0.0
11
0.013106
21
-0.003517
31
0.0
0
LINE
8
0
6
CONTINUOUS
10
0.003517
20
-0.013106
30
0.0
11
0.006783
21
-0.011767
31
0.0
0
LINE
8
0
6
CONTINUOUS
10
0.000000
20
-0.013609
30
0.0
11
0.003517
21
-0.013106
31
0.0
0
LINE
8
0
6
CONTINUOUS
10
-0.037271
20
0.013305
30
0.0
11
-0.033700
21
0.013816
31
0.0
0
LINE
8
0
6
CONTINUOUS
10
-0.045645
20
0.006887
30
0.0
11
-0.043478
21
0.009778
31
0.0
0
LINE
8
0
6
CONTINUOUS
10
-0.040587
20
0.011946
30
0.0
11
-0.037271
21
0.013305
31
0.0
0
LINE
8
0
6
CONTINUOUS
10
-0.047006
20
0.003571
30
0.0
11
-0.045645
21
0.006887
31
0.0
0
LINE
8
0
6
CONTINUOUS
10
-0.047516
20
0.000000
30
0.0
11
-0.047006
21
0.003571
31
0.0
0
LINE
8
0
6
CONTINUOUS
10
-0.043478
20
0.009778
30
0.0
11
-0.040587
21
0.011946
31
0.0
0
LINE
8
0
6
CONTINUOUS
10
-0.033700
20
0.013816
30
0.0
11
-0.030129
21
0.013305
31
0.0
0
LINE
8
0
6
CONTINUOUS
10
-0.023922
20
0.009778
30
0.0
11
-0.021755
21
0.006887
31
0.0
0
LINE
8
0
6
CONTINUOUS
10
-0.030129
20
0.013305
30
0.0
11
-0.026813
21
0.011946
31
0.0
0
LINE
8
0
6
CONTINUOUS
10
-0.021755
20
0.006887
30
0.0
11
-0.020394
21
0.003571
31
0.0
0
LINE
8
0
6
CONTINUOUS
10
-0.020394
20
0.003571
30
0.0
11
-0.019884
21
0.000000
31
0.0
0
LINE
8
0
6
CONTINUOUS
10
-0.026813
20
0.011946
30
0.0
11
-0.023922
21
0.009778
31
0.0
0
LINE
8
0
6
CONTINUOUS
10
-0.003571
20
0.013305
30
0.0
11
0.000000
21
0.013816
31
0.0
0
LINE
8
0
6
CONTINUOUS
10
-0.011945
20
0.006887
30
0.0
11
-0.009778
21
0.009778
31
0.0
0
LINE
8
0
6
CONTINUOUS
10
-0.006887
20
0.011946
30
0.0
11
-0.003571
21
0.013305
31
0.0
0
LINE
8
0
6
CONTINUOUS
10
-0.013306
20
0.003571
30
0.0
11
-0.011945
21
0.006887
31
0.0
0
LINE
8
0
6
CONTINUOUS
10
-0.013816
20
0.000000
30
0.0
11
-0.013306
21
0.003571
31
0.0
0
LINE
8
0
6
CONTINUOUS
10
-0.009778
20
0.009778
30
0.0
11
-0.006887
21
0.011946
31
0.0
0
LINE
8
0
6
CONTINUOUS
10
0.033700
20
0.013816
30
0.0
11
0.037271
21
0.013305
31
0.0
0
LINE
8
0
6
CONTINUOUS
10
0.043478
20
0.009778
30
0.0
11
0.045645
21
0.006887
31
0.0
0
LINE
8
0
6
CONTINUOUS
10
0.037271
20
0.013305
30
0.0
11
0.040587
21
0.011946
31
0.0
0
LINE
8
0
6
CONTINUOUS
10
0.045645
20
0.006887
30
0.0
11
0.047006
21
0.003571
31
0.0
0
LINE
8
0
6
CONTINUOUS
10
0.047006
20
0.003571
30
0.0
11
0.047516
21
0.000000
31
0.0
0
LINE
8
0
6
CONTINUOUS
10
0.040587
20
0.011946
30
0.0
11
0.043478
21
0.009778
31
0.0
0
LINE
8
0
6
CONTINUOUS
10
0.030129
20
0.013305
30
0.0
11
0.033700
21
0.013816
31
0.0
0
LINE
8
0
6
CONTINUOUS
10
0.021755
20
0.006887
30
0.0
11
0.023922
21
0.009778
31
0.0
0
LINE
8
0
6
CONTINUOUS
10
0.026813
20
0.011946
30
0.0
11
0.030129
21
0.013305
31
0.0
0
LINE
8
0
6
CONTINUOUS
10
0.020394
20
0.003571
30
0.0
11
0.021755
21
0.006887
31
0.0
0
LINE
8
0
6
CONTINUOUS
10
0.019884
20
0.000000
30
0.0
11
0.020394
21
0.003571
31
0.0
0
LINE
8
0
6
CONTINUOUS
10
0.023922
20
0.009778
30
0.0
11
0.026813
21
0.011946
31
0.0
0
LINE
8
0
6
CONTINUOUS
10
0.000000
20
0.013816
30
0.0
11
0.003571
21
0.013305
31
0.0
0
LINE
8
0
6
CONTINUOUS
10
0.009778
20
0.009778
30
0.0
11
0.011945
21
0.006887
31
0.0
0
LINE
8
0
6
CONTINUOUS
10
0.003571
20
0.013305
30
0.0
11
0.006887
21
0.011946
31
0.0
0
LINE
8
0
6
CONTINUOUS
10
0.011945
20
0.006887
30
0.0
11
0.013306
21
0.003571
31
0.0
0
LINE
8
0
6
CONTINUOUS
10
0.013306
20
0.003571
30
0.0
11
0.013816
21
0.000000
31
0.0
0
LINE
8
0
6
CONTINUOUS
10
0.006887
20
0.011946
30
0.0
11
0.009778
21
0.009778
31
0.0
0
LINE
8
0
6
CONTINUOUS
10
-0.033700
20
-0.013816
30
0.0
11
-0.037271
21
-0.013305
31
0.0
0
LINE
8
0
6
CONTINUOUS
10
-0.043478
20
-0.009778
30
0.0
11
-0.045645
21
-0.006887
31
0.0
0
LINE
8
0
6
CONTINUOUS
10
-0.037271
20
-0.013305
30
0.0
11
-0.040587
21
-0.011946
31
0.0
0
LINE
8
0
6
CONTINUOUS
10
-0.045645
20
-0.006887
30
0.0
11
-0.047006
21
-0.003571
31
0.0
0
LINE
8
0
6
CONTINUOUS
10
-0.047006
20
-0.003571
30
0.0
11
-0.047516
21
0.000000
31
0.0
0
LINE
8
0
6
CONTINUOUS
10
-0.040587
20
-0.011946
30
0.0
11
-0.043478
21
-0.009778
31
0.0
0
LINE
8
0
6
CONTINUOUS
10
-0.030129
20
-0.013305
30
0.0
11
-0.033700
21
-0.013816
31
0.0
0
LINE
8
0
6
CONTINUOUS
10
-0.021755
20
-0.006887
30
0.0
11
-0.023922
21
-0.009778
31
0.0
0
LINE
8
0
6
CONTINUOUS
10
-0.026813
20
-0.011946
30
0.0
11
-0.030129
21
-0.013305
31
0.0
0
LINE
8
0
6
CONTINUOUS
10
-0.020394
20
-0.003571
30
0.0
11
-0.021755
21
-0.006887
31
0.0
0
LINE
8
0
6
CONTINUOUS
10
-0.019884
20
0.000000
30
0.0
11
-0.020394
21
-0.003571
31
0.0
0
LINE
8
0
6
CONTINUOUS
10
-0.023922
20
-0.009778
30
0.0
11
-0.026813
21
-0.011946
31
0.0
0
LINE
8
0
6
CONTINUOUS
10
0.000000
20
-0.013816
30
0.0
11
-0.003571
21
-0.013305
31
0.0
0
LINE
8
0
6
CONTINUOUS
10
-0.009778
20
-0.009778
30
0.0
11
-0.011945
21
-0.006887
31
0.0
0
LINE
8
0
6
CONTINUOUS
10
-0.003571
20
-0.013305
30
0.0
11
-0.006887
21
-0.011946
31
0.0
0
LINE
8
0
6
CONTINUOUS
10
-0.011945
20
-0.006887
30
0.0
11
-0.013306
21
-0.003571
31
0.0
0
LINE
8
0
6
CONTINUOUS
10
-0.013306
20
-0.003571
30
0.0
11
-0.013816
21
0.000000
31
0.0
0
LINE
8
0
6
CONTINUOUS
10
-0.006887
20
-0.011946
30
0.0
11
-0.009778
21
-0.009778
31
0.0
0
LINE
8
0
6
CONTINUOUS
10
0.037271
20
-0.013305
30
0.0
11
0.033700
21
-0.013816
31
0.0
0
LINE
8
0
6
CONTINUOUS
10
0.045645
20
-0.006887
30
0.0
11
0.043478
21
-0.009778
31
0.0
0
LINE
8
0
6
CONTINUOUS
10
0.040587
20
-0.011946
30
0.0
11
0.037271
21
-0.013305
31
0.0
0
LINE
8
0
6
CONTINUOUS
10
0.047006
20
-0.003571
30
0.0
11
0.045645
21
-0.006887
31
0.0
0
LINE
8
0
6
CONTINUOUS
10
0.047516
20
0.000000
30
0.0
11
0.047006
21
-0.003571
31
0.0
0
LINE
8
0
6
CONTINUOUS
10
0.043478
20
-0.009778
30
0.0
11
0.040587
21
-0.011946
31
0.0
0
LINE
8
0
6
CONTINUOUS
10
0.033700
20
-0.013816
30
0.0
11
0.030129
21
-0.013305
31
0.0
0
LINE
8
0
6
CONTINUOUS
10
0.023922
20
-0.009778
30
0.0
11
0.021755
21
-0.006887
31
0.0
0
LINE
8
0
6
CONTINUOUS
10
0.030129
20
-0.013305
30
0.0
11
0.026813
21
-0.011946
31
0.0
0
LINE
8
0
6
CONTINUOUS
10
0.021755
20
-0.006887
30
0.0
11
0.020394
21
-0.003571
31
0.0
0
LINE
8
0
6
CONTINUOUS
10
0.020394
20
-0.003571
30
0.0
11
0.019884
21
0.000000
31
0.0
0
LINE
8
0
6
CONTINUOUS
10
0.026813
20
-0.011946
30
0.0
11
0.023922
21
-0.009778
31
0.0
0
LINE
8
0
6
CONTINUOUS
10
0.003571
20
-0.013305
30
0.0
11
0.000000
21
-0.013816
31
0.0
0
LINE
8
0
6
CONTINUOUS
10
0.011945
20
-0.006887
30
0.0
11
0.009778
21
-0.009778
31
0.0
0
LINE
8
0
6
CONTINUOUS
10
0.006887
20
-0.011946
30
0.0
11
0.003571
21
-0.013305
31
0.0
0
LINE
8
0
6
CONTINUOUS
10
0.013306
20
-0.003571
30
0.0
11
0.011945
21
-0.006887
31
0.0
0
LINE
8
0
6
CONTINUOUS
10
0.013816
20
0.000000
30
0.0
11
0.013306
21
-0.003571
31
0.0
0
LINE
8
0
6
CONTINUOUS
10
0.009778
20
-0.009778
30
0.0
11
0.006887
21
-0.011946
31
0.0
0
LINE
8
0
6
CONTINUOUS
10
0.000000
20
0.085000
30
0.0
11
-0.033700
21
0.085000
31
0.0
0
LINE
8
0
6
CONTINUOUS
10
-0.070000
20
0.085000
30
0.0
11
-0.075740
21
0.083858
31
0.0
0
LINE
8
0
6
CONTINUOUS
10
-0.075740
20
0.083858
30
0.0
11
-0.080607
21
0.080607
31
0.0
0
LINE
8
0
6
CONTINUOUS
10
-0.080607
20
0.080607
30
0.0
11
-0.083858
21
0.075740
31
0.0
0
LINE
8
0
6
CONTINUOUS
10
-0.083858
20
0.075740
30
0.0
11
-0.085000
21
0.070000
31
0.0
0
LINE
8
0
6
CONTINUOUS
10
-0.085000
20
0.070000
30
0.0
11
-0.085000
21
0.000000
31
0.0
0
LINE
8
0
6
CONTINUOUS
10
-0.033700
20
0.085000
30
0.0
11
-0.070000
21
0.085000
31
0.0
0
LINE
8
0
6
CONTINUOUS
10
0.033700
20
0.085000
30
0.0
11
0.000000
21
0.085000
31
0.0
0
LINE
8
0
6
CONTINUOUS
10
0.075740
20
0.083858
30
0.0
11
0.070000
21
0.085000
31
0.0
0
LINE
8
0
6
CONTINUOUS
10
0.080607
20
0.080607
30
0.0
11
0.075740
21
0.083858
31
0.0
0
LINE
8
0
6
CONTINUOUS
10
0.083858
20
0.075740
30
0.0
11
0.080607
21
0.080607
31
0.0
0
LINE
8
0
6
CONTINUOUS
10
0.085000
20
0.070000
30
0.0
11
0.083858
21
0.075740
31
0.0
0
LINE
8
0
6
CONTINUOUS
10
0.085000
20
0.000000
30
0.0
11
0.085000
21
0.070000
31
0.0
0
LINE
8
0
6
CONTINUOUS
10
0.070000
20
0.085000
30
0.0
11
0.033700
21
0.085000
31
0.0
0
LINE
8
0
6
CONTINUOUS
10
-0.033700
20
-0.085000
30
0.0
11
0.000000
21
-0.085000
31
0.0
0
LINE
8
0
6
CONTINUOUS
10
-0.075740
20
-0.083858
30
0.0
11
-0.070000
21
-0.085000
31
0.0
0
LINE
8
0
6
CONTINUOUS
10
-0.080607
20
-0.080607
30
0.0
11
-0.075740
21
-0.083858
31
0.0
0
LINE
8
0
6
CONTINUOUS
10
-0.083858
20
-0.075740
30
0.0
11
-0.080607
21
-0.080607
31
0.0
0
LINE
8
0
6
CONTINUOUS
10
-0.085000
20
-0.070000
30
0.0
11
-0.083858
21
-0.075740
31
0.0
0
LINE
8
0
6
CONTINUOUS
10
-0.085000
20
0.000000
30
0.0
11
-0.085000
21
-0.070000
31
0.0
0
LINE
8
0
6
CONTINUOUS
10
-0.070000
20
-0.085000
30
0.0
11
-0.033700
21
-0.085000
31
0.0
0
LINE
8
0
6
CONTINUOUS
10
0.000000
20
-0.085000
30
0.0
11
0.033700
21
-0.085000
31
0.0
0
LINE
8
0
6
CONTINUOUS
10
0.070000
20
-0.085000
30
0.0
11
0.075740
21
-0.083858
31
0.0
0
LINE
8
0
6
CONTINUOUS
10
0.075740
20
-0.083858
30
0.0
11
0.080607
21
-0.080607
31
0.0
0
LINE
8
0
6
CONTINUOUS
10
0.080607
20
-0.080607
30
0.0
11
0.083858
21
-0.075740
31
0.0
0
LINE
8
0
6
CONTINUOUS
10
0.083858
20
-0.075740
30
0.0
11
0.085000
21
-0.070000
31
0.0
0
LINE
8
0
6
CONTINUOUS
10
0.085000
20
-0.070000
30
0.0
11
0.085000
21
0.000000
31
0.0
0
LINE
8
0
6
CONTINUOUS
10
0.033700
20
-0.085000
30
0.0
11
0.070000
21
-0.085000
31
0.0
0
ENDSEC
0
EOF
