999
unknown String-ID: 20550
0
SECTION
2
HEADER
9
$ACADVER
1
AC1009
9
$DWGCODEPAGE
3
unknown String-ID: 20561
0
ENDSEC
0
SECTION
2
TABLES
0
TABLE
2
LAYER
70
1
0
LAYER
2
0
70
0
62
7
6
CONTINUOUS
0
ENDTAB
0
ENDSEC
0
SECTION
2
ENTITIES
0
LINE
8
0
6
CONTINUOUS
10
-0.083858
20
0.034023
30
0.0
11
-0.085000
21
0.034023
31
0.0
0
LINE
8
0
6
CONTINUOUS
10
-0.085000
20
0.034023
30
0.0
11
-0.085000
21
0.033294
31
0.0
0
LINE
8
0
6
CONTINUOUS
10
-0.070000
20
0.034023
30
0.0
11
-0.075740
21
0.034023
31
0.0
0
LINE
8
0
6
CONTINUOUS
10
-0.080607
20
0.034023
30
0.0
11
-0.083858
21
0.034023
31
0.0
0
LINE
8
0
6
CONTINUOUS
10
-0.075740
20
0.034023
30
0.0
11
-0.080607
21
0.034023
31
0.0
0
LINE
8
0
6
CONTINUOUS
10
0.085000
20
0.034023
30
0.0
11
0.083858
21
0.034023
31
0.0
0
LINE
8
0
6
CONTINUOUS
10
0.085000
20
0.033294
30
0.0
11
0.085000
21
0.034023
31
0.0
0
LINE
8
0
6
CONTINUOUS
10
0.075740
20
0.034023
30
0.0
11
0.070000
21
0.034023
31
0.0
0
LINE
8
0
6
CONTINUOUS
10
0.083858
20
0.034023
30
0.0
11
0.080607
21
0.034023
31
0.0
0
LINE
8
0
6
CONTINUOUS
10
0.080607
20
0.034023
30
0.0
11
0.075740
21
0.034023
31
0.0
0
LINE
8
0
6
CONTINUOUS
10
-0.085000
20
0.015023
30
0.0
11
-0.084532
21
0.014316
31
0.0
0
LINE
8
0
6
CONTINUOUS
10
-0.083402
20
0.014023
30
0.0
11
-0.082234
21
0.014023
31
0.0
0
LINE
8
0
6
CONTINUOUS
10
-0.084532
20
0.014316
30
0.0
11
-0.083402
21
0.014023
31
0.0
0
LINE
8
0
6
CONTINUOUS
10
-0.082234
20
0.014023
30
0.0
11
-0.078918
21
0.014023
31
0.0
0
LINE
8
0
6
CONTINUOUS
10
-0.078918
20
0.014023
30
0.0
11
-0.073947
21
0.014023
31
0.0
0
LINE
8
0
6
CONTINUOUS
10
-0.073947
20
0.014023
30
0.0
11
-0.068016
21
0.014023
31
0.0
0
LINE
8
0
6
CONTINUOUS
10
-0.068016
20
0.014023
30
0.0
11
0.000000
21
0.014023
31
0.0
0
LINE
8
0
6
CONTINUOUS
10
0.083402
20
0.014023
30
0.0
11
0.084532
21
0.014316
31
0.0
0
LINE
8
0
6
CONTINUOUS
10
0.082234
20
0.014023
30
0.0
11
0.083402
21
0.014023
31
0.0
0
LINE
8
0
6
CONTINUOUS
10
0.084532
20
0.014316
30
0.0
11
0.085000
21
0.015023
31
0.0
0
LINE
8
0
6
CONTINUOUS
10
0.078918
20
0.014023
30
0.0
11
0.082234
21
0.014023
31
0.0
0
LINE
8
0
6
CONTINUOUS
10
0.073947
20
0.014023
30
0.0
11
0.078918
21
0.014023
31
0.0
0
LINE
8
0
6
CONTINUOUS
10
0.068016
20
0.014023
30
0.0
11
0.073947
21
0.014023
31
0.0
0
LINE
8
0
6
CONTINUOUS
10
0.000000
20
0.014023
30
0.0
11
0.068016
21
0.014023
31
0.0
0
LINE
8
0
6
CONTINUOUS
10
-0.085000
20
0.015473
30
0.0
11
-0.085000
21
0.015023
31
0.0
0
LINE
8
0
6
CONTINUOUS
10
0.085000
20
0.015023
30
0.0
11
0.085000
21
0.015473
31
0.0
0
LINE
8
0
6
CONTINUOUS
10
-0.085000
20
0.033294
30
0.0
11
-0.085000
21
0.015473
31
0.0
0
LINE
8
0
6
CONTINUOUS
10
0.085000
20
0.015473
30
0.0
11
0.085000
21
0.033294
31
0.0
0
LINE
8
0
6
CONTINUOUS
10
0.000000
20
0.034023
30
0.0
11
-0.070000
21
0.034023
31
0.0
0
LINE
8
0
6
CONTINUOUS
10
0.070000
20
0.034023
30
0.0
11
0.000000
21
0.034023
31
0.0
0
LINE
8
0
6
CONTINUOUS
10
-0.023789
20
-0.033839
30
0.0
11
-0.023389
21
-0.034023
31
0.0
0
LINE
8
0
6
CONTINUOUS
10
-0.023389
20
-0.034023
30
0.0
11
-0.022802
21
-0.034023
31
0.0
0
LINE
8
0
6
CONTINUOUS
10
-0.022802
20
-0.034023
30
0.0
11
-0.021072
21
-0.034023
31
0.0
0
LINE
8
0
6
CONTINUOUS
10
-0.021072
20
-0.034023
30
0.0
11
-0.018286
21
-0.034023
31
0.0
0
LINE
8
0
6
CONTINUOUS
10
-0.010148
20
-0.034023
30
0.0
11
-0.005205
21
-0.034023
31
0.0
0
LINE
8
0
6
CONTINUOUS
10
-0.005205
20
-0.034023
30
0.0
11
-0.000000
21
-0.034023
31
0.0
0
LINE
8
0
6
CONTINUOUS
10
-0.000000
20
-0.034023
30
0.0
11
0.005204
21
-0.034023
31
0.0
0
LINE
8
0
6
CONTINUOUS
10
0.005204
20
-0.034023
30
0.0
11
0.010148
21
-0.034023
31
0.0
0
LINE
8
0
6
CONTINUOUS
10
0.018286
20
-0.034023
30
0.0
11
0.021072
21
-0.034023
31
0.0
0
LINE
8
0
6
CONTINUOUS
10
0.021072
20
-0.034023
30
0.0
11
0.022802
21
-0.034023
31
0.0
0
LINE
8
0
6
CONTINUOUS
10
0.023389
20
-0.034023
30
0.0
11
0.023789
21
-0.033839
31
0.0
0
LINE
8
0
6
CONTINUOUS
10
0.022802
20
-0.034023
30
0.0
11
0.023389
21
-0.034023
31
0.0
0
LINE
8
0
6
CONTINUOUS
10
-0.022030
20
0.004565
30
0.0
11
-0.022030
21
0.003045
31
0.0
0
LINE
8
0
6
CONTINUOUS
10
-0.009559
20
0.003045
30
0.0
11
-0.004902
21
0.003045
31
0.0
0
LINE
8
0
6
CONTINUOUS
10
0.022030
20
0.003045
30
0.0
11
0.022030
21
0.004565
31
0.0
0
LINE
8
0
6
CONTINUOUS
10
-0.000000
20
0.003045
30
0.0
11
0.004902
21
0.003045
31
0.0
0
LINE
8
0
6
CONTINUOUS
10
-0.004902
20
0.003045
30
0.0
11
-0.000000
21
0.003045
31
0.0
0
LINE
8
0
6
CONTINUOUS
10
0.004902
20
0.003045
30
0.0
11
0.009559
21
0.003045
31
0.0
0
LINE
8
0
6
CONTINUOUS
10
-0.024168
20
0.002777
30
0.0
11
-0.024168
21
-0.033024
31
0.0
0
LINE
8
0
6
CONTINUOUS
10
0.024168
20
-0.033025
30
0.0
11
0.024168
21
0.002777
31
0.0
0
LINE
8
0
6
CONTINUOUS
10
0.021774
20
0.003045
30
0.0
11
0.018895
21
0.003045
31
0.0
0
LINE
8
0
6
CONTINUOUS
10
-0.015068
20
0.003045
30
0.0
11
-0.018895
21
0.003045
31
0.0
0
LINE
8
0
6
CONTINUOUS
10
0.023562
20
0.003045
30
0.0
11
0.021774
21
0.003045
31
0.0
0
LINE
8
0
6
CONTINUOUS
10
0.010486
20
0.003045
30
0.0
11
0.005378
21
0.003045
31
0.0
0
LINE
8
0
6
CONTINUOUS
10
-0.024168
20
0.003045
30
0.0
11
-0.024168
21
0.002777
31
0.0
0
LINE
8
0
6
CONTINUOUS
10
-0.023562
20
0.003045
30
0.0
11
-0.024168
21
0.003045
31
0.0
0
LINE
8
0
6
CONTINUOUS
10
-0.005378
20
0.003045
30
0.0
11
-0.010486
21
0.003045
31
0.0
0
LINE
8
0
6
CONTINUOUS
10
0.024168
20
0.002777
30
0.0
11
0.024168
21
0.003045
31
0.0
0
LINE
8
0
6
CONTINUOUS
10
0.024168
20
0.003045
30
0.0
11
0.023562
21
0.003045
31
0.0
0
LINE
8
0
6
CONTINUOUS
10
-0.021774
20
0.003045
30
0.0
11
-0.023562
21
0.003045
31
0.0
0
LINE
8
0
6
CONTINUOUS
10
0.018895
20
0.003045
30
0.0
11
0.015068
21
0.003045
31
0.0
0
LINE
8
0
6
CONTINUOUS
10
-0.000000
20
0.003045
30
0.0
11
-0.005378
21
0.003045
31
0.0
0
LINE
8
0
6
CONTINUOUS
10
-0.018895
20
0.003045
30
0.0
11
-0.021774
21
0.003045
31
0.0
0
LINE
8
0
6
CONTINUOUS
10
0.005378
20
0.003045
30
0.0
11
-0.000000
21
0.003045
31
0.0
0
LINE
8
0
6
CONTINUOUS
10
-0.024168
20
-0.033099
30
0.0
11
-0.024073
21
-0.033516
31
0.0
0
LINE
8
0
6
CONTINUOUS
10
-0.024073
20
-0.033516
30
0.0
11
-0.023789
21
-0.033839
31
0.0
0
LINE
8
0
6
CONTINUOUS
10
0.024073
20
-0.033516
30
0.0
11
0.024168
21
-0.033099
31
0.0
0
LINE
8
0
6
CONTINUOUS
10
0.023789
20
-0.033839
30
0.0
11
0.024073
21
-0.033516
31
0.0
0
LINE
8
0
6
CONTINUOUS
10
-0.014583
20
-0.034023
30
0.0
11
-0.010148
21
-0.034023
31
0.0
0
LINE
8
0
6
CONTINUOUS
10
0.010148
20
-0.034023
30
0.0
11
0.014583
21
-0.034023
31
0.0
0
LINE
8
0
6
CONTINUOUS
10
-0.010486
20
0.003045
30
0.0
11
-0.015068
21
0.003045
31
0.0
0
LINE
8
0
6
CONTINUOUS
10
-0.024168
20
-0.033024
30
0.0
11
-0.024168
21
-0.033099
31
0.0
0
LINE
8
0
6
CONTINUOUS
10
0.015068
20
0.003045
30
0.0
11
0.010486
21
0.003045
31
0.0
0
LINE
8
0
6
CONTINUOUS
10
0.024168
20
-0.033099
30
0.0
11
0.024168
21
-0.033025
31
0.0
0
LINE
8
0
6
CONTINUOUS
10
0.000014
20
-0.012253
30
0.0
11
0.001179
21
-0.012099
31
0.0
0
LINE
8
0
6
CONTINUOUS
10
0.001179
20
-0.012099
30
0.0
11
0.002265
21
-0.011650
31
0.0
0
LINE
8
0
6
CONTINUOUS
10
0.002265
20
-0.011650
30
0.0
11
0.003198
21
-0.010934
31
0.0
0
LINE
8
0
6
CONTINUOUS
10
0.003198
20
-0.010934
30
0.0
11
0.003913
21
-0.010002
31
0.0
0
LINE
8
0
6
CONTINUOUS
10
0.003913
20
-0.010002
30
0.0
11
0.004363
21
-0.008916
31
0.0
0
LINE
8
0
6
CONTINUOUS
10
0.004363
20
-0.008916
30
0.0
11
0.004516
21
-0.007751
31
0.0
0
LINE
8
0
6
CONTINUOUS
10
0.004516
20
-0.007751
30
0.0
11
0.004363
21
-0.006586
31
0.0
0
LINE
8
0
6
CONTINUOUS
10
0.004363
20
-0.006586
30
0.0
11
0.003913
21
-0.005500
31
0.0
0
LINE
8
0
6
CONTINUOUS
10
0.003913
20
-0.005500
30
0.0
11
0.003198
21
-0.004567
31
0.0
0
LINE
8
0
6
CONTINUOUS
10
0.003198
20
-0.004567
30
0.0
11
0.002265
21
-0.003852
31
0.0
0
LINE
8
0
6
CONTINUOUS
10
0.002265
20
-0.003852
30
0.0
11
0.001179
21
-0.003402
31
0.0
0
LINE
8
0
6
CONTINUOUS
10
0.001179
20
-0.003402
30
0.0
11
0.000014
21
-0.003249
31
0.0
0
LINE
8
0
6
CONTINUOUS
10
0.000014
20
-0.003249
30
0.0
11
-0.001151
21
-0.003402
31
0.0
0
LINE
8
0
6
CONTINUOUS
10
-0.001151
20
-0.003402
30
0.0
11
-0.002237
21
-0.003852
31
0.0
0
LINE
8
0
6
CONTINUOUS
10
-0.002237
20
-0.003852
30
0.0
11
-0.003169
21
-0.004567
31
0.0
0
LINE
8
0
6
CONTINUOUS
10
-0.003169
20
-0.004567
30
0.0
11
-0.003885
21
-0.005500
31
0.0
0
LINE
8
0
6
CONTINUOUS
10
-0.003885
20
-0.005500
30
0.0
11
-0.004335
21
-0.006586
31
0.0
0
LINE
8
0
6
CONTINUOUS
10
-0.004335
20
-0.006586
30
0.0
11
-0.004488
21
-0.007751
31
0.0
0
LINE
8
0
6
CONTINUOUS
10
-0.004488
20
-0.007751
30
0.0
11
-0.004335
21
-0.008916
31
0.0
0
LINE
8
0
6
CONTINUOUS
10
-0.004335
20
-0.008916
30
0.0
11
-0.003885
21
-0.010002
31
0.0
0
LINE
8
0
6
CONTINUOUS
10
-0.003885
20
-0.010002
30
0.0
11
-0.003169
21
-0.010934
31
0.0
0
LINE
8
0
6
CONTINUOUS
10
-0.003169
20
-0.010934
30
0.0
11
-0.002237
21
-0.011650
31
0.0
0
LINE
8
0
6
CONTINUOUS
10
-0.002237
20
-0.011650
30
0.0
11
-0.001151
21
-0.012099
31
0.0
0
LINE
8
0
6
CONTINUOUS
10
-0.001151
20
-0.012099
30
0.0
11
0.000014
21
-0.012253
31
0.0
0
LINE
8
0
6
CONTINUOUS
10
-0.023701
20
0.004565
30
0.0
11
-0.021903
21
0.004565
31
0.0
0
LINE
8
0
6
CONTINUOUS
10
-0.010548
20
0.004565
30
0.0
11
-0.005410
21
0.004565
31
0.0
0
LINE
8
0
6
CONTINUOUS
10
-0.015158
20
0.004565
30
0.0
11
-0.010548
21
0.004565
31
0.0
0
LINE
8
0
6
CONTINUOUS
10
0.005410
20
0.004565
30
0.0
11
0.010548
21
0.004565
31
0.0
0
LINE
8
0
6
CONTINUOUS
10
0.024311
20
0.004880
30
0.0
11
0.024311
21
0.014023
31
0.0
0
LINE
8
0
6
CONTINUOUS
10
-0.024311
20
0.014023
30
0.0
11
-0.024311
21
0.004880
31
0.0
0
LINE
8
0
6
CONTINUOUS
10
-0.005410
20
0.004565
30
0.0
11
-0.000000
21
0.004565
31
0.0
0
LINE
8
0
6
CONTINUOUS
10
0.010548
20
0.004565
30
0.0
11
0.015158
21
0.004565
31
0.0
0
LINE
8
0
6
CONTINUOUS
10
-0.024311
20
0.004880
30
0.0
11
-0.024311
21
0.004565
31
0.0
0
LINE
8
0
6
CONTINUOUS
10
-0.024311
20
0.004565
30
0.0
11
-0.023701
21
0.004565
31
0.0
0
LINE
8
0
6
CONTINUOUS
10
-0.019007
20
0.004565
30
0.0
11
-0.015158
21
0.004565
31
0.0
0
LINE
8
0
6
CONTINUOUS
10
0.024311
20
0.004565
30
0.0
11
0.024311
21
0.004880
31
0.0
0
LINE
8
0
6
CONTINUOUS
10
0.023701
20
0.004565
30
0.0
11
0.024311
21
0.004565
31
0.0
0
LINE
8
0
6
CONTINUOUS
10
0.021903
20
0.004565
30
0.0
11
0.023701
21
0.004565
31
0.0
0
LINE
8
0
6
CONTINUOUS
10
-0.000000
20
0.004565
30
0.0
11
0.005410
21
0.004565
31
0.0
0
ENDSEC
0
EOF
