999
unknown String-ID: 20550
0
SECTION
2
HEADER
9
$ACADVER
1
AC1009
9
$DWGCODEPAGE
3
unknown String-ID: 20561
0
ENDSEC
0
SECTION
2
TABLES
0
TABLE
2
LAYER
70
1
0
LAYER
2
0
70
0
62
7
6
CONTINUOUS
0
ENDTAB
0
ENDSEC
0
SECTION
2
ENTITIES
0
LINE
8
0
6
CONTINUOUS
10
-0.019023
20
0.075500
30
0.0
11
-0.015023
21
0.075500
31
0.0
0
LINE
8
0
6
CONTINUOUS
10
-0.019023
20
0.075500
30
0.0
11
-0.015023
21
0.075500
31
0.0
0
LINE
8
0
6
CONTINUOUS
10
-0.015023
20
0.075500
30
0.0
11
-0.019023
21
0.075500
31
0.0
0
LINE
8
0
6
CONTINUOUS
10
-0.019023
20
0.075500
30
0.0
11
-0.015023
21
0.075500
31
0.0
0
LINE
8
0
6
CONTINUOUS
10
-0.015023
20
0.075500
30
0.0
11
-0.019023
21
0.075500
31
0.0
0
LINE
8
0
6
CONTINUOUS
10
-0.019023
20
0.075500
30
0.0
11
-0.015023
21
0.075500
31
0.0
0
LINE
8
0
6
CONTINUOUS
10
-0.015023
20
0.075500
30
0.0
11
-0.015023
21
0.026625
31
0.0
0
LINE
8
0
6
CONTINUOUS
10
-0.015023
20
0.026625
30
0.0
11
-0.015023
21
0.025500
31
0.0
0
LINE
8
0
6
CONTINUOUS
10
-0.019023
20
0.075500
30
0.0
11
-0.015023
21
0.075500
31
0.0
0
LINE
8
0
6
CONTINUOUS
10
-0.019023
20
0.075500
30
0.0
11
-0.019023
21
0.025500
31
0.0
0
LINE
8
0
6
CONTINUOUS
10
-0.019023
20
0.025500
30
0.0
11
-0.015023
21
0.025500
31
0.0
0
LINE
8
0
6
CONTINUOUS
10
-0.015023
20
0.075500
30
0.0
11
-0.019023
21
0.075500
31
0.0
0
LINE
8
0
6
CONTINUOUS
10
-0.015023
20
0.025500
30
0.0
11
-0.015023
21
0.075500
31
0.0
0
LINE
8
0
6
CONTINUOUS
10
-0.019023
20
0.025500
30
0.0
11
-0.015023
21
0.025500
31
0.0
0
LINE
8
0
6
CONTINUOUS
10
-0.019023
20
0.075500
30
0.0
11
-0.019023
21
0.074375
31
0.0
0
LINE
8
0
6
CONTINUOUS
10
-0.019023
20
0.074275
30
0.0
11
-0.019023
21
0.026725
31
0.0
0
LINE
8
0
6
CONTINUOUS
10
-0.019023
20
0.026625
30
0.0
11
-0.019023
21
0.025500
31
0.0
0
LINE
8
0
6
CONTINUOUS
10
-0.015023
20
0.075500
30
0.0
11
-0.019023
21
0.075500
31
0.0
0
LINE
8
0
6
CONTINUOUS
10
-0.019023
20
0.075500
30
0.0
11
-0.015023
21
0.075500
31
0.0
0
LINE
8
0
6
CONTINUOUS
10
-0.015023
20
0.025500
30
0.0
11
-0.015023
21
-0.025500
31
0.0
0
LINE
8
0
6
CONTINUOUS
10
-0.019023
20
0.025500
30
0.0
11
-0.015023
21
0.025500
31
0.0
0
LINE
8
0
6
CONTINUOUS
10
-0.019023
20
0.025500
30
0.0
11
-0.019023
21
-0.025500
31
0.0
0
LINE
8
0
6
CONTINUOUS
10
-0.019023
20
-0.025500
30
0.0
11
-0.015023
21
-0.025500
31
0.0
0
LINE
8
0
6
CONTINUOUS
10
-0.015023
20
0.025500
30
0.0
11
-0.019023
21
0.025500
31
0.0
0
LINE
8
0
6
CONTINUOUS
10
-0.015023
20
-0.025500
30
0.0
11
-0.015023
21
0.025500
31
0.0
0
LINE
8
0
6
CONTINUOUS
10
-0.019023
20
-0.025500
30
0.0
11
-0.015023
21
-0.025500
31
0.0
0
LINE
8
0
6
CONTINUOUS
10
-0.019023
20
0.025500
30
0.0
11
-0.019023
21
-0.025500
31
0.0
0
LINE
8
0
6
CONTINUOUS
10
-0.015023
20
-0.025500
30
0.0
11
-0.015023
21
-0.075500
31
0.0
0
LINE
8
0
6
CONTINUOUS
10
-0.019023
20
-0.075500
30
0.0
11
-0.015023
21
-0.075500
31
0.0
0
LINE
8
0
6
CONTINUOUS
10
-0.019023
20
-0.025500
30
0.0
11
-0.019023
21
-0.075500
31
0.0
0
LINE
8
0
6
CONTINUOUS
10
-0.019023
20
-0.025500
30
0.0
11
-0.015023
21
-0.025500
31
0.0
0
LINE
8
0
6
CONTINUOUS
10
-0.019023
20
-0.075500
30
0.0
11
-0.015023
21
-0.075500
31
0.0
0
LINE
8
0
6
CONTINUOUS
10
-0.019023
20
-0.025500
30
0.0
11
-0.019023
21
-0.075500
31
0.0
0
LINE
8
0
6
CONTINUOUS
10
-0.015023
20
-0.025500
30
0.0
11
-0.019023
21
-0.025500
31
0.0
0
LINE
8
0
6
CONTINUOUS
10
-0.015023
20
-0.075500
30
0.0
11
-0.015023
21
-0.025500
31
0.0
0
LINE
8
0
6
CONTINUOUS
10
-0.019023
20
-0.075500
30
0.0
11
-0.015023
21
-0.075500
31
0.0
0
LINE
8
0
6
CONTINUOUS
10
-0.015023
20
-0.075500
30
0.0
11
-0.019023
21
-0.075500
31
0.0
0
LINE
8
0
6
CONTINUOUS
10
-0.088023
20
0.060358
30
0.0
11
-0.088023
21
0.061000
31
0.0
0
LINE
8
0
6
CONTINUOUS
10
-0.088023
20
-0.061000
30
0.0
11
-0.088023
21
-0.060358
31
0.0
0
LINE
8
0
6
CONTINUOUS
10
-0.088023
20
-0.023308
30
0.0
11
-0.088023
21
-0.015732
31
0.0
0
LINE
8
0
6
CONTINUOUS
10
-0.088023
20
-0.015732
30
0.0
11
-0.088023
21
-0.007962
31
0.0
0
LINE
8
0
6
CONTINUOUS
10
-0.088023
20
-0.007962
30
0.0
11
-0.088023
21
0.000000
31
0.0
0
LINE
8
0
6
CONTINUOUS
10
-0.088023
20
0.000000
30
0.0
11
-0.088023
21
0.007962
31
0.0
0
LINE
8
0
6
CONTINUOUS
10
-0.088023
20
0.007962
30
0.0
11
-0.088023
21
0.015732
31
0.0
0
LINE
8
0
6
CONTINUOUS
10
-0.088023
20
0.015732
30
0.0
11
-0.088023
21
0.023308
31
0.0
0
LINE
8
0
6
CONTINUOUS
10
-0.081023
20
0.046946
30
0.0
11
-0.081023
21
0.031493
31
0.0
0
LINE
8
0
6
CONTINUOUS
10
-0.088023
20
0.030590
30
0.0
11
-0.088023
21
0.046946
31
0.0
0
LINE
8
0
6
CONTINUOUS
10
-0.081023
20
0.031493
30
0.0
11
-0.081023
21
0.046946
31
0.0
0
LINE
8
0
6
CONTINUOUS
10
-0.088023
20
0.046946
30
0.0
11
-0.088023
21
0.030590
31
0.0
0
LINE
8
0
6
CONTINUOUS
10
-0.081023
20
0.046525
30
0.0
11
-0.081023
21
0.047645
31
0.0
0
LINE
8
0
6
CONTINUOUS
10
-0.088023
20
0.047645
30
0.0
11
-0.088023
21
0.046525
31
0.0
0
LINE
8
0
6
CONTINUOUS
10
-0.081023
20
0.047645
30
0.0
11
-0.081023
21
0.049129
31
0.0
0
LINE
8
0
6
CONTINUOUS
10
-0.088023
20
0.049129
30
0.0
11
-0.088023
21
0.047645
31
0.0
0
LINE
8
0
6
CONTINUOUS
10
-0.081023
20
0.049129
30
0.0
11
-0.081023
21
0.050809
31
0.0
0
LINE
8
0
6
CONTINUOUS
10
-0.088023
20
0.050809
30
0.0
11
-0.088023
21
0.049129
31
0.0
0
LINE
8
0
6
CONTINUOUS
10
-0.081023
20
0.050809
30
0.0
11
-0.081023
21
0.052601
31
0.0
0
LINE
8
0
6
CONTINUOUS
10
-0.088023
20
0.052601
30
0.0
11
-0.088023
21
0.050809
31
0.0
0
LINE
8
0
6
CONTINUOUS
10
-0.081023
20
0.047645
30
0.0
11
-0.081023
21
0.046525
31
0.0
0
LINE
8
0
6
CONTINUOUS
10
-0.081023
20
0.049129
30
0.0
11
-0.081023
21
0.047645
31
0.0
0
LINE
8
0
6
CONTINUOUS
10
-0.081023
20
0.050809
30
0.0
11
-0.081023
21
0.049129
31
0.0
0
LINE
8
0
6
CONTINUOUS
10
-0.081023
20
0.052601
30
0.0
11
-0.081023
21
0.050809
31
0.0
0
LINE
8
0
6
CONTINUOUS
10
-0.088023
20
0.046525
30
0.0
11
-0.088023
21
0.047645
31
0.0
0
LINE
8
0
6
CONTINUOUS
10
-0.088023
20
0.047645
30
0.0
11
-0.088023
21
0.049129
31
0.0
0
LINE
8
0
6
CONTINUOUS
10
-0.088023
20
0.049129
30
0.0
11
-0.088023
21
0.050809
31
0.0
0
LINE
8
0
6
CONTINUOUS
10
-0.088023
20
0.050809
30
0.0
11
-0.088023
21
0.052601
31
0.0
0
LINE
8
0
6
CONTINUOUS
10
-0.088023
20
0.059349
30
0.0
11
-0.088023
21
0.059601
31
0.0
0
LINE
8
0
6
CONTINUOUS
10
-0.088023
20
0.058677
30
0.0
11
-0.088023
21
0.059349
31
0.0
0
LINE
8
0
6
CONTINUOUS
10
-0.088023
20
0.057557
30
0.0
11
-0.088023
21
0.058677
31
0.0
0
LINE
8
0
6
CONTINUOUS
10
-0.088023
20
0.056073
30
0.0
11
-0.088023
21
0.057557
31
0.0
0
LINE
8
0
6
CONTINUOUS
10
-0.088023
20
0.054393
30
0.0
11
-0.088023
21
0.056073
31
0.0
0
LINE
8
0
6
CONTINUOUS
10
-0.088023
20
0.052601
30
0.0
11
-0.088023
21
0.054393
31
0.0
0
LINE
8
0
6
CONTINUOUS
10
-0.081023
20
0.059601
30
0.0
11
-0.081023
21
0.059349
31
0.0
0
LINE
8
0
6
CONTINUOUS
10
-0.081023
20
0.059349
30
0.0
11
-0.081023
21
0.058677
31
0.0
0
LINE
8
0
6
CONTINUOUS
10
-0.081023
20
0.058677
30
0.0
11
-0.081023
21
0.057557
31
0.0
0
LINE
8
0
6
CONTINUOUS
10
-0.081023
20
0.057557
30
0.0
11
-0.081023
21
0.056073
31
0.0
0
LINE
8
0
6
CONTINUOUS
10
-0.081023
20
0.056073
30
0.0
11
-0.081023
21
0.054393
31
0.0
0
LINE
8
0
6
CONTINUOUS
10
-0.081023
20
0.054393
30
0.0
11
-0.081023
21
0.052601
31
0.0
0
LINE
8
0
6
CONTINUOUS
10
-0.081023
20
0.059601
30
0.0
11
-0.088023
21
0.059601
31
0.0
0
LINE
8
0
6
CONTINUOUS
10
-0.081023
20
0.059349
30
0.0
11
-0.081023
21
0.059601
31
0.0
0
LINE
8
0
6
CONTINUOUS
10
-0.088023
20
0.059601
30
0.0
11
-0.088023
21
0.059349
31
0.0
0
LINE
8
0
6
CONTINUOUS
10
-0.081023
20
0.058677
30
0.0
11
-0.081023
21
0.059349
31
0.0
0
LINE
8
0
6
CONTINUOUS
10
-0.088023
20
0.059349
30
0.0
11
-0.088023
21
0.058677
31
0.0
0
LINE
8
0
6
CONTINUOUS
10
-0.081023
20
0.057557
30
0.0
11
-0.081023
21
0.058677
31
0.0
0
LINE
8
0
6
CONTINUOUS
10
-0.088023
20
0.058677
30
0.0
11
-0.088023
21
0.057557
31
0.0
0
LINE
8
0
6
CONTINUOUS
10
-0.081023
20
0.056073
30
0.0
11
-0.081023
21
0.057557
31
0.0
0
LINE
8
0
6
CONTINUOUS
10
-0.088023
20
0.057557
30
0.0
11
-0.088023
21
0.056073
31
0.0
0
LINE
8
0
6
CONTINUOUS
10
-0.081023
20
0.054393
30
0.0
11
-0.081023
21
0.056073
31
0.0
0
LINE
8
0
6
CONTINUOUS
10
-0.088023
20
0.056073
30
0.0
11
-0.088023
21
0.054393
31
0.0
0
LINE
8
0
6
CONTINUOUS
10
-0.081023
20
0.052601
30
0.0
11
-0.081023
21
0.054393
31
0.0
0
LINE
8
0
6
CONTINUOUS
10
-0.088023
20
0.054393
30
0.0
11
-0.088023
21
0.052601
31
0.0
0
LINE
8
0
6
CONTINUOUS
10
-0.081023
20
-0.046946
30
0.0
11
-0.081023
21
-0.031493
31
0.0
0
LINE
8
0
6
CONTINUOUS
10
-0.088023
20
-0.030589
30
0.0
11
-0.088023
21
-0.046946
31
0.0
0
LINE
8
0
6
CONTINUOUS
10
-0.081023
20
-0.031493
30
0.0
11
-0.081023
21
-0.046946
31
0.0
0
LINE
8
0
6
CONTINUOUS
10
-0.088023
20
-0.046946
30
0.0
11
-0.088023
21
-0.030589
31
0.0
0
LINE
8
0
6
CONTINUOUS
10
-0.081023
20
-0.046525
30
0.0
11
-0.081023
21
-0.047645
31
0.0
0
LINE
8
0
6
CONTINUOUS
10
-0.088023
20
-0.047645
30
0.0
11
-0.088023
21
-0.046525
31
0.0
0
LINE
8
0
6
CONTINUOUS
10
-0.081023
20
-0.047645
30
0.0
11
-0.081023
21
-0.049129
31
0.0
0
LINE
8
0
6
CONTINUOUS
10
-0.088023
20
-0.049129
30
0.0
11
-0.088023
21
-0.047645
31
0.0
0
LINE
8
0
6
CONTINUOUS
10
-0.081023
20
-0.049129
30
0.0
11
-0.081023
21
-0.050809
31
0.0
0
LINE
8
0
6
CONTINUOUS
10
-0.088023
20
-0.050809
30
0.0
11
-0.088023
21
-0.049129
31
0.0
0
LINE
8
0
6
CONTINUOUS
10
-0.081023
20
-0.050809
30
0.0
11
-0.081023
21
-0.052601
31
0.0
0
LINE
8
0
6
CONTINUOUS
10
-0.088023
20
-0.052601
30
0.0
11
-0.088023
21
-0.050809
31
0.0
0
LINE
8
0
6
CONTINUOUS
10
-0.081023
20
-0.047645
30
0.0
11
-0.081023
21
-0.046525
31
0.0
0
LINE
8
0
6
CONTINUOUS
10
-0.081023
20
-0.049129
30
0.0
11
-0.081023
21
-0.047645
31
0.0
0
LINE
8
0
6
CONTINUOUS
10
-0.081023
20
-0.050809
30
0.0
11
-0.081023
21
-0.049129
31
0.0
0
LINE
8
0
6
CONTINUOUS
10
-0.081023
20
-0.052601
30
0.0
11
-0.081023
21
-0.050809
31
0.0
0
LINE
8
0
6
CONTINUOUS
10
-0.088023
20
-0.046525
30
0.0
11
-0.088023
21
-0.047645
31
0.0
0
LINE
8
0
6
CONTINUOUS
10
-0.088023
20
-0.047645
30
0.0
11
-0.088023
21
-0.049129
31
0.0
0
LINE
8
0
6
CONTINUOUS
10
-0.088023
20
-0.049129
30
0.0
11
-0.088023
21
-0.050809
31
0.0
0
LINE
8
0
6
CONTINUOUS
10
-0.088023
20
-0.050809
30
0.0
11
-0.088023
21
-0.052601
31
0.0
0
LINE
8
0
6
CONTINUOUS
10
-0.088023
20
-0.059349
30
0.0
11
-0.088023
21
-0.059601
31
0.0
0
LINE
8
0
6
CONTINUOUS
10
-0.088023
20
-0.058677
30
0.0
11
-0.088023
21
-0.059349
31
0.0
0
LINE
8
0
6
CONTINUOUS
10
-0.088023
20
-0.057557
30
0.0
11
-0.088023
21
-0.058677
31
0.0
0
LINE
8
0
6
CONTINUOUS
10
-0.088023
20
-0.056073
30
0.0
11
-0.088023
21
-0.057557
31
0.0
0
LINE
8
0
6
CONTINUOUS
10
-0.088023
20
-0.054393
30
0.0
11
-0.088023
21
-0.056073
31
0.0
0
LINE
8
0
6
CONTINUOUS
10
-0.088023
20
-0.052601
30
0.0
11
-0.088023
21
-0.054393
31
0.0
0
LINE
8
0
6
CONTINUOUS
10
-0.081023
20
-0.059601
30
0.0
11
-0.081023
21
-0.059349
31
0.0
0
LINE
8
0
6
CONTINUOUS
10
-0.081023
20
-0.059349
30
0.0
11
-0.081023
21
-0.058677
31
0.0
0
LINE
8
0
6
CONTINUOUS
10
-0.081023
20
-0.058677
30
0.0
11
-0.081023
21
-0.057557
31
0.0
0
LINE
8
0
6
CONTINUOUS
10
-0.081023
20
-0.057557
30
0.0
11
-0.081023
21
-0.056073
31
0.0
0
LINE
8
0
6
CONTINUOUS
10
-0.081023
20
-0.056073
30
0.0
11
-0.081023
21
-0.054393
31
0.0
0
LINE
8
0
6
CONTINUOUS
10
-0.081023
20
-0.054393
30
0.0
11
-0.081023
21
-0.052601
31
0.0
0
LINE
8
0
6
CONTINUOUS
10
-0.081023
20
-0.059601
30
0.0
11
-0.088023
21
-0.059601
31
0.0
0
LINE
8
0
6
CONTINUOUS
10
-0.081023
20
-0.059349
30
0.0
11
-0.081023
21
-0.059601
31
0.0
0
LINE
8
0
6
CONTINUOUS
10
-0.088023
20
-0.059601
30
0.0
11
-0.088023
21
-0.059349
31
0.0
0
LINE
8
0
6
CONTINUOUS
10
-0.081023
20
-0.058677
30
0.0
11
-0.081023
21
-0.059349
31
0.0
0
LINE
8
0
6
CONTINUOUS
10
-0.088023
20
-0.059349
30
0.0
11
-0.088023
21
-0.058677
31
0.0
0
LINE
8
0
6
CONTINUOUS
10
-0.081023
20
-0.057557
30
0.0
11
-0.081023
21
-0.058677
31
0.0
0
LINE
8
0
6
CONTINUOUS
10
-0.088023
20
-0.058677
30
0.0
11
-0.088023
21
-0.057557
31
0.0
0
LINE
8
0
6
CONTINUOUS
10
-0.081023
20
-0.056073
30
0.0
11
-0.081023
21
-0.057557
31
0.0
0
LINE
8
0
6
CONTINUOUS
10
-0.088023
20
-0.057557
30
0.0
11
-0.088023
21
-0.056073
31
0.0
0
LINE
8
0
6
CONTINUOUS
10
-0.081023
20
-0.054393
30
0.0
11
-0.081023
21
-0.056073
31
0.0
0
LINE
8
0
6
CONTINUOUS
10
-0.088023
20
-0.056073
30
0.0
11
-0.088023
21
-0.054393
31
0.0
0
LINE
8
0
6
CONTINUOUS
10
-0.081023
20
-0.052601
30
0.0
11
-0.081023
21
-0.054393
31
0.0
0
LINE
8
0
6
CONTINUOUS
10
-0.088023
20
-0.054393
30
0.0
11
-0.088023
21
-0.052601
31
0.0
0
LINE
8
0
6
CONTINUOUS
10
-0.060903
20
0.019304
30
0.0
11
-0.066023
21
0.020000
31
0.0
0
LINE
8
0
6
CONTINUOUS
10
-0.056103
20
0.017361
30
0.0
11
-0.060903
21
0.019304
31
0.0
0
LINE
8
0
6
CONTINUOUS
10
-0.051863
20
0.014179
30
0.0
11
-0.056103
21
0.017361
31
0.0
0
LINE
8
0
6
CONTINUOUS
10
-0.048663
20
0.009929
30
0.0
11
-0.051863
21
0.014179
31
0.0
0
LINE
8
0
6
CONTINUOUS
10
-0.066023
20
0.020000
30
0.0
11
-0.071143
21
0.019304
31
0.0
0
LINE
8
0
6
CONTINUOUS
10
-0.071143
20
0.019304
30
0.0
11
-0.075943
21
0.017361
31
0.0
0
LINE
8
0
6
CONTINUOUS
10
-0.075943
20
0.017361
30
0.0
11
-0.080183
21
0.014179
31
0.0
0
LINE
8
0
6
CONTINUOUS
10
-0.080183
20
0.014179
30
0.0
11
-0.083383
21
0.009929
31
0.0
0
LINE
8
0
6
CONTINUOUS
10
-0.088023
20
0.023308
30
0.0
11
-0.088023
21
0.015732
31
0.0
0
LINE
8
0
6
CONTINUOUS
10
-0.071143
20
0.019304
30
0.0
11
-0.066023
21
0.020000
31
0.0
0
LINE
8
0
6
CONTINUOUS
10
-0.075943
20
0.017361
30
0.0
11
-0.071143
21
0.019304
31
0.0
0
LINE
8
0
6
CONTINUOUS
10
-0.088023
20
0.015732
30
0.0
11
-0.088023
21
0.007962
31
0.0
0
LINE
8
0
6
CONTINUOUS
10
-0.083383
20
0.009929
30
0.0
11
-0.080183
21
0.014179
31
0.0
0
LINE
8
0
6
CONTINUOUS
10
-0.088023
20
0.007962
30
0.0
11
-0.088023
21
0.000000
31
0.0
0
LINE
8
0
6
CONTINUOUS
10
-0.056103
20
0.017361
30
0.0
11
-0.051863
21
0.014179
31
0.0
0
LINE
8
0
6
CONTINUOUS
10
-0.066023
20
0.057350
30
0.0
11
-0.071143
21
0.057604
31
0.0
0
LINE
8
0
6
CONTINUOUS
10
-0.071143
20
0.057604
30
0.0
11
-0.075943
21
0.058260
31
0.0
0
LINE
8
0
6
CONTINUOUS
10
-0.075943
20
0.058260
30
0.0
11
-0.080183
21
0.059110
31
0.0
0
LINE
8
0
6
CONTINUOUS
10
-0.083023
20
0.059822
30
0.0
11
-0.083383
21
0.059912
31
0.0
0
LINE
8
0
6
CONTINUOUS
10
-0.083383
20
0.059912
30
0.0
11
-0.085303
21
0.060593
31
0.0
0
LINE
8
0
6
CONTINUOUS
10
-0.088023
20
0.061000
30
0.0
11
-0.088023
21
0.060358
31
0.0
0
LINE
8
0
6
CONTINUOUS
10
-0.086023
20
0.061000
30
0.0
11
-0.088023
21
0.061000
31
0.0
0
LINE
8
0
6
CONTINUOUS
10
-0.085303
20
0.060593
30
0.0
11
-0.086023
21
0.061000
31
0.0
0
LINE
8
0
6
CONTINUOUS
10
-0.071143
20
0.057604
30
0.0
11
-0.066023
21
0.057350
31
0.0
0
LINE
8
0
6
CONTINUOUS
10
-0.066023
20
0.061000
30
0.0
11
-0.071143
21
0.061000
31
0.0
0
LINE
8
0
6
CONTINUOUS
10
-0.071143
20
0.061000
30
0.0
11
-0.075943
21
0.061000
31
0.0
0
LINE
8
0
6
CONTINUOUS
10
-0.075943
20
0.058260
30
0.0
11
-0.071143
21
0.057604
31
0.0
0
LINE
8
0
6
CONTINUOUS
10
-0.075943
20
0.061000
30
0.0
11
-0.080183
21
0.061000
31
0.0
0
LINE
8
0
6
CONTINUOUS
10
-0.080183
20
0.059110
30
0.0
11
-0.075943
21
0.058260
31
0.0
0
LINE
8
0
6
CONTINUOUS
10
-0.080183
20
0.061000
30
0.0
11
-0.083383
21
0.061000
31
0.0
0
LINE
8
0
6
CONTINUOUS
10
-0.083383
20
0.059912
30
0.0
11
-0.083023
21
0.059822
31
0.0
0
LINE
8
0
6
CONTINUOUS
10
-0.083383
20
0.061000
30
0.0
11
-0.085303
21
0.061000
31
0.0
0
LINE
8
0
6
CONTINUOUS
10
-0.085303
20
0.060593
30
0.0
11
-0.083383
21
0.059912
31
0.0
0
LINE
8
0
6
CONTINUOUS
10
-0.085303
20
0.061000
30
0.0
11
-0.086023
21
0.061000
31
0.0
0
LINE
8
0
6
CONTINUOUS
10
-0.086023
20
0.061000
30
0.0
11
-0.085303
21
0.060593
31
0.0
0
LINE
8
0
6
CONTINUOUS
10
-0.060903
20
0.061000
30
0.0
11
-0.066023
21
0.061000
31
0.0
0
LINE
8
0
6
CONTINUOUS
10
-0.066023
20
0.057350
30
0.0
11
-0.060903
21
0.057604
31
0.0
0
LINE
8
0
6
CONTINUOUS
10
-0.056103
20
0.061000
30
0.0
11
-0.060903
21
0.061000
31
0.0
0
LINE
8
0
6
CONTINUOUS
10
-0.060903
20
0.057604
30
0.0
11
-0.056103
21
0.058260
31
0.0
0
LINE
8
0
6
CONTINUOUS
10
-0.051863
20
0.061000
30
0.0
11
-0.056103
21
0.061000
31
0.0
0
LINE
8
0
6
CONTINUOUS
10
-0.056103
20
0.058260
30
0.0
11
-0.051863
21
0.059110
31
0.0
0
LINE
8
0
6
CONTINUOUS
10
-0.048663
20
0.061000
30
0.0
11
-0.051863
21
0.061000
31
0.0
0
LINE
8
0
6
CONTINUOUS
10
-0.051863
20
0.059110
30
0.0
11
-0.048663
21
0.059912
31
0.0
0
LINE
8
0
6
CONTINUOUS
10
-0.046743
20
0.061000
30
0.0
11
-0.048663
21
0.061000
31
0.0
0
LINE
8
0
6
CONTINUOUS
10
-0.048663
20
0.059912
30
0.0
11
-0.046743
21
0.060593
31
0.0
0
LINE
8
0
6
CONTINUOUS
10
-0.046023
20
0.061000
30
0.0
11
-0.046743
21
0.061000
31
0.0
0
LINE
8
0
6
CONTINUOUS
10
-0.046743
20
0.060593
30
0.0
11
-0.046023
21
0.061000
31
0.0
0
LINE
8
0
6
CONTINUOUS
10
-0.060903
20
0.057604
30
0.0
11
-0.066023
21
0.057350
31
0.0
0
LINE
8
0
6
CONTINUOUS
10
-0.056103
20
0.058260
30
0.0
11
-0.060903
21
0.057604
31
0.0
0
LINE
8
0
6
CONTINUOUS
10
-0.051863
20
0.059110
30
0.0
11
-0.056103
21
0.058260
31
0.0
0
LINE
8
0
6
CONTINUOUS
10
-0.048663
20
0.059912
30
0.0
11
-0.051863
21
0.059110
31
0.0
0
LINE
8
0
6
CONTINUOUS
10
-0.046743
20
0.060593
30
0.0
11
-0.048663
21
0.059912
31
0.0
0
LINE
8
0
6
CONTINUOUS
10
0.019977
20
0.061000
30
0.0
11
-0.015023
21
0.061000
31
0.0
0
LINE
8
0
6
CONTINUOUS
10
-0.019023
20
0.061000
30
0.0
11
-0.046023
21
0.061000
31
0.0
0
LINE
8
0
6
CONTINUOUS
10
-0.046023
20
0.061000
30
0.0
11
-0.046743
21
0.060593
31
0.0
0
LINE
8
0
6
CONTINUOUS
10
-0.088023
20
0.030372
30
0.0
11
-0.088023
21
0.023308
31
0.0
0
LINE
8
0
6
CONTINUOUS
10
-0.088023
20
0.023308
30
0.0
11
-0.088023
21
0.030372
31
0.0
0
LINE
8
0
6
CONTINUOUS
10
-0.060903
20
-0.057604
30
0.0
11
-0.066023
21
-0.057350
31
0.0
0
LINE
8
0
6
CONTINUOUS
10
-0.066023
20
-0.061000
30
0.0
11
-0.060903
21
-0.061000
31
0.0
0
LINE
8
0
6
CONTINUOUS
10
-0.060903
20
-0.061000
30
0.0
11
-0.056103
21
-0.061000
31
0.0
0
LINE
8
0
6
CONTINUOUS
10
-0.056103
20
-0.058260
30
0.0
11
-0.060903
21
-0.057604
31
0.0
0
LINE
8
0
6
CONTINUOUS
10
-0.056103
20
-0.061000
30
0.0
11
-0.051863
21
-0.061000
31
0.0
0
LINE
8
0
6
CONTINUOUS
10
-0.051863
20
-0.059110
30
0.0
11
-0.056103
21
-0.058260
31
0.0
0
LINE
8
0
6
CONTINUOUS
10
-0.051863
20
-0.061000
30
0.0
11
-0.048663
21
-0.061000
31
0.0
0
LINE
8
0
6
CONTINUOUS
10
-0.048663
20
-0.059912
30
0.0
11
-0.051863
21
-0.059110
31
0.0
0
LINE
8
0
6
CONTINUOUS
10
-0.048663
20
-0.061000
30
0.0
11
-0.046743
21
-0.061000
31
0.0
0
LINE
8
0
6
CONTINUOUS
10
-0.046743
20
-0.060593
30
0.0
11
-0.048663
21
-0.059912
31
0.0
0
LINE
8
0
6
CONTINUOUS
10
-0.046743
20
-0.061000
30
0.0
11
-0.046023
21
-0.061000
31
0.0
0
LINE
8
0
6
CONTINUOUS
10
-0.046023
20
-0.061000
30
0.0
11
-0.046743
21
-0.060593
31
0.0
0
LINE
8
0
6
CONTINUOUS
10
-0.071143
20
-0.061000
30
0.0
11
-0.066023
21
-0.061000
31
0.0
0
LINE
8
0
6
CONTINUOUS
10
-0.066023
20
-0.057350
30
0.0
11
-0.071143
21
-0.057604
31
0.0
0
LINE
8
0
6
CONTINUOUS
10
-0.075943
20
-0.061000
30
0.0
11
-0.071143
21
-0.061000
31
0.0
0
LINE
8
0
6
CONTINUOUS
10
-0.071143
20
-0.057604
30
0.0
11
-0.075943
21
-0.058260
31
0.0
0
LINE
8
0
6
CONTINUOUS
10
-0.080183
20
-0.061000
30
0.0
11
-0.075943
21
-0.061000
31
0.0
0
LINE
8
0
6
CONTINUOUS
10
-0.075943
20
-0.058260
30
0.0
11
-0.080183
21
-0.059110
31
0.0
0
LINE
8
0
6
CONTINUOUS
10
-0.083383
20
-0.061000
30
0.0
11
-0.080183
21
-0.061000
31
0.0
0
LINE
8
0
6
CONTINUOUS
10
-0.083023
20
-0.059822
30
0.0
11
-0.083383
21
-0.059912
31
0.0
0
LINE
8
0
6
CONTINUOUS
10
-0.085303
20
-0.061000
30
0.0
11
-0.083383
21
-0.061000
31
0.0
0
LINE
8
0
6
CONTINUOUS
10
-0.083383
20
-0.059912
30
0.0
11
-0.085303
21
-0.060593
31
0.0
0
LINE
8
0
6
CONTINUOUS
10
-0.086023
20
-0.061000
30
0.0
11
-0.085303
21
-0.061000
31
0.0
0
LINE
8
0
6
CONTINUOUS
10
-0.085303
20
-0.060593
30
0.0
11
-0.086023
21
-0.061000
31
0.0
0
LINE
8
0
6
CONTINUOUS
10
-0.071143
20
-0.057604
30
0.0
11
-0.066023
21
-0.057350
31
0.0
0
LINE
8
0
6
CONTINUOUS
10
-0.075943
20
-0.058260
30
0.0
11
-0.071143
21
-0.057604
31
0.0
0
LINE
8
0
6
CONTINUOUS
10
-0.080183
20
-0.059110
30
0.0
11
-0.075943
21
-0.058260
31
0.0
0
LINE
8
0
6
CONTINUOUS
10
-0.083383
20
-0.059912
30
0.0
11
-0.083023
21
-0.059822
31
0.0
0
LINE
8
0
6
CONTINUOUS
10
-0.088023
20
-0.060358
30
0.0
11
-0.088023
21
-0.061000
31
0.0
0
LINE
8
0
6
CONTINUOUS
10
-0.085303
20
-0.060593
30
0.0
11
-0.083383
21
-0.059912
31
0.0
0
LINE
8
0
6
CONTINUOUS
10
-0.088023
20
-0.061000
30
0.0
11
-0.086023
21
-0.061000
31
0.0
0
LINE
8
0
6
CONTINUOUS
10
-0.086023
20
-0.061000
30
0.0
11
-0.085303
21
-0.060593
31
0.0
0
LINE
8
0
6
CONTINUOUS
10
-0.066023
20
-0.057350
30
0.0
11
-0.060903
21
-0.057604
31
0.0
0
LINE
8
0
6
CONTINUOUS
10
-0.060903
20
-0.057604
30
0.0
11
-0.056103
21
-0.058260
31
0.0
0
LINE
8
0
6
CONTINUOUS
10
-0.056103
20
-0.058260
30
0.0
11
-0.051863
21
-0.059110
31
0.0
0
LINE
8
0
6
CONTINUOUS
10
-0.051863
20
-0.059110
30
0.0
11
-0.048663
21
-0.059912
31
0.0
0
LINE
8
0
6
CONTINUOUS
10
-0.048663
20
-0.059912
30
0.0
11
-0.046743
21
-0.060593
31
0.0
0
LINE
8
0
6
CONTINUOUS
10
-0.046023
20
-0.061000
30
0.0
11
-0.019023
21
-0.061000
31
0.0
0
LINE
8
0
6
CONTINUOUS
10
-0.015023
20
-0.061000
30
0.0
11
0.019977
21
-0.061000
31
0.0
0
LINE
8
0
6
CONTINUOUS
10
-0.046743
20
-0.060593
30
0.0
11
-0.046023
21
-0.061000
31
0.0
0
LINE
8
0
6
CONTINUOUS
10
-0.088023
20
-0.015732
30
0.0
11
-0.088023
21
-0.023308
31
0.0
0
LINE
8
0
6
CONTINUOUS
10
-0.075943
20
-0.017361
30
0.0
11
-0.080183
21
-0.014179
31
0.0
0
LINE
8
0
6
CONTINUOUS
10
-0.088023
20
-0.007962
30
0.0
11
-0.088023
21
-0.015732
31
0.0
0
LINE
8
0
6
CONTINUOUS
10
-0.088023
20
0.000000
30
0.0
11
-0.088023
21
-0.007962
31
0.0
0
LINE
8
0
6
CONTINUOUS
10
-0.066023
20
-0.020000
30
0.0
11
-0.060903
21
-0.019304
31
0.0
0
LINE
8
0
6
CONTINUOUS
10
-0.060903
20
-0.019304
30
0.0
11
-0.056103
21
-0.017361
31
0.0
0
LINE
8
0
6
CONTINUOUS
10
-0.056103
20
-0.017361
30
0.0
11
-0.051863
21
-0.014179
31
0.0
0
LINE
8
0
6
CONTINUOUS
10
-0.051863
20
-0.014179
30
0.0
11
-0.048663
21
-0.009929
31
0.0
0
LINE
8
0
6
CONTINUOUS
10
-0.060903
20
-0.019304
30
0.0
11
-0.066023
21
-0.020000
31
0.0
0
LINE
8
0
6
CONTINUOUS
10
-0.056103
20
-0.017361
30
0.0
11
-0.060903
21
-0.019304
31
0.0
0
LINE
8
0
6
CONTINUOUS
10
-0.048663
20
-0.009929
30
0.0
11
-0.051863
21
-0.014179
31
0.0
0
LINE
8
0
6
CONTINUOUS
10
-0.071143
20
-0.019304
30
0.0
11
-0.066023
21
-0.020000
31
0.0
0
LINE
8
0
6
CONTINUOUS
10
-0.075943
20
-0.017361
30
0.0
11
-0.071143
21
-0.019304
31
0.0
0
LINE
8
0
6
CONTINUOUS
10
-0.080183
20
-0.014179
30
0.0
11
-0.075943
21
-0.017361
31
0.0
0
LINE
8
0
6
CONTINUOUS
10
-0.083383
20
-0.009929
30
0.0
11
-0.080183
21
-0.014179
31
0.0
0
LINE
8
0
6
CONTINUOUS
10
-0.088023
20
-0.030372
30
0.0
11
-0.088023
21
-0.030589
31
0.0
0
LINE
8
0
6
CONTINUOUS
10
-0.088023
20
-0.023308
30
0.0
11
-0.088023
21
-0.030372
31
0.0
0
LINE
8
0
6
CONTINUOUS
10
-0.088023
20
-0.030589
30
0.0
11
-0.088023
21
-0.030372
31
0.0
0
LINE
8
0
6
CONTINUOUS
10
-0.088023
20
-0.030372
30
0.0
11
-0.088023
21
-0.023308
31
0.0
0
LINE
8
0
6
CONTINUOUS
10
-0.066023
20
0.014571
30
0.0
11
-0.069753
21
0.014047
31
0.0
0
LINE
8
0
6
CONTINUOUS
10
-0.069753
20
0.014047
30
0.0
11
-0.073250
21
0.012648
31
0.0
0
LINE
8
0
6
CONTINUOUS
10
-0.073250
20
0.012648
30
0.0
11
-0.076339
21
0.010317
31
0.0
0
LINE
8
0
6
CONTINUOUS
10
-0.076339
20
0.010317
30
0.0
11
-0.078671
21
0.007227
31
0.0
0
LINE
8
0
6
CONTINUOUS
10
-0.078671
20
0.007227
30
0.0
11
-0.080070
21
0.003730
31
0.0
0
LINE
8
0
6
CONTINUOUS
10
-0.080070
20
0.003730
30
0.0
11
-0.080594
21
0.000000
31
0.0
0
LINE
8
0
6
CONTINUOUS
10
-0.069753
20
0.014047
30
0.0
11
-0.066023
21
0.014571
31
0.0
0
LINE
8
0
6
CONTINUOUS
10
-0.073250
20
0.012648
30
0.0
11
-0.069753
21
0.014047
31
0.0
0
LINE
8
0
6
CONTINUOUS
10
-0.076339
20
0.010317
30
0.0
11
-0.073250
21
0.012648
31
0.0
0
LINE
8
0
6
CONTINUOUS
10
-0.078671
20
0.007227
30
0.0
11
-0.076339
21
0.010317
31
0.0
0
LINE
8
0
6
CONTINUOUS
10
-0.080070
20
0.003730
30
0.0
11
-0.078671
21
0.007227
31
0.0
0
LINE
8
0
6
CONTINUOUS
10
-0.080594
20
0.000000
30
0.0
11
-0.080070
21
0.003730
31
0.0
0
LINE
8
0
6
CONTINUOUS
10
-0.066023
20
0.014571
30
0.0
11
-0.062293
21
0.014047
31
0.0
0
LINE
8
0
6
CONTINUOUS
10
-0.062293
20
0.014047
30
0.0
11
-0.058795
21
0.012648
31
0.0
0
LINE
8
0
6
CONTINUOUS
10
-0.058795
20
0.012648
30
0.0
11
-0.055706
21
0.010317
31
0.0
0
LINE
8
0
6
CONTINUOUS
10
-0.055706
20
0.010317
30
0.0
11
-0.053375
21
0.007227
31
0.0
0
LINE
8
0
6
CONTINUOUS
10
-0.053375
20
0.007227
30
0.0
11
-0.051976
21
0.003730
31
0.0
0
LINE
8
0
6
CONTINUOUS
10
-0.051976
20
0.003730
30
0.0
11
-0.051451
21
0.000000
31
0.0
0
LINE
8
0
6
CONTINUOUS
10
-0.062293
20
0.014047
30
0.0
11
-0.066023
21
0.014571
31
0.0
0
LINE
8
0
6
CONTINUOUS
10
-0.058795
20
0.012648
30
0.0
11
-0.062293
21
0.014047
31
0.0
0
LINE
8
0
6
CONTINUOUS
10
-0.055706
20
0.010317
30
0.0
11
-0.058795
21
0.012648
31
0.0
0
LINE
8
0
6
CONTINUOUS
10
-0.053375
20
0.007227
30
0.0
11
-0.055706
21
0.010317
31
0.0
0
LINE
8
0
6
CONTINUOUS
10
-0.051976
20
0.003730
30
0.0
11
-0.053375
21
0.007227
31
0.0
0
LINE
8
0
6
CONTINUOUS
10
-0.051451
20
0.000000
30
0.0
11
-0.051976
21
0.003730
31
0.0
0
LINE
8
0
6
CONTINUOUS
10
-0.066023
20
-0.014571
30
0.0
11
-0.062293
21
-0.014047
31
0.0
0
LINE
8
0
6
CONTINUOUS
10
-0.062293
20
-0.014047
30
0.0
11
-0.058795
21
-0.012648
31
0.0
0
LINE
8
0
6
CONTINUOUS
10
-0.058795
20
-0.012648
30
0.0
11
-0.055706
21
-0.010317
31
0.0
0
LINE
8
0
6
CONTINUOUS
10
-0.055706
20
-0.010317
30
0.0
11
-0.053375
21
-0.007227
31
0.0
0
LINE
8
0
6
CONTINUOUS
10
-0.053375
20
-0.007227
30
0.0
11
-0.051976
21
-0.003730
31
0.0
0
LINE
8
0
6
CONTINUOUS
10
-0.051976
20
-0.003730
30
0.0
11
-0.051451
21
0.000000
31
0.0
0
LINE
8
0
6
CONTINUOUS
10
-0.062293
20
-0.014047
30
0.0
11
-0.066023
21
-0.014571
31
0.0
0
LINE
8
0
6
CONTINUOUS
10
-0.058795
20
-0.012648
30
0.0
11
-0.062293
21
-0.014047
31
0.0
0
LINE
8
0
6
CONTINUOUS
10
-0.055706
20
-0.010317
30
0.0
11
-0.058795
21
-0.012648
31
0.0
0
LINE
8
0
6
CONTINUOUS
10
-0.053375
20
-0.007227
30
0.0
11
-0.055706
21
-0.010317
31
0.0
0
LINE
8
0
6
CONTINUOUS
10
-0.051976
20
-0.003730
30
0.0
11
-0.053375
21
-0.007227
31
0.0
0
LINE
8
0
6
CONTINUOUS
10
-0.051451
20
0.000000
30
0.0
11
-0.051976
21
-0.003730
31
0.0
0
LINE
8
0
6
CONTINUOUS
10
-0.066023
20
-0.014571
30
0.0
11
-0.069753
21
-0.014047
31
0.0
0
LINE
8
0
6
CONTINUOUS
10
-0.069753
20
-0.014047
30
0.0
11
-0.073250
21
-0.012648
31
0.0
0
LINE
8
0
6
CONTINUOUS
10
-0.073250
20
-0.012648
30
0.0
11
-0.076339
21
-0.010317
31
0.0
0
LINE
8
0
6
CONTINUOUS
10
-0.076339
20
-0.010317
30
0.0
11
-0.078671
21
-0.007227
31
0.0
0
LINE
8
0
6
CONTINUOUS
10
-0.078671
20
-0.007227
30
0.0
11
-0.080070
21
-0.003730
31
0.0
0
LINE
8
0
6
CONTINUOUS
10
-0.080070
20
-0.003730
30
0.0
11
-0.080594
21
0.000000
31
0.0
0
LINE
8
0
6
CONTINUOUS
10
-0.069753
20
-0.014047
30
0.0
11
-0.066023
21
-0.014571
31
0.0
0
LINE
8
0
6
CONTINUOUS
10
-0.073250
20
-0.012648
30
0.0
11
-0.069753
21
-0.014047
31
0.0
0
LINE
8
0
6
CONTINUOUS
10
-0.076339
20
-0.010317
30
0.0
11
-0.073250
21
-0.012648
31
0.0
0
LINE
8
0
6
CONTINUOUS
10
-0.078671
20
-0.007227
30
0.0
11
-0.076339
21
-0.010317
31
0.0
0
LINE
8
0
6
CONTINUOUS
10
-0.080070
20
-0.003730
30
0.0
11
-0.078671
21
-0.007227
31
0.0
0
LINE
8
0
6
CONTINUOUS
10
-0.080594
20
0.000000
30
0.0
11
-0.080070
21
-0.003730
31
0.0
0
LINE
8
0
6
CONTINUOUS
10
-0.060903
20
0.061000
30
0.0
11
-0.066023
21
0.061000
31
0.0
0
LINE
8
0
6
CONTINUOUS
10
-0.066023
20
0.063000
30
0.0
11
-0.060903
21
0.063000
31
0.0
0
LINE
8
0
6
CONTINUOUS
10
-0.060903
20
0.063000
30
0.0
11
-0.056103
21
0.063000
31
0.0
0
LINE
8
0
6
CONTINUOUS
10
-0.056103
20
0.061000
30
0.0
11
-0.060903
21
0.061000
31
0.0
0
LINE
8
0
6
CONTINUOUS
10
-0.056103
20
0.063000
30
0.0
11
-0.051863
21
0.063000
31
0.0
0
LINE
8
0
6
CONTINUOUS
10
-0.051863
20
0.061000
30
0.0
11
-0.056103
21
0.061000
31
0.0
0
LINE
8
0
6
CONTINUOUS
10
-0.051863
20
0.063000
30
0.0
11
-0.048663
21
0.063000
31
0.0
0
LINE
8
0
6
CONTINUOUS
10
-0.048663
20
0.061000
30
0.0
11
-0.051863
21
0.061000
31
0.0
0
LINE
8
0
6
CONTINUOUS
10
-0.048663
20
0.063000
30
0.0
11
-0.046743
21
0.063000
31
0.0
0
LINE
8
0
6
CONTINUOUS
10
-0.046743
20
0.061000
30
0.0
11
-0.048663
21
0.061000
31
0.0
0
LINE
8
0
6
CONTINUOUS
10
-0.046743
20
0.063000
30
0.0
11
-0.046023
21
0.063000
31
0.0
0
LINE
8
0
6
CONTINUOUS
10
-0.046023
20
0.061000
30
0.0
11
-0.046743
21
0.061000
31
0.0
0
LINE
8
0
6
CONTINUOUS
10
-0.046023
20
0.063000
30
0.0
11
-0.046023
21
0.061000
31
0.0
0
LINE
8
0
6
CONTINUOUS
10
-0.060903
20
0.063000
30
0.0
11
-0.066023
21
0.063000
31
0.0
0
LINE
8
0
6
CONTINUOUS
10
-0.056103
20
0.063000
30
0.0
11
-0.060903
21
0.063000
31
0.0
0
LINE
8
0
6
CONTINUOUS
10
-0.051863
20
0.063000
30
0.0
11
-0.056103
21
0.063000
31
0.0
0
LINE
8
0
6
CONTINUOUS
10
-0.048663
20
0.063000
30
0.0
11
-0.051863
21
0.063000
31
0.0
0
LINE
8
0
6
CONTINUOUS
10
-0.046743
20
0.063000
30
0.0
11
-0.048663
21
0.063000
31
0.0
0
LINE
8
0
6
CONTINUOUS
10
-0.046023
20
0.063000
30
0.0
11
-0.046743
21
0.063000
31
0.0
0
LINE
8
0
6
CONTINUOUS
10
-0.066023
20
0.063000
30
0.0
11
-0.071143
21
0.063000
31
0.0
0
LINE
8
0
6
CONTINUOUS
10
-0.071143
20
0.063000
30
0.0
11
-0.075943
21
0.063000
31
0.0
0
LINE
8
0
6
CONTINUOUS
10
-0.075943
20
0.063000
30
0.0
11
-0.080183
21
0.063000
31
0.0
0
LINE
8
0
6
CONTINUOUS
10
-0.080183
20
0.063000
30
0.0
11
-0.083383
21
0.063000
31
0.0
0
LINE
8
0
6
CONTINUOUS
10
-0.083383
20
0.063000
30
0.0
11
-0.085303
21
0.063000
31
0.0
0
LINE
8
0
6
CONTINUOUS
10
-0.085303
20
0.063000
30
0.0
11
-0.086023
21
0.063000
31
0.0
0
LINE
8
0
6
CONTINUOUS
10
-0.071143
20
0.063000
30
0.0
11
-0.066023
21
0.063000
31
0.0
0
LINE
8
0
6
CONTINUOUS
10
-0.066023
20
0.061000
30
0.0
11
-0.071143
21
0.061000
31
0.0
0
LINE
8
0
6
CONTINUOUS
10
-0.075943
20
0.063000
30
0.0
11
-0.071143
21
0.063000
31
0.0
0
LINE
8
0
6
CONTINUOUS
10
-0.071143
20
0.061000
30
0.0
11
-0.075943
21
0.061000
31
0.0
0
LINE
8
0
6
CONTINUOUS
10
-0.080183
20
0.063000
30
0.0
11
-0.075943
21
0.063000
31
0.0
0
LINE
8
0
6
CONTINUOUS
10
-0.075943
20
0.061000
30
0.0
11
-0.080183
21
0.061000
31
0.0
0
LINE
8
0
6
CONTINUOUS
10
-0.083383
20
0.063000
30
0.0
11
-0.080183
21
0.063000
31
0.0
0
LINE
8
0
6
CONTINUOUS
10
-0.080183
20
0.061000
30
0.0
11
-0.083383
21
0.061000
31
0.0
0
LINE
8
0
6
CONTINUOUS
10
-0.085303
20
0.063000
30
0.0
11
-0.083383
21
0.063000
31
0.0
0
LINE
8
0
6
CONTINUOUS
10
-0.083383
20
0.061000
30
0.0
11
-0.085303
21
0.061000
31
0.0
0
LINE
8
0
6
CONTINUOUS
10
-0.086023
20
0.063000
30
0.0
11
-0.085303
21
0.063000
31
0.0
0
LINE
8
0
6
CONTINUOUS
10
-0.086023
20
0.061000
30
0.0
11
-0.086023
21
0.063000
31
0.0
0
LINE
8
0
6
CONTINUOUS
10
-0.085303
20
0.061000
30
0.0
11
-0.086023
21
0.061000
31
0.0
0
LINE
8
0
6
CONTINUOUS
10
-0.060903
20
-0.061000
30
0.0
11
-0.066023
21
-0.061000
31
0.0
0
LINE
8
0
6
CONTINUOUS
10
-0.066023
20
-0.063000
30
0.0
11
-0.060903
21
-0.063000
31
0.0
0
LINE
8
0
6
CONTINUOUS
10
-0.060903
20
-0.063000
30
0.0
11
-0.056103
21
-0.063000
31
0.0
0
LINE
8
0
6
CONTINUOUS
10
-0.056103
20
-0.061000
30
0.0
11
-0.060903
21
-0.061000
31
0.0
0
LINE
8
0
6
CONTINUOUS
10
-0.056103
20
-0.063000
30
0.0
11
-0.051863
21
-0.063000
31
0.0
0
LINE
8
0
6
CONTINUOUS
10
-0.051863
20
-0.061000
30
0.0
11
-0.056103
21
-0.061000
31
0.0
0
LINE
8
0
6
CONTINUOUS
10
-0.051863
20
-0.063000
30
0.0
11
-0.048663
21
-0.063000
31
0.0
0
LINE
8
0
6
CONTINUOUS
10
-0.048663
20
-0.061000
30
0.0
11
-0.051863
21
-0.061000
31
0.0
0
LINE
8
0
6
CONTINUOUS
10
-0.048663
20
-0.063000
30
0.0
11
-0.046743
21
-0.063000
31
0.0
0
LINE
8
0
6
CONTINUOUS
10
-0.046743
20
-0.061000
30
0.0
11
-0.048663
21
-0.061000
31
0.0
0
LINE
8
0
6
CONTINUOUS
10
-0.046743
20
-0.063000
30
0.0
11
-0.046023
21
-0.063000
31
0.0
0
LINE
8
0
6
CONTINUOUS
10
-0.046023
20
-0.061000
30
0.0
11
-0.046743
21
-0.061000
31
0.0
0
LINE
8
0
6
CONTINUOUS
10
-0.046023
20
-0.063000
30
0.0
11
-0.046023
21
-0.061000
31
0.0
0
LINE
8
0
6
CONTINUOUS
10
-0.060903
20
-0.063000
30
0.0
11
-0.066023
21
-0.063000
31
0.0
0
LINE
8
0
6
CONTINUOUS
10
-0.056103
20
-0.063000
30
0.0
11
-0.060903
21
-0.063000
31
0.0
0
LINE
8
0
6
CONTINUOUS
10
-0.051863
20
-0.063000
30
0.0
11
-0.056103
21
-0.063000
31
0.0
0
LINE
8
0
6
CONTINUOUS
10
-0.048663
20
-0.063000
30
0.0
11
-0.051863
21
-0.063000
31
0.0
0
LINE
8
0
6
CONTINUOUS
10
-0.046743
20
-0.063000
30
0.0
11
-0.048663
21
-0.063000
31
0.0
0
LINE
8
0
6
CONTINUOUS
10
-0.046023
20
-0.063000
30
0.0
11
-0.046743
21
-0.063000
31
0.0
0
LINE
8
0
6
CONTINUOUS
10
-0.066023
20
-0.063000
30
0.0
11
-0.071143
21
-0.063000
31
0.0
0
LINE
8
0
6
CONTINUOUS
10
-0.071143
20
-0.063000
30
0.0
11
-0.075943
21
-0.063000
31
0.0
0
LINE
8
0
6
CONTINUOUS
10
-0.075943
20
-0.063000
30
0.0
11
-0.080183
21
-0.063000
31
0.0
0
LINE
8
0
6
CONTINUOUS
10
-0.080183
20
-0.063000
30
0.0
11
-0.083383
21
-0.063000
31
0.0
0
LINE
8
0
6
CONTINUOUS
10
-0.083383
20
-0.063000
30
0.0
11
-0.085303
21
-0.063000
31
0.0
0
LINE
8
0
6
CONTINUOUS
10
-0.085303
20
-0.063000
30
0.0
11
-0.086023
21
-0.063000
31
0.0
0
LINE
8
0
6
CONTINUOUS
10
-0.071143
20
-0.063000
30
0.0
11
-0.066023
21
-0.063000
31
0.0
0
LINE
8
0
6
CONTINUOUS
10
-0.066023
20
-0.061000
30
0.0
11
-0.071143
21
-0.061000
31
0.0
0
LINE
8
0
6
CONTINUOUS
10
-0.075943
20
-0.063000
30
0.0
11
-0.071143
21
-0.063000
31
0.0
0
LINE
8
0
6
CONTINUOUS
10
-0.071143
20
-0.061000
30
0.0
11
-0.075943
21
-0.061000
31
0.0
0
LINE
8
0
6
CONTINUOUS
10
-0.080183
20
-0.063000
30
0.0
11
-0.075943
21
-0.063000
31
0.0
0
LINE
8
0
6
CONTINUOUS
10
-0.075943
20
-0.061000
30
0.0
11
-0.080183
21
-0.061000
31
0.0
0
LINE
8
0
6
CONTINUOUS
10
-0.083383
20
-0.063000
30
0.0
11
-0.080183
21
-0.063000
31
0.0
0
LINE
8
0
6
CONTINUOUS
10
-0.080183
20
-0.061000
30
0.0
11
-0.083383
21
-0.061000
31
0.0
0
LINE
8
0
6
CONTINUOUS
10
-0.085303
20
-0.063000
30
0.0
11
-0.083383
21
-0.063000
31
0.0
0
LINE
8
0
6
CONTINUOUS
10
-0.083383
20
-0.061000
30
0.0
11
-0.085303
21
-0.061000
31
0.0
0
LINE
8
0
6
CONTINUOUS
10
-0.086023
20
-0.063000
30
0.0
11
-0.085303
21
-0.063000
31
0.0
0
LINE
8
0
6
CONTINUOUS
10
-0.086023
20
-0.061000
30
0.0
11
-0.086023
21
-0.063000
31
0.0
0
LINE
8
0
6
CONTINUOUS
10
-0.085303
20
-0.061000
30
0.0
11
-0.086023
21
-0.061000
31
0.0
0
LINE
8
0
6
CONTINUOUS
10
-0.070375
20
0.016388
30
0.0
11
-0.066023
21
0.017000
31
0.0
0
LINE
8
0
6
CONTINUOUS
10
-0.074455
20
0.014756
30
0.0
11
-0.070375
21
0.016388
31
0.0
0
LINE
8
0
6
CONTINUOUS
10
-0.078059
20
0.012036
30
0.0
11
-0.074455
21
0.014756
31
0.0
0
LINE
8
0
6
CONTINUOUS
10
-0.080779
20
0.008432
30
0.0
11
-0.078059
21
0.012036
31
0.0
0
LINE
8
0
6
CONTINUOUS
10
-0.082411
20
0.004352
30
0.0
11
-0.080779
21
0.008432
31
0.0
0
LINE
8
0
6
CONTINUOUS
10
-0.083023
20
0.000000
30
0.0
11
-0.082411
21
0.004352
31
0.0
0
LINE
8
0
6
CONTINUOUS
10
-0.066023
20
0.020000
30
0.0
11
-0.071143
21
0.019280
31
0.0
0
LINE
8
0
6
CONTINUOUS
10
-0.071143
20
0.019280
30
0.0
11
-0.075943
21
0.017360
31
0.0
0
LINE
8
0
6
CONTINUOUS
10
-0.075943
20
0.017360
30
0.0
11
-0.080183
21
0.014160
31
0.0
0
LINE
8
0
6
CONTINUOUS
10
-0.080183
20
0.014160
30
0.0
11
-0.083383
21
0.009920
31
0.0
0
LINE
8
0
6
CONTINUOUS
10
-0.083383
20
0.009920
30
0.0
11
-0.085303
21
0.005120
31
0.0
0
LINE
8
0
6
CONTINUOUS
10
-0.085303
20
0.005120
30
0.0
11
-0.086023
21
0.000000
31
0.0
0
LINE
8
0
6
CONTINUOUS
10
-0.066023
20
0.017000
30
0.0
11
-0.070375
21
0.016388
31
0.0
0
LINE
8
0
6
CONTINUOUS
10
-0.071143
20
0.019280
30
0.0
11
-0.066023
21
0.020000
31
0.0
0
LINE
8
0
6
CONTINUOUS
10
-0.070375
20
0.016388
30
0.0
11
-0.074455
21
0.014756
31
0.0
0
LINE
8
0
6
CONTINUOUS
10
-0.075943
20
0.017360
30
0.0
11
-0.071143
21
0.019280
31
0.0
0
LINE
8
0
6
CONTINUOUS
10
-0.074455
20
0.014756
30
0.0
11
-0.078059
21
0.012036
31
0.0
0
LINE
8
0
6
CONTINUOUS
10
-0.080183
20
0.014160
30
0.0
11
-0.075943
21
0.017360
31
0.0
0
LINE
8
0
6
CONTINUOUS
10
-0.078059
20
0.012036
30
0.0
11
-0.080779
21
0.008432
31
0.0
0
LINE
8
0
6
CONTINUOUS
10
-0.083383
20
0.009920
30
0.0
11
-0.080183
21
0.014160
31
0.0
0
LINE
8
0
6
CONTINUOUS
10
-0.080779
20
0.008432
30
0.0
11
-0.082411
21
0.004352
31
0.0
0
LINE
8
0
6
CONTINUOUS
10
-0.085303
20
0.005120
30
0.0
11
-0.083383
21
0.009920
31
0.0
0
LINE
8
0
6
CONTINUOUS
10
-0.082411
20
0.004352
30
0.0
11
-0.083023
21
0.000000
31
0.0
0
LINE
8
0
6
CONTINUOUS
10
-0.086023
20
0.000000
30
0.0
11
-0.085303
21
0.005120
31
0.0
0
LINE
8
0
6
CONTINUOUS
10
-0.061671
20
0.016388
30
0.0
11
-0.066023
21
0.017000
31
0.0
0
LINE
8
0
6
CONTINUOUS
10
-0.066023
20
0.020000
30
0.0
11
-0.060903
21
0.019280
31
0.0
0
LINE
8
0
6
CONTINUOUS
10
-0.057591
20
0.014756
30
0.0
11
-0.061671
21
0.016388
31
0.0
0
LINE
8
0
6
CONTINUOUS
10
-0.060903
20
0.019280
30
0.0
11
-0.056103
21
0.017360
31
0.0
0
LINE
8
0
6
CONTINUOUS
10
-0.053987
20
0.012036
30
0.0
11
-0.057591
21
0.014756
31
0.0
0
LINE
8
0
6
CONTINUOUS
10
-0.056103
20
0.017360
30
0.0
11
-0.051863
21
0.014160
31
0.0
0
LINE
8
0
6
CONTINUOUS
10
-0.051267
20
0.008432
30
0.0
11
-0.053987
21
0.012036
31
0.0
0
LINE
8
0
6
CONTINUOUS
10
-0.051863
20
0.014160
30
0.0
11
-0.048663
21
0.009920
31
0.0
0
LINE
8
0
6
CONTINUOUS
10
-0.049635
20
0.004352
30
0.0
11
-0.051267
21
0.008432
31
0.0
0
LINE
8
0
6
CONTINUOUS
10
-0.048663
20
0.009920
30
0.0
11
-0.046743
21
0.005120
31
0.0
0
LINE
8
0
6
CONTINUOUS
10
-0.049023
20
0.000000
30
0.0
11
-0.049635
21
0.004352
31
0.0
0
LINE
8
0
6
CONTINUOUS
10
-0.046743
20
0.005120
30
0.0
11
-0.046023
21
0.000000
31
0.0
0
LINE
8
0
6
CONTINUOUS
10
-0.066023
20
0.017000
30
0.0
11
-0.061671
21
0.016388
31
0.0
0
LINE
8
0
6
CONTINUOUS
10
-0.061671
20
0.016388
30
0.0
11
-0.057591
21
0.014756
31
0.0
0
LINE
8
0
6
CONTINUOUS
10
-0.057591
20
0.014756
30
0.0
11
-0.053987
21
0.012036
31
0.0
0
LINE
8
0
6
CONTINUOUS
10
-0.053987
20
0.012036
30
0.0
11
-0.051267
21
0.008432
31
0.0
0
LINE
8
0
6
CONTINUOUS
10
-0.051267
20
0.008432
30
0.0
11
-0.049635
21
0.004352
31
0.0
0
LINE
8
0
6
CONTINUOUS
10
-0.049635
20
0.004352
30
0.0
11
-0.049023
21
0.000000
31
0.0
0
LINE
8
0
6
CONTINUOUS
10
-0.060903
20
0.019280
30
0.0
11
-0.066023
21
0.020000
31
0.0
0
LINE
8
0
6
CONTINUOUS
10
-0.056103
20
0.017360
30
0.0
11
-0.060903
21
0.019280
31
0.0
0
LINE
8
0
6
CONTINUOUS
10
-0.051863
20
0.014160
30
0.0
11
-0.056103
21
0.017360
31
0.0
0
LINE
8
0
6
CONTINUOUS
10
-0.048663
20
0.009920
30
0.0
11
-0.051863
21
0.014160
31
0.0
0
LINE
8
0
6
CONTINUOUS
10
-0.046743
20
0.005120
30
0.0
11
-0.048663
21
0.009920
31
0.0
0
LINE
8
0
6
CONTINUOUS
10
-0.046023
20
0.000000
30
0.0
11
-0.046743
21
0.005120
31
0.0
0
LINE
8
0
6
CONTINUOUS
10
-0.061671
20
-0.016388
30
0.0
11
-0.066023
21
-0.017000
31
0.0
0
LINE
8
0
6
CONTINUOUS
10
-0.057591
20
-0.014756
30
0.0
11
-0.061671
21
-0.016388
31
0.0
0
LINE
8
0
6
CONTINUOUS
10
-0.053987
20
-0.012036
30
0.0
11
-0.057591
21
-0.014756
31
0.0
0
LINE
8
0
6
CONTINUOUS
10
-0.051267
20
-0.008432
30
0.0
11
-0.053987
21
-0.012036
31
0.0
0
LINE
8
0
6
CONTINUOUS
10
-0.049635
20
-0.004352
30
0.0
11
-0.051267
21
-0.008432
31
0.0
0
LINE
8
0
6
CONTINUOUS
10
-0.049023
20
0.000000
30
0.0
11
-0.049635
21
-0.004352
31
0.0
0
LINE
8
0
6
CONTINUOUS
10
-0.066023
20
-0.020000
30
0.0
11
-0.060903
21
-0.019280
31
0.0
0
LINE
8
0
6
CONTINUOUS
10
-0.060903
20
-0.019280
30
0.0
11
-0.056103
21
-0.017360
31
0.0
0
LINE
8
0
6
CONTINUOUS
10
-0.056103
20
-0.017360
30
0.0
11
-0.051863
21
-0.014160
31
0.0
0
LINE
8
0
6
CONTINUOUS
10
-0.051863
20
-0.014160
30
0.0
11
-0.048663
21
-0.009920
31
0.0
0
LINE
8
0
6
CONTINUOUS
10
-0.048663
20
-0.009920
30
0.0
11
-0.046743
21
-0.005120
31
0.0
0
LINE
8
0
6
CONTINUOUS
10
-0.046743
20
-0.005120
30
0.0
11
-0.046023
21
0.000000
31
0.0
0
LINE
8
0
6
CONTINUOUS
10
-0.066023
20
-0.017000
30
0.0
11
-0.061671
21
-0.016388
31
0.0
0
LINE
8
0
6
CONTINUOUS
10
-0.060903
20
-0.019280
30
0.0
11
-0.066023
21
-0.020000
31
0.0
0
LINE
8
0
6
CONTINUOUS
10
-0.061671
20
-0.016388
30
0.0
11
-0.057591
21
-0.014756
31
0.0
0
LINE
8
0
6
CONTINUOUS
10
-0.056103
20
-0.017360
30
0.0
11
-0.060903
21
-0.019280
31
0.0
0
LINE
8
0
6
CONTINUOUS
10
-0.057591
20
-0.014756
30
0.0
11
-0.053987
21
-0.012036
31
0.0
0
LINE
8
0
6
CONTINUOUS
10
-0.051863
20
-0.014160
30
0.0
11
-0.056103
21
-0.017360
31
0.0
0
LINE
8
0
6
CONTINUOUS
10
-0.053987
20
-0.012036
30
0.0
11
-0.051267
21
-0.008432
31
0.0
0
LINE
8
0
6
CONTINUOUS
10
-0.048663
20
-0.009920
30
0.0
11
-0.051863
21
-0.014160
31
0.0
0
LINE
8
0
6
CONTINUOUS
10
-0.051267
20
-0.008432
30
0.0
11
-0.049635
21
-0.004352
31
0.0
0
LINE
8
0
6
CONTINUOUS
10
-0.046743
20
-0.005120
30
0.0
11
-0.048663
21
-0.009920
31
0.0
0
LINE
8
0
6
CONTINUOUS
10
-0.049635
20
-0.004352
30
0.0
11
-0.049023
21
0.000000
31
0.0
0
LINE
8
0
6
CONTINUOUS
10
-0.046023
20
0.000000
30
0.0
11
-0.046743
21
-0.005120
31
0.0
0
LINE
8
0
6
CONTINUOUS
10
-0.070375
20
-0.016388
30
0.0
11
-0.066023
21
-0.017000
31
0.0
0
LINE
8
0
6
CONTINUOUS
10
-0.066023
20
-0.020000
30
0.0
11
-0.071143
21
-0.019280
31
0.0
0
LINE
8
0
6
CONTINUOUS
10
-0.074455
20
-0.014756
30
0.0
11
-0.070375
21
-0.016388
31
0.0
0
LINE
8
0
6
CONTINUOUS
10
-0.071143
20
-0.019280
30
0.0
11
-0.075943
21
-0.017360
31
0.0
0
LINE
8
0
6
CONTINUOUS
10
-0.078059
20
-0.012036
30
0.0
11
-0.074455
21
-0.014756
31
0.0
0
LINE
8
0
6
CONTINUOUS
10
-0.075943
20
-0.017360
30
0.0
11
-0.080183
21
-0.014160
31
0.0
0
LINE
8
0
6
CONTINUOUS
10
-0.080779
20
-0.008432
30
0.0
11
-0.078059
21
-0.012036
31
0.0
0
LINE
8
0
6
CONTINUOUS
10
-0.080183
20
-0.014160
30
0.0
11
-0.083383
21
-0.009920
31
0.0
0
LINE
8
0
6
CONTINUOUS
10
-0.082411
20
-0.004352
30
0.0
11
-0.080779
21
-0.008432
31
0.0
0
LINE
8
0
6
CONTINUOUS
10
-0.083383
20
-0.009920
30
0.0
11
-0.085303
21
-0.005120
31
0.0
0
LINE
8
0
6
CONTINUOUS
10
-0.083023
20
0.000000
30
0.0
11
-0.082411
21
-0.004352
31
0.0
0
LINE
8
0
6
CONTINUOUS
10
-0.085303
20
-0.005120
30
0.0
11
-0.086023
21
0.000000
31
0.0
0
LINE
8
0
6
CONTINUOUS
10
-0.066023
20
-0.017000
30
0.0
11
-0.070375
21
-0.016388
31
0.0
0
LINE
8
0
6
CONTINUOUS
10
-0.070375
20
-0.016388
30
0.0
11
-0.074455
21
-0.014756
31
0.0
0
LINE
8
0
6
CONTINUOUS
10
-0.074455
20
-0.014756
30
0.0
11
-0.078059
21
-0.012036
31
0.0
0
LINE
8
0
6
CONTINUOUS
10
-0.078059
20
-0.012036
30
0.0
11
-0.080779
21
-0.008432
31
0.0
0
LINE
8
0
6
CONTINUOUS
10
-0.080779
20
-0.008432
30
0.0
11
-0.082411
21
-0.004352
31
0.0
0
LINE
8
0
6
CONTINUOUS
10
-0.082411
20
-0.004352
30
0.0
11
-0.083023
21
0.000000
31
0.0
0
LINE
8
0
6
CONTINUOUS
10
-0.071143
20
-0.019280
30
0.0
11
-0.066023
21
-0.020000
31
0.0
0
LINE
8
0
6
CONTINUOUS
10
-0.075943
20
-0.017360
30
0.0
11
-0.071143
21
-0.019280
31
0.0
0
LINE
8
0
6
CONTINUOUS
10
-0.080183
20
-0.014160
30
0.0
11
-0.075943
21
-0.017360
31
0.0
0
LINE
8
0
6
CONTINUOUS
10
-0.083383
20
-0.009920
30
0.0
11
-0.080183
21
-0.014160
31
0.0
0
LINE
8
0
6
CONTINUOUS
10
-0.085303
20
-0.005120
30
0.0
11
-0.083383
21
-0.009920
31
0.0
0
LINE
8
0
6
CONTINUOUS
10
-0.086023
20
0.000000
30
0.0
11
-0.085303
21
-0.005120
31
0.0
0
LINE
8
0
6
CONTINUOUS
10
0.019977
20
0.011267
30
0.0
11
0.019977
21
-0.011117
31
0.0
0
LINE
8
0
6
CONTINUOUS
10
0.019977
20
0.075740
30
0.0
11
0.019977
21
0.070000
31
0.0
0
LINE
8
0
6
CONTINUOUS
10
0.019977
20
-0.011117
30
0.0
11
0.019977
21
-0.033500
31
0.0
0
LINE
8
0
6
CONTINUOUS
10
0.019977
20
-0.080607
30
0.0
11
0.019977
21
-0.083858
31
0.0
0
LINE
8
0
6
CONTINUOUS
10
0.019977
20
-0.085000
30
0.0
11
0.020462
21
-0.085000
31
0.0
0
LINE
8
0
6
CONTINUOUS
10
0.019977
20
-0.083858
30
0.0
11
0.019977
21
-0.085000
31
0.0
0
LINE
8
0
6
CONTINUOUS
10
0.019977
20
0.083858
30
0.0
11
0.019977
21
0.080607
31
0.0
0
LINE
8
0
6
CONTINUOUS
10
0.019977
20
0.085000
30
0.0
11
0.019977
21
0.083858
31
0.0
0
LINE
8
0
6
CONTINUOUS
10
0.020462
20
0.085000
30
0.0
11
0.019977
21
0.085000
31
0.0
0
LINE
8
0
6
CONTINUOUS
10
0.019977
20
0.080607
30
0.0
11
0.019977
21
0.075740
31
0.0
0
LINE
8
0
6
CONTINUOUS
10
0.019977
20
0.070000
30
0.0
11
0.019977
21
0.033800
31
0.0
0
LINE
8
0
6
CONTINUOUS
10
0.019977
20
-0.075740
30
0.0
11
0.019977
21
-0.080607
31
0.0
0
LINE
8
0
6
CONTINUOUS
10
0.019977
20
-0.070000
30
0.0
11
0.019977
21
-0.075740
31
0.0
0
LINE
8
0
6
CONTINUOUS
10
0.019977
20
0.033800
30
0.0
11
0.019977
21
0.022533
31
0.0
0
LINE
8
0
6
CONTINUOUS
10
0.039977
20
0.011267
30
0.0
11
0.039977
21
0.022703
31
0.0
0
LINE
8
0
6
CONTINUOUS
10
0.039977
20
-0.011532
30
0.0
11
0.039977
21
0.011267
31
0.0
0
LINE
8
0
6
CONTINUOUS
10
0.039977
20
-0.033500
30
0.0
11
0.039977
21
-0.011532
31
0.0
0
LINE
8
0
6
CONTINUOUS
10
0.039977
20
0.022703
30
0.0
11
0.039977
21
0.033800
31
0.0
0
LINE
8
0
6
CONTINUOUS
10
0.039684
20
0.084753
30
0.0
11
0.038977
21
0.085000
31
0.0
0
LINE
8
0
6
CONTINUOUS
10
0.039977
20
0.084157
30
0.0
11
0.039684
21
0.084753
31
0.0
0
LINE
8
0
6
CONTINUOUS
10
0.039977
20
0.083021
30
0.0
11
0.039977
21
0.084157
31
0.0
0
LINE
8
0
6
CONTINUOUS
10
0.039977
20
0.079794
30
0.0
11
0.039977
21
0.083021
31
0.0
0
LINE
8
0
6
CONTINUOUS
10
0.039977
20
0.074967
30
0.0
11
0.039977
21
0.079794
31
0.0
0
LINE
8
0
6
CONTINUOUS
10
0.039977
20
0.069270
30
0.0
11
0.039977
21
0.074967
31
0.0
0
LINE
8
0
6
CONTINUOUS
10
0.039977
20
-0.074988
30
0.0
11
0.039977
21
-0.069158
31
0.0
0
LINE
8
0
6
CONTINUOUS
10
0.039977
20
-0.079921
30
0.0
11
0.039977
21
-0.074988
31
0.0
0
LINE
8
0
6
CONTINUOUS
10
0.039977
20
-0.083225
30
0.0
11
0.039977
21
-0.079921
31
0.0
0
LINE
8
0
6
CONTINUOUS
10
0.038977
20
-0.085000
30
0.0
11
0.039684
21
-0.084824
31
0.0
0
LINE
8
0
6
CONTINUOUS
10
0.039977
20
-0.084399
30
0.0
11
0.039977
21
-0.083225
31
0.0
0
LINE
8
0
6
CONTINUOUS
10
0.039684
20
-0.084824
30
0.0
11
0.039977
21
-0.084399
31
0.0
0
LINE
8
0
6
CONTINUOUS
10
0.039977
20
0.033800
30
0.0
11
0.039977
21
0.069270
31
0.0
0
LINE
8
0
6
CONTINUOUS
10
0.039977
20
-0.069158
30
0.0
11
0.039977
21
-0.033500
31
0.0
0
LINE
8
0
6
CONTINUOUS
10
0.019977
20
0.022533
30
0.0
11
0.019977
21
0.011267
31
0.0
0
LINE
8
0
6
CONTINUOUS
10
0.038576
20
-0.085000
30
0.0
11
0.038977
21
-0.085000
31
0.0
0
LINE
8
0
6
CONTINUOUS
10
0.038977
20
0.085000
30
0.0
11
0.038576
21
0.085000
31
0.0
0
LINE
8
0
6
CONTINUOUS
10
0.020462
20
-0.085000
30
0.0
11
0.038576
21
-0.085000
31
0.0
0
LINE
8
0
6
CONTINUOUS
10
0.038576
20
0.085000
30
0.0
11
0.020462
21
0.085000
31
0.0
0
LINE
8
0
6
CONTINUOUS
10
0.019977
20
-0.033500
30
0.0
11
0.019977
21
-0.070000
31
0.0
0
LINE
8
0
6
CONTINUOUS
10
0.087839
20
-0.057290
30
0.0
11
0.088023
21
-0.056889
31
0.0
0
LINE
8
0
6
CONTINUOUS
10
0.088023
20
-0.056889
30
0.0
11
0.088023
21
-0.056303
31
0.0
0
LINE
8
0
6
CONTINUOUS
10
0.088023
20
-0.054573
30
0.0
11
0.088023
21
-0.051786
31
0.0
0
LINE
8
0
6
CONTINUOUS
10
0.088023
20
-0.048083
30
0.0
11
0.088023
21
-0.043648
31
0.0
0
LINE
8
0
6
CONTINUOUS
10
0.088023
20
-0.043648
30
0.0
11
0.088023
21
-0.038705
31
0.0
0
LINE
8
0
6
CONTINUOUS
10
0.088023
20
-0.038705
30
0.0
11
0.088023
21
-0.033501
31
0.0
0
LINE
8
0
6
CONTINUOUS
10
0.088023
20
-0.033501
30
0.0
11
0.088023
21
-0.028296
31
0.0
0
LINE
8
0
6
CONTINUOUS
10
0.088023
20
-0.028296
30
0.0
11
0.088023
21
-0.023353
31
0.0
0
LINE
8
0
6
CONTINUOUS
10
0.088023
20
-0.023353
30
0.0
11
0.088023
21
-0.018918
31
0.0
0
LINE
8
0
6
CONTINUOUS
10
0.088023
20
-0.018918
30
0.0
11
0.088023
21
-0.015215
31
0.0
0
LINE
8
0
6
CONTINUOUS
10
0.088023
20
-0.012428
30
0.0
11
0.088023
21
-0.010698
31
0.0
0
LINE
8
0
6
CONTINUOUS
10
0.088023
20
-0.010112
30
0.0
11
0.087839
21
-0.009711
31
0.0
0
LINE
8
0
6
CONTINUOUS
10
0.088023
20
-0.010698
30
0.0
11
0.088023
21
-0.010112
31
0.0
0
LINE
8
0
6
CONTINUOUS
10
0.050955
20
-0.011470
30
0.0
11
0.049435
21
-0.011470
31
0.0
0
LINE
8
0
6
CONTINUOUS
10
0.051223
20
-0.057668
30
0.0
11
0.087025
21
-0.057668
31
0.0
0
LINE
8
0
6
CONTINUOUS
10
0.087024
20
-0.009333
30
0.0
11
0.066253
21
-0.009333
31
0.0
0
LINE
8
0
6
CONTINUOUS
10
0.057251
20
-0.009333
30
0.0
11
0.051223
21
-0.009333
31
0.0
0
LINE
8
0
6
CONTINUOUS
10
0.050955
20
-0.057668
30
0.0
11
0.051223
21
-0.057668
31
0.0
0
LINE
8
0
6
CONTINUOUS
10
0.050955
20
-0.057062
30
0.0
11
0.050955
21
-0.057668
31
0.0
0
LINE
8
0
6
CONTINUOUS
10
0.050955
20
-0.033501
30
0.0
11
0.050955
21
-0.038878
31
0.0
0
LINE
8
0
6
CONTINUOUS
10
0.050955
20
-0.052396
30
0.0
11
0.050955
21
-0.055275
31
0.0
0
LINE
8
0
6
CONTINUOUS
10
0.050955
20
-0.028123
30
0.0
11
0.050955
21
-0.033501
31
0.0
0
LINE
8
0
6
CONTINUOUS
10
0.050955
20
-0.048569
30
0.0
11
0.050955
21
-0.052396
31
0.0
0
LINE
8
0
6
CONTINUOUS
10
0.050955
20
-0.009939
30
0.0
11
0.050955
21
-0.011726
31
0.0
0
LINE
8
0
6
CONTINUOUS
10
0.050955
20
-0.023015
30
0.0
11
0.050955
21
-0.028123
31
0.0
0
LINE
8
0
6
CONTINUOUS
10
0.050955
20
-0.043987
30
0.0
11
0.050955
21
-0.048569
31
0.0
0
LINE
8
0
6
CONTINUOUS
10
0.051223
20
-0.009333
30
0.0
11
0.050955
21
-0.009333
31
0.0
0
LINE
8
0
6
CONTINUOUS
10
0.050955
20
-0.009333
30
0.0
11
0.050955
21
-0.009939
31
0.0
0
LINE
8
0
6
CONTINUOUS
10
0.050955
20
-0.018432
30
0.0
11
0.050955
21
-0.023015
31
0.0
0
LINE
8
0
6
CONTINUOUS
10
0.050955
20
-0.038878
30
0.0
11
0.050955
21
-0.043987
31
0.0
0
LINE
8
0
6
CONTINUOUS
10
0.050955
20
-0.055275
30
0.0
11
0.050955
21
-0.057062
31
0.0
0
LINE
8
0
6
CONTINUOUS
10
0.087099
20
-0.057668
30
0.0
11
0.087516
21
-0.057574
31
0.0
0
LINE
8
0
6
CONTINUOUS
10
0.087516
20
-0.057574
30
0.0
11
0.087839
21
-0.057290
31
0.0
0
LINE
8
0
6
CONTINUOUS
10
0.087516
20
-0.009427
30
0.0
11
0.087099
21
-0.009333
31
0.0
0
LINE
8
0
6
CONTINUOUS
10
0.087839
20
-0.009711
30
0.0
11
0.087516
21
-0.009427
31
0.0
0
LINE
8
0
6
CONTINUOUS
10
0.088023
20
-0.015215
30
0.0
11
0.088023
21
-0.012428
31
0.0
0
LINE
8
0
6
CONTINUOUS
10
0.087025
20
-0.057668
30
0.0
11
0.087099
21
-0.057668
31
0.0
0
LINE
8
0
6
CONTINUOUS
10
0.050955
20
-0.011726
30
0.0
11
0.050955
21
-0.014605
31
0.0
0
LINE
8
0
6
CONTINUOUS
10
0.087099
20
-0.009333
30
0.0
11
0.087024
21
-0.009333
31
0.0
0
LINE
8
0
6
CONTINUOUS
10
0.066253
20
-0.009333
30
0.0
11
0.066253
21
-0.007262
31
0.0
0
LINE
8
0
6
CONTINUOUS
10
0.057249
20
-0.007262
30
0.0
11
0.057249
21
-0.009333
31
0.0
0
LINE
8
0
6
CONTINUOUS
10
0.065661
20
-0.006758
30
0.0
11
0.065595
21
-0.006758
31
0.0
0
LINE
8
0
6
CONTINUOUS
10
0.065799
20
-0.006758
30
0.0
11
0.065661
21
-0.006758
31
0.0
0
LINE
8
0
6
CONTINUOUS
10
0.065730
20
-0.006758
30
0.0
11
0.065799
21
-0.006758
31
0.0
0
LINE
8
0
6
CONTINUOUS
10
0.057841
20
-0.006758
30
0.0
11
0.057703
21
-0.006758
31
0.0
0
LINE
8
0
6
CONTINUOUS
10
0.057907
20
-0.006758
30
0.0
11
0.057841
21
-0.006758
31
0.0
0
LINE
8
0
6
CONTINUOUS
10
0.066253
20
-0.007262
30
0.0
11
0.066253
21
-0.007208
31
0.0
0
LINE
8
0
6
CONTINUOUS
10
0.057703
20
-0.006758
30
0.0
11
0.057476
21
-0.006818
31
0.0
0
LINE
8
0
6
CONTINUOUS
10
0.057476
20
-0.006818
30
0.0
11
0.057310
21
-0.006983
31
0.0
0
LINE
8
0
6
CONTINUOUS
10
0.057310
20
-0.006983
30
0.0
11
0.057249
21
-0.007208
31
0.0
0
LINE
8
0
6
CONTINUOUS
10
0.058245
20
-0.006758
30
0.0
11
0.057841
21
-0.006758
31
0.0
0
LINE
8
0
6
CONTINUOUS
10
0.058888
20
-0.006758
30
0.0
11
0.058245
21
-0.006758
31
0.0
0
LINE
8
0
6
CONTINUOUS
10
0.059727
20
-0.006758
30
0.0
11
0.058888
21
-0.006758
31
0.0
0
LINE
8
0
6
CONTINUOUS
10
0.060703
20
-0.006758
30
0.0
11
0.059727
21
-0.006758
31
0.0
0
LINE
8
0
6
CONTINUOUS
10
0.061751
20
-0.006758
30
0.0
11
0.060703
21
-0.006758
31
0.0
0
LINE
8
0
6
CONTINUOUS
10
0.062798
20
-0.006758
30
0.0
11
0.061751
21
-0.006758
31
0.0
0
LINE
8
0
6
CONTINUOUS
10
0.063775
20
-0.006758
30
0.0
11
0.062798
21
-0.006758
31
0.0
0
LINE
8
0
6
CONTINUOUS
10
0.064613
20
-0.006758
30
0.0
11
0.063775
21
-0.006758
31
0.0
0
LINE
8
0
6
CONTINUOUS
10
0.065256
20
-0.006758
30
0.0
11
0.064613
21
-0.006758
31
0.0
0
LINE
8
0
6
CONTINUOUS
10
0.065661
20
-0.006758
30
0.0
11
0.065256
21
-0.006758
31
0.0
0
LINE
8
0
6
CONTINUOUS
10
0.065799
20
-0.006758
30
0.0
11
0.065661
21
-0.006758
31
0.0
0
LINE
8
0
6
CONTINUOUS
10
0.066026
20
-0.006818
30
0.0
11
0.065799
21
-0.006758
31
0.0
0
LINE
8
0
6
CONTINUOUS
10
0.066192
20
-0.006983
30
0.0
11
0.066026
21
-0.006818
31
0.0
0
LINE
8
0
6
CONTINUOUS
10
0.066253
20
-0.007208
30
0.0
11
0.066192
21
-0.006983
31
0.0
0
LINE
8
0
6
CONTINUOUS
10
0.057249
20
-0.007208
30
0.0
11
0.057249
21
-0.007262
31
0.0
0
LINE
8
0
6
CONTINUOUS
10
0.065595
20
-0.006758
30
0.0
11
0.065197
21
-0.006758
31
0.0
0
LINE
8
0
6
CONTINUOUS
10
0.065595
20
-0.006758
30
0.0
11
0.065730
21
-0.006758
31
0.0
0
LINE
8
0
6
CONTINUOUS
10
0.065197
20
-0.006758
30
0.0
11
0.065595
21
-0.006758
31
0.0
0
LINE
8
0
6
CONTINUOUS
10
0.064565
20
-0.006758
30
0.0
11
0.065197
21
-0.006758
31
0.0
0
LINE
8
0
6
CONTINUOUS
10
0.063741
20
-0.006758
30
0.0
11
0.064565
21
-0.006758
31
0.0
0
LINE
8
0
6
CONTINUOUS
10
0.062781
20
-0.006758
30
0.0
11
0.063741
21
-0.006758
31
0.0
0
LINE
8
0
6
CONTINUOUS
10
0.061751
20
-0.006758
30
0.0
11
0.062781
21
-0.006758
31
0.0
0
LINE
8
0
6
CONTINUOUS
10
0.060721
20
-0.006758
30
0.0
11
0.061751
21
-0.006758
31
0.0
0
LINE
8
0
6
CONTINUOUS
10
0.059761
20
-0.006758
30
0.0
11
0.060721
21
-0.006758
31
0.0
0
LINE
8
0
6
CONTINUOUS
10
0.058304
20
-0.006758
30
0.0
11
0.057907
21
-0.006758
31
0.0
0
LINE
8
0
6
CONTINUOUS
10
0.058937
20
-0.006758
30
0.0
11
0.058304
21
-0.006758
31
0.0
0
LINE
8
0
6
CONTINUOUS
10
0.059761
20
-0.006758
30
0.0
11
0.058937
21
-0.006758
31
0.0
0
LINE
8
0
6
CONTINUOUS
10
0.060721
20
-0.006758
30
0.0
11
0.059761
21
-0.006758
31
0.0
0
LINE
8
0
6
CONTINUOUS
10
0.061751
20
-0.006758
30
0.0
11
0.060721
21
-0.006758
31
0.0
0
LINE
8
0
6
CONTINUOUS
10
0.062781
20
-0.006758
30
0.0
11
0.061751
21
-0.006758
31
0.0
0
LINE
8
0
6
CONTINUOUS
10
0.063741
20
-0.006758
30
0.0
11
0.062781
21
-0.006758
31
0.0
0
LINE
8
0
6
CONTINUOUS
10
0.064565
20
-0.006758
30
0.0
11
0.063741
21
-0.006758
31
0.0
0
LINE
8
0
6
CONTINUOUS
10
0.065197
20
-0.006758
30
0.0
11
0.064565
21
-0.006758
31
0.0
0
LINE
8
0
6
CONTINUOUS
10
0.049435
20
-0.055531
30
0.0
11
0.050955
21
-0.055531
31
0.0
0
LINE
8
0
6
CONTINUOUS
10
0.049435
20
-0.028091
30
0.0
11
0.049435
21
-0.022952
31
0.0
0
LINE
8
0
6
CONTINUOUS
10
0.049435
20
-0.052508
30
0.0
11
0.049435
21
-0.048658
31
0.0
0
LINE
8
0
6
CONTINUOUS
10
0.049435
20
-0.011597
30
0.0
11
0.049435
21
-0.009799
31
0.0
0
LINE
8
0
6
CONTINUOUS
10
0.049435
20
-0.014493
30
0.0
11
0.049435
21
-0.011597
31
0.0
0
LINE
8
0
6
CONTINUOUS
10
0.049435
20
-0.022952
30
0.0
11
0.049435
21
-0.018343
31
0.0
0
LINE
8
0
6
CONTINUOUS
10
0.049120
20
-0.009190
30
0.0
11
0.039977
21
-0.009190
31
0.0
0
LINE
8
0
6
CONTINUOUS
10
0.039977
20
-0.057811
30
0.0
11
0.049120
21
-0.057811
31
0.0
0
LINE
8
0
6
CONTINUOUS
10
0.049120
20
-0.057811
30
0.0
11
0.049435
21
-0.057811
31
0.0
0
LINE
8
0
6
CONTINUOUS
10
0.049435
20
-0.057811
30
0.0
11
0.049435
21
-0.057202
31
0.0
0
LINE
8
0
6
CONTINUOUS
10
0.049435
20
-0.048658
30
0.0
11
0.049435
21
-0.044049
31
0.0
0
LINE
8
0
6
CONTINUOUS
10
0.049435
20
-0.009190
30
0.0
11
0.049120
21
-0.009190
31
0.0
0
LINE
8
0
6
CONTINUOUS
10
0.049435
20
-0.009799
30
0.0
11
0.049435
21
-0.009190
31
0.0
0
LINE
8
0
6
CONTINUOUS
10
0.049435
20
-0.033501
30
0.0
11
0.049435
21
-0.028091
31
0.0
0
LINE
8
0
6
CONTINUOUS
10
0.049435
20
-0.018343
30
0.0
11
0.049435
21
-0.014493
31
0.0
0
LINE
8
0
6
CONTINUOUS
10
0.049435
20
-0.038910
30
0.0
11
0.049435
21
-0.033501
31
0.0
0
LINE
8
0
6
CONTINUOUS
10
0.049435
20
-0.044049
30
0.0
11
0.049435
21
-0.038910
31
0.0
0
LINE
8
0
6
CONTINUOUS
10
0.049435
20
-0.055404
30
0.0
11
0.049435
21
-0.052508
31
0.0
0
LINE
8
0
6
CONTINUOUS
10
0.065650
20
-0.009585
30
0.0
11
0.066099
21
-0.009462
31
0.0
0
LINE
8
0
6
CONTINUOUS
10
0.066099
20
-0.009462
30
0.0
11
0.066251
21
-0.009333
31
0.0
0
ENDSEC
0
EOF
