999
unknown String-ID: 20550
0
SECTION
2
HEADER
9
$ACADVER
1
AC1009
9
$DWGCODEPAGE
3
unknown String-ID: 20561
0
ENDSEC
0
SECTION
2
TABLES
0
TABLE
2
LAYER
70
1
0
LAYER
2
0
70
0
62
7
6
CONTINUOUS
0
ENDTAB
0
ENDSEC
0
SECTION
2
ENTITIES
0
LINE
8
0
6
CONTINUOUS
10
0.033839
20
-0.057290
30
0.0
11
0.034023
21
-0.056889
31
0.0
0
LINE
8
0
6
CONTINUOUS
10
0.034023
20
-0.056889
30
0.0
11
0.034023
21
-0.056303
31
0.0
0
LINE
8
0
6
CONTINUOUS
10
0.034023
20
-0.054573
30
0.0
11
0.034023
21
-0.051786
31
0.0
0
LINE
8
0
6
CONTINUOUS
10
0.034023
20
-0.048083
30
0.0
11
0.034023
21
-0.043648
31
0.0
0
LINE
8
0
6
CONTINUOUS
10
0.034023
20
-0.043648
30
0.0
11
0.034023
21
-0.038705
31
0.0
0
LINE
8
0
6
CONTINUOUS
10
0.034023
20
-0.038705
30
0.0
11
0.034023
21
-0.033501
31
0.0
0
LINE
8
0
6
CONTINUOUS
10
0.034023
20
-0.033501
30
0.0
11
0.034023
21
-0.028296
31
0.0
0
LINE
8
0
6
CONTINUOUS
10
0.034023
20
-0.028296
30
0.0
11
0.034023
21
-0.023353
31
0.0
0
LINE
8
0
6
CONTINUOUS
10
0.034023
20
-0.023353
30
0.0
11
0.034023
21
-0.018918
31
0.0
0
LINE
8
0
6
CONTINUOUS
10
0.034023
20
-0.018918
30
0.0
11
0.034023
21
-0.015215
31
0.0
0
LINE
8
0
6
CONTINUOUS
10
0.034023
20
-0.012428
30
0.0
11
0.034023
21
-0.010698
31
0.0
0
LINE
8
0
6
CONTINUOUS
10
0.034023
20
-0.010112
30
0.0
11
0.033839
21
-0.009711
31
0.0
0
LINE
8
0
6
CONTINUOUS
10
0.034023
20
-0.010698
30
0.0
11
0.034023
21
-0.010112
31
0.0
0
LINE
8
0
6
CONTINUOUS
10
-0.003045
20
-0.011470
30
0.0
11
-0.004565
21
-0.011470
31
0.0
0
LINE
8
0
6
CONTINUOUS
10
-0.002777
20
-0.057668
30
0.0
11
0.033025
21
-0.057668
31
0.0
0
LINE
8
0
6
CONTINUOUS
10
0.033024
20
-0.009333
30
0.0
11
0.012253
21
-0.009333
31
0.0
0
LINE
8
0
6
CONTINUOUS
10
0.003251
20
-0.009333
30
0.0
11
-0.002777
21
-0.009333
31
0.0
0
LINE
8
0
6
CONTINUOUS
10
-0.003045
20
-0.057668
30
0.0
11
-0.002777
21
-0.057668
31
0.0
0
LINE
8
0
6
CONTINUOUS
10
-0.003045
20
-0.057062
30
0.0
11
-0.003045
21
-0.057668
31
0.0
0
LINE
8
0
6
CONTINUOUS
10
-0.003045
20
-0.033501
30
0.0
11
-0.003045
21
-0.038878
31
0.0
0
LINE
8
0
6
CONTINUOUS
10
-0.003045
20
-0.052396
30
0.0
11
-0.003045
21
-0.055275
31
0.0
0
LINE
8
0
6
CONTINUOUS
10
-0.003045
20
-0.028123
30
0.0
11
-0.003045
21
-0.033501
31
0.0
0
LINE
8
0
6
CONTINUOUS
10
-0.003045
20
-0.048569
30
0.0
11
-0.003045
21
-0.052396
31
0.0
0
LINE
8
0
6
CONTINUOUS
10
-0.003045
20
-0.009939
30
0.0
11
-0.003045
21
-0.011726
31
0.0
0
LINE
8
0
6
CONTINUOUS
10
-0.003045
20
-0.023015
30
0.0
11
-0.003045
21
-0.028123
31
0.0
0
LINE
8
0
6
CONTINUOUS
10
-0.003045
20
-0.043987
30
0.0
11
-0.003045
21
-0.048569
31
0.0
0
LINE
8
0
6
CONTINUOUS
10
-0.002777
20
-0.009333
30
0.0
11
-0.003045
21
-0.009333
31
0.0
0
LINE
8
0
6
CONTINUOUS
10
-0.003045
20
-0.009333
30
0.0
11
-0.003045
21
-0.009939
31
0.0
0
LINE
8
0
6
CONTINUOUS
10
-0.003045
20
-0.018432
30
0.0
11
-0.003045
21
-0.023015
31
0.0
0
LINE
8
0
6
CONTINUOUS
10
-0.003045
20
-0.038878
30
0.0
11
-0.003045
21
-0.043987
31
0.0
0
LINE
8
0
6
CONTINUOUS
10
-0.003045
20
-0.055275
30
0.0
11
-0.003045
21
-0.057062
31
0.0
0
LINE
8
0
6
CONTINUOUS
10
0.033099
20
-0.057668
30
0.0
11
0.033516
21
-0.057574
31
0.0
0
LINE
8
0
6
CONTINUOUS
10
0.033516
20
-0.057574
30
0.0
11
0.033839
21
-0.057290
31
0.0
0
LINE
8
0
6
CONTINUOUS
10
0.033516
20
-0.009427
30
0.0
11
0.033099
21
-0.009333
31
0.0
0
LINE
8
0
6
CONTINUOUS
10
0.033839
20
-0.009711
30
0.0
11
0.033516
21
-0.009427
31
0.0
0
LINE
8
0
6
CONTINUOUS
10
0.034023
20
-0.015215
30
0.0
11
0.034023
21
-0.012428
31
0.0
0
LINE
8
0
6
CONTINUOUS
10
0.033025
20
-0.057668
30
0.0
11
0.033099
21
-0.057668
31
0.0
0
LINE
8
0
6
CONTINUOUS
10
-0.003045
20
-0.011726
30
0.0
11
-0.003045
21
-0.014605
31
0.0
0
LINE
8
0
6
CONTINUOUS
10
0.033099
20
-0.009333
30
0.0
11
0.033024
21
-0.009333
31
0.0
0
LINE
8
0
6
CONTINUOUS
10
0.012253
20
-0.009333
30
0.0
11
0.012253
21
-0.007262
31
0.0
0
LINE
8
0
6
CONTINUOUS
10
0.003249
20
-0.007262
30
0.0
11
0.003249
21
-0.009333
31
0.0
0
LINE
8
0
6
CONTINUOUS
10
0.011661
20
-0.006758
30
0.0
11
0.011595
21
-0.006758
31
0.0
0
LINE
8
0
6
CONTINUOUS
10
0.011799
20
-0.006758
30
0.0
11
0.011661
21
-0.006758
31
0.0
0
LINE
8
0
6
CONTINUOUS
10
0.011730
20
-0.006758
30
0.0
11
0.011799
21
-0.006758
31
0.0
0
LINE
8
0
6
CONTINUOUS
10
0.003841
20
-0.006758
30
0.0
11
0.003703
21
-0.006758
31
0.0
0
LINE
8
0
6
CONTINUOUS
10
0.003907
20
-0.006758
30
0.0
11
0.003841
21
-0.006758
31
0.0
0
LINE
8
0
6
CONTINUOUS
10
0.012253
20
-0.007262
30
0.0
11
0.012253
21
-0.007208
31
0.0
0
LINE
8
0
6
CONTINUOUS
10
0.003703
20
-0.006758
30
0.0
11
0.003476
21
-0.006818
31
0.0
0
LINE
8
0
6
CONTINUOUS
10
0.003476
20
-0.006818
30
0.0
11
0.003310
21
-0.006983
31
0.0
0
LINE
8
0
6
CONTINUOUS
10
0.003310
20
-0.006983
30
0.0
11
0.003249
21
-0.007208
31
0.0
0
LINE
8
0
6
CONTINUOUS
10
0.004245
20
-0.006758
30
0.0
11
0.003841
21
-0.006758
31
0.0
0
LINE
8
0
6
CONTINUOUS
10
0.004888
20
-0.006758
30
0.0
11
0.004245
21
-0.006758
31
0.0
0
LINE
8
0
6
CONTINUOUS
10
0.005727
20
-0.006758
30
0.0
11
0.004888
21
-0.006758
31
0.0
0
LINE
8
0
6
CONTINUOUS
10
0.006703
20
-0.006758
30
0.0
11
0.005727
21
-0.006758
31
0.0
0
LINE
8
0
6
CONTINUOUS
10
0.007751
20
-0.006758
30
0.0
11
0.006703
21
-0.006758
31
0.0
0
LINE
8
0
6
CONTINUOUS
10
0.008798
20
-0.006758
30
0.0
11
0.007751
21
-0.006758
31
0.0
0
LINE
8
0
6
CONTINUOUS
10
0.009775
20
-0.006758
30
0.0
11
0.008798
21
-0.006758
31
0.0
0
LINE
8
0
6
CONTINUOUS
10
0.010613
20
-0.006758
30
0.0
11
0.009775
21
-0.006758
31
0.0
0
LINE
8
0
6
CONTINUOUS
10
0.011256
20
-0.006758
30
0.0
11
0.010613
21
-0.006758
31
0.0
0
LINE
8
0
6
CONTINUOUS
10
0.011661
20
-0.006758
30
0.0
11
0.011256
21
-0.006758
31
0.0
0
LINE
8
0
6
CONTINUOUS
10
0.011799
20
-0.006758
30
0.0
11
0.011661
21
-0.006758
31
0.0
0
LINE
8
0
6
CONTINUOUS
10
0.012026
20
-0.006818
30
0.0
11
0.011799
21
-0.006758
31
0.0
0
LINE
8
0
6
CONTINUOUS
10
0.012192
20
-0.006983
30
0.0
11
0.012026
21
-0.006818
31
0.0
0
LINE
8
0
6
CONTINUOUS
10
0.012253
20
-0.007208
30
0.0
11
0.012192
21
-0.006983
31
0.0
0
LINE
8
0
6
CONTINUOUS
10
0.003249
20
-0.007208
30
0.0
11
0.003249
21
-0.007262
31
0.0
0
LINE
8
0
6
CONTINUOUS
10
0.011595
20
-0.006758
30
0.0
11
0.011197
21
-0.006758
31
0.0
0
LINE
8
0
6
CONTINUOUS
10
0.011595
20
-0.006758
30
0.0
11
0.011730
21
-0.006758
31
0.0
0
LINE
8
0
6
CONTINUOUS
10
0.011197
20
-0.006758
30
0.0
11
0.011595
21
-0.006758
31
0.0
0
LINE
8
0
6
CONTINUOUS
10
0.010565
20
-0.006758
30
0.0
11
0.011197
21
-0.006758
31
0.0
0
LINE
8
0
6
CONTINUOUS
10
0.009741
20
-0.006758
30
0.0
11
0.010565
21
-0.006758
31
0.0
0
LINE
8
0
6
CONTINUOUS
10
0.008781
20
-0.006758
30
0.0
11
0.009741
21
-0.006758
31
0.0
0
LINE
8
0
6
CONTINUOUS
10
0.007751
20
-0.006758
30
0.0
11
0.008781
21
-0.006758
31
0.0
0
LINE
8
0
6
CONTINUOUS
10
0.006721
20
-0.006758
30
0.0
11
0.007751
21
-0.006758
31
0.0
0
LINE
8
0
6
CONTINUOUS
10
0.005761
20
-0.006758
30
0.0
11
0.006721
21
-0.006758
31
0.0
0
LINE
8
0
6
CONTINUOUS
10
0.004304
20
-0.006758
30
0.0
11
0.003907
21
-0.006758
31
0.0
0
LINE
8
0
6
CONTINUOUS
10
0.004937
20
-0.006758
30
0.0
11
0.004304
21
-0.006758
31
0.0
0
LINE
8
0
6
CONTINUOUS
10
0.005761
20
-0.006758
30
0.0
11
0.004937
21
-0.006758
31
0.0
0
LINE
8
0
6
CONTINUOUS
10
0.006721
20
-0.006758
30
0.0
11
0.005761
21
-0.006758
31
0.0
0
LINE
8
0
6
CONTINUOUS
10
0.007751
20
-0.006758
30
0.0
11
0.006721
21
-0.006758
31
0.0
0
LINE
8
0
6
CONTINUOUS
10
0.008781
20
-0.006758
30
0.0
11
0.007751
21
-0.006758
31
0.0
0
LINE
8
0
6
CONTINUOUS
10
0.009741
20
-0.006758
30
0.0
11
0.008781
21
-0.006758
31
0.0
0
LINE
8
0
6
CONTINUOUS
10
0.010565
20
-0.006758
30
0.0
11
0.009741
21
-0.006758
31
0.0
0
LINE
8
0
6
CONTINUOUS
10
0.011197
20
-0.006758
30
0.0
11
0.010565
21
-0.006758
31
0.0
0
LINE
8
0
6
CONTINUOUS
10
-0.004565
20
-0.055531
30
0.0
11
-0.003045
21
-0.055531
31
0.0
0
LINE
8
0
6
CONTINUOUS
10
-0.004565
20
-0.028091
30
0.0
11
-0.004565
21
-0.022952
31
0.0
0
LINE
8
0
6
CONTINUOUS
10
-0.004565
20
-0.052508
30
0.0
11
-0.004565
21
-0.048658
31
0.0
0
LINE
8
0
6
CONTINUOUS
10
-0.004565
20
-0.011597
30
0.0
11
-0.004565
21
-0.009799
31
0.0
0
LINE
8
0
6
CONTINUOUS
10
-0.004565
20
-0.014493
30
0.0
11
-0.004565
21
-0.011597
31
0.0
0
LINE
8
0
6
CONTINUOUS
10
-0.004565
20
-0.022952
30
0.0
11
-0.004565
21
-0.018343
31
0.0
0
LINE
8
0
6
CONTINUOUS
10
-0.004880
20
-0.009190
30
0.0
11
-0.014023
21
-0.009190
31
0.0
0
LINE
8
0
6
CONTINUOUS
10
-0.014023
20
-0.057811
30
0.0
11
-0.004880
21
-0.057811
31
0.0
0
LINE
8
0
6
CONTINUOUS
10
-0.004880
20
-0.057811
30
0.0
11
-0.004565
21
-0.057811
31
0.0
0
LINE
8
0
6
CONTINUOUS
10
-0.004565
20
-0.057811
30
0.0
11
-0.004565
21
-0.057202
31
0.0
0
LINE
8
0
6
CONTINUOUS
10
-0.004565
20
-0.048658
30
0.0
11
-0.004565
21
-0.044049
31
0.0
0
LINE
8
0
6
CONTINUOUS
10
-0.004565
20
-0.009190
30
0.0
11
-0.004880
21
-0.009190
31
0.0
0
LINE
8
0
6
CONTINUOUS
10
-0.004565
20
-0.009799
30
0.0
11
-0.004565
21
-0.009190
31
0.0
0
LINE
8
0
6
CONTINUOUS
10
-0.004565
20
-0.033501
30
0.0
11
-0.004565
21
-0.028091
31
0.0
0
LINE
8
0
6
CONTINUOUS
10
-0.004565
20
-0.018343
30
0.0
11
-0.004565
21
-0.014493
31
0.0
0
LINE
8
0
6
CONTINUOUS
10
-0.004565
20
-0.038910
30
0.0
11
-0.004565
21
-0.033501
31
0.0
0
LINE
8
0
6
CONTINUOUS
10
-0.004565
20
-0.044049
30
0.0
11
-0.004565
21
-0.038910
31
0.0
0
LINE
8
0
6
CONTINUOUS
10
-0.004565
20
-0.055404
30
0.0
11
-0.004565
21
-0.052508
31
0.0
0
LINE
8
0
6
CONTINUOUS
10
-0.034023
20
0.011267
30
0.0
11
-0.034023
21
-0.011117
31
0.0
0
LINE
8
0
6
CONTINUOUS
10
-0.034023
20
0.075740
30
0.0
11
-0.034023
21
0.070000
31
0.0
0
LINE
8
0
6
CONTINUOUS
10
-0.034023
20
-0.011117
30
0.0
11
-0.034023
21
-0.033500
31
0.0
0
LINE
8
0
6
CONTINUOUS
10
-0.034023
20
-0.080607
30
0.0
11
-0.034023
21
-0.083858
31
0.0
0
LINE
8
0
6
CONTINUOUS
10
-0.034023
20
-0.085000
30
0.0
11
-0.033538
21
-0.085000
31
0.0
0
LINE
8
0
6
CONTINUOUS
10
-0.034023
20
-0.083858
30
0.0
11
-0.034023
21
-0.085000
31
0.0
0
LINE
8
0
6
CONTINUOUS
10
-0.034023
20
0.083858
30
0.0
11
-0.034023
21
0.080607
31
0.0
0
LINE
8
0
6
CONTINUOUS
10
-0.034023
20
0.085000
30
0.0
11
-0.034023
21
0.083858
31
0.0
0
LINE
8
0
6
CONTINUOUS
10
-0.033538
20
0.085000
30
0.0
11
-0.034023
21
0.085000
31
0.0
0
LINE
8
0
6
CONTINUOUS
10
-0.034023
20
0.080607
30
0.0
11
-0.034023
21
0.075740
31
0.0
0
LINE
8
0
6
CONTINUOUS
10
-0.034023
20
0.070000
30
0.0
11
-0.034023
21
0.033800
31
0.0
0
LINE
8
0
6
CONTINUOUS
10
-0.034023
20
-0.075740
30
0.0
11
-0.034023
21
-0.080607
31
0.0
0
LINE
8
0
6
CONTINUOUS
10
-0.034023
20
-0.070000
30
0.0
11
-0.034023
21
-0.075740
31
0.0
0
LINE
8
0
6
CONTINUOUS
10
-0.034023
20
0.033800
30
0.0
11
-0.034023
21
0.022533
31
0.0
0
LINE
8
0
6
CONTINUOUS
10
-0.014023
20
0.011267
30
0.0
11
-0.014023
21
0.022703
31
0.0
0
LINE
8
0
6
CONTINUOUS
10
-0.014023
20
-0.011532
30
0.0
11
-0.014023
21
0.011267
31
0.0
0
LINE
8
0
6
CONTINUOUS
10
-0.014023
20
-0.033500
30
0.0
11
-0.014023
21
-0.011532
31
0.0
0
LINE
8
0
6
CONTINUOUS
10
-0.014023
20
0.022703
30
0.0
11
-0.014023
21
0.033800
31
0.0
0
LINE
8
0
6
CONTINUOUS
10
-0.014316
20
0.084753
30
0.0
11
-0.015023
21
0.085000
31
0.0
0
LINE
8
0
6
CONTINUOUS
10
-0.014023
20
0.084157
30
0.0
11
-0.014316
21
0.084753
31
0.0
0
LINE
8
0
6
CONTINUOUS
10
-0.014023
20
0.083021
30
0.0
11
-0.014023
21
0.084157
31
0.0
0
LINE
8
0
6
CONTINUOUS
10
-0.014023
20
0.079794
30
0.0
11
-0.014023
21
0.083021
31
0.0
0
LINE
8
0
6
CONTINUOUS
10
-0.014023
20
0.074967
30
0.0
11
-0.014023
21
0.079794
31
0.0
0
LINE
8
0
6
CONTINUOUS
10
-0.014023
20
0.069270
30
0.0
11
-0.014023
21
0.074967
31
0.0
0
LINE
8
0
6
CONTINUOUS
10
-0.014023
20
-0.074988
30
0.0
11
-0.014023
21
-0.069158
31
0.0
0
LINE
8
0
6
CONTINUOUS
10
-0.014023
20
-0.079921
30
0.0
11
-0.014023
21
-0.074988
31
0.0
0
LINE
8
0
6
CONTINUOUS
10
-0.014023
20
-0.083225
30
0.0
11
-0.014023
21
-0.079921
31
0.0
0
LINE
8
0
6
CONTINUOUS
10
-0.015023
20
-0.085000
30
0.0
11
-0.014316
21
-0.084824
31
0.0
0
LINE
8
0
6
CONTINUOUS
10
-0.014023
20
-0.084399
30
0.0
11
-0.014023
21
-0.083225
31
0.0
0
LINE
8
0
6
CONTINUOUS
10
-0.014316
20
-0.084824
30
0.0
11
-0.014023
21
-0.084399
31
0.0
0
LINE
8
0
6
CONTINUOUS
10
-0.014023
20
0.033800
30
0.0
11
-0.014023
21
0.069270
31
0.0
0
LINE
8
0
6
CONTINUOUS
10
-0.014023
20
-0.069158
30
0.0
11
-0.014023
21
-0.033500
31
0.0
0
LINE
8
0
6
CONTINUOUS
10
-0.034023
20
0.022533
30
0.0
11
-0.034023
21
0.011267
31
0.0
0
LINE
8
0
6
CONTINUOUS
10
-0.015424
20
-0.085000
30
0.0
11
-0.015023
21
-0.085000
31
0.0
0
LINE
8
0
6
CONTINUOUS
10
-0.015023
20
0.085000
30
0.0
11
-0.015424
21
0.085000
31
0.0
0
LINE
8
0
6
CONTINUOUS
10
-0.033538
20
-0.085000
30
0.0
11
-0.015424
21
-0.085000
31
0.0
0
LINE
8
0
6
CONTINUOUS
10
-0.015424
20
0.085000
30
0.0
11
-0.033538
21
0.085000
31
0.0
0
LINE
8
0
6
CONTINUOUS
10
-0.034023
20
-0.033500
30
0.0
11
-0.034023
21
-0.070000
31
0.0
0
LINE
8
0
6
CONTINUOUS
10
0.012099
20
-0.009462
30
0.0
11
0.012251
21
-0.009333
31
0.0
0
LINE
8
0
6
CONTINUOUS
10
0.011650
20
-0.009585
30
0.0
11
0.012099
21
-0.009462
31
0.0
0
ENDSEC
0
EOF
