999
unknown String-ID: 20550
0
SECTION
2
HEADER
9
$ACADVER
1
AC1009
9
$DWGCODEPAGE
3
unknown String-ID: 20561
0
ENDSEC
0
SECTION
2
TABLES
0
TABLE
2
LAYER
70
1
0
LAYER
2
0
70
0
62
7
6
CONTINUOUS
0
ENDTAB
0
ENDSEC
0
SECTION
2
ENTITIES
0
LINE
8
0
6
CONTINUOUS
10
0.006066
20
0.021000
30
0.0
11
0.005449
21
0.021000
31
0.0
0
LINE
8
0
6
CONTINUOUS
10
0.004731
20
-0.021000
30
0.0
11
0.005470
21
-0.021000
31
0.0
0
LINE
8
0
6
CONTINUOUS
10
-0.001058
20
0.021000
30
0.0
11
-0.002589
21
0.021000
31
0.0
0
LINE
8
0
6
CONTINUOUS
10
-0.002669
20
-0.021000
30
0.0
11
-0.001098
21
-0.021000
31
0.0
0
LINE
8
0
6
CONTINUOUS
10
-0.002589
20
0.021000
30
0.0
11
-0.002808
21
0.021000
31
0.0
0
LINE
8
0
6
CONTINUOUS
10
-0.002846
20
-0.021000
30
0.0
11
-0.002669
21
-0.021000
31
0.0
0
LINE
8
0
6
CONTINUOUS
10
-0.001200
20
0.021000
30
0.0
11
-0.001488
21
0.021000
31
0.0
0
LINE
8
0
6
CONTINUOUS
10
-0.007500
20
-0.019965
30
0.0
11
-0.007500
21
-0.020200
31
0.0
0
LINE
8
0
6
CONTINUOUS
10
-0.002808
20
0.021000
30
0.0
11
-0.006965
21
0.021000
31
0.0
0
LINE
8
0
6
CONTINUOUS
10
-0.001488
20
0.021000
30
0.0
11
-0.006965
21
0.021000
31
0.0
0
LINE
8
0
6
CONTINUOUS
10
-0.006204
20
-0.021000
30
0.0
11
-0.002846
21
-0.021000
31
0.0
0
LINE
8
0
6
CONTINUOUS
10
-0.007500
20
0.020700
30
0.0
11
-0.007500
21
0.020465
31
0.0
0
LINE
8
0
6
CONTINUOUS
10
0.007500
20
0.020465
30
0.0
11
0.007500
21
0.020700
31
0.0
0
LINE
8
0
6
CONTINUOUS
10
0.007500
20
-0.020200
30
0.0
11
0.007500
21
-0.019965
31
0.0
0
LINE
8
0
6
CONTINUOUS
10
-0.007500
20
-0.018319
30
0.0
11
-0.007500
21
-0.019965
31
0.0
0
LINE
8
0
6
CONTINUOUS
10
-0.007500
20
-0.020200
30
0.0
11
-0.007266
21
-0.020766
31
0.0
0
LINE
8
0
6
CONTINUOUS
10
-0.006609
20
-0.021000
30
0.0
11
-0.006390
21
-0.021000
31
0.0
0
LINE
8
0
6
CONTINUOUS
10
-0.006700
20
-0.021000
30
0.0
11
-0.006609
21
-0.021000
31
0.0
0
LINE
8
0
6
CONTINUOUS
10
-0.007266
20
-0.020766
30
0.0
11
-0.006700
21
-0.021000
31
0.0
0
LINE
8
0
6
CONTINUOUS
10
-0.007500
20
-0.015722
30
0.0
11
-0.007500
21
-0.018319
31
0.0
0
LINE
8
0
6
CONTINUOUS
10
-0.007500
20
-0.013115
30
0.0
11
-0.007500
21
-0.015722
31
0.0
0
LINE
8
0
6
CONTINUOUS
10
-0.007500
20
-0.010500
30
0.0
11
-0.007500
21
-0.013115
31
0.0
0
LINE
8
0
6
CONTINUOUS
10
-0.007500
20
0.020465
30
0.0
11
-0.007500
21
-0.010500
31
0.0
0
LINE
8
0
6
CONTINUOUS
10
-0.006965
20
0.021000
30
0.0
11
-0.007200
21
0.021000
31
0.0
0
LINE
8
0
6
CONTINUOUS
10
-0.006965
20
0.021000
30
0.0
11
-0.007200
21
0.021000
31
0.0
0
LINE
8
0
6
CONTINUOUS
10
0.007500
20
0.020700
30
0.0
11
0.007412
21
0.020912
31
0.0
0
LINE
8
0
6
CONTINUOUS
10
0.007412
20
0.020912
30
0.0
11
0.007200
21
0.021000
31
0.0
0
LINE
8
0
6
CONTINUOUS
10
0.007200
20
0.021000
30
0.0
11
0.006684
21
0.021000
31
0.0
0
LINE
8
0
6
CONTINUOUS
10
0.000473
20
0.021000
30
0.0
11
-0.001058
21
0.021000
31
0.0
0
LINE
8
0
6
CONTINUOUS
10
0.003308
20
0.021000
30
0.0
11
0.000473
21
0.021000
31
0.0
0
LINE
8
0
6
CONTINUOUS
10
0.005449
20
0.021000
30
0.0
11
0.003308
21
0.021000
31
0.0
0
LINE
8
0
6
CONTINUOUS
10
0.006684
20
0.021000
30
0.0
11
0.006066
21
0.021000
31
0.0
0
LINE
8
0
6
CONTINUOUS
10
-0.007412
20
0.020912
30
0.0
11
-0.007500
21
0.020700
31
0.0
0
LINE
8
0
6
CONTINUOUS
10
-0.007200
20
0.021000
30
0.0
11
-0.007412
21
0.020912
31
0.0
0
LINE
8
0
6
CONTINUOUS
10
0.006707
20
-0.021000
30
0.0
11
0.007268
21
-0.020766
31
0.0
0
LINE
8
0
6
CONTINUOUS
10
0.006209
20
-0.021000
30
0.0
11
0.006707
21
-0.021000
31
0.0
0
LINE
8
0
6
CONTINUOUS
10
0.007268
20
-0.020766
30
0.0
11
0.007500
21
-0.020200
31
0.0
0
LINE
8
0
6
CONTINUOUS
10
-0.001098
20
-0.021000
30
0.0
11
0.000473
21
-0.021000
31
0.0
0
LINE
8
0
6
CONTINUOUS
10
0.000473
20
-0.021000
30
0.0
11
0.003307
21
-0.021000
31
0.0
0
LINE
8
0
6
CONTINUOUS
10
0.003307
20
-0.021000
30
0.0
11
0.004731
21
-0.021000
31
0.0
0
LINE
8
0
6
CONTINUOUS
10
0.005470
20
-0.021000
30
0.0
11
0.006209
21
-0.021000
31
0.0
0
LINE
8
0
6
CONTINUOUS
10
0.007500
20
-0.010500
30
0.0
11
0.007500
21
0.020465
31
0.0
0
LINE
8
0
6
CONTINUOUS
10
0.007500
20
-0.015750
30
0.0
11
0.007500
21
-0.013125
31
0.0
0
LINE
8
0
6
CONTINUOUS
10
0.007500
20
-0.018375
30
0.0
11
0.007500
21
-0.015750
31
0.0
0
LINE
8
0
6
CONTINUOUS
10
-0.006390
20
-0.021000
30
0.0
11
-0.006204
21
-0.021000
31
0.0
0
LINE
8
0
6
CONTINUOUS
10
0.007500
20
-0.019965
30
0.0
11
0.007500
21
-0.018375
31
0.0
0
LINE
8
0
6
CONTINUOUS
10
0.007500
20
-0.013125
30
0.0
11
0.007500
21
-0.010500
31
0.0
0
ENDSEC
0
EOF
