999
unknown String-ID: 20550
0
SECTION
2
HEADER
9
$ACADVER
1
AC1009
9
$DWGCODEPAGE
3
unknown String-ID: 20561
0
ENDSEC
0
SECTION
2
TABLES
0
TABLE
2
LAYER
70
1
0
LAYER
2
0
70
0
62
7
6
CONTINUOUS
0
ENDTAB
0
ENDSEC
0
SECTION
2
ENTITIES
0
LINE
8
0
6
CONTINUOUS
10
0.202122
20
-0.041044
30
0.0
11
0.202122
21
-0.041200
31
0.0
0
LINE
8
0
6
CONTINUOUS
10
0.204620
20
-0.040281
30
0.0
11
0.204620
21
-0.040163
31
0.0
0
LINE
8
0
6
CONTINUOUS
10
0.202122
20
-0.037000
30
0.0
11
0.202122
21
-0.041044
31
0.0
0
LINE
8
0
6
CONTINUOUS
10
0.202122
20
-0.027490
30
0.0
11
0.202122
21
-0.028910
31
0.0
0
LINE
8
0
6
CONTINUOUS
10
0.202255
20
-0.027000
30
0.0
11
0.202122
21
-0.027000
31
0.0
0
LINE
8
0
6
CONTINUOUS
10
0.202122
20
-0.027000
30
0.0
11
0.202122
21
-0.027490
31
0.0
0
LINE
8
0
6
CONTINUOUS
10
0.202122
20
-0.042000
30
0.0
11
0.202255
21
-0.042000
31
0.0
0
LINE
8
0
6
CONTINUOUS
10
0.202122
20
-0.041893
30
0.0
11
0.202122
21
-0.042000
31
0.0
0
LINE
8
0
6
CONTINUOUS
10
0.202122
20
-0.041200
30
0.0
11
0.202122
21
-0.041600
31
0.0
0
LINE
8
0
6
CONTINUOUS
10
0.202122
20
-0.033910
30
0.0
11
0.202122
21
-0.037000
31
0.0
0
LINE
8
0
6
CONTINUOUS
10
0.202122
20
-0.028910
30
0.0
11
0.202122
21
-0.031122
31
0.0
0
LINE
8
0
6
CONTINUOUS
10
0.202122
20
-0.031122
30
0.0
11
0.202122
21
-0.033910
31
0.0
0
LINE
8
0
6
CONTINUOUS
10
0.202122
20
-0.041600
30
0.0
11
0.202122
21
-0.041893
31
0.0
0
LINE
8
0
6
CONTINUOUS
10
0.204620
20
-0.030138
30
0.0
11
0.204620
21
-0.028934
31
0.0
0
LINE
8
0
6
CONTINUOUS
10
0.204620
20
-0.037118
30
0.0
11
0.204620
21
-0.034379
31
0.0
0
LINE
8
0
6
CONTINUOUS
10
0.203120
20
-0.042000
30
0.0
11
0.203870
21
-0.041799
31
0.0
0
LINE
8
0
6
CONTINUOUS
10
0.203870
20
-0.041799
30
0.0
11
0.204419
21
-0.041250
31
0.0
0
LINE
8
0
6
CONTINUOUS
10
0.204620
20
-0.040398
30
0.0
11
0.204620
21
-0.040281
31
0.0
0
LINE
8
0
6
CONTINUOUS
10
0.204620
20
-0.034379
30
0.0
11
0.204620
21
-0.032015
31
0.0
0
LINE
8
0
6
CONTINUOUS
10
0.204620
20
-0.040500
30
0.0
11
0.204620
21
-0.040398
31
0.0
0
LINE
8
0
6
CONTINUOUS
10
0.204620
20
-0.040163
30
0.0
11
0.204620
21
-0.037118
31
0.0
0
LINE
8
0
6
CONTINUOUS
10
0.204620
20
-0.032015
30
0.0
11
0.204620
21
-0.030138
31
0.0
0
LINE
8
0
6
CONTINUOUS
10
0.204620
20
-0.028500
30
0.0
11
0.204419
21
-0.027750
31
0.0
0
LINE
8
0
6
CONTINUOUS
10
0.204620
20
-0.028934
30
0.0
11
0.204620
21
-0.028500
31
0.0
0
LINE
8
0
6
CONTINUOUS
10
0.204419
20
-0.027750
30
0.0
11
0.203870
21
-0.027201
31
0.0
0
LINE
8
0
6
CONTINUOUS
10
0.203870
20
-0.027201
30
0.0
11
0.203120
21
-0.027000
31
0.0
0
LINE
8
0
6
CONTINUOUS
10
0.203120
20
-0.027000
30
0.0
11
0.202255
21
-0.027000
31
0.0
0
LINE
8
0
6
CONTINUOUS
10
0.202255
20
-0.042000
30
0.0
11
0.203120
21
-0.042000
31
0.0
0
LINE
8
0
6
CONTINUOUS
10
0.202122
20
-0.006044
30
0.0
11
0.202122
21
-0.006200
31
0.0
0
LINE
8
0
6
CONTINUOUS
10
0.204620
20
-0.005281
30
0.0
11
0.204620
21
-0.005164
31
0.0
0
LINE
8
0
6
CONTINUOUS
10
0.202122
20
-0.002000
30
0.0
11
0.202122
21
-0.006044
31
0.0
0
LINE
8
0
6
CONTINUOUS
10
0.202122
20
0.007510
30
0.0
11
0.202122
21
0.006090
31
0.0
0
LINE
8
0
6
CONTINUOUS
10
0.202254
20
0.008000
30
0.0
11
0.202122
21
0.008000
31
0.0
0
LINE
8
0
6
CONTINUOUS
10
0.202122
20
0.008000
30
0.0
11
0.202122
21
0.007510
31
0.0
0
LINE
8
0
6
CONTINUOUS
10
0.202122
20
-0.007000
30
0.0
11
0.202254
21
-0.007000
31
0.0
0
LINE
8
0
6
CONTINUOUS
10
0.202122
20
-0.006893
30
0.0
11
0.202122
21
-0.007000
31
0.0
0
LINE
8
0
6
CONTINUOUS
10
0.202122
20
-0.006200
30
0.0
11
0.202122
21
-0.006600
31
0.0
0
LINE
8
0
6
CONTINUOUS
10
0.202122
20
0.001090
30
0.0
11
0.202122
21
-0.002000
31
0.0
0
LINE
8
0
6
CONTINUOUS
10
0.202122
20
0.006090
30
0.0
11
0.202122
21
0.003877
31
0.0
0
LINE
8
0
6
CONTINUOUS
10
0.202122
20
0.003877
30
0.0
11
0.202122
21
0.001090
31
0.0
0
LINE
8
0
6
CONTINUOUS
10
0.202122
20
-0.006600
30
0.0
11
0.202122
21
-0.006893
31
0.0
0
LINE
8
0
6
CONTINUOUS
10
0.204620
20
0.004861
30
0.0
11
0.204620
21
0.006066
31
0.0
0
LINE
8
0
6
CONTINUOUS
10
0.204620
20
-0.002118
30
0.0
11
0.204620
21
0.000621
31
0.0
0
LINE
8
0
6
CONTINUOUS
10
0.203120
20
-0.007000
30
0.0
11
0.203870
21
-0.006799
31
0.0
0
LINE
8
0
6
CONTINUOUS
10
0.203870
20
-0.006799
30
0.0
11
0.204419
21
-0.006250
31
0.0
0
LINE
8
0
6
CONTINUOUS
10
0.204620
20
-0.005399
30
0.0
11
0.204620
21
-0.005281
31
0.0
0
LINE
8
0
6
CONTINUOUS
10
0.204620
20
0.000621
30
0.0
11
0.204620
21
0.002985
31
0.0
0
LINE
8
0
6
CONTINUOUS
10
0.204620
20
-0.005500
30
0.0
11
0.204620
21
-0.005399
31
0.0
0
LINE
8
0
6
CONTINUOUS
10
0.204620
20
-0.005164
30
0.0
11
0.204620
21
-0.002118
31
0.0
0
LINE
8
0
6
CONTINUOUS
10
0.204620
20
0.002985
30
0.0
11
0.204620
21
0.004861
31
0.0
0
LINE
8
0
6
CONTINUOUS
10
0.204620
20
0.006500
30
0.0
11
0.204419
21
0.007250
31
0.0
0
LINE
8
0
6
CONTINUOUS
10
0.204620
20
0.006066
30
0.0
11
0.204620
21
0.006500
31
0.0
0
LINE
8
0
6
CONTINUOUS
10
0.204419
20
0.007250
30
0.0
11
0.203870
21
0.007799
31
0.0
0
LINE
8
0
6
CONTINUOUS
10
0.203870
20
0.007799
30
0.0
11
0.203120
21
0.008000
31
0.0
0
LINE
8
0
6
CONTINUOUS
10
0.203120
20
0.008000
30
0.0
11
0.202254
21
0.008000
31
0.0
0
LINE
8
0
6
CONTINUOUS
10
0.202254
20
-0.007000
30
0.0
11
0.203120
21
-0.007000
31
0.0
0
LINE
8
0
6
CONTINUOUS
10
0.201422
20
-0.041949
30
0.0
11
0.201826
21
-0.041949
31
0.0
0
LINE
8
0
6
CONTINUOUS
10
0.201826
20
-0.027051
30
0.0
11
0.201422
21
-0.027051
31
0.0
0
LINE
8
0
6
CONTINUOUS
10
0.201862
20
-0.041949
30
0.0
11
0.202049
21
-0.041876
31
0.0
0
LINE
8
0
6
CONTINUOUS
10
0.202049
20
-0.041876
30
0.0
11
0.202122
21
-0.041700
31
0.0
0
LINE
8
0
6
CONTINUOUS
10
0.202122
20
-0.027300
30
0.0
11
0.202049
21
-0.027124
31
0.0
0
LINE
8
0
6
CONTINUOUS
10
0.202049
20
-0.027124
30
0.0
11
0.201862
21
-0.027051
31
0.0
0
LINE
8
0
6
CONTINUOUS
10
0.201195
20
-0.041876
30
0.0
11
0.201382
21
-0.041949
31
0.0
0
LINE
8
0
6
CONTINUOUS
10
0.201122
20
-0.041700
30
0.0
11
0.201195
21
-0.041876
31
0.0
0
LINE
8
0
6
CONTINUOUS
10
0.201195
20
-0.027124
30
0.0
11
0.201122
21
-0.027300
31
0.0
0
LINE
8
0
6
CONTINUOUS
10
0.201382
20
-0.027051
30
0.0
11
0.201195
21
-0.027124
31
0.0
0
LINE
8
0
6
CONTINUOUS
10
0.201422
20
-0.006949
30
0.0
11
0.201826
21
-0.006949
31
0.0
0
LINE
8
0
6
CONTINUOUS
10
0.201826
20
0.007949
30
0.0
11
0.201422
21
0.007949
31
0.0
0
LINE
8
0
6
CONTINUOUS
10
0.201862
20
-0.006949
30
0.0
11
0.202049
21
-0.006876
31
0.0
0
LINE
8
0
6
CONTINUOUS
10
0.202049
20
-0.006876
30
0.0
11
0.202122
21
-0.006701
31
0.0
0
LINE
8
0
6
CONTINUOUS
10
0.202122
20
0.007700
30
0.0
11
0.202049
21
0.007876
31
0.0
0
LINE
8
0
6
CONTINUOUS
10
0.202049
20
0.007876
30
0.0
11
0.201862
21
0.007949
31
0.0
0
LINE
8
0
6
CONTINUOUS
10
0.201195
20
-0.006876
30
0.0
11
0.201382
21
-0.006949
31
0.0
0
LINE
8
0
6
CONTINUOUS
10
0.201122
20
-0.006701
30
0.0
11
0.201195
21
-0.006876
31
0.0
0
LINE
8
0
6
CONTINUOUS
10
0.201195
20
0.007876
30
0.0
11
0.201122
21
0.007700
31
0.0
0
LINE
8
0
6
CONTINUOUS
10
0.201382
20
0.007949
30
0.0
11
0.201195
21
0.007876
31
0.0
0
LINE
8
0
6
CONTINUOUS
10
-0.189578
20
-0.041949
30
0.0
11
-0.189174
21
-0.041949
31
0.0
0
LINE
8
0
6
CONTINUOUS
10
-0.189174
20
-0.027051
30
0.0
11
-0.189578
21
-0.027051
31
0.0
0
LINE
8
0
6
CONTINUOUS
10
-0.189138
20
-0.041949
30
0.0
11
-0.188951
21
-0.041876
31
0.0
0
LINE
8
0
6
CONTINUOUS
10
-0.188951
20
-0.041876
30
0.0
11
-0.188878
21
-0.041700
31
0.0
0
LINE
8
0
6
CONTINUOUS
10
-0.188878
20
-0.027300
30
0.0
11
-0.188951
21
-0.027124
31
0.0
0
LINE
8
0
6
CONTINUOUS
10
-0.188951
20
-0.027124
30
0.0
11
-0.189138
21
-0.027051
31
0.0
0
LINE
8
0
6
CONTINUOUS
10
-0.189878
20
-0.033992
30
0.0
11
-0.189878
21
-0.037002
31
0.0
0
LINE
8
0
6
CONTINUOUS
10
-0.189878
20
-0.037002
30
0.0
11
-0.189878
21
-0.041062
31
0.0
0
LINE
8
0
6
CONTINUOUS
10
-0.189805
20
-0.041876
30
0.0
11
-0.189618
21
-0.041949
31
0.0
0
LINE
8
0
6
CONTINUOUS
10
-0.189878
20
-0.041620
30
0.0
11
-0.189878
21
-0.041671
31
0.0
0
LINE
8
0
6
CONTINUOUS
10
-0.189878
20
-0.041700
30
0.0
11
-0.189805
21
-0.041876
31
0.0
0
LINE
8
0
6
CONTINUOUS
10
-0.189878
20
-0.041122
30
0.0
11
-0.189878
21
-0.041423
31
0.0
0
LINE
8
0
6
CONTINUOUS
10
-0.189878
20
-0.041423
30
0.0
11
-0.189878
21
-0.041620
31
0.0
0
LINE
8
0
6
CONTINUOUS
10
-0.189878
20
-0.041062
30
0.0
11
-0.189878
21
-0.041122
31
0.0
0
LINE
8
0
6
CONTINUOUS
10
-0.189805
20
-0.027124
30
0.0
11
-0.189878
21
-0.027300
31
0.0
0
LINE
8
0
6
CONTINUOUS
10
-0.189618
20
-0.027051
30
0.0
11
-0.189805
21
-0.027124
31
0.0
0
LINE
8
0
6
CONTINUOUS
10
-0.189578
20
-0.006949
30
0.0
11
-0.189174
21
-0.006949
31
0.0
0
LINE
8
0
6
CONTINUOUS
10
-0.189174
20
0.007949
30
0.0
11
-0.189578
21
0.007949
31
0.0
0
LINE
8
0
6
CONTINUOUS
10
-0.189138
20
-0.006949
30
0.0
11
-0.188951
21
-0.006876
31
0.0
0
LINE
8
0
6
CONTINUOUS
10
-0.188951
20
-0.006876
30
0.0
11
-0.188878
21
-0.006701
31
0.0
0
LINE
8
0
6
CONTINUOUS
10
-0.188878
20
0.007700
30
0.0
11
-0.188951
21
0.007876
31
0.0
0
LINE
8
0
6
CONTINUOUS
10
-0.188951
20
0.007876
30
0.0
11
-0.189138
21
0.007949
31
0.0
0
LINE
8
0
6
CONTINUOUS
10
-0.189878
20
0.001008
30
0.0
11
-0.189878
21
-0.002003
31
0.0
0
LINE
8
0
6
CONTINUOUS
10
-0.189878
20
-0.002003
30
0.0
11
-0.189878
21
-0.006062
31
0.0
0
LINE
8
0
6
CONTINUOUS
10
-0.189805
20
-0.006876
30
0.0
11
-0.189618
21
-0.006949
31
0.0
0
LINE
8
0
6
CONTINUOUS
10
-0.189878
20
-0.006620
30
0.0
11
-0.189878
21
-0.006666
31
0.0
0
LINE
8
0
6
CONTINUOUS
10
-0.189878
20
-0.006701
30
0.0
11
-0.189805
21
-0.006876
31
0.0
0
LINE
8
0
6
CONTINUOUS
10
-0.189878
20
-0.006122
30
0.0
11
-0.189878
21
-0.006423
31
0.0
0
LINE
8
0
6
CONTINUOUS
10
-0.189878
20
-0.006423
30
0.0
11
-0.189878
21
-0.006620
31
0.0
0
LINE
8
0
6
CONTINUOUS
10
-0.189878
20
-0.006062
30
0.0
11
-0.189878
21
-0.006122
31
0.0
0
LINE
8
0
6
CONTINUOUS
10
-0.189805
20
0.007876
30
0.0
11
-0.189878
21
0.007700
31
0.0
0
LINE
8
0
6
CONTINUOUS
10
-0.189618
20
0.007949
30
0.0
11
-0.189805
21
0.007876
31
0.0
0
LINE
8
0
6
CONTINUOUS
10
-0.203878
20
0.028011
30
0.0
11
-0.203878
21
0.003000
31
0.0
0
LINE
8
0
6
CONTINUOUS
10
-0.203878
20
0.003000
30
0.0
11
-0.203715
21
0.001206
31
0.0
0
LINE
8
0
6
CONTINUOUS
10
-0.203715
20
0.001206
30
0.0
11
-0.203236
21
-0.000524
31
0.0
0
LINE
8
0
6
CONTINUOUS
10
-0.203236
20
-0.000524
30
0.0
11
-0.202453
21
-0.002144
31
0.0
0
LINE
8
0
6
CONTINUOUS
10
-0.202453
20
-0.002144
30
0.0
11
-0.201374
21
-0.003582
31
0.0
0
LINE
8
0
6
CONTINUOUS
10
-0.201374
20
-0.003582
30
0.0
11
-0.200090
21
-0.004838
31
0.0
0
LINE
8
0
6
CONTINUOUS
10
-0.200090
20
-0.004838
30
0.0
11
-0.198589
21
-0.005821
31
0.0
0
LINE
8
0
6
CONTINUOUS
10
-0.198589
20
-0.005821
30
0.0
11
-0.196935
21
-0.006521
31
0.0
0
LINE
8
0
6
CONTINUOUS
10
-0.196935
20
-0.006521
30
0.0
11
-0.195183
21
-0.006914
31
0.0
0
LINE
8
0
6
CONTINUOUS
10
-0.195183
20
-0.006914
30
0.0
11
-0.193878
21
-0.007000
31
0.0
0
LINE
8
0
6
CONTINUOUS
10
-0.193878
20
-0.007000
30
0.0
11
-0.190158
21
-0.007000
31
0.0
0
LINE
8
0
6
CONTINUOUS
10
-0.189878
20
-0.007000
30
0.0
11
-0.189878
21
-0.006666
31
0.0
0
LINE
8
0
6
CONTINUOUS
10
-0.190158
20
-0.007000
30
0.0
11
-0.189878
21
-0.007000
31
0.0
0
LINE
8
0
6
CONTINUOUS
10
-0.189878
20
0.000833
30
0.0
11
-0.189878
21
0.028011
31
0.0
0
LINE
8
0
6
CONTINUOUS
10
-0.203878
20
0.003000
30
0.0
11
-0.203878
21
-0.032000
31
0.0
0
LINE
8
0
6
CONTINUOUS
10
-0.203878
20
-0.032000
30
0.0
11
-0.203715
21
-0.033794
31
0.0
0
LINE
8
0
6
CONTINUOUS
10
-0.203715
20
-0.033794
30
0.0
11
-0.203236
21
-0.035524
31
0.0
0
LINE
8
0
6
CONTINUOUS
10
-0.203236
20
-0.035524
30
0.0
11
-0.202453
21
-0.037144
31
0.0
0
LINE
8
0
6
CONTINUOUS
10
-0.202453
20
-0.037144
30
0.0
11
-0.201374
21
-0.038582
31
0.0
0
LINE
8
0
6
CONTINUOUS
10
-0.201374
20
-0.038582
30
0.0
11
-0.200090
21
-0.039838
31
0.0
0
LINE
8
0
6
CONTINUOUS
10
-0.200090
20
-0.039838
30
0.0
11
-0.198589
21
-0.040821
31
0.0
0
LINE
8
0
6
CONTINUOUS
10
-0.198589
20
-0.040821
30
0.0
11
-0.196935
21
-0.041521
31
0.0
0
LINE
8
0
6
CONTINUOUS
10
-0.196935
20
-0.041521
30
0.0
11
-0.195183
21
-0.041914
31
0.0
0
LINE
8
0
6
CONTINUOUS
10
-0.195183
20
-0.041914
30
0.0
11
-0.193878
21
-0.042000
31
0.0
0
LINE
8
0
6
CONTINUOUS
10
-0.193878
20
-0.042000
30
0.0
11
-0.190158
21
-0.042000
31
0.0
0
LINE
8
0
6
CONTINUOUS
10
-0.189878
20
-0.042000
30
0.0
11
-0.189878
21
-0.041671
31
0.0
0
LINE
8
0
6
CONTINUOUS
10
-0.190158
20
-0.042000
30
0.0
11
-0.189878
21
-0.042000
31
0.0
0
LINE
8
0
6
CONTINUOUS
10
-0.178784
20
0.028011
30
0.0
11
-0.178170
21
0.028011
31
0.0
0
LINE
8
0
6
CONTINUOUS
10
-0.177836
20
0.042000
30
0.0
11
-0.178458
21
0.042000
31
0.0
0
LINE
8
0
6
CONTINUOUS
10
-0.204156
20
0.028011
30
0.0
11
-0.178784
21
0.028011
31
0.0
0
LINE
8
0
6
CONTINUOUS
10
-0.178458
20
0.042000
30
0.0
11
-0.204166
21
0.042000
31
0.0
0
LINE
8
0
6
CONTINUOUS
10
-0.171958
20
0.042000
30
0.0
11
-0.174746
21
0.042000
31
0.0
0
LINE
8
0
6
CONTINUOUS
10
-0.169746
20
0.042000
30
0.0
11
-0.171958
21
0.042000
31
0.0
0
LINE
8
0
6
CONTINUOUS
10
-0.168326
20
0.042000
30
0.0
11
-0.169746
21
0.042000
31
0.0
0
LINE
8
0
6
CONTINUOUS
10
-0.167836
20
0.042000
30
0.0
11
-0.168326
21
0.042000
31
0.0
0
LINE
8
0
6
CONTINUOUS
10
-0.167847
20
0.041534
30
0.0
11
-0.167836
21
0.042000
31
0.0
0
LINE
8
0
6
CONTINUOUS
10
-0.168159
20
0.028477
30
0.0
11
-0.167847
21
0.041534
31
0.0
0
LINE
8
0
6
CONTINUOUS
10
-0.204620
20
0.028011
30
0.0
11
-0.204156
21
0.028011
31
0.0
0
LINE
8
0
6
CONTINUOUS
10
-0.204620
20
0.028477
30
0.0
11
-0.204620
21
0.028011
31
0.0
0
LINE
8
0
6
CONTINUOUS
10
-0.204620
20
0.041534
30
0.0
11
-0.204620
21
0.028477
31
0.0
0
LINE
8
0
6
CONTINUOUS
10
-0.168170
20
0.028011
30
0.0
11
-0.168159
21
0.028477
31
0.0
0
LINE
8
0
6
CONTINUOUS
10
-0.168660
20
0.028011
30
0.0
11
-0.168170
21
0.028011
31
0.0
0
LINE
8
0
6
CONTINUOUS
10
-0.170080
20
0.028011
30
0.0
11
-0.168660
21
0.028011
31
0.0
0
LINE
8
0
6
CONTINUOUS
10
-0.172293
20
0.028011
30
0.0
11
-0.170080
21
0.028011
31
0.0
0
LINE
8
0
6
CONTINUOUS
10
-0.175080
20
0.028011
30
0.0
11
-0.172293
21
0.028011
31
0.0
0
LINE
8
0
6
CONTINUOUS
10
-0.174746
20
0.042000
30
0.0
11
-0.177836
21
0.042000
31
0.0
0
LINE
8
0
6
CONTINUOUS
10
-0.178170
20
0.028011
30
0.0
11
-0.175080
21
0.028011
31
0.0
0
LINE
8
0
6
CONTINUOUS
10
-0.204620
20
0.042000
30
0.0
11
-0.204620
21
0.041534
31
0.0
0
LINE
8
0
6
CONTINUOUS
10
-0.204166
20
0.042000
30
0.0
11
-0.204620
21
0.042000
31
0.0
0
LINE
8
0
6
CONTINUOUS
10
0.201122
20
0.008000
30
0.0
11
0.201022
21
0.008000
31
0.0
0
LINE
8
0
6
CONTINUOUS
10
0.201122
20
0.007510
30
0.0
11
0.201122
21
0.008000
31
0.0
0
LINE
8
0
6
CONTINUOUS
10
0.201122
20
0.001090
30
0.0
11
0.201122
21
0.003877
31
0.0
0
LINE
8
0
6
CONTINUOUS
10
0.201122
20
-0.006893
30
0.0
11
0.201122
21
-0.006600
31
0.0
0
LINE
8
0
6
CONTINUOUS
10
0.201122
20
-0.006043
30
0.0
11
0.201122
21
-0.002000
31
0.0
0
LINE
8
0
6
CONTINUOUS
10
0.201122
20
-0.006200
30
0.0
11
0.201122
21
-0.006043
31
0.0
0
LINE
8
0
6
CONTINUOUS
10
0.201122
20
-0.002000
30
0.0
11
0.201122
21
0.001090
31
0.0
0
LINE
8
0
6
CONTINUOUS
10
0.201122
20
-0.007000
30
0.0
11
0.201122
21
-0.006893
31
0.0
0
LINE
8
0
6
CONTINUOUS
10
0.201022
20
-0.007000
30
0.0
11
0.201122
21
-0.007000
31
0.0
0
LINE
8
0
6
CONTINUOUS
10
0.201122
20
0.003877
30
0.0
11
0.201122
21
0.006090
31
0.0
0
LINE
8
0
6
CONTINUOUS
10
0.201122
20
-0.006600
30
0.0
11
0.201122
21
-0.006200
31
0.0
0
LINE
8
0
6
CONTINUOUS
10
0.201122
20
0.006090
30
0.0
11
0.201122
21
0.007510
31
0.0
0
LINE
8
0
6
CONTINUOUS
10
-0.188878
20
0.006090
30
0.0
11
-0.188878
21
0.003877
31
0.0
0
LINE
8
0
6
CONTINUOUS
10
-0.188878
20
0.007510
30
0.0
11
-0.188878
21
0.006090
31
0.0
0
LINE
8
0
6
CONTINUOUS
10
-0.188878
20
0.001090
30
0.0
11
-0.188878
21
-0.002000
31
0.0
0
LINE
8
0
6
CONTINUOUS
10
-0.188878
20
-0.007000
30
0.0
11
-0.188778
21
-0.007000
31
0.0
0
LINE
8
0
6
CONTINUOUS
10
-0.188878
20
-0.006893
30
0.0
11
-0.188878
21
-0.007000
31
0.0
0
LINE
8
0
6
CONTINUOUS
10
-0.188878
20
-0.006600
30
0.0
11
-0.188878
21
-0.006893
31
0.0
0
LINE
8
0
6
CONTINUOUS
10
-0.188878
20
0.008000
30
0.0
11
-0.188878
21
0.007510
31
0.0
0
LINE
8
0
6
CONTINUOUS
10
-0.188778
20
0.008000
30
0.0
11
-0.188878
21
0.008000
31
0.0
0
LINE
8
0
6
CONTINUOUS
10
-0.188878
20
-0.006200
30
0.0
11
-0.188878
21
-0.006600
31
0.0
0
LINE
8
0
6
CONTINUOUS
10
-0.188878
20
0.003877
30
0.0
11
-0.188878
21
0.001090
31
0.0
0
LINE
8
0
6
CONTINUOUS
10
-0.188878
20
-0.002000
30
0.0
11
-0.188878
21
-0.006043
31
0.0
0
LINE
8
0
6
CONTINUOUS
10
-0.188878
20
-0.006043
30
0.0
11
-0.188878
21
-0.006200
31
0.0
0
LINE
8
0
6
CONTINUOUS
10
-0.188778
20
-0.007000
30
0.0
11
0.201022
21
-0.007000
31
0.0
0
LINE
8
0
6
CONTINUOUS
10
0.201022
20
0.008000
30
0.0
11
-0.188778
21
0.008000
31
0.0
0
LINE
8
0
6
CONTINUOUS
10
0.201122
20
-0.027000
30
0.0
11
0.201022
21
-0.027000
31
0.0
0
LINE
8
0
6
CONTINUOUS
10
0.201122
20
-0.027490
30
0.0
11
0.201122
21
-0.027000
31
0.0
0
LINE
8
0
6
CONTINUOUS
10
0.201122
20
-0.033910
30
0.0
11
0.201122
21
-0.031122
31
0.0
0
LINE
8
0
6
CONTINUOUS
10
0.201122
20
-0.041893
30
0.0
11
0.201122
21
-0.041600
31
0.0
0
LINE
8
0
6
CONTINUOUS
10
0.201122
20
-0.041043
30
0.0
11
0.201122
21
-0.037000
31
0.0
0
LINE
8
0
6
CONTINUOUS
10
0.201122
20
-0.041200
30
0.0
11
0.201122
21
-0.041043
31
0.0
0
LINE
8
0
6
CONTINUOUS
10
0.201122
20
-0.037000
30
0.0
11
0.201122
21
-0.033910
31
0.0
0
LINE
8
0
6
CONTINUOUS
10
0.201122
20
-0.042000
30
0.0
11
0.201122
21
-0.041893
31
0.0
0
LINE
8
0
6
CONTINUOUS
10
0.201022
20
-0.042000
30
0.0
11
0.201122
21
-0.042000
31
0.0
0
LINE
8
0
6
CONTINUOUS
10
0.201122
20
-0.031122
30
0.0
11
0.201122
21
-0.028910
31
0.0
0
LINE
8
0
6
CONTINUOUS
10
0.201122
20
-0.041600
30
0.0
11
0.201122
21
-0.041200
31
0.0
0
LINE
8
0
6
CONTINUOUS
10
0.201122
20
-0.028910
30
0.0
11
0.201122
21
-0.027490
31
0.0
0
LINE
8
0
6
CONTINUOUS
10
-0.188878
20
-0.028910
30
0.0
11
-0.188878
21
-0.031122
31
0.0
0
LINE
8
0
6
CONTINUOUS
10
-0.188878
20
-0.027490
30
0.0
11
-0.188878
21
-0.028910
31
0.0
0
LINE
8
0
6
CONTINUOUS
10
-0.188878
20
-0.033910
30
0.0
11
-0.188878
21
-0.037000
31
0.0
0
LINE
8
0
6
CONTINUOUS
10
-0.188878
20
-0.042000
30
0.0
11
-0.188778
21
-0.042000
31
0.0
0
LINE
8
0
6
CONTINUOUS
10
-0.188878
20
-0.041893
30
0.0
11
-0.188878
21
-0.042000
31
0.0
0
LINE
8
0
6
CONTINUOUS
10
-0.188878
20
-0.041600
30
0.0
11
-0.188878
21
-0.041893
31
0.0
0
LINE
8
0
6
CONTINUOUS
10
-0.188878
20
-0.027000
30
0.0
11
-0.188878
21
-0.027490
31
0.0
0
LINE
8
0
6
CONTINUOUS
10
-0.188778
20
-0.027000
30
0.0
11
-0.188878
21
-0.027000
31
0.0
0
LINE
8
0
6
CONTINUOUS
10
-0.188878
20
-0.041200
30
0.0
11
-0.188878
21
-0.041600
31
0.0
0
LINE
8
0
6
CONTINUOUS
10
-0.188878
20
-0.031122
30
0.0
11
-0.188878
21
-0.033910
31
0.0
0
LINE
8
0
6
CONTINUOUS
10
-0.188878
20
-0.037000
30
0.0
11
-0.188878
21
-0.041043
31
0.0
0
LINE
8
0
6
CONTINUOUS
10
-0.188878
20
-0.041043
30
0.0
11
-0.188878
21
-0.041200
31
0.0
0
LINE
8
0
6
CONTINUOUS
10
-0.188778
20
-0.042000
30
0.0
11
0.201022
21
-0.042000
31
0.0
0
LINE
8
0
6
CONTINUOUS
10
0.201022
20
-0.027000
30
0.0
11
-0.188778
21
-0.027000
31
0.0
0
ENDSEC
0
EOF
