999
Erzeugt mit innoplus bad 
0
SECTION
2
HEADER
9
$ACADVER
1
AC1009
9
$DWGCODEPAGE
3
ISO8859-1
0
ENDSEC
0
SECTION
2
TABLES
0
TABLE
2
LAYER
70
1
0
LAYER
2
0
70
0
62
7
6
CONTINUOUS
0
ENDTAB
0
ENDSEC
0
SECTION
2
ENTITIES
0
LINE
8
0
6
CONTINUOUS
10
-0.055707
20
-0.034770
30
0.0
11
-0.054077
21
-0.034770
31
0.0
0
LINE
8
0
6
CONTINUOUS
10
-0.055707
20
-0.033709
30
0.0
11
-0.055707
21
-0.034770
31
0.0
0
LINE
8
0
6
CONTINUOUS
10
-0.055707
20
-0.011654
30
0.0
11
-0.055707
21
-0.033709
31
0.0
0
LINE
8
0
6
CONTINUOUS
10
0.044289
20
-0.034770
30
0.0
11
0.048116
21
-0.034770
31
0.0
0
LINE
8
0
6
CONTINUOUS
10
0.048116
20
-0.034770
30
0.0
11
0.051360
21
-0.034770
31
0.0
0
LINE
8
0
6
CONTINUOUS
10
0.051360
20
-0.034770
30
0.0
11
0.053528
21
-0.034770
31
0.0
0
LINE
8
0
6
CONTINUOUS
10
0.054289
20
-0.034770
30
0.0
11
0.054285
21
-0.033709
31
0.0
0
LINE
8
0
6
CONTINUOUS
10
0.053528
20
-0.034770
30
0.0
11
0.054289
21
-0.034770
31
0.0
0
LINE
8
0
6
CONTINUOUS
10
-0.055707
20
-0.010770
30
0.0
11
-0.055707
21
-0.011654
31
0.0
0
LINE
8
0
6
CONTINUOUS
10
-0.054077
20
-0.010770
30
0.0
11
-0.055707
21
-0.010770
31
0.0
0
LINE
8
0
6
CONTINUOUS
10
0.054285
20
-0.033709
30
0.0
11
0.054208
21
-0.011654
31
0.0
0
LINE
8
0
6
CONTINUOUS
10
-0.027142
20
-0.010770
30
0.0
11
-0.054077
21
-0.010770
31
0.0
0
LINE
8
0
6
CONTINUOUS
10
0.048032
20
-0.010770
30
0.0
11
0.044205
21
-0.010770
31
0.0
0
LINE
8
0
6
CONTINUOUS
10
0.051276
20
-0.010770
30
0.0
11
0.048032
21
-0.010770
31
0.0
0
LINE
8
0
6
CONTINUOUS
10
0.053444
20
-0.010770
30
0.0
11
0.051276
21
-0.010770
31
0.0
0
LINE
8
0
6
CONTINUOUS
10
0.054208
20
-0.011654
30
0.0
11
0.054205
21
-0.010770
31
0.0
0
LINE
8
0
6
CONTINUOUS
10
0.054205
20
-0.010770
30
0.0
11
0.052576
21
-0.010770
31
0.0
0
LINE
8
0
6
CONTINUOUS
10
0.053444
20
-0.010770
30
0.0
11
0.054205
21
-0.010770
31
0.0
0
LINE
8
0
6
CONTINUOUS
10
0.051909
20
-0.010770
30
0.0
11
0.053444
21
-0.010770
31
0.0
0
LINE
8
0
6
CONTINUOUS
10
-0.000207
20
-0.034770
30
0.0
11
0.044289
21
-0.034770
31
0.0
0
LINE
8
0
6
CONTINUOUS
10
0.044205
20
-0.010770
30
0.0
11
-0.000207
21
-0.010770
31
0.0
0
LINE
8
0
6
CONTINUOUS
10
-0.013675
20
-0.034770
30
0.0
11
-0.000207
21
-0.034770
31
0.0
0
LINE
8
0
6
CONTINUOUS
10
-0.027142
20
-0.034770
30
0.0
11
-0.013675
21
-0.034770
31
0.0
0
LINE
8
0
6
CONTINUOUS
10
-0.000207
20
-0.010770
30
0.0
11
-0.013675
21
-0.010770
31
0.0
0
LINE
8
0
6
CONTINUOUS
10
-0.013675
20
-0.010770
30
0.0
11
-0.027142
21
-0.010770
31
0.0
0
LINE
8
0
6
CONTINUOUS
10
0.052576
20
-0.010770
30
0.0
11
0.051557
21
-0.010770
31
0.0
0
LINE
8
0
6
CONTINUOUS
10
0.050949
20
-0.010770
30
0.0
11
0.051909
21
-0.010770
31
0.0
0
LINE
8
0
6
CONTINUOUS
10
0.051557
20
-0.010770
30
0.0
11
0.050949
21
-0.010770
31
0.0
0
LINE
8
0
6
CONTINUOUS
10
-0.055707
20
-0.034770
30
0.0
11
-0.055417
21
-0.034846
31
0.0
0
LINE
8
0
6
CONTINUOUS
10
-0.054077
20
-0.034770
30
0.0
11
-0.027142
21
-0.034770
31
0.0
0
LINE
8
0
6
CONTINUOUS
10
-0.055417
20
-0.034846
30
0.0
11
-0.053507
21
-0.035024
31
0.0
0
LINE
8
0
6
CONTINUOUS
10
-0.053300
20
-0.035053
30
0.0
11
-0.052017
21
-0.034770
31
0.0
0
LINE
8
0
6
CONTINUOUS
10
-0.053507
20
-0.035024
30
0.0
11
-0.053300
21
-0.035053
31
0.0
0
LINE
8
0
6
CONTINUOUS
10
-0.017546
20
-0.010770
30
0.0
11
-0.051328
21
-0.010770
31
0.0
0
LINE
8
0
6
CONTINUOUS
10
-0.011954
20
-0.010770
30
0.0
11
-0.016819
21
-0.010770
31
0.0
0
LINE
8
0
6
CONTINUOUS
10
-0.006288
20
-0.010770
30
0.0
11
-0.011954
21
-0.010770
31
0.0
0
LINE
8
0
6
CONTINUOUS
10
-0.000207
20
-0.010770
30
0.0
11
-0.006288
21
-0.010770
31
0.0
0
LINE
8
0
6
CONTINUOUS
10
0.005873
20
-0.010770
30
0.0
11
-0.000207
21
-0.010770
31
0.0
0
LINE
8
0
6
CONTINUOUS
10
0.011539
20
-0.010770
30
0.0
11
0.005873
21
-0.010770
31
0.0
0
LINE
8
0
6
CONTINUOUS
10
0.023286
20
-0.010770
30
0.0
11
0.022485
21
-0.010770
31
0.0
0
LINE
8
0
6
CONTINUOUS
10
0.016405
20
-0.010770
30
0.0
11
0.011539
21
-0.010770
31
0.0
0
LINE
8
0
6
CONTINUOUS
10
0.022485
20
-0.010770
30
0.0
11
0.020138
21
-0.010770
31
0.0
0
LINE
8
0
6
CONTINUOUS
10
0.020138
20
-0.010770
30
0.0
11
0.016405
21
-0.010770
31
0.0
0
LINE
8
0
6
CONTINUOUS
10
-0.016819
20
-0.010770
30
0.0
11
-0.017546
21
-0.010770
31
0.0
0
LINE
8
0
6
CONTINUOUS
10
-0.020552
20
-0.010770
30
0.0
11
-0.016819
21
-0.010770
31
0.0
0
LINE
8
0
6
CONTINUOUS
10
0.018761
20
-0.009947
30
0.0
11
0.018077
21
-0.009947
31
0.0
0
LINE
8
0
6
CONTINUOUS
10
0.018761
20
-0.010770
30
0.0
11
0.018761
21
-0.009947
31
0.0
0
LINE
8
0
6
CONTINUOUS
10
0.018077
20
-0.009947
30
0.0
11
0.016186
21
-0.009947
31
0.0
0
LINE
8
0
6
CONTINUOUS
10
0.016186
20
-0.009947
30
0.0
11
0.013178
21
-0.009947
31
0.0
0
LINE
8
0
6
CONTINUOUS
10
0.013178
20
-0.009947
30
0.0
11
0.009257
21
-0.009947
31
0.0
0
LINE
8
0
6
CONTINUOUS
10
0.009257
20
-0.009947
30
0.0
11
0.004692
21
-0.009947
31
0.0
0
LINE
8
0
6
CONTINUOUS
10
0.004692
20
-0.009947
30
0.0
11
-0.000207
21
-0.009947
31
0.0
0
LINE
8
0
6
CONTINUOUS
10
-0.000207
20
-0.009947
30
0.0
11
-0.005106
21
-0.009947
31
0.0
0
LINE
8
0
6
CONTINUOUS
10
-0.005106
20
-0.009947
30
0.0
11
-0.009672
21
-0.009947
31
0.0
0
LINE
8
0
6
CONTINUOUS
10
-0.009672
20
-0.009947
30
0.0
11
-0.013592
21
-0.009947
31
0.0
0
LINE
8
0
6
CONTINUOUS
10
-0.013592
20
-0.009947
30
0.0
11
-0.016600
21
-0.009947
31
0.0
0
LINE
8
0
6
CONTINUOUS
10
-0.016600
20
-0.009947
30
0.0
11
-0.018491
21
-0.009947
31
0.0
0
LINE
8
0
6
CONTINUOUS
10
-0.019175
20
-0.009947
30
0.0
11
-0.019175
21
-0.010770
31
0.0
0
LINE
8
0
6
CONTINUOUS
10
-0.018491
20
-0.009947
30
0.0
11
-0.019175
21
-0.009947
31
0.0
0
LINE
8
0
6
CONTINUOUS
10
-0.023700
20
-0.009947
30
0.0
11
-0.023700
21
-0.010770
31
0.0
0
LINE
8
0
6
CONTINUOUS
10
-0.022899
20
-0.009947
30
0.0
11
-0.023700
21
-0.009947
31
0.0
0
LINE
8
0
6
CONTINUOUS
10
-0.020552
20
-0.009947
30
0.0
11
-0.022899
21
-0.009947
31
0.0
0
LINE
8
0
6
CONTINUOUS
10
-0.016819
20
-0.009947
30
0.0
11
-0.020552
21
-0.009947
31
0.0
0
LINE
8
0
6
CONTINUOUS
10
-0.011953
20
-0.009947
30
0.0
11
-0.016819
21
-0.009947
31
0.0
0
LINE
8
0
6
CONTINUOUS
10
-0.006287
20
-0.009947
30
0.0
11
-0.011953
21
-0.009947
31
0.0
0
LINE
8
0
6
CONTINUOUS
10
-0.000207
20
-0.009947
30
0.0
11
-0.006287
21
-0.009947
31
0.0
0
LINE
8
0
6
CONTINUOUS
10
0.005873
20
-0.009947
30
0.0
11
-0.000207
21
-0.009947
31
0.0
0
LINE
8
0
6
CONTINUOUS
10
0.011539
20
-0.009947
30
0.0
11
0.005873
21
-0.009947
31
0.0
0
LINE
8
0
6
CONTINUOUS
10
0.023286
20
-0.010770
30
0.0
11
0.023286
21
-0.009947
31
0.0
0
LINE
8
0
6
CONTINUOUS
10
0.023286
20
-0.009947
30
0.0
11
0.022485
21
-0.009947
31
0.0
0
LINE
8
0
6
CONTINUOUS
10
0.016405
20
-0.009947
30
0.0
11
0.011539
21
-0.009947
31
0.0
0
LINE
8
0
6
CONTINUOUS
10
0.022485
20
-0.009947
30
0.0
11
0.020138
21
-0.009947
31
0.0
0
LINE
8
0
6
CONTINUOUS
10
0.020138
20
-0.009947
30
0.0
11
0.016405
21
-0.009947
31
0.0
0
LINE
8
0
6
CONTINUOUS
10
-0.050098
20
-0.001256
30
0.0
11
-0.048793
21
-0.001256
31
0.0
0
LINE
8
0
6
CONTINUOUS
10
-0.050860
20
-0.001256
30
0.0
11
-0.050098
21
-0.001256
31
0.0
0
LINE
8
0
6
CONTINUOUS
10
-0.049474
20
-0.001256
30
0.0
11
-0.050860
21
-0.001256
31
0.0
0
LINE
8
0
6
CONTINUOUS
10
-0.048793
20
-0.001256
30
0.0
11
-0.049474
21
-0.001256
31
0.0
0
LINE
8
0
6
CONTINUOUS
10
-0.054720
20
0.035053
30
0.0
11
-0.054678
21
0.033775
31
0.0
0
LINE
8
0
6
CONTINUOUS
10
-0.054101
20
0.035053
30
0.0
11
-0.054720
21
0.035053
31
0.0
0
LINE
8
0
6
CONTINUOUS
10
0.044063
20
-0.009947
30
0.0
11
0.044200
21
-0.009947
31
0.0
0
LINE
8
0
6
CONTINUOUS
10
0.049993
20
0.035053
30
0.0
11
0.050439
21
0.035053
31
0.0
0
LINE
8
0
6
CONTINUOUS
10
0.051308
20
0.035053
30
0.0
11
0.049993
21
0.035053
31
0.0
0
LINE
8
0
6
CONTINUOUS
10
0.051892
20
0.035053
30
0.0
11
0.051308
21
0.035053
31
0.0
0
LINE
8
0
6
CONTINUOUS
10
-0.054678
20
0.033775
30
0.0
11
-0.053271
21
-0.008405
31
0.0
0
LINE
8
0
6
CONTINUOUS
10
0.054362
20
0.035053
30
0.0
11
0.051892
21
0.035053
31
0.0
0
LINE
8
0
6
CONTINUOUS
10
0.050439
20
0.035053
30
0.0
11
0.052330
21
0.035053
31
0.0
0
LINE
8
0
6
CONTINUOUS
10
0.049530
20
0.035053
30
0.0
11
0.045701
21
0.035053
31
0.0
0
LINE
8
0
6
CONTINUOUS
10
-0.053271
20
-0.008405
30
0.0
11
-0.053219
21
-0.009947
31
0.0
0
LINE
8
0
6
CONTINUOUS
10
0.054945
20
0.035053
30
0.0
11
0.054362
21
0.035053
31
0.0
0
LINE
8
0
6
CONTINUOUS
10
0.052330
20
0.035053
30
0.0
11
0.052776
21
0.035053
31
0.0
0
LINE
8
0
6
CONTINUOUS
10
0.052776
20
0.035053
30
0.0
11
0.049530
21
0.035053
31
0.0
0
LINE
8
0
6
CONTINUOUS
10
-0.052750
20
-0.009947
30
0.0
11
-0.053219
21
-0.009947
31
0.0
0
LINE
8
0
6
CONTINUOUS
10
-0.053219
20
-0.009947
30
0.0
11
-0.051834
21
-0.009947
31
0.0
0
LINE
8
0
6
CONTINUOUS
10
0.054945
20
0.035053
30
0.0
11
0.052776
21
0.035053
31
0.0
0
LINE
8
0
6
CONTINUOUS
10
0.055707
20
0.035053
30
0.0
11
0.054945
21
0.035053
31
0.0
0
LINE
8
0
6
CONTINUOUS
10
0.055664
20
0.033775
30
0.0
11
0.055707
21
0.035053
31
0.0
0
LINE
8
0
6
CONTINUOUS
10
0.044200
20
-0.009947
30
0.0
11
0.048029
21
-0.009947
31
0.0
0
LINE
8
0
6
CONTINUOUS
10
0.054257
20
-0.008405
30
0.0
11
0.055664
21
0.033775
31
0.0
0
LINE
8
0
6
CONTINUOUS
10
0.048029
20
-0.009947
30
0.0
11
0.051275
21
-0.009947
31
0.0
0
LINE
8
0
6
CONTINUOUS
10
0.053444
20
-0.009947
30
0.0
11
0.054205
21
-0.009947
31
0.0
0
LINE
8
0
6
CONTINUOUS
10
0.054205
20
-0.009947
30
0.0
11
0.054257
21
-0.008405
31
0.0
0
LINE
8
0
6
CONTINUOUS
10
0.051275
20
-0.009947
30
0.0
11
0.053444
21
-0.009947
31
0.0
0
LINE
8
0
6
CONTINUOUS
10
-0.013837
20
-0.001256
30
0.0
11
-0.013837
21
-0.001728
31
0.0
0
LINE
8
0
6
CONTINUOUS
10
-0.013508
20
-0.001256
30
0.0
11
-0.013837
21
-0.001256
31
0.0
0
LINE
8
0
6
CONTINUOUS
10
-0.012573
20
-0.001256
30
0.0
11
-0.013508
21
-0.001256
31
0.0
0
LINE
8
0
6
CONTINUOUS
10
-0.011173
20
-0.001256
30
0.0
11
-0.012573
21
-0.001256
31
0.0
0
LINE
8
0
6
CONTINUOUS
10
-0.009522
20
-0.001256
30
0.0
11
-0.011173
21
-0.001256
31
0.0
0
LINE
8
0
6
CONTINUOUS
10
-0.007870
20
-0.001256
30
0.0
11
-0.009522
21
-0.001256
31
0.0
0
LINE
8
0
6
CONTINUOUS
10
-0.006471
20
-0.001256
30
0.0
11
-0.007870
21
-0.001256
31
0.0
0
LINE
8
0
6
CONTINUOUS
10
-0.005535
20
-0.001256
30
0.0
11
-0.006471
21
-0.001256
31
0.0
0
LINE
8
0
6
CONTINUOUS
10
-0.005207
20
-0.001256
30
0.0
11
-0.005535
21
-0.001256
31
0.0
0
LINE
8
0
6
CONTINUOUS
10
-0.005207
20
-0.001728
30
0.0
11
-0.005207
21
-0.001256
31
0.0
0
LINE
8
0
6
CONTINUOUS
10
0.006185
20
-0.001256
30
0.0
11
0.006185
21
-0.001942
31
0.0
0
LINE
8
0
6
CONTINUOUS
10
0.006514
20
-0.001256
30
0.0
11
0.006185
21
-0.001256
31
0.0
0
LINE
8
0
6
CONTINUOUS
10
0.007449
20
-0.001256
30
0.0
11
0.006514
21
-0.001256
31
0.0
0
LINE
8
0
6
CONTINUOUS
10
0.008849
20
-0.001256
30
0.0
11
0.007449
21
-0.001256
31
0.0
0
LINE
8
0
6
CONTINUOUS
10
0.010500
20
-0.001256
30
0.0
11
0.008849
21
-0.001256
31
0.0
0
LINE
8
0
6
CONTINUOUS
10
0.012152
20
-0.001256
30
0.0
11
0.010500
21
-0.001256
31
0.0
0
LINE
8
0
6
CONTINUOUS
10
0.014815
20
-0.001256
30
0.0
11
0.014487
21
-0.001256
31
0.0
0
LINE
8
0
6
CONTINUOUS
10
0.014815
20
-0.001942
30
0.0
11
0.014815
21
-0.001256
31
0.0
0
LINE
8
0
6
CONTINUOUS
10
0.012152
20
-0.001256
30
0.0
11
0.013552
21
-0.001256
31
0.0
0
LINE
8
0
6
CONTINUOUS
10
0.012421
20
-0.001256
30
0.0
11
0.012152
21
-0.001256
31
0.0
0
LINE
8
0
6
CONTINUOUS
10
0.014049
20
-0.001256
30
0.0
11
0.012421
21
-0.001256
31
0.0
0
LINE
8
0
6
CONTINUOUS
10
0.014487
20
-0.001256
30
0.0
11
0.015137
21
-0.001256
31
0.0
0
LINE
8
0
6
CONTINUOUS
10
0.013552
20
-0.001256
30
0.0
11
0.014487
21
-0.001256
31
0.0
0
LINE
8
0
6
CONTINUOUS
10
0.015137
20
-0.001256
30
0.0
11
0.014049
21
-0.001256
31
0.0
0
LINE
8
0
6
CONTINUOUS
10
0.013552
20
-0.001256
30
0.0
11
0.012152
21
-0.001256
31
0.0
0
LINE
8
0
6
CONTINUOUS
10
0.013992
20
-0.001256
30
0.0
11
0.013552
21
-0.001256
31
0.0
0
LINE
8
0
6
CONTINUOUS
10
0.012421
20
-0.001256
30
0.0
11
0.013992
21
-0.001256
31
0.0
0
LINE
8
0
6
CONTINUOUS
10
0.012152
20
-0.001256
30
0.0
11
0.010500
21
-0.001256
31
0.0
0
LINE
8
0
6
CONTINUOUS
10
0.010500
20
-0.001256
30
0.0
11
0.012421
21
-0.001256
31
0.0
0
LINE
8
0
6
CONTINUOUS
10
-0.009522
20
-0.001256
30
0.0
11
-0.011658
21
-0.001256
31
0.0
0
LINE
8
0
6
CONTINUOUS
10
-0.013070
20
-0.001256
30
0.0
11
-0.013577
21
-0.001256
31
0.0
0
LINE
8
0
6
CONTINUOUS
10
-0.011658
20
-0.001256
30
0.0
11
-0.013070
21
-0.001256
31
0.0
0
LINE
8
0
6
CONTINUOUS
10
-0.043877
20
-0.001256
30
0.0
11
-0.040655
21
-0.001256
31
0.0
0
LINE
8
0
6
CONTINUOUS
10
-0.043604
20
-0.001256
30
0.0
11
-0.043877
21
-0.001256
31
0.0
0
LINE
8
0
6
CONTINUOUS
10
0.010500
20
-0.001256
30
0.0
11
0.008580
21
-0.001256
31
0.0
0
LINE
8
0
6
CONTINUOUS
10
0.006952
20
-0.001256
30
0.0
11
0.006455
21
-0.001256
31
0.0
0
LINE
8
0
6
CONTINUOUS
10
0.008580
20
-0.001256
30
0.0
11
0.006952
21
-0.001256
31
0.0
0
LINE
8
0
6
CONTINUOUS
10
0.006455
20
-0.001256
30
0.0
11
0.008311
21
-0.001256
31
0.0
0
LINE
8
0
6
CONTINUOUS
10
-0.005973
20
-0.001256
30
0.0
11
-0.007601
21
-0.001256
31
0.0
0
LINE
8
0
6
CONTINUOUS
10
-0.005476
20
-0.001256
30
0.0
11
-0.005973
21
-0.001256
31
0.0
0
LINE
8
0
6
CONTINUOUS
10
-0.007332
20
-0.001256
30
0.0
11
-0.005476
21
-0.001256
31
0.0
0
LINE
8
0
6
CONTINUOUS
10
-0.007601
20
-0.001256
30
0.0
11
-0.009522
21
-0.001256
31
0.0
0
LINE
8
0
6
CONTINUOUS
10
-0.005207
20
-0.009947
30
0.0
11
-0.005207
21
-0.009536
31
0.0
0
LINE
8
0
6
CONTINUOUS
10
-0.005535
20
-0.009947
30
0.0
11
-0.005207
21
-0.009947
31
0.0
0
LINE
8
0
6
CONTINUOUS
10
-0.006471
20
-0.009947
30
0.0
11
-0.005535
21
-0.009947
31
0.0
0
LINE
8
0
6
CONTINUOUS
10
-0.007870
20
-0.009947
30
0.0
11
-0.006471
21
-0.009947
31
0.0
0
LINE
8
0
6
CONTINUOUS
10
-0.009522
20
-0.009947
30
0.0
11
-0.007870
21
-0.009947
31
0.0
0
LINE
8
0
6
CONTINUOUS
10
-0.011173
20
-0.009947
30
0.0
11
-0.009522
21
-0.009947
31
0.0
0
LINE
8
0
6
CONTINUOUS
10
-0.012573
20
-0.009947
30
0.0
11
-0.011173
21
-0.009947
31
0.0
0
LINE
8
0
6
CONTINUOUS
10
-0.013508
20
-0.009947
30
0.0
11
-0.012573
21
-0.009947
31
0.0
0
LINE
8
0
6
CONTINUOUS
10
-0.013837
20
-0.009536
30
0.0
11
-0.013837
21
-0.009947
31
0.0
0
LINE
8
0
6
CONTINUOUS
10
-0.013837
20
-0.009947
30
0.0
11
-0.013508
21
-0.009947
31
0.0
0
LINE
8
0
6
CONTINUOUS
10
0.014815
20
-0.009947
30
0.0
11
0.014815
21
-0.009547
31
0.0
0
LINE
8
0
6
CONTINUOUS
10
0.014487
20
-0.009947
30
0.0
11
0.014815
21
-0.009947
31
0.0
0
LINE
8
0
6
CONTINUOUS
10
0.010500
20
-0.009947
30
0.0
11
0.012152
21
-0.009947
31
0.0
0
LINE
8
0
6
CONTINUOUS
10
0.008849
20
-0.009947
30
0.0
11
0.010500
21
-0.009947
31
0.0
0
LINE
8
0
6
CONTINUOUS
10
0.007449
20
-0.009947
30
0.0
11
0.008849
21
-0.009947
31
0.0
0
LINE
8
0
6
CONTINUOUS
10
0.006514
20
-0.009947
30
0.0
11
0.007449
21
-0.009947
31
0.0
0
LINE
8
0
6
CONTINUOUS
10
0.006185
20
-0.009547
30
0.0
11
0.006185
21
-0.009947
31
0.0
0
LINE
8
0
6
CONTINUOUS
10
0.006185
20
-0.009947
30
0.0
11
0.006514
21
-0.009947
31
0.0
0
LINE
8
0
6
CONTINUOUS
10
-0.005535
20
-0.009947
30
0.0
11
-0.005207
21
-0.009947
31
0.0
0
LINE
8
0
6
CONTINUOUS
10
-0.005207
20
-0.009947
30
0.0
11
-0.005207
21
-0.009533
31
0.0
0
LINE
8
0
6
CONTINUOUS
10
-0.009522
20
-0.009947
30
0.0
11
-0.007870
21
-0.009947
31
0.0
0
LINE
8
0
6
CONTINUOUS
10
-0.011173
20
-0.009947
30
0.0
11
-0.009522
21
-0.009947
31
0.0
0
LINE
8
0
6
CONTINUOUS
10
-0.012573
20
-0.009947
30
0.0
11
-0.011173
21
-0.009947
31
0.0
0
LINE
8
0
6
CONTINUOUS
10
-0.013837
20
-0.009533
30
0.0
11
-0.013837
21
-0.009947
31
0.0
0
LINE
8
0
6
CONTINUOUS
10
-0.046028
20
-0.001256
30
0.0
11
-0.043604
21
-0.001256
31
0.0
0
LINE
8
0
6
CONTINUOUS
10
0.055707
20
0.035053
30
0.0
11
0.055664
21
0.033775
31
0.0
0
LINE
8
0
6
CONTINUOUS
10
0.055664
20
0.033775
30
0.0
11
0.055707
21
0.035053
31
0.0
0
LINE
8
0
6
CONTINUOUS
10
-0.048592
20
0.035053
30
0.0
11
-0.054101
21
0.035053
31
0.0
0
LINE
8
0
6
CONTINUOUS
10
0.045117
20
-0.001256
30
0.0
11
0.045049
21
-0.001256
31
0.0
0
LINE
8
0
6
CONTINUOUS
10
-0.040655
20
-0.001256
30
0.0
11
0.045117
21
-0.001256
31
0.0
0
LINE
8
0
6
CONTINUOUS
10
0.008311
20
-0.001256
30
0.0
11
-0.007332
21
-0.001256
31
0.0
0
LINE
8
0
6
CONTINUOUS
10
-0.047494
20
-0.001256
30
0.0
11
-0.046028
21
-0.001256
31
0.0
0
LINE
8
0
6
CONTINUOUS
10
-0.013577
20
-0.001256
30
0.0
11
-0.047494
21
-0.001256
31
0.0
0
LINE
8
0
6
CONTINUOUS
10
0.045049
20
-0.001256
30
0.0
11
0.046937
21
-0.001256
31
0.0
0
LINE
8
0
6
CONTINUOUS
10
0.046937
20
-0.001256
30
0.0
11
0.010500
21
-0.001256
31
0.0
0
LINE
8
0
6
CONTINUOUS
10
0.055664
20
0.033775
30
0.0
11
0.054257
21
-0.008405
31
0.0
0
LINE
8
0
6
CONTINUOUS
10
0.054257
20
-0.008405
30
0.0
11
0.055664
21
0.033775
31
0.0
0
LINE
8
0
6
CONTINUOUS
10
0.054257
20
-0.008405
30
0.0
11
0.054205
21
-0.009947
31
0.0
0
LINE
8
0
6
CONTINUOUS
10
0.054205
20
-0.009947
30
0.0
11
0.054257
21
-0.008405
31
0.0
0
LINE
8
0
6
CONTINUOUS
10
-0.050860
20
0.000437
30
0.0
11
-0.050860
21
0.033956
31
0.0
0
LINE
8
0
6
CONTINUOUS
10
-0.050860
20
0.033956
30
0.0
11
-0.050860
21
0.000437
31
0.0
0
LINE
8
0
6
CONTINUOUS
10
-0.050860
20
0.033956
30
0.0
11
-0.050860
21
0.035053
31
0.0
0
LINE
8
0
6
CONTINUOUS
10
-0.050860
20
0.035053
30
0.0
11
-0.050860
21
0.033956
31
0.0
0
LINE
8
0
6
CONTINUOUS
10
-0.053271
20
-0.008405
30
0.0
11
-0.054678
21
0.033775
31
0.0
0
LINE
8
0
6
CONTINUOUS
10
-0.054678
20
0.033775
30
0.0
11
-0.053271
21
-0.008405
31
0.0
0
LINE
8
0
6
CONTINUOUS
10
-0.053219
20
-0.009947
30
0.0
11
-0.053271
21
-0.008405
31
0.0
0
LINE
8
0
6
CONTINUOUS
10
-0.053271
20
-0.008405
30
0.0
11
-0.053219
21
-0.009947
31
0.0
0
LINE
8
0
6
CONTINUOUS
10
0.045701
20
0.035053
30
0.0
11
-0.043083
21
0.035053
31
0.0
0
LINE
8
0
6
CONTINUOUS
10
-0.043083
20
-0.009947
30
0.0
11
0.044200
21
-0.009947
31
0.0
0
LINE
8
0
6
CONTINUOUS
10
-0.043083
20
0.035053
30
0.0
11
-0.048592
21
0.035053
31
0.0
0
LINE
8
0
6
CONTINUOUS
10
-0.047916
20
-0.009947
30
0.0
11
-0.043083
21
-0.009947
31
0.0
0
LINE
8
0
6
CONTINUOUS
10
-0.047916
20
-0.009947
30
0.0
11
-0.052750
21
-0.009947
31
0.0
0
LINE
8
0
6
CONTINUOUS
10
-0.050860
20
-0.001256
30
0.0
11
-0.050098
21
-0.001256
31
0.0
0
LINE
8
0
6
CONTINUOUS
10
-0.050860
20
0.000437
30
0.0
11
-0.050860
21
-0.001256
31
0.0
0
LINE
8
0
6
CONTINUOUS
10
-0.050860
20
0.033956
30
0.0
11
-0.050860
21
0.000437
31
0.0
0
LINE
8
0
6
CONTINUOUS
10
-0.050098
20
-0.001256
30
0.0
11
-0.047931
21
-0.001256
31
0.0
0
LINE
8
0
6
CONTINUOUS
10
-0.050860
20
0.035053
30
0.0
11
-0.050860
21
0.033956
31
0.0
0
LINE
8
0
6
CONTINUOUS
10
-0.050098
20
0.035053
30
0.0
11
-0.050860
21
0.035053
31
0.0
0
LINE
8
0
6
CONTINUOUS
10
-0.047931
20
-0.001256
30
0.0
11
-0.044686
21
-0.001256
31
0.0
0
LINE
8
0
6
CONTINUOUS
10
-0.047931
20
0.035053
30
0.0
11
-0.050098
21
0.035053
31
0.0
0
LINE
8
0
6
CONTINUOUS
10
-0.044686
20
-0.001256
30
0.0
11
-0.040860
21
-0.001256
31
0.0
0
LINE
8
0
6
CONTINUOUS
10
0.045321
20
-0.001256
30
0.0
11
0.048024
21
-0.001256
31
0.0
0
LINE
8
0
6
CONTINUOUS
10
0.048024
20
-0.001256
30
0.0
11
0.049993
21
-0.001256
31
0.0
0
LINE
8
0
6
CONTINUOUS
10
0.049993
20
-0.001256
30
0.0
11
0.051308
21
-0.001256
31
0.0
0
LINE
8
0
6
CONTINUOUS
10
0.051846
20
-0.001256
30
0.0
11
0.051846
21
0.000437
31
0.0
0
LINE
8
0
6
CONTINUOUS
10
0.051308
20
-0.001256
30
0.0
11
0.051846
21
-0.001256
31
0.0
0
LINE
8
0
6
CONTINUOUS
10
-0.054101
20
0.035053
30
0.0
11
-0.048377
21
0.035053
31
0.0
0
LINE
8
0
6
CONTINUOUS
10
0.051846
20
0.000437
30
0.0
11
0.051846
21
0.033956
31
0.0
0
LINE
8
0
6
CONTINUOUS
10
-0.054720
20
0.035053
30
0.0
11
-0.054101
21
0.035053
31
0.0
0
LINE
8
0
6
CONTINUOUS
10
-0.054101
20
0.035053
30
0.0
11
-0.054720
21
0.035053
31
0.0
0
LINE
8
0
6
CONTINUOUS
10
-0.044687
20
0.035053
30
0.0
11
-0.045644
21
0.035053
31
0.0
0
LINE
8
0
6
CONTINUOUS
10
-0.047931
20
0.035053
30
0.0
11
-0.044687
21
0.035053
31
0.0
0
LINE
8
0
6
CONTINUOUS
10
-0.048377
20
0.035053
30
0.0
11
-0.047931
21
0.035053
31
0.0
0
LINE
8
0
6
CONTINUOUS
10
-0.040860
20
0.035053
30
0.0
11
-0.044687
21
0.035053
31
0.0
0
LINE
8
0
6
CONTINUOUS
10
0.045321
20
0.035053
30
0.0
11
0.045382
21
0.035053
31
0.0
0
LINE
8
0
6
CONTINUOUS
10
-0.040860
20
0.035053
30
0.0
11
0.045321
21
0.035053
31
0.0
0
LINE
8
0
6
CONTINUOUS
10
-0.043083
20
0.035053
30
0.0
11
-0.040860
21
0.035053
31
0.0
0
LINE
8
0
6
CONTINUOUS
10
0.048024
20
0.035053
30
0.0
11
0.045321
21
0.035053
31
0.0
0
LINE
8
0
6
CONTINUOUS
10
0.049993
20
0.035053
30
0.0
11
0.048024
21
0.035053
31
0.0
0
LINE
8
0
6
CONTINUOUS
10
0.051308
20
0.035053
30
0.0
11
0.049993
21
0.035053
31
0.0
0
LINE
8
0
6
CONTINUOUS
10
0.051846
20
0.035053
30
0.0
11
0.051308
21
0.035053
31
0.0
0
LINE
8
0
6
CONTINUOUS
10
0.051846
20
0.033956
30
0.0
11
0.051846
21
0.035053
31
0.0
0
LINE
8
0
6
CONTINUOUS
10
-0.013837
20
-0.001256
30
0.0
11
-0.013837
21
-0.001728
31
0.0
0
LINE
8
0
6
CONTINUOUS
10
-0.011173
20
-0.001256
30
0.0
11
-0.012573
21
-0.001256
31
0.0
0
LINE
8
0
6
CONTINUOUS
10
-0.009522
20
-0.001256
30
0.0
11
-0.011173
21
-0.001256
31
0.0
0
LINE
8
0
6
CONTINUOUS
10
-0.007870
20
-0.001256
30
0.0
11
-0.009522
21
-0.001256
31
0.0
0
LINE
8
0
6
CONTINUOUS
10
-0.005207
20
-0.001256
30
0.0
11
-0.005535
21
-0.001256
31
0.0
0
LINE
8
0
6
CONTINUOUS
10
-0.005207
20
-0.001728
30
0.0
11
-0.005207
21
-0.001256
31
0.0
0
LINE
8
0
6
CONTINUOUS
10
-0.013837
20
-0.001256
30
0.0
11
-0.013837
21
-0.001675
31
0.0
0
LINE
8
0
6
CONTINUOUS
10
-0.011173
20
-0.001256
30
0.0
11
-0.012573
21
-0.001256
31
0.0
0
LINE
8
0
6
CONTINUOUS
10
-0.009522
20
-0.001256
30
0.0
11
-0.011173
21
-0.001256
31
0.0
0
LINE
8
0
6
CONTINUOUS
10
-0.007870
20
-0.001256
30
0.0
11
-0.009522
21
-0.001256
31
0.0
0
LINE
8
0
6
CONTINUOUS
10
-0.005207
20
-0.001256
30
0.0
11
-0.005535
21
-0.001256
31
0.0
0
LINE
8
0
6
CONTINUOUS
10
-0.005207
20
-0.001675
30
0.0
11
-0.005207
21
-0.001256
31
0.0
0
LINE
8
0
6
CONTINUOUS
10
0.006185
20
-0.001256
30
0.0
11
0.006185
21
-0.001942
31
0.0
0
LINE
8
0
6
CONTINUOUS
10
0.007449
20
-0.001256
30
0.0
11
0.006514
21
-0.001256
31
0.0
0
LINE
8
0
6
CONTINUOUS
10
0.010500
20
-0.001256
30
0.0
11
0.008849
21
-0.001256
31
0.0
0
LINE
8
0
6
CONTINUOUS
10
0.012152
20
-0.001256
30
0.0
11
0.010500
21
-0.001256
31
0.0
0
LINE
8
0
6
CONTINUOUS
10
0.013552
20
-0.001256
30
0.0
11
0.012152
21
-0.001256
31
0.0
0
LINE
8
0
6
CONTINUOUS
10
0.014815
20
-0.001256
30
0.0
11
0.014487
21
-0.001256
31
0.0
0
LINE
8
0
6
CONTINUOUS
10
0.014815
20
-0.001942
30
0.0
11
0.014815
21
-0.001256
31
0.0
0
LINE
8
0
6
CONTINUOUS
10
0.006185
20
-0.001256
30
0.0
11
0.006185
21
-0.001866
31
0.0
0
LINE
8
0
6
CONTINUOUS
10
0.010500
20
-0.001256
30
0.0
11
0.008849
21
-0.001256
31
0.0
0
LINE
8
0
6
CONTINUOUS
10
0.012152
20
-0.001256
30
0.0
11
0.010500
21
-0.001256
31
0.0
0
LINE
8
0
6
CONTINUOUS
10
0.014815
20
-0.001256
30
0.0
11
0.014487
21
-0.001256
31
0.0
0
LINE
8
0
6
CONTINUOUS
10
0.014815
20
-0.001866
30
0.0
11
0.014815
21
-0.001256
31
0.0
0
LINE
8
0
6
CONTINUOUS
10
0.005214
20
-0.001256
30
0.0
11
-0.004236
21
-0.001256
31
0.0
0
LINE
8
0
6
CONTINUOUS
10
-0.012573
20
-0.001256
30
0.0
11
-0.013070
21
-0.001256
31
0.0
0
LINE
8
0
6
CONTINUOUS
10
-0.013508
20
-0.001256
30
0.0
11
-0.012573
21
-0.001256
31
0.0
0
LINE
8
0
6
CONTINUOUS
10
-0.013837
20
-0.001256
30
0.0
11
-0.013508
21
-0.001256
31
0.0
0
LINE
8
0
6
CONTINUOUS
10
-0.013508
20
-0.001256
30
0.0
11
-0.013837
21
-0.001256
31
0.0
0
LINE
8
0
6
CONTINUOUS
10
-0.014158
20
-0.001256
30
0.0
11
-0.013508
21
-0.001256
31
0.0
0
LINE
8
0
6
CONTINUOUS
10
-0.012573
20
-0.001256
30
0.0
11
-0.013070
21
-0.001256
31
0.0
0
LINE
8
0
6
CONTINUOUS
10
-0.011173
20
-0.001256
30
0.0
11
-0.012573
21
-0.001256
31
0.0
0
LINE
8
0
6
CONTINUOUS
10
-0.011442
20
-0.001256
30
0.0
11
-0.011173
21
-0.001256
31
0.0
0
LINE
8
0
6
CONTINUOUS
10
-0.012573
20
-0.001256
30
0.0
11
-0.013070
21
-0.001256
31
0.0
0
LINE
8
0
6
CONTINUOUS
10
-0.013508
20
-0.001256
30
0.0
11
-0.012573
21
-0.001256
31
0.0
0
LINE
8
0
6
CONTINUOUS
10
-0.013837
20
-0.001256
30
0.0
11
-0.013508
21
-0.001256
31
0.0
0
LINE
8
0
6
CONTINUOUS
10
-0.014540
20
-0.001256
30
0.0
11
-0.013837
21
-0.001256
31
0.0
0
LINE
8
0
6
CONTINUOUS
10
0.014487
20
-0.001256
30
0.0
11
0.015137
21
-0.001256
31
0.0
0
LINE
8
0
6
CONTINUOUS
10
0.013552
20
-0.001256
30
0.0
11
0.014487
21
-0.001256
31
0.0
0
LINE
8
0
6
CONTINUOUS
10
0.012152
20
-0.001256
30
0.0
11
0.013552
21
-0.001256
31
0.0
0
LINE
8
0
6
CONTINUOUS
10
0.012421
20
-0.001256
30
0.0
11
0.012152
21
-0.001256
31
0.0
0
LINE
8
0
6
CONTINUOUS
10
0.014487
20
-0.001256
30
0.0
11
0.015137
21
-0.001256
31
0.0
0
LINE
8
0
6
CONTINUOUS
10
0.014815
20
-0.001256
30
0.0
11
0.014487
21
-0.001256
31
0.0
0
LINE
8
0
6
CONTINUOUS
10
0.015519
20
-0.001256
30
0.0
11
0.014815
21
-0.001256
31
0.0
0
LINE
8
0
6
CONTINUOUS
10
0.014487
20
-0.001256
30
0.0
11
0.015137
21
-0.001256
31
0.0
0
LINE
8
0
6
CONTINUOUS
10
0.013552
20
-0.001256
30
0.0
11
0.014487
21
-0.001256
31
0.0
0
LINE
8
0
6
CONTINUOUS
10
0.013992
20
-0.001256
30
0.0
11
0.013552
21
-0.001256
31
0.0
0
LINE
8
0
6
CONTINUOUS
10
0.008580
20
-0.001256
30
0.0
11
0.006952
21
-0.001256
31
0.0
0
LINE
8
0
6
CONTINUOUS
10
0.008849
20
-0.001256
30
0.0
11
0.008580
21
-0.001256
31
0.0
0
LINE
8
0
6
CONTINUOUS
10
0.007449
20
-0.001256
30
0.0
11
0.008849
21
-0.001256
31
0.0
0
LINE
8
0
6
CONTINUOUS
10
0.006952
20
-0.001256
30
0.0
11
0.007449
21
-0.001256
31
0.0
0
LINE
8
0
6
CONTINUOUS
10
0.006514
20
-0.001256
30
0.0
11
0.005864
21
-0.001256
31
0.0
0
LINE
8
0
6
CONTINUOUS
10
0.006185
20
-0.001256
30
0.0
11
0.006514
21
-0.001256
31
0.0
0
LINE
8
0
6
CONTINUOUS
10
0.006514
20
-0.001256
30
0.0
11
0.006185
21
-0.001256
31
0.0
0
LINE
8
0
6
CONTINUOUS
10
0.005864
20
-0.001256
30
0.0
11
0.006514
21
-0.001256
31
0.0
0
LINE
8
0
6
CONTINUOUS
10
0.007449
20
-0.001256
30
0.0
11
0.006952
21
-0.001256
31
0.0
0
LINE
8
0
6
CONTINUOUS
10
0.008849
20
-0.001256
30
0.0
11
0.007449
21
-0.001256
31
0.0
0
LINE
8
0
6
CONTINUOUS
10
0.008580
20
-0.001256
30
0.0
11
0.008849
21
-0.001256
31
0.0
0
LINE
8
0
6
CONTINUOUS
10
0.008580
20
-0.001256
30
0.0
11
0.006952
21
-0.001256
31
0.0
0
LINE
8
0
6
CONTINUOUS
10
0.008849
20
-0.001256
30
0.0
11
0.008580
21
-0.001256
31
0.0
0
LINE
8
0
6
CONTINUOUS
10
0.007449
20
-0.001256
30
0.0
11
0.008849
21
-0.001256
31
0.0
0
LINE
8
0
6
CONTINUOUS
10
0.006514
20
-0.001256
30
0.0
11
0.007449
21
-0.001256
31
0.0
0
LINE
8
0
6
CONTINUOUS
10
0.006185
20
-0.001256
30
0.0
11
0.006514
21
-0.001256
31
0.0
0
LINE
8
0
6
CONTINUOUS
10
0.005482
20
-0.001256
30
0.0
11
0.006185
21
-0.001256
31
0.0
0
LINE
8
0
6
CONTINUOUS
10
-0.005535
20
-0.001256
30
0.0
11
-0.004886
21
-0.001256
31
0.0
0
LINE
8
0
6
CONTINUOUS
10
-0.006471
20
-0.001256
30
0.0
11
-0.005535
21
-0.001256
31
0.0
0
LINE
8
0
6
CONTINUOUS
10
-0.007870
20
-0.001256
30
0.0
11
-0.006471
21
-0.001256
31
0.0
0
LINE
8
0
6
CONTINUOUS
10
-0.007601
20
-0.001256
30
0.0
11
-0.007870
21
-0.001256
31
0.0
0
LINE
8
0
6
CONTINUOUS
10
-0.007870
20
-0.001256
30
0.0
11
-0.007601
21
-0.001256
31
0.0
0
LINE
8
0
6
CONTINUOUS
10
-0.006471
20
-0.001256
30
0.0
11
-0.007870
21
-0.001256
31
0.0
0
LINE
8
0
6
CONTINUOUS
10
-0.005535
20
-0.001256
30
0.0
11
-0.006471
21
-0.001256
31
0.0
0
LINE
8
0
6
CONTINUOUS
10
-0.005207
20
-0.001256
30
0.0
11
-0.005535
21
-0.001256
31
0.0
0
LINE
8
0
6
CONTINUOUS
10
-0.004504
20
-0.001256
30
0.0
11
-0.005207
21
-0.001256
31
0.0
0
LINE
8
0
6
CONTINUOUS
10
-0.005535
20
-0.001256
30
0.0
11
-0.004886
21
-0.001256
31
0.0
0
LINE
8
0
6
CONTINUOUS
10
-0.006471
20
-0.001256
30
0.0
11
-0.005535
21
-0.001256
31
0.0
0
LINE
8
0
6
CONTINUOUS
10
-0.005973
20
-0.001256
30
0.0
11
-0.007601
21
-0.001256
31
0.0
0
LINE
8
0
6
CONTINUOUS
10
-0.007870
20
-0.001256
30
0.0
11
-0.006471
21
-0.001256
31
0.0
0
LINE
8
0
6
CONTINUOUS
10
-0.007601
20
-0.001256
30
0.0
11
-0.007870
21
-0.001256
31
0.0
0
LINE
8
0
6
CONTINUOUS
10
-0.013577
20
-0.001256
30
0.0
11
-0.014808
21
-0.001256
31
0.0
0
LINE
8
0
6
CONTINUOUS
10
-0.013070
20
-0.001256
30
0.0
11
-0.013577
21
-0.001256
31
0.0
0
LINE
8
0
6
CONTINUOUS
10
-0.014808
20
-0.001256
30
0.0
11
-0.015243
21
-0.001256
31
0.0
0
LINE
8
0
6
CONTINUOUS
10
-0.014808
20
-0.001256
30
0.0
11
-0.014158
21
-0.001256
31
0.0
0
LINE
8
0
6
CONTINUOUS
10
-0.013070
20
-0.001256
30
0.0
11
-0.013567
21
-0.001256
31
0.0
0
LINE
8
0
6
CONTINUOUS
10
-0.009522
20
-0.001256
30
0.0
11
-0.011442
21
-0.001256
31
0.0
0
LINE
8
0
6
CONTINUOUS
10
-0.011442
20
-0.001256
30
0.0
11
-0.009522
21
-0.001256
31
0.0
0
LINE
8
0
6
CONTINUOUS
10
-0.011711
20
-0.001256
30
0.0
11
-0.011442
21
-0.001256
31
0.0
0
LINE
8
0
6
CONTINUOUS
10
-0.013070
20
-0.001256
30
0.0
11
-0.013567
21
-0.001256
31
0.0
0
LINE
8
0
6
CONTINUOUS
10
-0.015243
20
-0.001256
30
0.0
11
-0.014540
21
-0.001256
31
0.0
0
LINE
8
0
6
CONTINUOUS
10
0.015519
20
-0.001256
30
0.0
11
0.016222
21
-0.001256
31
0.0
0
LINE
8
0
6
CONTINUOUS
10
0.015137
20
-0.001256
30
0.0
11
0.015519
21
-0.001256
31
0.0
0
LINE
8
0
6
CONTINUOUS
10
0.010500
20
-0.001256
30
0.0
11
0.012421
21
-0.001256
31
0.0
0
LINE
8
0
6
CONTINUOUS
10
0.012421
20
-0.001256
30
0.0
11
0.010500
21
-0.001256
31
0.0
0
LINE
8
0
6
CONTINUOUS
10
0.014049
20
-0.001256
30
0.0
11
0.012421
21
-0.001256
31
0.0
0
LINE
8
0
6
CONTINUOUS
10
0.014546
20
-0.001256
30
0.0
11
0.014049
21
-0.001256
31
0.0
0
LINE
8
0
6
CONTINUOUS
10
0.015137
20
-0.001256
30
0.0
11
0.015786
21
-0.001256
31
0.0
0
LINE
8
0
6
CONTINUOUS
10
0.016222
20
-0.001256
30
0.0
11
0.015786
21
-0.001256
31
0.0
0
LINE
8
0
6
CONTINUOUS
10
0.015137
20
-0.001256
30
0.0
11
0.015519
21
-0.001256
31
0.0
0
LINE
8
0
6
CONTINUOUS
10
0.015786
20
-0.001256
30
0.0
11
0.014433
21
-0.001256
31
0.0
0
LINE
8
0
6
CONTINUOUS
10
0.014433
20
-0.001256
30
0.0
11
0.013992
21
-0.001256
31
0.0
0
LINE
8
0
6
CONTINUOUS
10
0.005864
20
-0.001256
30
0.0
11
0.005214
21
-0.001256
31
0.0
0
LINE
8
0
6
CONTINUOUS
10
0.005214
20
-0.001256
30
0.0
11
0.005864
21
-0.001256
31
0.0
0
LINE
8
0
6
CONTINUOUS
10
0.006952
20
-0.001256
30
0.0
11
0.006455
21
-0.001256
31
0.0
0
LINE
8
0
6
CONTINUOUS
10
0.010500
20
-0.001256
30
0.0
11
0.008580
21
-0.001256
31
0.0
0
LINE
8
0
6
CONTINUOUS
10
0.008580
20
-0.001256
30
0.0
11
0.010500
21
-0.001256
31
0.0
0
LINE
8
0
6
CONTINUOUS
10
0.008311
20
-0.001256
30
0.0
11
0.008580
21
-0.001256
31
0.0
0
LINE
8
0
6
CONTINUOUS
10
0.006952
20
-0.001256
30
0.0
11
0.006455
21
-0.001256
31
0.0
0
LINE
8
0
6
CONTINUOUS
10
0.004779
20
-0.001256
30
0.0
11
0.005482
21
-0.001256
31
0.0
0
LINE
8
0
6
CONTINUOUS
10
-0.004504
20
-0.001256
30
0.0
11
-0.003800
21
-0.001256
31
0.0
0
LINE
8
0
6
CONTINUOUS
10
-0.004886
20
-0.001256
30
0.0
11
-0.004504
21
-0.001256
31
0.0
0
LINE
8
0
6
CONTINUOUS
10
-0.009522
20
-0.001256
30
0.0
11
-0.007601
21
-0.001256
31
0.0
0
LINE
8
0
6
CONTINUOUS
10
-0.007601
20
-0.001256
30
0.0
11
-0.009522
21
-0.001256
31
0.0
0
LINE
8
0
6
CONTINUOUS
10
-0.004886
20
-0.001256
30
0.0
11
-0.004504
21
-0.001256
31
0.0
0
LINE
8
0
6
CONTINUOUS
10
-0.004236
20
-0.001256
30
0.0
11
-0.005476
21
-0.001256
31
0.0
0
LINE
8
0
6
CONTINUOUS
10
-0.005476
20
-0.001256
30
0.0
11
-0.005973
21
-0.001256
31
0.0
0
LINE
8
0
6
CONTINUOUS
10
0.014487
20
-0.009947
30
0.0
11
0.014815
21
-0.009947
31
0.0
0
LINE
8
0
6
CONTINUOUS
10
0.014815
20
-0.009947
30
0.0
11
0.014815
21
-0.009543
31
0.0
0
LINE
8
0
6
CONTINUOUS
10
0.010500
20
-0.009947
30
0.0
11
0.012152
21
-0.009947
31
0.0
0
LINE
8
0
6
CONTINUOUS
10
0.008849
20
-0.009947
30
0.0
11
0.010500
21
-0.009947
31
0.0
0
LINE
8
0
6
CONTINUOUS
10
0.006185
20
-0.009543
30
0.0
11
0.006185
21
-0.009947
31
0.0
0
LINE
8
0
6
CONTINUOUS
10
0.014815
20
-0.009947
30
0.0
11
0.014815
21
-0.009547
31
0.0
0
LINE
8
0
6
CONTINUOUS
10
0.013552
20
-0.009947
30
0.0
11
0.014487
21
-0.009947
31
0.0
0
LINE
8
0
6
CONTINUOUS
10
0.012152
20
-0.009947
30
0.0
11
0.013552
21
-0.009947
31
0.0
0
LINE
8
0
6
CONTINUOUS
10
0.010500
20
-0.009947
30
0.0
11
0.012152
21
-0.009947
31
0.0
0
LINE
8
0
6
CONTINUOUS
10
0.008849
20
-0.009947
30
0.0
11
0.010500
21
-0.009947
31
0.0
0
LINE
8
0
6
CONTINUOUS
10
0.006514
20
-0.009947
30
0.0
11
0.007449
21
-0.009947
31
0.0
0
LINE
8
0
6
CONTINUOUS
10
0.006185
20
-0.009547
30
0.0
11
0.006185
21
-0.009947
31
0.0
0
LINE
8
0
6
CONTINUOUS
10
-0.005535
20
-0.009947
30
0.0
11
-0.005207
21
-0.009947
31
0.0
0
LINE
8
0
6
CONTINUOUS
10
-0.005207
20
-0.009947
30
0.0
11
-0.005207
21
-0.009536
31
0.0
0
LINE
8
0
6
CONTINUOUS
10
-0.009522
20
-0.009947
30
0.0
11
-0.007870
21
-0.009947
31
0.0
0
LINE
8
0
6
CONTINUOUS
10
-0.011173
20
-0.009947
30
0.0
11
-0.009522
21
-0.009947
31
0.0
0
LINE
8
0
6
CONTINUOUS
10
-0.012573
20
-0.009947
30
0.0
11
-0.011173
21
-0.009947
31
0.0
0
LINE
8
0
6
CONTINUOUS
10
-0.013837
20
-0.009536
30
0.0
11
-0.013837
21
-0.009947
31
0.0
0
LINE
8
0
6
CONTINUOUS
10
-0.003800
20
-0.001256
30
0.0
11
0.004779
21
-0.001256
31
0.0
0
LINE
8
0
6
CONTINUOUS
10
0.006455
20
-0.001256
30
0.0
11
0.008311
21
-0.001256
31
0.0
0
LINE
8
0
6
CONTINUOUS
10
0.006455
20
-0.001256
30
0.0
11
0.005214
21
-0.001256
31
0.0
0
LINE
8
0
6
CONTINUOUS
10
-0.013567
20
-0.001256
30
0.0
11
-0.011711
21
-0.001256
31
0.0
0
LINE
8
0
6
CONTINUOUS
10
-0.013567
20
-0.001256
30
0.0
11
-0.014808
21
-0.001256
31
0.0
0
LINE
8
0
6
CONTINUOUS
10
0.049081
20
-0.001256
30
0.0
11
0.016222
21
-0.001256
31
0.0
0
LINE
8
0
6
CONTINUOUS
10
0.015786
20
-0.001256
30
0.0
11
0.014546
21
-0.001256
31
0.0
0
LINE
8
0
6
CONTINUOUS
10
-0.040860
20
-0.001256
30
0.0
11
0.045321
21
-0.001256
31
0.0
0
LINE
8
0
6
CONTINUOUS
10
0.051846
20
0.033956
30
0.0
11
0.051846
21
0.035053
31
0.0
0
LINE
8
0
6
CONTINUOUS
10
0.051846
20
0.035053
30
0.0
11
0.051846
21
0.033956
31
0.0
0
LINE
8
0
6
CONTINUOUS
10
0.051846
20
0.000437
30
0.0
11
0.051846
21
0.033956
31
0.0
0
LINE
8
0
6
CONTINUOUS
10
0.051846
20
0.033956
30
0.0
11
0.051846
21
0.000437
31
0.0
0
LINE
8
0
6
CONTINUOUS
10
-0.048592
20
0.035053
30
0.0
11
-0.054101
21
0.035053
31
0.0
0
LINE
8
0
6
CONTINUOUS
10
-0.048095
20
-0.001256
30
0.0
11
-0.015243
21
-0.001256
31
0.0
0
LINE
8
0
6
CONTINUOUS
10
-0.054678
20
0.033775
30
0.0
11
-0.054720
21
0.035053
31
0.0
0
LINE
8
0
6
CONTINUOUS
10
-0.054720
20
0.035053
30
0.0
11
-0.054678
21
0.033775
31
0.0
0
LINE
8
0
6
CONTINUOUS
10
0.016222
20
-0.001256
30
0.0
11
0.049081
21
-0.001256
31
0.0
0
LINE
8
0
6
CONTINUOUS
10
-0.015243
20
-0.001256
30
0.0
11
-0.048095
21
-0.001256
31
0.0
0
LINE
8
0
6
CONTINUOUS
10
0.045640
20
0.035053
30
0.0
11
-0.043083
21
0.035053
31
0.0
0
LINE
8
0
6
CONTINUOUS
10
0.045382
20
0.035053
30
0.0
11
0.045640
21
0.035053
31
0.0
0
LINE
8
0
6
CONTINUOUS
10
-0.045644
20
0.035053
30
0.0
11
-0.043083
21
0.035053
31
0.0
0
LINE
8
0
6
CONTINUOUS
10
-0.043083
20
0.035053
30
0.0
11
-0.048592
21
0.035053
31
0.0
0
LINE
8
0
6
CONTINUOUS
10
0.012682
20
-0.009947
30
0.0
11
0.014433
21
-0.009947
31
0.0
0
LINE
8
0
6
CONTINUOUS
10
0.052138
20
-0.009947
30
0.0
11
0.050276
21
-0.009947
31
0.0
0
LINE
8
0
6
CONTINUOUS
10
0.012421
20
-0.009947
30
0.0
11
0.014049
21
-0.009947
31
0.0
0
LINE
8
0
6
CONTINUOUS
10
0.012152
20
-0.009947
30
0.0
11
0.012421
21
-0.009947
31
0.0
0
LINE
8
0
6
CONTINUOUS
10
0.013552
20
-0.009947
30
0.0
11
0.012152
21
-0.009947
31
0.0
0
LINE
8
0
6
CONTINUOUS
10
0.014049
20
-0.009947
30
0.0
11
0.015137
21
-0.009947
31
0.0
0
LINE
8
0
6
CONTINUOUS
10
0.014487
20
-0.009947
30
0.0
11
0.013552
21
-0.009947
31
0.0
0
LINE
8
0
6
CONTINUOUS
10
0.015137
20
-0.009947
30
0.0
11
0.014487
21
-0.009947
31
0.0
0
LINE
8
0
6
CONTINUOUS
10
0.013992
20
-0.009947
30
0.0
11
0.012421
21
-0.009947
31
0.0
0
LINE
8
0
6
CONTINUOUS
10
0.013552
20
-0.009947
30
0.0
11
0.013992
21
-0.009947
31
0.0
0
LINE
8
0
6
CONTINUOUS
10
0.012152
20
-0.009947
30
0.0
11
0.013552
21
-0.009947
31
0.0
0
LINE
8
0
6
CONTINUOUS
10
0.012421
20
-0.009947
30
0.0
11
0.010500
21
-0.009947
31
0.0
0
LINE
8
0
6
CONTINUOUS
10
0.010500
20
-0.009947
30
0.0
11
0.012152
21
-0.009947
31
0.0
0
LINE
8
0
6
CONTINUOUS
10
-0.011658
20
-0.009947
30
0.0
11
-0.009522
21
-0.009947
31
0.0
0
LINE
8
0
6
CONTINUOUS
10
-0.013070
20
-0.009947
30
0.0
11
-0.011658
21
-0.009947
31
0.0
0
LINE
8
0
6
CONTINUOUS
10
-0.013577
20
-0.009947
30
0.0
11
-0.013070
21
-0.009947
31
0.0
0
LINE
8
0
6
CONTINUOUS
10
0.008580
20
-0.009947
30
0.0
11
0.010500
21
-0.009947
31
0.0
0
LINE
8
0
6
CONTINUOUS
10
0.008311
20
-0.009947
30
0.0
11
0.006455
21
-0.009947
31
0.0
0
LINE
8
0
6
CONTINUOUS
10
0.006952
20
-0.009947
30
0.0
11
0.008580
21
-0.009947
31
0.0
0
LINE
8
0
6
CONTINUOUS
10
0.006455
20
-0.009947
30
0.0
11
0.006952
21
-0.009947
31
0.0
0
LINE
8
0
6
CONTINUOUS
10
-0.005476
20
-0.009947
30
0.0
11
-0.007332
21
-0.009947
31
0.0
0
LINE
8
0
6
CONTINUOUS
10
-0.005973
20
-0.009947
30
0.0
11
-0.005476
21
-0.009947
31
0.0
0
LINE
8
0
6
CONTINUOUS
10
-0.007601
20
-0.009947
30
0.0
11
-0.005973
21
-0.009947
31
0.0
0
LINE
8
0
6
CONTINUOUS
10
-0.009522
20
-0.009947
30
0.0
11
-0.007601
21
-0.009947
31
0.0
0
LINE
8
0
6
CONTINUOUS
10
0.015786
20
-0.009947
30
0.0
11
0.052820
21
-0.009947
31
0.0
0
LINE
8
0
6
CONTINUOUS
10
0.014433
20
-0.009947
30
0.0
11
0.015786
21
-0.009947
31
0.0
0
LINE
8
0
6
CONTINUOUS
10
0.052820
20
-0.009947
30
0.0
11
0.052138
21
-0.009947
31
0.0
0
LINE
8
0
6
CONTINUOUS
10
0.010500
20
-0.009947
30
0.0
11
0.012682
21
-0.009947
31
0.0
0
LINE
8
0
6
CONTINUOUS
10
0.050276
20
-0.009947
30
0.0
11
0.047488
21
-0.009947
31
0.0
0
LINE
8
0
6
CONTINUOUS
10
-0.007332
20
-0.009947
30
0.0
11
0.008311
21
-0.009947
31
0.0
0
LINE
8
0
6
CONTINUOUS
10
-0.051834
20
-0.009947
30
0.0
11
-0.013577
21
-0.009947
31
0.0
0
LINE
8
0
6
CONTINUOUS
10
0.052820
20
-0.009947
30
0.0
11
0.016222
21
-0.009947
31
0.0
0
LINE
8
0
6
CONTINUOUS
10
0.047488
20
-0.009947
30
0.0
11
0.044063
21
-0.009947
31
0.0
0
LINE
8
0
6
CONTINUOUS
10
0.016222
20
-0.009947
30
0.0
11
0.052820
21
-0.009947
31
0.0
0
LINE
8
0
6
CONTINUOUS
10
-0.004236
20
-0.009947
30
0.0
11
0.005214
21
-0.009947
31
0.0
0
LINE
8
0
6
CONTINUOUS
10
-0.012573
20
-0.009947
30
0.0
11
-0.013508
21
-0.009947
31
0.0
0
LINE
8
0
6
CONTINUOUS
10
-0.013070
20
-0.009947
30
0.0
11
-0.012573
21
-0.009947
31
0.0
0
LINE
8
0
6
CONTINUOUS
10
-0.013508
20
-0.009947
30
0.0
11
-0.013837
21
-0.009947
31
0.0
0
LINE
8
0
6
CONTINUOUS
10
-0.013837
20
-0.009947
30
0.0
11
-0.013508
21
-0.009947
31
0.0
0
LINE
8
0
6
CONTINUOUS
10
-0.013508
20
-0.009947
30
0.0
11
-0.012573
21
-0.009947
31
0.0
0
LINE
8
0
6
CONTINUOUS
10
-0.013070
20
-0.009947
30
0.0
11
-0.014158
21
-0.009947
31
0.0
0
LINE
8
0
6
CONTINUOUS
10
-0.011173
20
-0.009947
30
0.0
11
-0.011442
21
-0.009947
31
0.0
0
LINE
8
0
6
CONTINUOUS
10
-0.012573
20
-0.009947
30
0.0
11
-0.011173
21
-0.009947
31
0.0
0
LINE
8
0
6
CONTINUOUS
10
-0.012573
20
-0.009947
30
0.0
11
-0.013508
21
-0.009947
31
0.0
0
LINE
8
0
6
CONTINUOUS
10
-0.013070
20
-0.009947
30
0.0
11
-0.012573
21
-0.009947
31
0.0
0
LINE
8
0
6
CONTINUOUS
10
-0.013837
20
-0.009947
30
0.0
11
-0.014540
21
-0.009947
31
0.0
0
LINE
8
0
6
CONTINUOUS
10
-0.013508
20
-0.009947
30
0.0
11
-0.013837
21
-0.009947
31
0.0
0
LINE
8
0
6
CONTINUOUS
10
0.014487
20
-0.009947
30
0.0
11
0.013552
21
-0.009947
31
0.0
0
LINE
8
0
6
CONTINUOUS
10
0.015137
20
-0.009947
30
0.0
11
0.014487
21
-0.009947
31
0.0
0
LINE
8
0
6
CONTINUOUS
10
0.012152
20
-0.009947
30
0.0
11
0.012421
21
-0.009947
31
0.0
0
LINE
8
0
6
CONTINUOUS
10
0.013552
20
-0.009947
30
0.0
11
0.012152
21
-0.009947
31
0.0
0
LINE
8
0
6
CONTINUOUS
10
0.014487
20
-0.009947
30
0.0
11
0.014815
21
-0.009947
31
0.0
0
LINE
8
0
6
CONTINUOUS
10
0.015137
20
-0.009947
30
0.0
11
0.014487
21
-0.009947
31
0.0
0
LINE
8
0
6
CONTINUOUS
10
0.014487
20
-0.009947
30
0.0
11
0.015137
21
-0.009947
31
0.0
0
LINE
8
0
6
CONTINUOUS
10
0.014815
20
-0.009947
30
0.0
11
0.014487
21
-0.009947
31
0.0
0
LINE
8
0
6
CONTINUOUS
10
0.007449
20
-0.009947
30
0.0
11
0.006952
21
-0.009947
31
0.0
0
LINE
8
0
6
CONTINUOUS
10
0.008849
20
-0.009947
30
0.0
11
0.007449
21
-0.009947
31
0.0
0
LINE
8
0
6
CONTINUOUS
10
0.008580
20
-0.009947
30
0.0
11
0.008849
21
-0.009947
31
0.0
0
LINE
8
0
6
CONTINUOUS
10
0.006952
20
-0.009947
30
0.0
11
0.008580
21
-0.009947
31
0.0
0
LINE
8
0
6
CONTINUOUS
10
0.006514
20
-0.009947
30
0.0
11
0.006185
21
-0.009947
31
0.0
0
LINE
8
0
6
CONTINUOUS
10
0.005864
20
-0.009947
30
0.0
11
0.006514
21
-0.009947
31
0.0
0
LINE
8
0
6
CONTINUOUS
10
0.006514
20
-0.009947
30
0.0
11
0.005864
21
-0.009947
31
0.0
0
LINE
8
0
6
CONTINUOUS
10
0.006185
20
-0.009947
30
0.0
11
0.006514
21
-0.009947
31
0.0
0
LINE
8
0
6
CONTINUOUS
10
0.008849
20
-0.009947
30
0.0
11
0.008580
21
-0.009947
31
0.0
0
LINE
8
0
6
CONTINUOUS
10
0.007449
20
-0.009947
30
0.0
11
0.008849
21
-0.009947
31
0.0
0
LINE
8
0
6
CONTINUOUS
10
0.006952
20
-0.009947
30
0.0
11
0.007449
21
-0.009947
31
0.0
0
LINE
8
0
6
CONTINUOUS
10
0.008849
20
-0.009947
30
0.0
11
0.007449
21
-0.009947
31
0.0
0
LINE
8
0
6
CONTINUOUS
10
0.008580
20
-0.009947
30
0.0
11
0.008849
21
-0.009947
31
0.0
0
LINE
8
0
6
CONTINUOUS
10
0.006952
20
-0.009947
30
0.0
11
0.008580
21
-0.009947
31
0.0
0
LINE
8
0
6
CONTINUOUS
10
0.007449
20
-0.009947
30
0.0
11
0.006514
21
-0.009947
31
0.0
0
LINE
8
0
6
CONTINUOUS
10
0.006185
20
-0.009947
30
0.0
11
0.005482
21
-0.009947
31
0.0
0
LINE
8
0
6
CONTINUOUS
10
0.006514
20
-0.009947
30
0.0
11
0.006185
21
-0.009947
31
0.0
0
LINE
8
0
6
CONTINUOUS
10
-0.005535
20
-0.009947
30
0.0
11
-0.006471
21
-0.009947
31
0.0
0
LINE
8
0
6
CONTINUOUS
10
-0.004886
20
-0.009947
30
0.0
11
-0.005535
21
-0.009947
31
0.0
0
LINE
8
0
6
CONTINUOUS
10
-0.007870
20
-0.009947
30
0.0
11
-0.007601
21
-0.009947
31
0.0
0
LINE
8
0
6
CONTINUOUS
10
-0.006471
20
-0.009947
30
0.0
11
-0.007870
21
-0.009947
31
0.0
0
LINE
8
0
6
CONTINUOUS
10
-0.007870
20
-0.009947
30
0.0
11
-0.006471
21
-0.009947
31
0.0
0
LINE
8
0
6
CONTINUOUS
10
-0.007601
20
-0.009947
30
0.0
11
-0.007870
21
-0.009947
31
0.0
0
LINE
8
0
6
CONTINUOUS
10
-0.006471
20
-0.009947
30
0.0
11
-0.005535
21
-0.009947
31
0.0
0
LINE
8
0
6
CONTINUOUS
10
-0.005207
20
-0.009947
30
0.0
11
-0.004504
21
-0.009947
31
0.0
0
LINE
8
0
6
CONTINUOUS
10
-0.005535
20
-0.009947
30
0.0
11
-0.005207
21
-0.009947
31
0.0
0
LINE
8
0
6
CONTINUOUS
10
-0.005535
20
-0.009947
30
0.0
11
-0.006471
21
-0.009947
31
0.0
0
LINE
8
0
6
CONTINUOUS
10
-0.004886
20
-0.009947
30
0.0
11
-0.005535
21
-0.009947
31
0.0
0
LINE
8
0
6
CONTINUOUS
10
-0.007870
20
-0.009947
30
0.0
11
-0.007601
21
-0.009947
31
0.0
0
LINE
8
0
6
CONTINUOUS
10
-0.006471
20
-0.009947
30
0.0
11
-0.007870
21
-0.009947
31
0.0
0
LINE
8
0
6
CONTINUOUS
10
-0.007601
20
-0.009947
30
0.0
11
-0.005973
21
-0.009947
31
0.0
0
LINE
8
0
6
CONTINUOUS
10
-0.013577
20
-0.009947
30
0.0
11
-0.013070
21
-0.009947
31
0.0
0
LINE
8
0
6
CONTINUOUS
10
-0.014808
20
-0.009947
30
0.0
11
-0.013577
21
-0.009947
31
0.0
0
LINE
8
0
6
CONTINUOUS
10
-0.015243
20
-0.009947
30
0.0
11
-0.014808
21
-0.009947
31
0.0
0
LINE
8
0
6
CONTINUOUS
10
-0.014158
20
-0.009947
30
0.0
11
-0.014808
21
-0.009947
31
0.0
0
LINE
8
0
6
CONTINUOUS
10
-0.013567
20
-0.009947
30
0.0
11
-0.013070
21
-0.009947
31
0.0
0
LINE
8
0
6
CONTINUOUS
10
-0.011442
20
-0.009947
30
0.0
11
-0.009522
21
-0.009947
31
0.0
0
LINE
8
0
6
CONTINUOUS
10
-0.011442
20
-0.009947
30
0.0
11
-0.011711
21
-0.009947
31
0.0
0
LINE
8
0
6
CONTINUOUS
10
-0.009522
20
-0.009947
30
0.0
11
-0.011442
21
-0.009947
31
0.0
0
LINE
8
0
6
CONTINUOUS
10
-0.013567
20
-0.009947
30
0.0
11
-0.013070
21
-0.009947
31
0.0
0
LINE
8
0
6
CONTINUOUS
10
-0.014540
20
-0.009947
30
0.0
11
-0.015243
21
-0.009947
31
0.0
0
LINE
8
0
6
CONTINUOUS
10
0.015519
20
-0.009947
30
0.0
11
0.015137
21
-0.009947
31
0.0
0
LINE
8
0
6
CONTINUOUS
10
0.016222
20
-0.009947
30
0.0
11
0.015519
21
-0.009947
31
0.0
0
LINE
8
0
6
CONTINUOUS
10
0.012421
20
-0.009947
30
0.0
11
0.010500
21
-0.009947
31
0.0
0
LINE
8
0
6
CONTINUOUS
10
0.010500
20
-0.009947
30
0.0
11
0.012421
21
-0.009947
31
0.0
0
LINE
8
0
6
CONTINUOUS
10
0.014049
20
-0.009947
30
0.0
11
0.014546
21
-0.009947
31
0.0
0
LINE
8
0
6
CONTINUOUS
10
0.012421
20
-0.009947
30
0.0
11
0.014049
21
-0.009947
31
0.0
0
LINE
8
0
6
CONTINUOUS
10
0.015786
20
-0.009947
30
0.0
11
0.015137
21
-0.009947
31
0.0
0
LINE
8
0
6
CONTINUOUS
10
0.015137
20
-0.009947
30
0.0
11
0.015786
21
-0.009947
31
0.0
0
LINE
8
0
6
CONTINUOUS
10
0.015786
20
-0.009947
30
0.0
11
0.016222
21
-0.009947
31
0.0
0
LINE
8
0
6
CONTINUOUS
10
0.005214
20
-0.009947
30
0.0
11
0.005864
21
-0.009947
31
0.0
0
LINE
8
0
6
CONTINUOUS
10
0.005864
20
-0.009947
30
0.0
11
0.005214
21
-0.009947
31
0.0
0
LINE
8
0
6
CONTINUOUS
10
0.006455
20
-0.009947
30
0.0
11
0.006952
21
-0.009947
31
0.0
0
LINE
8
0
6
CONTINUOUS
10
0.008580
20
-0.009947
30
0.0
11
0.010500
21
-0.009947
31
0.0
0
LINE
8
0
6
CONTINUOUS
10
0.008580
20
-0.009947
30
0.0
11
0.008311
21
-0.009947
31
0.0
0
LINE
8
0
6
CONTINUOUS
10
0.010500
20
-0.009947
30
0.0
11
0.008580
21
-0.009947
31
0.0
0
LINE
8
0
6
CONTINUOUS
10
0.006455
20
-0.009947
30
0.0
11
0.006952
21
-0.009947
31
0.0
0
LINE
8
0
6
CONTINUOUS
10
0.005482
20
-0.009947
30
0.0
11
0.004779
21
-0.009947
31
0.0
0
LINE
8
0
6
CONTINUOUS
10
-0.004504
20
-0.009947
30
0.0
11
-0.004886
21
-0.009947
31
0.0
0
LINE
8
0
6
CONTINUOUS
10
-0.003800
20
-0.009947
30
0.0
11
-0.004504
21
-0.009947
31
0.0
0
LINE
8
0
6
CONTINUOUS
10
-0.007601
20
-0.009947
30
0.0
11
-0.009522
21
-0.009947
31
0.0
0
LINE
8
0
6
CONTINUOUS
10
-0.009522
20
-0.009947
30
0.0
11
-0.007601
21
-0.009947
31
0.0
0
LINE
8
0
6
CONTINUOUS
10
-0.004504
20
-0.009947
30
0.0
11
-0.004886
21
-0.009947
31
0.0
0
LINE
8
0
6
CONTINUOUS
10
-0.005973
20
-0.009947
30
0.0
11
-0.005476
21
-0.009947
31
0.0
0
LINE
8
0
6
CONTINUOUS
10
-0.005476
20
-0.009947
30
0.0
11
-0.004236
21
-0.009947
31
0.0
0
LINE
8
0
6
CONTINUOUS
10
0.004779
20
-0.009947
30
0.0
11
-0.003800
21
-0.009947
31
0.0
0
LINE
8
0
6
CONTINUOUS
10
0.008311
20
-0.009947
30
0.0
11
0.006455
21
-0.009947
31
0.0
0
LINE
8
0
6
CONTINUOUS
10
0.005214
20
-0.009947
30
0.0
11
0.006455
21
-0.009947
31
0.0
0
LINE
8
0
6
CONTINUOUS
10
-0.011711
20
-0.009947
30
0.0
11
-0.013567
21
-0.009947
31
0.0
0
LINE
8
0
6
CONTINUOUS
10
-0.014808
20
-0.009947
30
0.0
11
-0.013567
21
-0.009947
31
0.0
0
LINE
8
0
6
CONTINUOUS
10
0.014546
20
-0.009947
30
0.0
11
0.015786
21
-0.009947
31
0.0
0
LINE
8
0
6
CONTINUOUS
10
-0.015243
20
-0.009947
30
0.0
11
-0.051834
21
-0.009947
31
0.0
0
LINE
8
0
6
CONTINUOUS
10
-0.051834
20
-0.009947
30
0.0
11
-0.015243
21
-0.009947
31
0.0
0
LINE
8
0
6
CONTINUOUS
10
-0.013837
20
-0.001728
30
0.0
11
-0.013837
21
-0.009536
31
0.0
0
LINE
8
0
6
CONTINUOUS
10
-0.005207
20
-0.009536
30
0.0
11
-0.005207
21
-0.001728
31
0.0
0
LINE
8
0
6
CONTINUOUS
10
0.006185
20
-0.001942
30
0.0
11
0.006185
21
-0.009547
31
0.0
0
LINE
8
0
6
CONTINUOUS
10
0.014815
20
-0.009547
30
0.0
11
0.014815
21
-0.001942
31
0.0
0
LINE
8
0
6
CONTINUOUS
10
-0.013837
20
-0.001728
30
0.0
11
-0.013837
21
-0.009536
31
0.0
0
LINE
8
0
6
CONTINUOUS
10
-0.005207
20
-0.009536
30
0.0
11
-0.005207
21
-0.001728
31
0.0
0
LINE
8
0
6
CONTINUOUS
10
-0.013837
20
-0.001675
30
0.0
11
-0.013837
21
-0.009533
31
0.0
0
LINE
8
0
6
CONTINUOUS
10
-0.005207
20
-0.009533
30
0.0
11
-0.005207
21
-0.001675
31
0.0
0
LINE
8
0
6
CONTINUOUS
10
0.006185
20
-0.001866
30
0.0
11
0.006185
21
-0.009543
31
0.0
0
LINE
8
0
6
CONTINUOUS
10
0.014815
20
-0.009543
30
0.0
11
0.014815
21
-0.001866
31
0.0
0
LINE
8
0
6
CONTINUOUS
10
0.006185
20
-0.001942
30
0.0
11
0.006185
21
-0.009547
31
0.0
0
LINE
8
0
6
CONTINUOUS
10
0.014815
20
-0.009547
30
0.0
11
0.014815
21
-0.001942
31
0.0
0
ENDSEC
0
EOF
