999
Erzeugt mit innoplus bad 
0
SECTION
2
HEADER
9
$ACADVER
1
AC1009
9
$DWGCODEPAGE
3
ISO8859-1
0
ENDSEC
0
SECTION
2
TABLES
0
TABLE
2
LAYER
70
1
0
LAYER
2
0
70
0
62
7
6
CONTINUOUS
0
ENDTAB
0
ENDSEC
0
SECTION
2
ENTITIES
0
LINE
8
0
6
CONTINUOUS
10
-0.076109
20
-0.034770
30
0.0
11
-0.075348
21
-0.034770
31
0.0
0
LINE
8
0
6
CONTINUOUS
10
-0.076092
20
-0.033709
30
0.0
11
-0.076109
21
-0.034770
31
0.0
0
LINE
8
0
6
CONTINUOUS
10
-0.075348
20
-0.034770
30
0.0
11
-0.073180
21
-0.034770
31
0.0
0
LINE
8
0
6
CONTINUOUS
10
-0.073180
20
-0.034770
30
0.0
11
-0.069935
21
-0.034770
31
0.0
0
LINE
8
0
6
CONTINUOUS
10
-0.069935
20
-0.034770
30
0.0
11
-0.066108
21
-0.034770
31
0.0
0
LINE
8
0
6
CONTINUOUS
10
-0.066108
20
-0.034770
30
0.0
11
-0.036204
21
-0.034770
31
0.0
0
LINE
8
0
6
CONTINUOUS
10
-0.075733
20
-0.011654
30
0.0
11
-0.076092
21
-0.033709
31
0.0
0
LINE
8
0
6
CONTINUOUS
10
-0.075718
20
-0.010770
30
0.0
11
-0.075733
21
-0.011654
31
0.0
0
LINE
8
0
6
CONTINUOUS
10
-0.074957
20
-0.010770
30
0.0
11
-0.075718
21
-0.010770
31
0.0
0
LINE
8
0
6
CONTINUOUS
10
-0.072789
20
-0.010770
30
0.0
11
-0.074957
21
-0.010770
31
0.0
0
LINE
8
0
6
CONTINUOUS
10
-0.069544
20
-0.010770
30
0.0
11
-0.072789
21
-0.010770
31
0.0
0
LINE
8
0
6
CONTINUOUS
10
-0.065717
20
-0.010770
30
0.0
11
-0.069544
21
-0.010770
31
0.0
0
LINE
8
0
6
CONTINUOUS
10
-0.036008
20
-0.010770
30
0.0
11
-0.065717
21
-0.010770
31
0.0
0
LINE
8
0
6
CONTINUOUS
10
-0.036204
20
-0.034770
30
0.0
11
-0.000119
21
-0.034770
31
0.0
0
LINE
8
0
6
CONTINUOUS
10
-0.000119
20
-0.010770
30
0.0
11
-0.036008
21
-0.010770
31
0.0
0
LINE
8
0
6
CONTINUOUS
10
-0.073732
20
-0.035053
30
0.0
11
-0.072536
21
-0.034770
31
0.0
0
LINE
8
0
6
CONTINUOUS
10
-0.076109
20
-0.034770
30
0.0
11
-0.075819
21
-0.034846
31
0.0
0
LINE
8
0
6
CONTINUOUS
10
-0.075819
20
-0.034846
30
0.0
11
-0.073935
21
-0.035024
31
0.0
0
LINE
8
0
6
CONTINUOUS
10
-0.073732
20
-0.035053
30
0.0
11
-0.074479
21
-0.034770
31
0.0
0
LINE
8
0
6
CONTINUOUS
10
-0.073935
20
-0.035024
30
0.0
11
-0.073732
21
-0.035053
31
0.0
0
LINE
8
0
6
CONTINUOUS
10
0.075872
20
-0.034770
30
0.0
11
0.075855
21
-0.033709
31
0.0
0
LINE
8
0
6
CONTINUOUS
10
0.075111
20
-0.034770
30
0.0
11
0.075872
21
-0.034770
31
0.0
0
LINE
8
0
6
CONTINUOUS
10
0.072943
20
-0.034770
30
0.0
11
0.075111
21
-0.034770
31
0.0
0
LINE
8
0
6
CONTINUOUS
10
0.069698
20
-0.034770
30
0.0
11
0.072943
21
-0.034770
31
0.0
0
LINE
8
0
6
CONTINUOUS
10
0.065871
20
-0.034770
30
0.0
11
0.069698
21
-0.034770
31
0.0
0
LINE
8
0
6
CONTINUOUS
10
0.035967
20
-0.034770
30
0.0
11
0.065871
21
-0.034770
31
0.0
0
LINE
8
0
6
CONTINUOUS
10
0.075855
20
-0.033709
30
0.0
11
0.075496
21
-0.011654
31
0.0
0
LINE
8
0
6
CONTINUOUS
10
0.075481
20
-0.010770
30
0.0
11
0.074720
21
-0.010770
31
0.0
0
LINE
8
0
6
CONTINUOUS
10
0.075496
20
-0.011654
30
0.0
11
0.075481
21
-0.010770
31
0.0
0
LINE
8
0
6
CONTINUOUS
10
0.074720
20
-0.010770
30
0.0
11
0.072552
21
-0.010770
31
0.0
0
LINE
8
0
6
CONTINUOUS
10
0.072552
20
-0.010770
30
0.0
11
0.069307
21
-0.010770
31
0.0
0
LINE
8
0
6
CONTINUOUS
10
0.069307
20
-0.010770
30
0.0
11
0.065480
21
-0.010770
31
0.0
0
LINE
8
0
6
CONTINUOUS
10
0.065480
20
-0.010770
30
0.0
11
0.035771
21
-0.010770
31
0.0
0
LINE
8
0
6
CONTINUOUS
10
-0.000119
20
-0.034770
30
0.0
11
0.035967
21
-0.034770
31
0.0
0
LINE
8
0
6
CONTINUOUS
10
0.035771
20
-0.010770
30
0.0
11
-0.000119
21
-0.010770
31
0.0
0
LINE
8
0
6
CONTINUOUS
10
0.072299
20
-0.034770
30
0.0
11
0.073495
21
-0.035053
31
0.0
0
LINE
8
0
6
CONTINUOUS
10
0.075582
20
-0.034846
30
0.0
11
0.075872
21
-0.034770
31
0.0
0
LINE
8
0
6
CONTINUOUS
10
0.073698
20
-0.035024
30
0.0
11
0.075582
21
-0.034846
31
0.0
0
LINE
8
0
6
CONTINUOUS
10
0.073495
20
-0.035053
30
0.0
11
0.073698
21
-0.035024
31
0.0
0
LINE
8
0
6
CONTINUOUS
10
0.074242
20
-0.034770
30
0.0
11
0.073495
21
-0.035053
31
0.0
0
LINE
8
0
6
CONTINUOUS
10
0.035886
20
-0.009947
30
0.0
11
-0.036123
21
-0.009947
31
0.0
0
LINE
8
0
6
CONTINUOUS
10
-0.045588
20
-0.009947
30
0.0
11
-0.049508
21
-0.009947
31
0.0
0
LINE
8
0
6
CONTINUOUS
10
-0.041023
20
-0.009947
30
0.0
11
-0.045588
21
-0.009947
31
0.0
0
LINE
8
0
6
CONTINUOUS
10
-0.049508
20
-0.009947
30
0.0
11
-0.052516
21
-0.009947
31
0.0
0
LINE
8
0
6
CONTINUOUS
10
-0.052516
20
-0.009947
30
0.0
11
-0.054407
21
-0.009947
31
0.0
0
LINE
8
0
6
CONTINUOUS
10
-0.055052
20
-0.009947
30
0.0
11
-0.055052
21
-0.010770
31
0.0
0
LINE
8
0
6
CONTINUOUS
10
-0.054407
20
-0.009947
30
0.0
11
-0.055052
21
-0.009947
31
0.0
0
LINE
8
0
6
CONTINUOUS
10
0.054815
20
-0.009947
30
0.0
11
0.054170
21
-0.009947
31
0.0
0
LINE
8
0
6
CONTINUOUS
10
0.054815
20
-0.010770
30
0.0
11
0.054815
21
-0.009947
31
0.0
0
LINE
8
0
6
CONTINUOUS
10
0.054170
20
-0.009947
30
0.0
11
0.052279
21
-0.009947
31
0.0
0
LINE
8
0
6
CONTINUOUS
10
0.052279
20
-0.009947
30
0.0
11
0.049271
21
-0.009947
31
0.0
0
LINE
8
0
6
CONTINUOUS
10
0.049271
20
-0.009947
30
0.0
11
0.045351
21
-0.009947
31
0.0
0
LINE
8
0
6
CONTINUOUS
10
0.045351
20
-0.009947
30
0.0
11
0.040785
21
-0.009947
31
0.0
0
LINE
8
0
6
CONTINUOUS
10
0.040785
20
-0.009947
30
0.0
11
0.035590
21
-0.009947
31
0.0
0
LINE
8
0
6
CONTINUOUS
10
0.035590
20
-0.009947
30
0.0
11
-0.035827
21
-0.009947
31
0.0
0
LINE
8
0
6
CONTINUOUS
10
-0.035827
20
-0.009947
30
0.0
11
-0.041023
21
-0.009947
31
0.0
0
LINE
8
0
6
CONTINUOUS
10
-0.059616
20
-0.009947
30
0.0
11
-0.059616
21
-0.010770
31
0.0
0
LINE
8
0
6
CONTINUOUS
10
-0.058816
20
-0.009947
30
0.0
11
-0.059616
21
-0.009947
31
0.0
0
LINE
8
0
6
CONTINUOUS
10
-0.056469
20
-0.009947
30
0.0
11
-0.058816
21
-0.009947
31
0.0
0
LINE
8
0
6
CONTINUOUS
10
-0.036123
20
-0.009947
30
0.0
11
-0.042204
21
-0.009947
31
0.0
0
LINE
8
0
6
CONTINUOUS
10
-0.052735
20
-0.009947
30
0.0
11
-0.056469
21
-0.009947
31
0.0
0
LINE
8
0
6
CONTINUOUS
10
-0.042204
20
-0.009947
30
0.0
11
-0.047870
21
-0.009947
31
0.0
0
LINE
8
0
6
CONTINUOUS
10
-0.047870
20
-0.009947
30
0.0
11
-0.052735
21
-0.009947
31
0.0
0
LINE
8
0
6
CONTINUOUS
10
0.059379
20
-0.009947
30
0.0
11
0.058579
21
-0.009947
31
0.0
0
LINE
8
0
6
CONTINUOUS
10
0.059379
20
-0.010770
30
0.0
11
0.059379
21
-0.009947
31
0.0
0
LINE
8
0
6
CONTINUOUS
10
0.058579
20
-0.009947
30
0.0
11
0.056232
21
-0.009947
31
0.0
0
LINE
8
0
6
CONTINUOUS
10
0.041967
20
-0.009947
30
0.0
11
0.035886
21
-0.009947
31
0.0
0
LINE
8
0
6
CONTINUOUS
10
0.056232
20
-0.009947
30
0.0
11
0.052498
21
-0.009947
31
0.0
0
LINE
8
0
6
CONTINUOUS
10
0.047633
20
-0.009947
30
0.0
11
0.041967
21
-0.009947
31
0.0
0
LINE
8
0
6
CONTINUOUS
10
0.052498
20
-0.009947
30
0.0
11
0.047633
21
-0.009947
31
0.0
0
LINE
8
0
6
CONTINUOUS
10
-0.062705
20
-0.001256
30
0.0
11
-0.020022
21
-0.001256
31
0.0
0
LINE
8
0
6
CONTINUOUS
10
-0.066532
20
-0.001256
30
0.0
11
-0.062705
21
-0.001256
31
0.0
0
LINE
8
0
6
CONTINUOUS
10
-0.020022
20
0.035053
30
0.0
11
-0.062705
21
0.035053
31
0.0
0
LINE
8
0
6
CONTINUOUS
10
-0.069776
20
-0.001256
30
0.0
11
-0.066532
21
-0.001256
31
0.0
0
LINE
8
0
6
CONTINUOUS
10
-0.062705
20
0.035053
30
0.0
11
-0.066532
21
0.035053
31
0.0
0
LINE
8
0
6
CONTINUOUS
10
-0.071944
20
-0.001256
30
0.0
11
-0.069776
21
-0.001256
31
0.0
0
LINE
8
0
6
CONTINUOUS
10
-0.066532
20
0.035053
30
0.0
11
-0.069776
21
0.035053
31
0.0
0
LINE
8
0
6
CONTINUOUS
10
-0.072705
20
-0.001256
30
0.0
11
-0.071944
21
-0.001256
31
0.0
0
LINE
8
0
6
CONTINUOUS
10
-0.072705
20
0.000437
30
0.0
11
-0.072705
21
-0.001256
31
0.0
0
LINE
8
0
6
CONTINUOUS
10
-0.069776
20
0.035053
30
0.0
11
-0.071944
21
0.035053
31
0.0
0
LINE
8
0
6
CONTINUOUS
10
-0.072705
20
0.033956
30
0.0
11
-0.072705
21
0.000437
31
0.0
0
LINE
8
0
6
CONTINUOUS
10
-0.071944
20
0.035053
30
0.0
11
-0.072705
21
0.035053
31
0.0
0
LINE
8
0
6
CONTINUOUS
10
-0.072705
20
0.035053
30
0.0
11
-0.072705
21
0.033956
31
0.0
0
LINE
8
0
6
CONTINUOUS
10
-0.076566
20
0.035053
30
0.0
11
-0.076524
21
0.033775
31
0.0
0
LINE
8
0
6
CONTINUOUS
10
-0.075805
20
0.035053
30
0.0
11
-0.076566
21
0.035053
31
0.0
0
LINE
8
0
6
CONTINUOUS
10
-0.065908
20
-0.001256
30
0.0
11
-0.020022
21
-0.001256
31
0.0
0
LINE
8
0
6
CONTINUOUS
10
-0.020022
20
-0.001256
30
0.0
11
-0.022212
21
-0.001256
31
0.0
0
LINE
8
0
6
CONTINUOUS
10
-0.073636
20
0.035053
30
0.0
11
-0.075805
21
0.035053
31
0.0
0
LINE
8
0
6
CONTINUOUS
10
-0.076524
20
0.033775
30
0.0
11
-0.075116
21
-0.008405
31
0.0
0
LINE
8
0
6
CONTINUOUS
10
-0.075065
20
-0.009947
30
0.0
11
-0.074594
21
-0.009947
31
0.0
0
LINE
8
0
6
CONTINUOUS
10
-0.074594
20
-0.009947
30
0.0
11
-0.073679
21
-0.009947
31
0.0
0
LINE
8
0
6
CONTINUOUS
10
-0.070390
20
0.035053
30
0.0
11
-0.073636
21
0.035053
31
0.0
0
LINE
8
0
6
CONTINUOUS
10
-0.066561
20
0.035053
30
0.0
11
-0.070390
21
0.035053
31
0.0
0
LINE
8
0
6
CONTINUOUS
10
-0.075065
20
-0.009947
30
0.0
11
-0.074303
21
-0.009947
31
0.0
0
LINE
8
0
6
CONTINUOUS
10
-0.075116
20
-0.008405
30
0.0
11
-0.075065
21
-0.009947
31
0.0
0
LINE
8
0
6
CONTINUOUS
10
-0.068888
20
-0.009947
30
0.0
11
-0.068347
21
-0.009947
31
0.0
0
LINE
8
0
6
CONTINUOUS
10
-0.074303
20
-0.009947
30
0.0
11
-0.072134
21
-0.009947
31
0.0
0
LINE
8
0
6
CONTINUOUS
10
-0.068888
20
-0.009947
30
0.0
11
-0.065059
21
-0.009947
31
0.0
0
LINE
8
0
6
CONTINUOUS
10
-0.072134
20
-0.009947
30
0.0
11
-0.068888
21
-0.009947
31
0.0
0
LINE
8
0
6
CONTINUOUS
10
-0.020022
20
-0.001256
30
0.0
11
-0.021673
21
-0.001256
31
0.0
0
LINE
8
0
6
CONTINUOUS
10
-0.016971
20
-0.001256
30
0.0
11
-0.018371
21
-0.001256
31
0.0
0
LINE
8
0
6
CONTINUOUS
10
-0.021673
20
-0.001256
30
0.0
11
-0.023073
21
-0.001256
31
0.0
0
LINE
8
0
6
CONTINUOUS
10
-0.023073
20
-0.001256
30
0.0
11
-0.024009
21
-0.001256
31
0.0
0
LINE
8
0
6
CONTINUOUS
10
-0.015707
20
-0.001256
30
0.0
11
-0.016035
21
-0.001256
31
0.0
0
LINE
8
0
6
CONTINUOUS
10
-0.015707
20
-0.001728
30
0.0
11
-0.015707
21
-0.001256
31
0.0
0
LINE
8
0
6
CONTINUOUS
10
-0.024337
20
-0.001256
30
0.0
11
-0.024337
21
-0.001727
31
0.0
0
LINE
8
0
6
CONTINUOUS
10
-0.024009
20
-0.001256
30
0.0
11
-0.024337
21
-0.001256
31
0.0
0
LINE
8
0
6
CONTINUOUS
10
-0.000000
20
-0.001256
30
0.0
11
-0.001651
21
-0.001256
31
0.0
0
LINE
8
0
6
CONTINUOUS
10
-0.001651
20
-0.001256
30
0.0
11
-0.003051
21
-0.001256
31
0.0
0
LINE
8
0
6
CONTINUOUS
10
-0.003051
20
-0.001256
30
0.0
11
-0.003987
21
-0.001256
31
0.0
0
LINE
8
0
6
CONTINUOUS
10
-0.004315
20
-0.001256
30
0.0
11
-0.004315
21
-0.001675
31
0.0
0
LINE
8
0
6
CONTINUOUS
10
-0.003987
20
-0.001256
30
0.0
11
-0.004315
21
-0.001256
31
0.0
0
LINE
8
0
6
CONTINUOUS
10
-0.020022
20
-0.001256
30
0.0
11
-0.021673
21
-0.001256
31
0.0
0
LINE
8
0
6
CONTINUOUS
10
-0.016971
20
-0.001256
30
0.0
11
-0.018371
21
-0.001256
31
0.0
0
LINE
8
0
6
CONTINUOUS
10
-0.021673
20
-0.001256
30
0.0
11
-0.023073
21
-0.001256
31
0.0
0
LINE
8
0
6
CONTINUOUS
10
-0.023073
20
-0.001256
30
0.0
11
-0.024009
21
-0.001256
31
0.0
0
LINE
8
0
6
CONTINUOUS
10
-0.015707
20
-0.001256
30
0.0
11
-0.016035
21
-0.001256
31
0.0
0
LINE
8
0
6
CONTINUOUS
10
-0.015707
20
-0.001942
30
0.0
11
-0.015707
21
-0.001256
31
0.0
0
LINE
8
0
6
CONTINUOUS
10
-0.024337
20
-0.001256
30
0.0
11
-0.024337
21
-0.001942
31
0.0
0
LINE
8
0
6
CONTINUOUS
10
-0.024009
20
-0.001256
30
0.0
11
-0.024337
21
-0.001256
31
0.0
0
LINE
8
0
6
CONTINUOUS
10
-0.000000
20
-0.001256
30
0.0
11
-0.001651
21
-0.001256
31
0.0
0
LINE
8
0
6
CONTINUOUS
10
-0.004315
20
-0.001256
30
0.0
11
-0.004315
21
-0.001866
31
0.0
0
LINE
8
0
6
CONTINUOUS
10
-0.003987
20
-0.001256
30
0.0
11
-0.004315
21
-0.001256
31
0.0
0
LINE
8
0
6
CONTINUOUS
10
-0.005721
20
-0.001256
30
0.0
11
-0.014301
21
-0.001256
31
0.0
0
LINE
8
0
6
CONTINUOUS
10
-0.005286
20
-0.001256
30
0.0
11
-0.005721
21
-0.001256
31
0.0
0
LINE
8
0
6
CONTINUOUS
10
-0.014736
20
-0.001256
30
0.0
11
-0.005286
21
-0.001256
31
0.0
0
LINE
8
0
6
CONTINUOUS
10
-0.020022
20
-0.001256
30
0.0
11
-0.022212
21
-0.001256
31
0.0
0
LINE
8
0
6
CONTINUOUS
10
-0.022212
20
-0.001256
30
0.0
11
-0.020022
21
-0.001256
31
0.0
0
LINE
8
0
6
CONTINUOUS
10
-0.018371
20
-0.001256
30
0.0
11
-0.018102
21
-0.001256
31
0.0
0
LINE
8
0
6
CONTINUOUS
10
-0.020022
20
-0.001256
30
0.0
11
-0.018371
21
-0.001256
31
0.0
0
LINE
8
0
6
CONTINUOUS
10
-0.018102
20
-0.001256
30
0.0
11
-0.020022
21
-0.001256
31
0.0
0
LINE
8
0
6
CONTINUOUS
10
-0.016035
20
-0.001256
30
0.0
11
-0.015386
21
-0.001256
31
0.0
0
LINE
8
0
6
CONTINUOUS
10
-0.016971
20
-0.001256
30
0.0
11
-0.016035
21
-0.001256
31
0.0
0
LINE
8
0
6
CONTINUOUS
10
-0.016474
20
-0.001256
30
0.0
11
-0.016971
21
-0.001256
31
0.0
0
LINE
8
0
6
CONTINUOUS
10
-0.001651
20
-0.001256
30
0.0
11
-0.003051
21
-0.001256
31
0.0
0
LINE
8
0
6
CONTINUOUS
10
-0.001920
20
-0.001256
30
0.0
11
-0.001651
21
-0.001256
31
0.0
0
LINE
8
0
6
CONTINUOUS
10
-0.003548
20
-0.001256
30
0.0
11
-0.001920
21
-0.001256
31
0.0
0
LINE
8
0
6
CONTINUOUS
10
-0.003987
20
-0.001256
30
0.0
11
-0.004636
21
-0.001256
31
0.0
0
LINE
8
0
6
CONTINUOUS
10
-0.003051
20
-0.001256
30
0.0
11
-0.003987
21
-0.001256
31
0.0
0
LINE
8
0
6
CONTINUOUS
10
-0.021673
20
-0.001256
30
0.0
11
-0.023073
21
-0.001256
31
0.0
0
LINE
8
0
6
CONTINUOUS
10
-0.021943
20
-0.001256
30
0.0
11
-0.021673
21
-0.001256
31
0.0
0
LINE
8
0
6
CONTINUOUS
10
-0.023655
20
-0.001256
30
0.0
11
-0.021943
21
-0.001256
31
0.0
0
LINE
8
0
6
CONTINUOUS
10
-0.023073
20
-0.001256
30
0.0
11
-0.024009
21
-0.001256
31
0.0
0
LINE
8
0
6
CONTINUOUS
10
-0.024658
20
-0.001256
30
0.0
11
-0.023655
21
-0.001256
31
0.0
0
LINE
8
0
6
CONTINUOUS
10
-0.024337
20
-0.001256
30
0.0
11
-0.025040
21
-0.001256
31
0.0
0
LINE
8
0
6
CONTINUOUS
10
-0.024009
20
-0.001256
30
0.0
11
-0.024337
21
-0.001256
31
0.0
0
LINE
8
0
6
CONTINUOUS
10
-0.018371
20
-0.001256
30
0.0
11
-0.018102
21
-0.001256
31
0.0
0
LINE
8
0
6
CONTINUOUS
10
-0.020022
20
-0.001256
30
0.0
11
-0.018371
21
-0.001256
31
0.0
0
LINE
8
0
6
CONTINUOUS
10
-0.018102
20
-0.001256
30
0.0
11
-0.020022
21
-0.001256
31
0.0
0
LINE
8
0
6
CONTINUOUS
10
-0.016035
20
-0.001256
30
0.0
11
-0.015386
21
-0.001256
31
0.0
0
LINE
8
0
6
CONTINUOUS
10
-0.016971
20
-0.001256
30
0.0
11
-0.016035
21
-0.001256
31
0.0
0
LINE
8
0
6
CONTINUOUS
10
-0.016474
20
-0.001256
30
0.0
11
-0.016971
21
-0.001256
31
0.0
0
LINE
8
0
6
CONTINUOUS
10
-0.003987
20
-0.001256
30
0.0
11
-0.003051
21
-0.001256
31
0.0
0
LINE
8
0
6
CONTINUOUS
10
-0.004636
20
-0.001256
30
0.0
11
-0.003987
21
-0.001256
31
0.0
0
LINE
8
0
6
CONTINUOUS
10
-0.003548
20
-0.001256
30
0.0
11
-0.004636
21
-0.001256
31
0.0
0
LINE
8
0
6
CONTINUOUS
10
-0.001651
20
-0.001256
30
0.0
11
-0.001920
21
-0.001256
31
0.0
0
LINE
8
0
6
CONTINUOUS
10
-0.003051
20
-0.001256
30
0.0
11
-0.001651
21
-0.001256
31
0.0
0
LINE
8
0
6
CONTINUOUS
10
-0.001920
20
-0.001256
30
0.0
11
-0.003548
21
-0.001256
31
0.0
0
LINE
8
0
6
CONTINUOUS
10
-0.001651
20
-0.001256
30
0.0
11
-0.003051
21
-0.001256
31
0.0
0
LINE
8
0
6
CONTINUOUS
10
-0.001920
20
-0.001256
30
0.0
11
-0.001651
21
-0.001256
31
0.0
0
LINE
8
0
6
CONTINUOUS
10
-0.003548
20
-0.001256
30
0.0
11
-0.001920
21
-0.001256
31
0.0
0
LINE
8
0
6
CONTINUOUS
10
-0.003987
20
-0.001256
30
0.0
11
-0.004636
21
-0.001256
31
0.0
0
LINE
8
0
6
CONTINUOUS
10
-0.003051
20
-0.001256
30
0.0
11
-0.003987
21
-0.001256
31
0.0
0
LINE
8
0
6
CONTINUOUS
10
-0.004636
20
-0.001256
30
0.0
11
-0.003548
21
-0.001256
31
0.0
0
LINE
8
0
6
CONTINUOUS
10
-0.016035
20
-0.001256
30
0.0
11
-0.016971
21
-0.001256
31
0.0
0
LINE
8
0
6
CONTINUOUS
10
-0.015386
20
-0.001256
30
0.0
11
-0.016035
21
-0.001256
31
0.0
0
LINE
8
0
6
CONTINUOUS
10
-0.018371
20
-0.001256
30
0.0
11
-0.018102
21
-0.001256
31
0.0
0
LINE
8
0
6
CONTINUOUS
10
-0.016971
20
-0.001256
30
0.0
11
-0.018371
21
-0.001256
31
0.0
0
LINE
8
0
6
CONTINUOUS
10
-0.018102
20
-0.001256
30
0.0
11
-0.016474
21
-0.001256
31
0.0
0
LINE
8
0
6
CONTINUOUS
10
-0.021673
20
-0.001256
30
0.0
11
-0.023073
21
-0.001256
31
0.0
0
LINE
8
0
6
CONTINUOUS
10
-0.021942
20
-0.001256
30
0.0
11
-0.021673
21
-0.001256
31
0.0
0
LINE
8
0
6
CONTINUOUS
10
-0.023571
20
-0.001256
30
0.0
11
-0.021942
21
-0.001256
31
0.0
0
LINE
8
0
6
CONTINUOUS
10
-0.024009
20
-0.001256
30
0.0
11
-0.024658
21
-0.001256
31
0.0
0
LINE
8
0
6
CONTINUOUS
10
-0.023073
20
-0.001256
30
0.0
11
-0.024009
21
-0.001256
31
0.0
0
LINE
8
0
6
CONTINUOUS
10
-0.015386
20
-0.001256
30
0.0
11
-0.014736
21
-0.001256
31
0.0
0
LINE
8
0
6
CONTINUOUS
10
-0.015976
20
-0.001256
30
0.0
11
-0.016474
21
-0.001256
31
0.0
0
LINE
8
0
6
CONTINUOUS
10
-0.004636
20
-0.001256
30
0.0
11
-0.005286
21
-0.001256
31
0.0
0
LINE
8
0
6
CONTINUOUS
10
-0.004046
20
-0.001256
30
0.0
11
-0.003548
21
-0.001256
31
0.0
0
LINE
8
0
6
CONTINUOUS
10
-0.005286
20
-0.001256
30
0.0
11
-0.004046
21
-0.001256
31
0.0
0
LINE
8
0
6
CONTINUOUS
10
-0.025040
20
-0.001256
30
0.0
11
-0.025744
21
-0.001256
31
0.0
0
LINE
8
0
6
CONTINUOUS
10
-0.025309
20
-0.001256
30
0.0
11
-0.024658
21
-0.001256
31
0.0
0
LINE
8
0
6
CONTINUOUS
10
-0.015386
20
-0.001256
30
0.0
11
-0.014736
21
-0.001256
31
0.0
0
LINE
8
0
6
CONTINUOUS
10
-0.015976
20
-0.001256
30
0.0
11
-0.016474
21
-0.001256
31
0.0
0
LINE
8
0
6
CONTINUOUS
10
-0.015004
20
-0.001256
30
0.0
11
-0.015386
21
-0.001256
31
0.0
0
LINE
8
0
6
CONTINUOUS
10
-0.014301
20
-0.001256
30
0.0
11
-0.015004
21
-0.001256
31
0.0
0
LINE
8
0
6
CONTINUOUS
10
-0.016474
20
-0.001256
30
0.0
11
-0.015976
21
-0.001256
31
0.0
0
LINE
8
0
6
CONTINUOUS
10
-0.015976
20
-0.001256
30
0.0
11
-0.014736
21
-0.001256
31
0.0
0
LINE
8
0
6
CONTINUOUS
10
-0.024068
20
-0.001256
30
0.0
11
-0.023571
21
-0.001256
31
0.0
0
LINE
8
0
6
CONTINUOUS
10
-0.025308
20
-0.001256
30
0.0
11
-0.024068
21
-0.001256
31
0.0
0
LINE
8
0
6
CONTINUOUS
10
-0.025040
20
-0.001256
30
0.0
11
-0.025744
21
-0.001256
31
0.0
0
LINE
8
0
6
CONTINUOUS
10
-0.024658
20
-0.001256
30
0.0
11
-0.025040
21
-0.001256
31
0.0
0
LINE
8
0
6
CONTINUOUS
10
-0.025744
20
-0.001256
30
0.0
11
-0.025308
21
-0.001256
31
0.0
0
LINE
8
0
6
CONTINUOUS
10
-0.024337
20
-0.009536
30
0.0
11
-0.024337
21
-0.009947
31
0.0
0
LINE
8
0
6
CONTINUOUS
10
-0.024337
20
-0.009947
30
0.0
11
-0.024009
21
-0.009947
31
0.0
0
LINE
8
0
6
CONTINUOUS
10
-0.015707
20
-0.009947
30
0.0
11
-0.015707
21
-0.009536
31
0.0
0
LINE
8
0
6
CONTINUOUS
10
-0.016035
20
-0.009947
30
0.0
11
-0.015707
21
-0.009947
31
0.0
0
LINE
8
0
6
CONTINUOUS
10
-0.024009
20
-0.009947
30
0.0
11
-0.023073
21
-0.009947
31
0.0
0
LINE
8
0
6
CONTINUOUS
10
-0.023073
20
-0.009947
30
0.0
11
-0.021673
21
-0.009947
31
0.0
0
LINE
8
0
6
CONTINUOUS
10
-0.018371
20
-0.009947
30
0.0
11
-0.016971
21
-0.009947
31
0.0
0
LINE
8
0
6
CONTINUOUS
10
-0.021673
20
-0.009947
30
0.0
11
-0.020022
21
-0.009947
31
0.0
0
LINE
8
0
6
CONTINUOUS
10
-0.020022
20
-0.009947
30
0.0
11
-0.018371
21
-0.009947
31
0.0
0
LINE
8
0
6
CONTINUOUS
10
-0.024337
20
-0.009547
30
0.0
11
-0.024337
21
-0.009947
31
0.0
0
LINE
8
0
6
CONTINUOUS
10
-0.024337
20
-0.009947
30
0.0
11
-0.024009
21
-0.009947
31
0.0
0
LINE
8
0
6
CONTINUOUS
10
-0.015707
20
-0.009947
30
0.0
11
-0.015707
21
-0.009547
31
0.0
0
LINE
8
0
6
CONTINUOUS
10
-0.016035
20
-0.009947
30
0.0
11
-0.015707
21
-0.009947
31
0.0
0
LINE
8
0
6
CONTINUOUS
10
-0.024009
20
-0.009947
30
0.0
11
-0.023073
21
-0.009947
31
0.0
0
LINE
8
0
6
CONTINUOUS
10
-0.023073
20
-0.009947
30
0.0
11
-0.021673
21
-0.009947
31
0.0
0
LINE
8
0
6
CONTINUOUS
10
-0.018371
20
-0.009947
30
0.0
11
-0.016971
21
-0.009947
31
0.0
0
LINE
8
0
6
CONTINUOUS
10
-0.021673
20
-0.009947
30
0.0
11
-0.020022
21
-0.009947
31
0.0
0
LINE
8
0
6
CONTINUOUS
10
0.003987
20
-0.009947
30
0.0
11
0.004315
21
-0.009947
31
0.0
0
LINE
8
0
6
CONTINUOUS
10
0.004315
20
-0.009947
30
0.0
11
0.004315
21
-0.009533
31
0.0
0
LINE
8
0
6
CONTINUOUS
10
0.003051
20
-0.009947
30
0.0
11
0.003987
21
-0.009947
31
0.0
0
LINE
8
0
6
CONTINUOUS
10
0.001651
20
-0.009947
30
0.0
11
0.003051
21
-0.009947
31
0.0
0
LINE
8
0
6
CONTINUOUS
10
-0.000000
20
-0.009947
30
0.0
11
0.001651
21
-0.009947
31
0.0
0
LINE
8
0
6
CONTINUOUS
10
-0.004315
20
-0.009533
30
0.0
11
-0.004315
21
-0.009947
31
0.0
0
LINE
8
0
6
CONTINUOUS
10
-0.004315
20
-0.009947
30
0.0
11
-0.003987
21
-0.009947
31
0.0
0
LINE
8
0
6
CONTINUOUS
10
-0.003987
20
-0.009947
30
0.0
11
-0.003051
21
-0.009947
31
0.0
0
LINE
8
0
6
CONTINUOUS
10
-0.003051
20
-0.009947
30
0.0
11
-0.001651
21
-0.009947
31
0.0
0
LINE
8
0
6
CONTINUOUS
10
-0.001651
20
-0.009947
30
0.0
11
-0.000000
21
-0.009947
31
0.0
0
LINE
8
0
6
CONTINUOUS
10
0.000000
20
-0.001256
30
0.0
11
-0.002190
21
-0.001256
31
0.0
0
LINE
8
0
6
CONTINUOUS
10
-0.002189
20
-0.001256
30
0.0
11
0.000000
21
-0.001256
31
0.0
0
LINE
8
0
6
CONTINUOUS
10
-0.004046
20
-0.001256
30
0.0
11
-0.015976
21
-0.001256
31
0.0
0
LINE
8
0
6
CONTINUOUS
10
-0.005286
20
-0.001256
30
0.0
11
-0.004046
21
-0.001256
31
0.0
0
LINE
8
0
6
CONTINUOUS
10
-0.014736
20
-0.001256
30
0.0
11
-0.005286
21
-0.001256
31
0.0
0
LINE
8
0
6
CONTINUOUS
10
-0.017833
20
-0.001256
30
0.0
11
-0.020022
21
-0.001256
31
0.0
0
LINE
8
0
6
CONTINUOUS
10
-0.020022
20
-0.001256
30
0.0
11
-0.017833
21
-0.001256
31
0.0
0
LINE
8
0
6
CONTINUOUS
10
-0.005286
20
-0.001256
30
0.0
11
-0.004046
21
-0.001256
31
0.0
0
LINE
8
0
6
CONTINUOUS
10
-0.014736
20
-0.001256
30
0.0
11
-0.005286
21
-0.001256
31
0.0
0
LINE
8
0
6
CONTINUOUS
10
-0.004046
20
-0.001256
30
0.0
11
-0.015976
21
-0.001256
31
0.0
0
LINE
8
0
6
CONTINUOUS
10
-0.000000
20
0.035053
30
0.0
11
-0.002190
21
0.035053
31
0.0
0
LINE
8
0
6
CONTINUOUS
10
-0.002189
20
-0.009947
30
0.0
11
0.000000
21
-0.009947
31
0.0
0
LINE
8
0
6
CONTINUOUS
10
-0.017833
20
0.035053
30
0.0
11
-0.020022
21
0.035053
31
0.0
0
LINE
8
0
6
CONTINUOUS
10
-0.020022
20
0.035053
30
0.0
11
-0.066561
21
0.035053
31
0.0
0
LINE
8
0
6
CONTINUOUS
10
-0.020022
20
-0.001256
30
0.0
11
-0.017833
21
-0.001256
31
0.0
0
LINE
8
0
6
CONTINUOUS
10
-0.017833
20
-0.001256
30
0.0
11
-0.020022
21
-0.001256
31
0.0
0
LINE
8
0
6
CONTINUOUS
10
-0.067804
20
-0.001256
30
0.0
11
-0.065908
21
-0.001256
31
0.0
0
LINE
8
0
6
CONTINUOUS
10
-0.024237
20
-0.001256
30
0.0
11
-0.067804
21
-0.001256
31
0.0
0
LINE
8
0
6
CONTINUOUS
10
-0.022212
20
-0.001256
30
0.0
11
-0.024237
21
-0.001256
31
0.0
0
LINE
8
0
6
CONTINUOUS
10
-0.065059
20
-0.009947
30
0.0
11
-0.020022
21
-0.009947
31
0.0
0
LINE
8
0
6
CONTINUOUS
10
-0.069565
20
-0.001256
30
0.0
11
-0.068690
21
-0.001256
31
0.0
0
LINE
8
0
6
CONTINUOUS
10
-0.025744
20
-0.001256
30
0.0
11
-0.069565
21
-0.001256
31
0.0
0
LINE
8
0
6
CONTINUOUS
10
-0.068690
20
-0.001256
30
0.0
11
-0.025309
21
-0.001256
31
0.0
0
LINE
8
0
6
CONTINUOUS
10
-0.020022
20
-0.001256
30
0.0
11
-0.017833
21
-0.001256
31
0.0
0
LINE
8
0
6
CONTINUOUS
10
-0.017833
20
0.035053
30
0.0
11
-0.020022
21
0.035053
31
0.0
0
LINE
8
0
6
CONTINUOUS
10
-0.020022
20
-0.009947
30
0.0
11
-0.017832
21
-0.009947
31
0.0
0
LINE
8
0
6
CONTINUOUS
10
-0.002190
20
0.035053
30
0.0
11
-0.017833
21
0.035053
31
0.0
0
LINE
8
0
6
CONTINUOUS
10
-0.017832
20
-0.009947
30
0.0
11
-0.002189
21
-0.009947
31
0.0
0
LINE
8
0
6
CONTINUOUS
10
-0.017833
20
-0.001256
30
0.0
11
-0.002190
21
-0.001256
31
0.0
0
LINE
8
0
6
CONTINUOUS
10
-0.002189
20
0.035053
30
0.0
11
-0.017833
21
0.035053
31
0.0
0
LINE
8
0
6
CONTINUOUS
10
-0.002190
20
-0.001256
30
0.0
11
0.000000
21
-0.001256
31
0.0
0
LINE
8
0
6
CONTINUOUS
10
0.000000
20
0.035053
30
0.0
11
-0.002189
21
0.035053
31
0.0
0
LINE
8
0
6
CONTINUOUS
10
-0.073679
20
-0.009947
30
0.0
11
-0.075065
21
-0.009947
31
0.0
0
LINE
8
0
6
CONTINUOUS
10
0.020022
20
-0.001256
30
0.0
11
0.062705
21
-0.001256
31
0.0
0
LINE
8
0
6
CONTINUOUS
10
0.062705
20
-0.001256
30
0.0
11
0.066532
21
-0.001256
31
0.0
0
LINE
8
0
6
CONTINUOUS
10
0.062705
20
0.035053
30
0.0
11
0.020022
21
0.035053
31
0.0
0
LINE
8
0
6
CONTINUOUS
10
0.066532
20
-0.001256
30
0.0
11
0.069776
21
-0.001256
31
0.0
0
LINE
8
0
6
CONTINUOUS
10
0.066532
20
0.035053
30
0.0
11
0.062705
21
0.035053
31
0.0
0
LINE
8
0
6
CONTINUOUS
10
0.069776
20
-0.001256
30
0.0
11
0.071944
21
-0.001256
31
0.0
0
LINE
8
0
6
CONTINUOUS
10
0.069776
20
0.035053
30
0.0
11
0.066532
21
0.035053
31
0.0
0
LINE
8
0
6
CONTINUOUS
10
0.072705
20
-0.001256
30
0.0
11
0.072705
21
0.000437
31
0.0
0
LINE
8
0
6
CONTINUOUS
10
0.071944
20
-0.001256
30
0.0
11
0.072705
21
-0.001256
31
0.0
0
LINE
8
0
6
CONTINUOUS
10
0.071944
20
0.035053
30
0.0
11
0.069776
21
0.035053
31
0.0
0
LINE
8
0
6
CONTINUOUS
10
0.072705
20
0.000437
30
0.0
11
0.072705
21
0.033956
31
0.0
0
LINE
8
0
6
CONTINUOUS
10
0.072705
20
0.033956
30
0.0
11
0.072705
21
0.035053
31
0.0
0
LINE
8
0
6
CONTINUOUS
10
0.072705
20
0.035053
30
0.0
11
0.071944
21
0.035053
31
0.0
0
LINE
8
0
6
CONTINUOUS
10
0.076566
20
0.035053
30
0.0
11
0.075805
21
0.035053
31
0.0
0
LINE
8
0
6
CONTINUOUS
10
0.076524
20
0.033775
30
0.0
11
0.076566
21
0.035053
31
0.0
0
LINE
8
0
6
CONTINUOUS
10
0.022212
20
-0.001256
30
0.0
11
0.020022
21
-0.001256
31
0.0
0
LINE
8
0
6
CONTINUOUS
10
0.020022
20
-0.001256
30
0.0
11
0.065908
21
-0.001256
31
0.0
0
LINE
8
0
6
CONTINUOUS
10
0.075805
20
0.035053
30
0.0
11
0.073636
21
0.035053
31
0.0
0
LINE
8
0
6
CONTINUOUS
10
0.075116
20
-0.008405
30
0.0
11
0.076524
21
0.033775
31
0.0
0
LINE
8
0
6
CONTINUOUS
10
0.073679
20
-0.009947
30
0.0
11
0.074594
21
-0.009947
31
0.0
0
LINE
8
0
6
CONTINUOUS
10
0.074594
20
-0.009947
30
0.0
11
0.075065
21
-0.009947
31
0.0
0
LINE
8
0
6
CONTINUOUS
10
0.073636
20
0.035053
30
0.0
11
0.070390
21
0.035053
31
0.0
0
LINE
8
0
6
CONTINUOUS
10
0.070390
20
0.035053
30
0.0
11
0.066561
21
0.035053
31
0.0
0
LINE
8
0
6
CONTINUOUS
10
0.075065
20
-0.009947
30
0.0
11
0.075116
21
-0.008405
31
0.0
0
LINE
8
0
6
CONTINUOUS
10
0.074303
20
-0.009947
30
0.0
11
0.075065
21
-0.009947
31
0.0
0
LINE
8
0
6
CONTINUOUS
10
0.068347
20
-0.009947
30
0.0
11
0.068888
21
-0.009947
31
0.0
0
LINE
8
0
6
CONTINUOUS
10
0.072134
20
-0.009947
30
0.0
11
0.074303
21
-0.009947
31
0.0
0
LINE
8
0
6
CONTINUOUS
10
0.065059
20
-0.009947
30
0.0
11
0.068888
21
-0.009947
31
0.0
0
LINE
8
0
6
CONTINUOUS
10
0.068888
20
-0.009947
30
0.0
11
0.072134
21
-0.009947
31
0.0
0
LINE
8
0
6
CONTINUOUS
10
0.021673
20
-0.001256
30
0.0
11
0.020022
21
-0.001256
31
0.0
0
LINE
8
0
6
CONTINUOUS
10
0.018371
20
-0.001256
30
0.0
11
0.016971
21
-0.001256
31
0.0
0
LINE
8
0
6
CONTINUOUS
10
0.023073
20
-0.001256
30
0.0
11
0.021673
21
-0.001256
31
0.0
0
LINE
8
0
6
CONTINUOUS
10
0.024009
20
-0.001256
30
0.0
11
0.023073
21
-0.001256
31
0.0
0
LINE
8
0
6
CONTINUOUS
10
0.015707
20
-0.001256
30
0.0
11
0.015707
21
-0.001728
31
0.0
0
LINE
8
0
6
CONTINUOUS
10
0.016035
20
-0.001256
30
0.0
11
0.015707
21
-0.001256
31
0.0
0
LINE
8
0
6
CONTINUOUS
10
0.024337
20
-0.001256
30
0.0
11
0.024009
21
-0.001256
31
0.0
0
LINE
8
0
6
CONTINUOUS
10
0.024337
20
-0.001727
30
0.0
11
0.024337
21
-0.001256
31
0.0
0
LINE
8
0
6
CONTINUOUS
10
0.001651
20
-0.001256
30
0.0
11
-0.000000
21
-0.001256
31
0.0
0
LINE
8
0
6
CONTINUOUS
10
0.003051
20
-0.001256
30
0.0
11
0.001651
21
-0.001256
31
0.0
0
LINE
8
0
6
CONTINUOUS
10
0.003987
20
-0.001256
30
0.0
11
0.003051
21
-0.001256
31
0.0
0
LINE
8
0
6
CONTINUOUS
10
0.004315
20
-0.001256
30
0.0
11
0.003987
21
-0.001256
31
0.0
0
LINE
8
0
6
CONTINUOUS
10
0.004315
20
-0.001675
30
0.0
11
0.004315
21
-0.001256
31
0.0
0
LINE
8
0
6
CONTINUOUS
10
0.021673
20
-0.001256
30
0.0
11
0.020022
21
-0.001256
31
0.0
0
LINE
8
0
6
CONTINUOUS
10
0.018371
20
-0.001256
30
0.0
11
0.016971
21
-0.001256
31
0.0
0
LINE
8
0
6
CONTINUOUS
10
0.023073
20
-0.001256
30
0.0
11
0.021673
21
-0.001256
31
0.0
0
LINE
8
0
6
CONTINUOUS
10
0.024009
20
-0.001256
30
0.0
11
0.023073
21
-0.001256
31
0.0
0
LINE
8
0
6
CONTINUOUS
10
0.015707
20
-0.001256
30
0.0
11
0.015707
21
-0.001942
31
0.0
0
LINE
8
0
6
CONTINUOUS
10
0.016035
20
-0.001256
30
0.0
11
0.015707
21
-0.001256
31
0.0
0
LINE
8
0
6
CONTINUOUS
10
0.024337
20
-0.001256
30
0.0
11
0.024009
21
-0.001256
31
0.0
0
LINE
8
0
6
CONTINUOUS
10
0.024337
20
-0.001942
30
0.0
11
0.024337
21
-0.001256
31
0.0
0
LINE
8
0
6
CONTINUOUS
10
0.001651
20
-0.001256
30
0.0
11
-0.000000
21
-0.001256
31
0.0
0
LINE
8
0
6
CONTINUOUS
10
0.004315
20
-0.001256
30
0.0
11
0.003987
21
-0.001256
31
0.0
0
LINE
8
0
6
CONTINUOUS
10
0.004315
20
-0.001866
30
0.0
11
0.004315
21
-0.001256
31
0.0
0
LINE
8
0
6
CONTINUOUS
10
0.005286
20
-0.001256
30
0.0
11
0.014736
21
-0.001256
31
0.0
0
LINE
8
0
6
CONTINUOUS
10
0.005721
20
-0.001256
30
0.0
11
0.005286
21
-0.001256
31
0.0
0
LINE
8
0
6
CONTINUOUS
10
0.014301
20
-0.001256
30
0.0
11
0.005721
21
-0.001256
31
0.0
0
LINE
8
0
6
CONTINUOUS
10
0.020022
20
-0.001256
30
0.0
11
0.022212
21
-0.001256
31
0.0
0
LINE
8
0
6
CONTINUOUS
10
0.022212
20
-0.001256
30
0.0
11
0.020022
21
-0.001256
31
0.0
0
LINE
8
0
6
CONTINUOUS
10
0.020022
20
-0.001256
30
0.0
11
0.018102
21
-0.001256
31
0.0
0
LINE
8
0
6
CONTINUOUS
10
0.018371
20
-0.001256
30
0.0
11
0.020022
21
-0.001256
31
0.0
0
LINE
8
0
6
CONTINUOUS
10
0.018102
20
-0.001256
30
0.0
11
0.018371
21
-0.001256
31
0.0
0
LINE
8
0
6
CONTINUOUS
10
0.016971
20
-0.001256
30
0.0
11
0.016474
21
-0.001256
31
0.0
0
LINE
8
0
6
CONTINUOUS
10
0.016035
20
-0.001256
30
0.0
11
0.016971
21
-0.001256
31
0.0
0
LINE
8
0
6
CONTINUOUS
10
0.015386
20
-0.001256
30
0.0
11
0.016035
21
-0.001256
31
0.0
0
LINE
8
0
6
CONTINUOUS
10
0.001920
20
-0.001256
30
0.0
11
0.003548
21
-0.001256
31
0.0
0
LINE
8
0
6
CONTINUOUS
10
0.001651
20
-0.001256
30
0.0
11
0.001920
21
-0.001256
31
0.0
0
LINE
8
0
6
CONTINUOUS
10
0.003051
20
-0.001256
30
0.0
11
0.001651
21
-0.001256
31
0.0
0
LINE
8
0
6
CONTINUOUS
10
0.003987
20
-0.001256
30
0.0
11
0.003051
21
-0.001256
31
0.0
0
LINE
8
0
6
CONTINUOUS
10
0.004636
20
-0.001256
30
0.0
11
0.003987
21
-0.001256
31
0.0
0
LINE
8
0
6
CONTINUOUS
10
0.021942
20
-0.001256
30
0.0
11
0.023655
21
-0.001256
31
0.0
0
LINE
8
0
6
CONTINUOUS
10
0.021673
20
-0.001256
30
0.0
11
0.021942
21
-0.001256
31
0.0
0
LINE
8
0
6
CONTINUOUS
10
0.023073
20
-0.001256
30
0.0
11
0.021673
21
-0.001256
31
0.0
0
LINE
8
0
6
CONTINUOUS
10
0.023655
20
-0.001256
30
0.0
11
0.024658
21
-0.001256
31
0.0
0
LINE
8
0
6
CONTINUOUS
10
0.024009
20
-0.001256
30
0.0
11
0.023073
21
-0.001256
31
0.0
0
LINE
8
0
6
CONTINUOUS
10
0.024337
20
-0.001256
30
0.0
11
0.024009
21
-0.001256
31
0.0
0
LINE
8
0
6
CONTINUOUS
10
0.025040
20
-0.001256
30
0.0
11
0.024337
21
-0.001256
31
0.0
0
LINE
8
0
6
CONTINUOUS
10
0.020022
20
-0.001256
30
0.0
11
0.018102
21
-0.001256
31
0.0
0
LINE
8
0
6
CONTINUOUS
10
0.018371
20
-0.001256
30
0.0
11
0.020022
21
-0.001256
31
0.0
0
LINE
8
0
6
CONTINUOUS
10
0.018102
20
-0.001256
30
0.0
11
0.018371
21
-0.001256
31
0.0
0
LINE
8
0
6
CONTINUOUS
10
0.016971
20
-0.001256
30
0.0
11
0.016474
21
-0.001256
31
0.0
0
LINE
8
0
6
CONTINUOUS
10
0.016035
20
-0.001256
30
0.0
11
0.016971
21
-0.001256
31
0.0
0
LINE
8
0
6
CONTINUOUS
10
0.015386
20
-0.001256
30
0.0
11
0.016035
21
-0.001256
31
0.0
0
LINE
8
0
6
CONTINUOUS
10
0.004636
20
-0.001256
30
0.0
11
0.003548
21
-0.001256
31
0.0
0
LINE
8
0
6
CONTINUOUS
10
0.003987
20
-0.001256
30
0.0
11
0.004636
21
-0.001256
31
0.0
0
LINE
8
0
6
CONTINUOUS
10
0.003051
20
-0.001256
30
0.0
11
0.003987
21
-0.001256
31
0.0
0
LINE
8
0
6
CONTINUOUS
10
0.003548
20
-0.001256
30
0.0
11
0.001920
21
-0.001256
31
0.0
0
LINE
8
0
6
CONTINUOUS
10
0.001651
20
-0.001256
30
0.0
11
0.003051
21
-0.001256
31
0.0
0
LINE
8
0
6
CONTINUOUS
10
0.001920
20
-0.001256
30
0.0
11
0.001651
21
-0.001256
31
0.0
0
LINE
8
0
6
CONTINUOUS
10
0.001920
20
-0.001256
30
0.0
11
0.003548
21
-0.001256
31
0.0
0
LINE
8
0
6
CONTINUOUS
10
0.001651
20
-0.001256
30
0.0
11
0.001920
21
-0.001256
31
0.0
0
LINE
8
0
6
CONTINUOUS
10
0.003051
20
-0.001256
30
0.0
11
0.001651
21
-0.001256
31
0.0
0
LINE
8
0
6
CONTINUOUS
10
0.003548
20
-0.001256
30
0.0
11
0.004636
21
-0.001256
31
0.0
0
LINE
8
0
6
CONTINUOUS
10
0.003987
20
-0.001256
30
0.0
11
0.003051
21
-0.001256
31
0.0
0
LINE
8
0
6
CONTINUOUS
10
0.004636
20
-0.001256
30
0.0
11
0.003987
21
-0.001256
31
0.0
0
LINE
8
0
6
CONTINUOUS
10
0.016035
20
-0.001256
30
0.0
11
0.015386
21
-0.001256
31
0.0
0
LINE
8
0
6
CONTINUOUS
10
0.016971
20
-0.001256
30
0.0
11
0.016035
21
-0.001256
31
0.0
0
LINE
8
0
6
CONTINUOUS
10
0.016474
20
-0.001256
30
0.0
11
0.018102
21
-0.001256
31
0.0
0
LINE
8
0
6
CONTINUOUS
10
0.018371
20
-0.001256
30
0.0
11
0.016971
21
-0.001256
31
0.0
0
LINE
8
0
6
CONTINUOUS
10
0.018102
20
-0.001256
30
0.0
11
0.018371
21
-0.001256
31
0.0
0
LINE
8
0
6
CONTINUOUS
10
0.021942
20
-0.001256
30
0.0
11
0.023571
21
-0.001256
31
0.0
0
LINE
8
0
6
CONTINUOUS
10
0.021673
20
-0.001256
30
0.0
11
0.021942
21
-0.001256
31
0.0
0
LINE
8
0
6
CONTINUOUS
10
0.023073
20
-0.001256
30
0.0
11
0.021673
21
-0.001256
31
0.0
0
LINE
8
0
6
CONTINUOUS
10
0.024009
20
-0.001256
30
0.0
11
0.023073
21
-0.001256
31
0.0
0
LINE
8
0
6
CONTINUOUS
10
0.024658
20
-0.001256
30
0.0
11
0.024009
21
-0.001256
31
0.0
0
LINE
8
0
6
CONTINUOUS
10
0.016474
20
-0.001256
30
0.0
11
0.015976
21
-0.001256
31
0.0
0
LINE
8
0
6
CONTINUOUS
10
0.014736
20
-0.001256
30
0.0
11
0.015386
21
-0.001256
31
0.0
0
LINE
8
0
6
CONTINUOUS
10
0.004046
20
-0.001256
30
0.0
11
0.005286
21
-0.001256
31
0.0
0
LINE
8
0
6
CONTINUOUS
10
0.003548
20
-0.001256
30
0.0
11
0.004046
21
-0.001256
31
0.0
0
LINE
8
0
6
CONTINUOUS
10
0.005286
20
-0.001256
30
0.0
11
0.004636
21
-0.001256
31
0.0
0
LINE
8
0
6
CONTINUOUS
10
0.024658
20
-0.001256
30
0.0
11
0.025309
21
-0.001256
31
0.0
0
LINE
8
0
6
CONTINUOUS
10
0.025744
20
-0.001256
30
0.0
11
0.025040
21
-0.001256
31
0.0
0
LINE
8
0
6
CONTINUOUS
10
0.016474
20
-0.001256
30
0.0
11
0.015976
21
-0.001256
31
0.0
0
LINE
8
0
6
CONTINUOUS
10
0.014736
20
-0.001256
30
0.0
11
0.015386
21
-0.001256
31
0.0
0
LINE
8
0
6
CONTINUOUS
10
0.015004
20
-0.001256
30
0.0
11
0.014301
21
-0.001256
31
0.0
0
LINE
8
0
6
CONTINUOUS
10
0.015386
20
-0.001256
30
0.0
11
0.015004
21
-0.001256
31
0.0
0
LINE
8
0
6
CONTINUOUS
10
0.014736
20
-0.001256
30
0.0
11
0.015976
21
-0.001256
31
0.0
0
LINE
8
0
6
CONTINUOUS
10
0.015976
20
-0.001256
30
0.0
11
0.016474
21
-0.001256
31
0.0
0
LINE
8
0
6
CONTINUOUS
10
0.024068
20
-0.001256
30
0.0
11
0.025308
21
-0.001256
31
0.0
0
LINE
8
0
6
CONTINUOUS
10
0.023571
20
-0.001256
30
0.0
11
0.024068
21
-0.001256
31
0.0
0
LINE
8
0
6
CONTINUOUS
10
0.025308
20
-0.001256
30
0.0
11
0.025744
21
-0.001256
31
0.0
0
LINE
8
0
6
CONTINUOUS
10
0.025040
20
-0.001256
30
0.0
11
0.024658
21
-0.001256
31
0.0
0
LINE
8
0
6
CONTINUOUS
10
0.025744
20
-0.001256
30
0.0
11
0.025040
21
-0.001256
31
0.0
0
LINE
8
0
6
CONTINUOUS
10
0.003987
20
-0.009947
30
0.0
11
0.004315
21
-0.009947
31
0.0
0
LINE
8
0
6
CONTINUOUS
10
0.004315
20
-0.009947
30
0.0
11
0.004315
21
-0.009543
31
0.0
0
LINE
8
0
6
CONTINUOUS
10
-0.000000
20
-0.009947
30
0.0
11
0.001651
21
-0.009947
31
0.0
0
LINE
8
0
6
CONTINUOUS
10
-0.004315
20
-0.009543
30
0.0
11
-0.004315
21
-0.009947
31
0.0
0
LINE
8
0
6
CONTINUOUS
10
-0.004315
20
-0.009947
30
0.0
11
-0.003987
21
-0.009947
31
0.0
0
LINE
8
0
6
CONTINUOUS
10
-0.001651
20
-0.009947
30
0.0
11
-0.000000
21
-0.009947
31
0.0
0
LINE
8
0
6
CONTINUOUS
10
0.024009
20
-0.009947
30
0.0
11
0.024337
21
-0.009947
31
0.0
0
LINE
8
0
6
CONTINUOUS
10
0.024337
20
-0.009947
30
0.0
11
0.024337
21
-0.009547
31
0.0
0
LINE
8
0
6
CONTINUOUS
10
0.015707
20
-0.009947
30
0.0
11
0.016035
21
-0.009947
31
0.0
0
LINE
8
0
6
CONTINUOUS
10
0.015707
20
-0.009547
30
0.0
11
0.015707
21
-0.009947
31
0.0
0
LINE
8
0
6
CONTINUOUS
10
0.023073
20
-0.009947
30
0.0
11
0.024009
21
-0.009947
31
0.0
0
LINE
8
0
6
CONTINUOUS
10
0.021673
20
-0.009947
30
0.0
11
0.023073
21
-0.009947
31
0.0
0
LINE
8
0
6
CONTINUOUS
10
0.016971
20
-0.009947
30
0.0
11
0.018371
21
-0.009947
31
0.0
0
LINE
8
0
6
CONTINUOUS
10
0.020022
20
-0.009947
30
0.0
11
0.021673
21
-0.009947
31
0.0
0
LINE
8
0
6
CONTINUOUS
10
0.024009
20
-0.009947
30
0.0
11
0.024337
21
-0.009947
31
0.0
0
LINE
8
0
6
CONTINUOUS
10
0.024337
20
-0.009947
30
0.0
11
0.024337
21
-0.009536
31
0.0
0
LINE
8
0
6
CONTINUOUS
10
0.015707
20
-0.009947
30
0.0
11
0.016035
21
-0.009947
31
0.0
0
LINE
8
0
6
CONTINUOUS
10
0.015707
20
-0.009536
30
0.0
11
0.015707
21
-0.009947
31
0.0
0
LINE
8
0
6
CONTINUOUS
10
0.023073
20
-0.009947
30
0.0
11
0.024009
21
-0.009947
31
0.0
0
LINE
8
0
6
CONTINUOUS
10
0.021673
20
-0.009947
30
0.0
11
0.023073
21
-0.009947
31
0.0
0
LINE
8
0
6
CONTINUOUS
10
0.016971
20
-0.009947
30
0.0
11
0.018371
21
-0.009947
31
0.0
0
LINE
8
0
6
CONTINUOUS
10
0.020022
20
-0.009947
30
0.0
11
0.021673
21
-0.009947
31
0.0
0
LINE
8
0
6
CONTINUOUS
10
0.018371
20
-0.009947
30
0.0
11
0.020022
21
-0.009947
31
0.0
0
LINE
8
0
6
CONTINUOUS
10
0.000000
20
-0.001256
30
0.0
11
0.002189
21
-0.001256
31
0.0
0
LINE
8
0
6
CONTINUOUS
10
0.002190
20
-0.001256
30
0.0
11
0.000000
21
-0.001256
31
0.0
0
LINE
8
0
6
CONTINUOUS
10
0.005286
20
-0.001256
30
0.0
11
0.014736
21
-0.001256
31
0.0
0
LINE
8
0
6
CONTINUOUS
10
0.004046
20
-0.001256
30
0.0
11
0.005286
21
-0.001256
31
0.0
0
LINE
8
0
6
CONTINUOUS
10
0.015976
20
-0.001256
30
0.0
11
0.004046
21
-0.001256
31
0.0
0
LINE
8
0
6
CONTINUOUS
10
0.017833
20
-0.001256
30
0.0
11
0.020022
21
-0.001256
31
0.0
0
LINE
8
0
6
CONTINUOUS
10
0.020022
20
-0.001256
30
0.0
11
0.017833
21
-0.001256
31
0.0
0
LINE
8
0
6
CONTINUOUS
10
0.015976
20
-0.001256
30
0.0
11
0.004046
21
-0.001256
31
0.0
0
LINE
8
0
6
CONTINUOUS
10
0.005286
20
-0.001256
30
0.0
11
0.014736
21
-0.001256
31
0.0
0
LINE
8
0
6
CONTINUOUS
10
0.004046
20
-0.001256
30
0.0
11
0.005286
21
-0.001256
31
0.0
0
LINE
8
0
6
CONTINUOUS
10
0.002190
20
0.035053
30
0.0
11
-0.000000
21
0.035053
31
0.0
0
LINE
8
0
6
CONTINUOUS
10
0.000000
20
-0.009947
30
0.0
11
0.002189
21
-0.009947
31
0.0
0
LINE
8
0
6
CONTINUOUS
10
0.020022
20
0.035053
30
0.0
11
0.017833
21
0.035053
31
0.0
0
LINE
8
0
6
CONTINUOUS
10
0.066561
20
0.035053
30
0.0
11
0.020022
21
0.035053
31
0.0
0
LINE
8
0
6
CONTINUOUS
10
0.020022
20
-0.001256
30
0.0
11
0.017833
21
-0.001256
31
0.0
0
LINE
8
0
6
CONTINUOUS
10
0.017833
20
-0.001256
30
0.0
11
0.020022
21
-0.001256
31
0.0
0
LINE
8
0
6
CONTINUOUS
10
0.024237
20
-0.001256
30
0.0
11
0.022212
21
-0.001256
31
0.0
0
LINE
8
0
6
CONTINUOUS
10
0.067804
20
-0.001256
30
0.0
11
0.024237
21
-0.001256
31
0.0
0
LINE
8
0
6
CONTINUOUS
10
0.065908
20
-0.001256
30
0.0
11
0.067804
21
-0.001256
31
0.0
0
LINE
8
0
6
CONTINUOUS
10
0.020022
20
-0.009947
30
0.0
11
0.065059
21
-0.009947
31
0.0
0
LINE
8
0
6
CONTINUOUS
10
0.025309
20
-0.001256
30
0.0
11
0.068690
21
-0.001256
31
0.0
0
LINE
8
0
6
CONTINUOUS
10
0.069565
20
-0.001256
30
0.0
11
0.025744
21
-0.001256
31
0.0
0
LINE
8
0
6
CONTINUOUS
10
0.068690
20
-0.001256
30
0.0
11
0.069565
21
-0.001256
31
0.0
0
LINE
8
0
6
CONTINUOUS
10
0.017833
20
-0.001256
30
0.0
11
0.020022
21
-0.001256
31
0.0
0
LINE
8
0
6
CONTINUOUS
10
0.020022
20
0.035053
30
0.0
11
0.017833
21
0.035053
31
0.0
0
LINE
8
0
6
CONTINUOUS
10
0.017832
20
-0.009947
30
0.0
11
0.020022
21
-0.009947
31
0.0
0
LINE
8
0
6
CONTINUOUS
10
0.017833
20
0.035053
30
0.0
11
0.002190
21
0.035053
31
0.0
0
LINE
8
0
6
CONTINUOUS
10
0.002189
20
-0.009947
30
0.0
11
0.017832
21
-0.009947
31
0.0
0
LINE
8
0
6
CONTINUOUS
10
0.002190
20
-0.001256
30
0.0
11
0.017833
21
-0.001256
31
0.0
0
LINE
8
0
6
CONTINUOUS
10
0.017833
20
0.035053
30
0.0
11
0.002190
21
0.035053
31
0.0
0
LINE
8
0
6
CONTINUOUS
10
0.000000
20
-0.001256
30
0.0
11
0.002190
21
-0.001256
31
0.0
0
LINE
8
0
6
CONTINUOUS
10
0.002190
20
0.035053
30
0.0
11
0.000000
21
0.035053
31
0.0
0
LINE
8
0
6
CONTINUOUS
10
0.075065
20
-0.009947
30
0.0
11
0.073679
21
-0.009947
31
0.0
0
LINE
8
0
6
CONTINUOUS
10
-0.005286
20
-0.009947
30
0.0
11
-0.014736
21
-0.009947
31
0.0
0
LINE
8
0
6
CONTINUOUS
10
-0.005721
20
-0.009947
30
0.0
11
-0.005286
21
-0.009947
31
0.0
0
LINE
8
0
6
CONTINUOUS
10
-0.014301
20
-0.009947
30
0.0
11
-0.005721
21
-0.009947
31
0.0
0
LINE
8
0
6
CONTINUOUS
10
-0.020022
20
-0.009947
30
0.0
11
-0.022212
21
-0.009947
31
0.0
0
LINE
8
0
6
CONTINUOUS
10
-0.022212
20
-0.009947
30
0.0
11
-0.020022
21
-0.009947
31
0.0
0
LINE
8
0
6
CONTINUOUS
10
-0.016971
20
-0.009947
30
0.0
11
-0.016474
21
-0.009947
31
0.0
0
LINE
8
0
6
CONTINUOUS
10
-0.016035
20
-0.009947
30
0.0
11
-0.016971
21
-0.009947
31
0.0
0
LINE
8
0
6
CONTINUOUS
10
-0.015386
20
-0.009947
30
0.0
11
-0.016035
21
-0.009947
31
0.0
0
LINE
8
0
6
CONTINUOUS
10
-0.025309
20
-0.009947
30
0.0
11
-0.024237
21
-0.009947
31
0.0
0
LINE
8
0
6
CONTINUOUS
10
-0.068347
20
-0.009947
30
0.0
11
-0.071135
21
-0.009947
31
0.0
0
LINE
8
0
6
CONTINUOUS
10
-0.001920
20
-0.009947
30
0.0
11
-0.003548
21
-0.009947
31
0.0
0
LINE
8
0
6
CONTINUOUS
10
-0.001651
20
-0.009947
30
0.0
11
-0.001920
21
-0.009947
31
0.0
0
LINE
8
0
6
CONTINUOUS
10
-0.003051
20
-0.009947
30
0.0
11
-0.001651
21
-0.009947
31
0.0
0
LINE
8
0
6
CONTINUOUS
10
-0.003987
20
-0.009947
30
0.0
11
-0.003051
21
-0.009947
31
0.0
0
LINE
8
0
6
CONTINUOUS
10
-0.004636
20
-0.009947
30
0.0
11
-0.003987
21
-0.009947
31
0.0
0
LINE
8
0
6
CONTINUOUS
10
-0.020022
20
-0.009947
30
0.0
11
-0.021943
21
-0.009947
31
0.0
0
LINE
8
0
6
CONTINUOUS
10
-0.021673
20
-0.009947
30
0.0
11
-0.020022
21
-0.009947
31
0.0
0
LINE
8
0
6
CONTINUOUS
10
-0.021943
20
-0.009947
30
0.0
11
-0.021673
21
-0.009947
31
0.0
0
LINE
8
0
6
CONTINUOUS
10
-0.023655
20
-0.009947
30
0.0
11
-0.024658
21
-0.009947
31
0.0
0
LINE
8
0
6
CONTINUOUS
10
-0.023073
20
-0.009947
30
0.0
11
-0.023655
21
-0.009947
31
0.0
0
LINE
8
0
6
CONTINUOUS
10
-0.024009
20
-0.009947
30
0.0
11
-0.023073
21
-0.009947
31
0.0
0
LINE
8
0
6
CONTINUOUS
10
-0.024337
20
-0.009947
30
0.0
11
-0.024009
21
-0.009947
31
0.0
0
LINE
8
0
6
CONTINUOUS
10
-0.025040
20
-0.009947
30
0.0
11
-0.024337
21
-0.009947
31
0.0
0
LINE
8
0
6
CONTINUOUS
10
-0.020022
20
-0.009947
30
0.0
11
-0.018102
21
-0.009947
31
0.0
0
LINE
8
0
6
CONTINUOUS
10
-0.018371
20
-0.009947
30
0.0
11
-0.020022
21
-0.009947
31
0.0
0
LINE
8
0
6
CONTINUOUS
10
-0.018102
20
-0.009947
30
0.0
11
-0.018371
21
-0.009947
31
0.0
0
LINE
8
0
6
CONTINUOUS
10
-0.016971
20
-0.009947
30
0.0
11
-0.016474
21
-0.009947
31
0.0
0
LINE
8
0
6
CONTINUOUS
10
-0.016035
20
-0.009947
30
0.0
11
-0.016971
21
-0.009947
31
0.0
0
LINE
8
0
6
CONTINUOUS
10
-0.015386
20
-0.009947
30
0.0
11
-0.016035
21
-0.009947
31
0.0
0
LINE
8
0
6
CONTINUOUS
10
-0.004636
20
-0.009947
30
0.0
11
-0.003548
21
-0.009947
31
0.0
0
LINE
8
0
6
CONTINUOUS
10
-0.003987
20
-0.009947
30
0.0
11
-0.004636
21
-0.009947
31
0.0
0
LINE
8
0
6
CONTINUOUS
10
-0.003051
20
-0.009947
30
0.0
11
-0.003987
21
-0.009947
31
0.0
0
LINE
8
0
6
CONTINUOUS
10
-0.003548
20
-0.009947
30
0.0
11
-0.001920
21
-0.009947
31
0.0
0
LINE
8
0
6
CONTINUOUS
10
-0.001651
20
-0.009947
30
0.0
11
-0.003051
21
-0.009947
31
0.0
0
LINE
8
0
6
CONTINUOUS
10
-0.001920
20
-0.009947
30
0.0
11
-0.001651
21
-0.009947
31
0.0
0
LINE
8
0
6
CONTINUOUS
10
-0.001920
20
-0.009947
30
0.0
11
-0.003548
21
-0.009947
31
0.0
0
LINE
8
0
6
CONTINUOUS
10
-0.001651
20
-0.009947
30
0.0
11
-0.001920
21
-0.009947
31
0.0
0
LINE
8
0
6
CONTINUOUS
10
-0.003051
20
-0.009947
30
0.0
11
-0.001651
21
-0.009947
31
0.0
0
LINE
8
0
6
CONTINUOUS
10
-0.003548
20
-0.009947
30
0.0
11
-0.004636
21
-0.009947
31
0.0
0
LINE
8
0
6
CONTINUOUS
10
-0.003987
20
-0.009947
30
0.0
11
-0.003051
21
-0.009947
31
0.0
0
LINE
8
0
6
CONTINUOUS
10
-0.004636
20
-0.009947
30
0.0
11
-0.003987
21
-0.009947
31
0.0
0
LINE
8
0
6
CONTINUOUS
10
-0.016035
20
-0.009947
30
0.0
11
-0.015386
21
-0.009947
31
0.0
0
LINE
8
0
6
CONTINUOUS
10
-0.016971
20
-0.009947
30
0.0
11
-0.016035
21
-0.009947
31
0.0
0
LINE
8
0
6
CONTINUOUS
10
-0.016474
20
-0.009947
30
0.0
11
-0.018102
21
-0.009947
31
0.0
0
LINE
8
0
6
CONTINUOUS
10
-0.018371
20
-0.009947
30
0.0
11
-0.016971
21
-0.009947
31
0.0
0
LINE
8
0
6
CONTINUOUS
10
-0.018102
20
-0.009947
30
0.0
11
-0.018371
21
-0.009947
31
0.0
0
LINE
8
0
6
CONTINUOUS
10
-0.021942
20
-0.009947
30
0.0
11
-0.023571
21
-0.009947
31
0.0
0
LINE
8
0
6
CONTINUOUS
10
-0.021673
20
-0.009947
30
0.0
11
-0.021942
21
-0.009947
31
0.0
0
LINE
8
0
6
CONTINUOUS
10
-0.023073
20
-0.009947
30
0.0
11
-0.021673
21
-0.009947
31
0.0
0
LINE
8
0
6
CONTINUOUS
10
-0.024009
20
-0.009947
30
0.0
11
-0.023073
21
-0.009947
31
0.0
0
LINE
8
0
6
CONTINUOUS
10
-0.024658
20
-0.009947
30
0.0
11
-0.024009
21
-0.009947
31
0.0
0
LINE
8
0
6
CONTINUOUS
10
-0.016474
20
-0.009947
30
0.0
11
-0.015976
21
-0.009947
31
0.0
0
LINE
8
0
6
CONTINUOUS
10
-0.014736
20
-0.009947
30
0.0
11
-0.015386
21
-0.009947
31
0.0
0
LINE
8
0
6
CONTINUOUS
10
-0.004046
20
-0.009947
30
0.0
11
-0.005286
21
-0.009947
31
0.0
0
LINE
8
0
6
CONTINUOUS
10
-0.003548
20
-0.009947
30
0.0
11
-0.004046
21
-0.009947
31
0.0
0
LINE
8
0
6
CONTINUOUS
10
-0.005286
20
-0.009947
30
0.0
11
-0.004636
21
-0.009947
31
0.0
0
LINE
8
0
6
CONTINUOUS
10
-0.024658
20
-0.009947
30
0.0
11
-0.025309
21
-0.009947
31
0.0
0
LINE
8
0
6
CONTINUOUS
10
-0.025744
20
-0.009947
30
0.0
11
-0.025040
21
-0.009947
31
0.0
0
LINE
8
0
6
CONTINUOUS
10
-0.016474
20
-0.009947
30
0.0
11
-0.015976
21
-0.009947
31
0.0
0
LINE
8
0
6
CONTINUOUS
10
-0.014736
20
-0.009947
30
0.0
11
-0.015386
21
-0.009947
31
0.0
0
LINE
8
0
6
CONTINUOUS
10
-0.015004
20
-0.009947
30
0.0
11
-0.014301
21
-0.009947
31
0.0
0
LINE
8
0
6
CONTINUOUS
10
-0.015386
20
-0.009947
30
0.0
11
-0.015004
21
-0.009947
31
0.0
0
LINE
8
0
6
CONTINUOUS
10
-0.014736
20
-0.009947
30
0.0
11
-0.015976
21
-0.009947
31
0.0
0
LINE
8
0
6
CONTINUOUS
10
-0.015976
20
-0.009947
30
0.0
11
-0.016474
21
-0.009947
31
0.0
0
LINE
8
0
6
CONTINUOUS
10
-0.024068
20
-0.009947
30
0.0
11
-0.025308
21
-0.009947
31
0.0
0
LINE
8
0
6
CONTINUOUS
10
-0.023571
20
-0.009947
30
0.0
11
-0.024068
21
-0.009947
31
0.0
0
LINE
8
0
6
CONTINUOUS
10
-0.025040
20
-0.009947
30
0.0
11
-0.024658
21
-0.009947
31
0.0
0
LINE
8
0
6
CONTINUOUS
10
-0.025744
20
-0.009947
30
0.0
11
-0.025040
21
-0.009947
31
0.0
0
LINE
8
0
6
CONTINUOUS
10
0.000000
20
-0.009947
30
0.0
11
-0.002189
21
-0.009947
31
0.0
0
LINE
8
0
6
CONTINUOUS
10
-0.002190
20
-0.009947
30
0.0
11
0.000000
21
-0.009947
31
0.0
0
LINE
8
0
6
CONTINUOUS
10
-0.005286
20
-0.009947
30
0.0
11
-0.014736
21
-0.009947
31
0.0
0
LINE
8
0
6
CONTINUOUS
10
-0.004046
20
-0.009947
30
0.0
11
-0.005286
21
-0.009947
31
0.0
0
LINE
8
0
6
CONTINUOUS
10
-0.015976
20
-0.009947
30
0.0
11
-0.004046
21
-0.009947
31
0.0
0
LINE
8
0
6
CONTINUOUS
10
-0.017833
20
-0.009947
30
0.0
11
-0.020022
21
-0.009947
31
0.0
0
LINE
8
0
6
CONTINUOUS
10
-0.020022
20
-0.009947
30
0.0
11
-0.017833
21
-0.009947
31
0.0
0
LINE
8
0
6
CONTINUOUS
10
-0.015976
20
-0.009947
30
0.0
11
-0.004046
21
-0.009947
31
0.0
0
LINE
8
0
6
CONTINUOUS
10
-0.005286
20
-0.009947
30
0.0
11
-0.014736
21
-0.009947
31
0.0
0
LINE
8
0
6
CONTINUOUS
10
-0.004046
20
-0.009947
30
0.0
11
-0.005286
21
-0.009947
31
0.0
0
LINE
8
0
6
CONTINUOUS
10
-0.025222
20
-0.009947
30
0.0
11
-0.025744
21
-0.009947
31
0.0
0
LINE
8
0
6
CONTINUOUS
10
-0.073679
20
-0.009947
30
0.0
11
-0.033808
21
-0.009947
31
0.0
0
LINE
8
0
6
CONTINUOUS
10
-0.033808
20
-0.009947
30
0.0
11
-0.025222
21
-0.009947
31
0.0
0
LINE
8
0
6
CONTINUOUS
10
-0.024237
20
-0.009947
30
0.0
11
-0.022212
21
-0.009947
31
0.0
0
LINE
8
0
6
CONTINUOUS
10
-0.072998
20
-0.009947
30
0.0
11
-0.041220
21
-0.009947
31
0.0
0
LINE
8
0
6
CONTINUOUS
10
-0.041220
20
-0.009947
30
0.0
11
-0.025744
21
-0.009947
31
0.0
0
LINE
8
0
6
CONTINUOUS
10
-0.071135
20
-0.009947
30
0.0
11
-0.072998
21
-0.009947
31
0.0
0
LINE
8
0
6
CONTINUOUS
10
-0.025308
20
-0.009947
30
0.0
11
-0.040499
21
-0.009947
31
0.0
0
LINE
8
0
6
CONTINUOUS
10
-0.040499
20
-0.009947
30
0.0
11
-0.073679
21
-0.009947
31
0.0
0
LINE
8
0
6
CONTINUOUS
10
0.000000
20
-0.009947
30
0.0
11
0.002190
21
-0.009947
31
0.0
0
LINE
8
0
6
CONTINUOUS
10
-0.022212
20
-0.009947
30
0.0
11
-0.020022
21
-0.009947
31
0.0
0
LINE
8
0
6
CONTINUOUS
10
-0.002190
20
-0.009947
30
0.0
11
0.000000
21
-0.009947
31
0.0
0
LINE
8
0
6
CONTINUOUS
10
0.017833
20
-0.009947
30
0.0
11
0.020022
21
-0.009947
31
0.0
0
LINE
8
0
6
CONTINUOUS
10
0.020022
20
-0.009947
30
0.0
11
0.022212
21
-0.009947
31
0.0
0
LINE
8
0
6
CONTINUOUS
10
0.005721
20
-0.009947
30
0.0
11
0.014301
21
-0.009947
31
0.0
0
LINE
8
0
6
CONTINUOUS
10
0.005286
20
-0.009947
30
0.0
11
0.005721
21
-0.009947
31
0.0
0
LINE
8
0
6
CONTINUOUS
10
0.014736
20
-0.009947
30
0.0
11
0.005286
21
-0.009947
31
0.0
0
LINE
8
0
6
CONTINUOUS
10
0.020022
20
-0.009947
30
0.0
11
0.022212
21
-0.009947
31
0.0
0
LINE
8
0
6
CONTINUOUS
10
0.022212
20
-0.009947
30
0.0
11
0.020022
21
-0.009947
31
0.0
0
LINE
8
0
6
CONTINUOUS
10
0.016035
20
-0.009947
30
0.0
11
0.015386
21
-0.009947
31
0.0
0
LINE
8
0
6
CONTINUOUS
10
0.016971
20
-0.009947
30
0.0
11
0.016035
21
-0.009947
31
0.0
0
LINE
8
0
6
CONTINUOUS
10
0.016474
20
-0.009947
30
0.0
11
0.016971
21
-0.009947
31
0.0
0
LINE
8
0
6
CONTINUOUS
10
0.071135
20
-0.009947
30
0.0
11
0.068347
21
-0.009947
31
0.0
0
LINE
8
0
6
CONTINUOUS
10
0.024237
20
-0.009947
30
0.0
11
0.025309
21
-0.009947
31
0.0
0
LINE
8
0
6
CONTINUOUS
10
0.001651
20
-0.009947
30
0.0
11
0.003051
21
-0.009947
31
0.0
0
LINE
8
0
6
CONTINUOUS
10
0.001920
20
-0.009947
30
0.0
11
0.001651
21
-0.009947
31
0.0
0
LINE
8
0
6
CONTINUOUS
10
0.003548
20
-0.009947
30
0.0
11
0.001920
21
-0.009947
31
0.0
0
LINE
8
0
6
CONTINUOUS
10
0.003987
20
-0.009947
30
0.0
11
0.004636
21
-0.009947
31
0.0
0
LINE
8
0
6
CONTINUOUS
10
0.003051
20
-0.009947
30
0.0
11
0.003987
21
-0.009947
31
0.0
0
LINE
8
0
6
CONTINUOUS
10
0.021673
20
-0.009947
30
0.0
11
0.021942
21
-0.009947
31
0.0
0
LINE
8
0
6
CONTINUOUS
10
0.020022
20
-0.009947
30
0.0
11
0.021673
21
-0.009947
31
0.0
0
LINE
8
0
6
CONTINUOUS
10
0.021942
20
-0.009947
30
0.0
11
0.020022
21
-0.009947
31
0.0
0
LINE
8
0
6
CONTINUOUS
10
0.023073
20
-0.009947
30
0.0
11
0.024009
21
-0.009947
31
0.0
0
LINE
8
0
6
CONTINUOUS
10
0.023655
20
-0.009947
30
0.0
11
0.023073
21
-0.009947
31
0.0
0
LINE
8
0
6
CONTINUOUS
10
0.024658
20
-0.009947
30
0.0
11
0.023655
21
-0.009947
31
0.0
0
LINE
8
0
6
CONTINUOUS
10
0.024337
20
-0.009947
30
0.0
11
0.025040
21
-0.009947
31
0.0
0
LINE
8
0
6
CONTINUOUS
10
0.024009
20
-0.009947
30
0.0
11
0.024337
21
-0.009947
31
0.0
0
LINE
8
0
6
CONTINUOUS
10
0.018371
20
-0.009947
30
0.0
11
0.018102
21
-0.009947
31
0.0
0
LINE
8
0
6
CONTINUOUS
10
0.020022
20
-0.009947
30
0.0
11
0.018371
21
-0.009947
31
0.0
0
LINE
8
0
6
CONTINUOUS
10
0.018102
20
-0.009947
30
0.0
11
0.020022
21
-0.009947
31
0.0
0
LINE
8
0
6
CONTINUOUS
10
0.016035
20
-0.009947
30
0.0
11
0.015386
21
-0.009947
31
0.0
0
LINE
8
0
6
CONTINUOUS
10
0.016971
20
-0.009947
30
0.0
11
0.016035
21
-0.009947
31
0.0
0
LINE
8
0
6
CONTINUOUS
10
0.016474
20
-0.009947
30
0.0
11
0.016971
21
-0.009947
31
0.0
0
LINE
8
0
6
CONTINUOUS
10
0.003987
20
-0.009947
30
0.0
11
0.003051
21
-0.009947
31
0.0
0
LINE
8
0
6
CONTINUOUS
10
0.004636
20
-0.009947
30
0.0
11
0.003987
21
-0.009947
31
0.0
0
LINE
8
0
6
CONTINUOUS
10
0.003548
20
-0.009947
30
0.0
11
0.004636
21
-0.009947
31
0.0
0
LINE
8
0
6
CONTINUOUS
10
0.001651
20
-0.009947
30
0.0
11
0.001920
21
-0.009947
31
0.0
0
LINE
8
0
6
CONTINUOUS
10
0.003051
20
-0.009947
30
0.0
11
0.001651
21
-0.009947
31
0.0
0
LINE
8
0
6
CONTINUOUS
10
0.001920
20
-0.009947
30
0.0
11
0.003548
21
-0.009947
31
0.0
0
LINE
8
0
6
CONTINUOUS
10
0.001651
20
-0.009947
30
0.0
11
0.003051
21
-0.009947
31
0.0
0
LINE
8
0
6
CONTINUOUS
10
0.001920
20
-0.009947
30
0.0
11
0.001651
21
-0.009947
31
0.0
0
LINE
8
0
6
CONTINUOUS
10
0.003548
20
-0.009947
30
0.0
11
0.001920
21
-0.009947
31
0.0
0
LINE
8
0
6
CONTINUOUS
10
0.003987
20
-0.009947
30
0.0
11
0.004636
21
-0.009947
31
0.0
0
LINE
8
0
6
CONTINUOUS
10
0.003051
20
-0.009947
30
0.0
11
0.003987
21
-0.009947
31
0.0
0
LINE
8
0
6
CONTINUOUS
10
0.004636
20
-0.009947
30
0.0
11
0.003548
21
-0.009947
31
0.0
0
LINE
8
0
6
CONTINUOUS
10
0.016035
20
-0.009947
30
0.0
11
0.016971
21
-0.009947
31
0.0
0
LINE
8
0
6
CONTINUOUS
10
0.015386
20
-0.009947
30
0.0
11
0.016035
21
-0.009947
31
0.0
0
LINE
8
0
6
CONTINUOUS
10
0.018371
20
-0.009947
30
0.0
11
0.018102
21
-0.009947
31
0.0
0
LINE
8
0
6
CONTINUOUS
10
0.016971
20
-0.009947
30
0.0
11
0.018371
21
-0.009947
31
0.0
0
LINE
8
0
6
CONTINUOUS
10
0.018102
20
-0.009947
30
0.0
11
0.016474
21
-0.009947
31
0.0
0
LINE
8
0
6
CONTINUOUS
10
0.021673
20
-0.009947
30
0.0
11
0.023073
21
-0.009947
31
0.0
0
LINE
8
0
6
CONTINUOUS
10
0.021942
20
-0.009947
30
0.0
11
0.021673
21
-0.009947
31
0.0
0
LINE
8
0
6
CONTINUOUS
10
0.023571
20
-0.009947
30
0.0
11
0.021942
21
-0.009947
31
0.0
0
LINE
8
0
6
CONTINUOUS
10
0.024009
20
-0.009947
30
0.0
11
0.024658
21
-0.009947
31
0.0
0
LINE
8
0
6
CONTINUOUS
10
0.023073
20
-0.009947
30
0.0
11
0.024009
21
-0.009947
31
0.0
0
LINE
8
0
6
CONTINUOUS
10
0.015386
20
-0.009947
30
0.0
11
0.014736
21
-0.009947
31
0.0
0
LINE
8
0
6
CONTINUOUS
10
0.015976
20
-0.009947
30
0.0
11
0.016474
21
-0.009947
31
0.0
0
LINE
8
0
6
CONTINUOUS
10
0.004636
20
-0.009947
30
0.0
11
0.005286
21
-0.009947
31
0.0
0
LINE
8
0
6
CONTINUOUS
10
0.004046
20
-0.009947
30
0.0
11
0.003548
21
-0.009947
31
0.0
0
LINE
8
0
6
CONTINUOUS
10
0.005286
20
-0.009947
30
0.0
11
0.004046
21
-0.009947
31
0.0
0
LINE
8
0
6
CONTINUOUS
10
0.025040
20
-0.009947
30
0.0
11
0.025744
21
-0.009947
31
0.0
0
LINE
8
0
6
CONTINUOUS
10
0.025309
20
-0.009947
30
0.0
11
0.024658
21
-0.009947
31
0.0
0
LINE
8
0
6
CONTINUOUS
10
0.015386
20
-0.009947
30
0.0
11
0.014736
21
-0.009947
31
0.0
0
LINE
8
0
6
CONTINUOUS
10
0.015976
20
-0.009947
30
0.0
11
0.016474
21
-0.009947
31
0.0
0
LINE
8
0
6
CONTINUOUS
10
0.015004
20
-0.009947
30
0.0
11
0.015386
21
-0.009947
31
0.0
0
LINE
8
0
6
CONTINUOUS
10
0.014301
20
-0.009947
30
0.0
11
0.015004
21
-0.009947
31
0.0
0
LINE
8
0
6
CONTINUOUS
10
0.016474
20
-0.009947
30
0.0
11
0.015976
21
-0.009947
31
0.0
0
LINE
8
0
6
CONTINUOUS
10
0.015976
20
-0.009947
30
0.0
11
0.014736
21
-0.009947
31
0.0
0
LINE
8
0
6
CONTINUOUS
10
0.024068
20
-0.009947
30
0.0
11
0.023571
21
-0.009947
31
0.0
0
LINE
8
0
6
CONTINUOUS
10
0.025308
20
-0.009947
30
0.0
11
0.024068
21
-0.009947
31
0.0
0
LINE
8
0
6
CONTINUOUS
10
0.025040
20
-0.009947
30
0.0
11
0.025744
21
-0.009947
31
0.0
0
LINE
8
0
6
CONTINUOUS
10
0.024658
20
-0.009947
30
0.0
11
0.025040
21
-0.009947
31
0.0
0
LINE
8
0
6
CONTINUOUS
10
0.000000
20
-0.009947
30
0.0
11
0.002190
21
-0.009947
31
0.0
0
LINE
8
0
6
CONTINUOUS
10
0.002189
20
-0.009947
30
0.0
11
0.000000
21
-0.009947
31
0.0
0
LINE
8
0
6
CONTINUOUS
10
0.004046
20
-0.009947
30
0.0
11
0.015976
21
-0.009947
31
0.0
0
LINE
8
0
6
CONTINUOUS
10
0.005286
20
-0.009947
30
0.0
11
0.004046
21
-0.009947
31
0.0
0
LINE
8
0
6
CONTINUOUS
10
0.014736
20
-0.009947
30
0.0
11
0.005286
21
-0.009947
31
0.0
0
LINE
8
0
6
CONTINUOUS
10
0.017833
20
-0.009947
30
0.0
11
0.020022
21
-0.009947
31
0.0
0
LINE
8
0
6
CONTINUOUS
10
0.020022
20
-0.009947
30
0.0
11
0.017833
21
-0.009947
31
0.0
0
LINE
8
0
6
CONTINUOUS
10
0.005286
20
-0.009947
30
0.0
11
0.004046
21
-0.009947
31
0.0
0
LINE
8
0
6
CONTINUOUS
10
0.014736
20
-0.009947
30
0.0
11
0.005286
21
-0.009947
31
0.0
0
LINE
8
0
6
CONTINUOUS
10
0.004046
20
-0.009947
30
0.0
11
0.015976
21
-0.009947
31
0.0
0
LINE
8
0
6
CONTINUOUS
10
0.022212
20
-0.009947
30
0.0
11
0.024237
21
-0.009947
31
0.0
0
LINE
8
0
6
CONTINUOUS
10
0.073679
20
-0.009947
30
0.0
11
0.040463
21
-0.009947
31
0.0
0
LINE
8
0
6
CONTINUOUS
10
0.040463
20
-0.009947
30
0.0
11
0.025308
21
-0.009947
31
0.0
0
LINE
8
0
6
CONTINUOUS
10
0.025222
20
-0.009947
30
0.0
11
0.073679
21
-0.009947
31
0.0
0
LINE
8
0
6
CONTINUOUS
10
0.025744
20
-0.009947
30
0.0
11
0.025222
21
-0.009947
31
0.0
0
LINE
8
0
6
CONTINUOUS
10
0.072998
20
-0.009947
30
0.0
11
0.071135
21
-0.009947
31
0.0
0
LINE
8
0
6
CONTINUOUS
10
0.025744
20
-0.009947
30
0.0
11
0.072998
21
-0.009947
31
0.0
0
LINE
8
0
6
CONTINUOUS
10
0.002190
20
-0.009947
30
0.0
11
0.017833
21
-0.009947
31
0.0
0
LINE
8
0
6
CONTINUOUS
10
-0.020022
20
-0.009947
30
0.0
11
-0.017833
21
-0.009947
31
0.0
0
LINE
8
0
6
CONTINUOUS
10
-0.017833
20
-0.009947
30
0.0
11
-0.002190
21
-0.009947
31
0.0
0
LINE
8
0
6
CONTINUOUS
10
-0.015707
20
-0.009536
30
0.0
11
-0.015707
21
-0.001728
31
0.0
0
LINE
8
0
6
CONTINUOUS
10
-0.024337
20
-0.001727
30
0.0
11
-0.024337
21
-0.009536
31
0.0
0
LINE
8
0
6
CONTINUOUS
10
-0.004315
20
-0.001675
30
0.0
11
-0.004315
21
-0.009533
31
0.0
0
LINE
8
0
6
CONTINUOUS
10
-0.004315
20
-0.001866
30
0.0
11
-0.004315
21
-0.009543
31
0.0
0
LINE
8
0
6
CONTINUOUS
10
-0.015707
20
-0.009547
30
0.0
11
-0.015707
21
-0.001942
31
0.0
0
LINE
8
0
6
CONTINUOUS
10
-0.024337
20
-0.001942
30
0.0
11
-0.024337
21
-0.009547
31
0.0
0
LINE
8
0
6
CONTINUOUS
10
0.015707
20
-0.001728
30
0.0
11
0.015707
21
-0.009536
31
0.0
0
LINE
8
0
6
CONTINUOUS
10
0.024337
20
-0.009536
30
0.0
11
0.024337
21
-0.001727
31
0.0
0
LINE
8
0
6
CONTINUOUS
10
0.004315
20
-0.009533
30
0.0
11
0.004315
21
-0.001675
31
0.0
0
LINE
8
0
6
CONTINUOUS
10
0.004315
20
-0.009543
30
0.0
11
0.004315
21
-0.001866
31
0.0
0
LINE
8
0
6
CONTINUOUS
10
0.015707
20
-0.001942
30
0.0
11
0.015707
21
-0.009547
31
0.0
0
LINE
8
0
6
CONTINUOUS
10
0.024337
20
-0.009547
30
0.0
11
0.024337
21
-0.001942
31
0.0
0
ENDSEC
0
EOF
