999
unknown String-ID: 20550
0
SECTION
2
HEADER
9
$ACADVER
1
AC1009
9
$DWGCODEPAGE
3
unknown String-ID: 20561
0
ENDSEC
0
SECTION
2
TABLES
0
TABLE
2
LAYER
70
1
0
LAYER
2
0
70
0
62
7
6
CONTINUOUS
0
ENDTAB
0
ENDSEC
0
SECTION
2
ENTITIES
0
LINE
8
0
6
CONTINUOUS
10
0.311774
20
0.036716
30
0.0
11
0.311774
21
0.032796
31
0.0
0
LINE
8
0
6
CONTINUOUS
10
0.311774
20
-0.037000
30
0.0
11
0.311774
21
-0.040919
31
0.0
0
LINE
8
0
6
CONTINUOUS
10
0.331752
20
0.015633
30
0.0
11
0.331752
21
-0.002102
31
0.0
0
LINE
8
0
6
CONTINUOUS
10
0.331752
20
-0.002102
30
0.0
11
0.331752
21
-0.019837
31
0.0
0
LINE
8
0
6
CONTINUOUS
10
0.347000
20
-0.027931
30
0.0
11
0.347000
21
-0.002102
31
0.0
0
LINE
8
0
6
CONTINUOUS
10
0.311774
20
0.027796
30
0.0
11
0.311774
21
0.024136
31
0.0
0
LINE
8
0
6
CONTINUOUS
10
0.311774
20
0.037796
30
0.0
11
0.311774
21
0.037543
31
0.0
0
LINE
8
0
6
CONTINUOUS
10
0.312072
20
0.037796
30
0.0
11
0.311774
21
0.037796
31
0.0
0
LINE
8
0
6
CONTINUOUS
10
0.311774
20
0.032796
30
0.0
11
0.311774
21
0.027796
31
0.0
0
LINE
8
0
6
CONTINUOUS
10
0.311774
20
0.037543
30
0.0
11
0.311774
21
0.036996
31
0.0
0
LINE
8
0
6
CONTINUOUS
10
0.311774
20
0.024136
30
0.0
11
0.311774
21
0.022796
31
0.0
0
LINE
8
0
6
CONTINUOUS
10
0.311774
20
0.022796
30
0.0
11
0.312072
21
0.022796
31
0.0
0
LINE
8
0
6
CONTINUOUS
10
0.311774
20
0.036996
30
0.0
11
0.311774
21
0.036716
31
0.0
0
LINE
8
0
6
CONTINUOUS
10
0.347000
20
0.036816
30
0.0
11
0.347000
21
0.037796
31
0.0
0
LINE
8
0
6
CONTINUOUS
10
0.330199
20
0.019618
30
0.0
11
0.330880
21
0.018572
31
0.0
0
LINE
8
0
6
CONTINUOUS
10
0.346177
20
0.037796
30
0.0
11
0.338080
21
0.037796
31
0.0
0
LINE
8
0
6
CONTINUOUS
10
0.328875
20
0.020868
30
0.0
11
0.329658
21
0.020168
31
0.0
0
LINE
8
0
6
CONTINUOUS
10
0.347000
20
0.029669
30
0.0
11
0.347000
21
0.036816
31
0.0
0
LINE
8
0
6
CONTINUOUS
10
0.330880
20
0.018572
30
0.0
11
0.331530
21
0.017054
31
0.0
0
LINE
8
0
6
CONTINUOUS
10
0.338080
20
0.037796
30
0.0
11
0.331294
21
0.037796
31
0.0
0
LINE
8
0
6
CONTINUOUS
10
0.326421
20
0.022207
30
0.0
11
0.328875
21
0.020868
31
0.0
0
LINE
8
0
6
CONTINUOUS
10
0.331294
20
0.037796
30
0.0
11
0.321872
21
0.037796
31
0.0
0
LINE
8
0
6
CONTINUOUS
10
0.321872
20
0.022796
30
0.0
11
0.326421
21
0.022207
31
0.0
0
LINE
8
0
6
CONTINUOUS
10
0.347000
20
0.023727
30
0.0
11
0.347000
21
0.029669
31
0.0
0
LINE
8
0
6
CONTINUOUS
10
0.331530
20
0.017054
30
0.0
11
0.331752
21
0.015633
31
0.0
0
LINE
8
0
6
CONTINUOUS
10
0.347000
20
-0.002102
30
0.0
11
0.347000
21
0.023727
31
0.0
0
LINE
8
0
6
CONTINUOUS
10
0.347000
20
0.037796
30
0.0
11
0.346177
21
0.037796
31
0.0
0
LINE
8
0
6
CONTINUOUS
10
0.329658
20
0.020168
30
0.0
11
0.330199
21
0.019618
31
0.0
0
LINE
8
0
6
CONTINUOUS
10
0.321872
20
0.037796
30
0.0
11
0.312072
21
0.037796
31
0.0
0
LINE
8
0
6
CONTINUOUS
10
0.312072
20
0.022796
30
0.0
11
0.321872
21
0.022796
31
0.0
0
LINE
8
0
6
CONTINUOUS
10
0.311774
20
-0.028340
30
0.0
11
0.311774
21
-0.032000
31
0.0
0
LINE
8
0
6
CONTINUOUS
10
0.311774
20
-0.041746
30
0.0
11
0.311774
21
-0.042000
31
0.0
0
LINE
8
0
6
CONTINUOUS
10
0.311774
20
-0.032000
30
0.0
11
0.311774
21
-0.037000
31
0.0
0
LINE
8
0
6
CONTINUOUS
10
0.311774
20
-0.041200
30
0.0
11
0.311774
21
-0.041746
31
0.0
0
LINE
8
0
6
CONTINUOUS
10
0.312003
20
-0.027000
30
0.0
11
0.311774
21
-0.027000
31
0.0
0
LINE
8
0
6
CONTINUOUS
10
0.311774
20
-0.027000
30
0.0
11
0.311774
21
-0.028340
31
0.0
0
LINE
8
0
6
CONTINUOUS
10
0.311774
20
-0.040919
30
0.0
11
0.311774
21
-0.041200
31
0.0
0
LINE
8
0
6
CONTINUOUS
10
0.330880
20
-0.022776
30
0.0
11
0.330199
21
-0.023822
31
0.0
0
LINE
8
0
6
CONTINUOUS
10
0.329658
20
-0.024372
30
0.0
11
0.328875
21
-0.025072
31
0.0
0
LINE
8
0
6
CONTINUOUS
10
0.331530
20
-0.021258
30
0.0
11
0.330880
21
-0.022776
31
0.0
0
LINE
8
0
6
CONTINUOUS
10
0.328875
20
-0.025072
30
0.0
11
0.326421
21
-0.026411
31
0.0
0
LINE
8
0
6
CONTINUOUS
10
0.326421
20
-0.026411
30
0.0
11
0.321872
21
-0.027000
31
0.0
0
LINE
8
0
6
CONTINUOUS
10
0.346766
20
-0.033872
30
0.0
11
0.347000
21
-0.027931
31
0.0
0
LINE
8
0
6
CONTINUOUS
10
0.331752
20
-0.019837
30
0.0
11
0.331530
21
-0.021258
31
0.0
0
LINE
8
0
6
CONTINUOUS
10
0.330199
20
-0.023822
30
0.0
11
0.329658
21
-0.024372
31
0.0
0
LINE
8
0
6
CONTINUOUS
10
0.321872
20
-0.027000
30
0.0
11
0.312003
21
-0.027000
31
0.0
0
LINE
8
0
6
CONTINUOUS
10
-0.311774
20
0.032796
30
0.0
11
-0.311774
21
0.036716
31
0.0
0
LINE
8
0
6
CONTINUOUS
10
-0.311774
20
-0.040919
30
0.0
11
-0.311774
21
-0.037000
31
0.0
0
LINE
8
0
6
CONTINUOUS
10
-0.331752
20
-0.002102
30
0.0
11
-0.331752
21
0.015633
31
0.0
0
LINE
8
0
6
CONTINUOUS
10
-0.331752
20
-0.019837
30
0.0
11
-0.331752
21
-0.002102
31
0.0
0
LINE
8
0
6
CONTINUOUS
10
-0.347000
20
-0.002102
30
0.0
11
-0.347000
21
-0.027931
31
0.0
0
LINE
8
0
6
CONTINUOUS
10
-0.311774
20
0.024136
30
0.0
11
-0.311774
21
0.027796
31
0.0
0
LINE
8
0
6
CONTINUOUS
10
-0.311774
20
0.037796
30
0.0
11
-0.312072
21
0.037796
31
0.0
0
LINE
8
0
6
CONTINUOUS
10
-0.311774
20
0.037543
30
0.0
11
-0.311774
21
0.037796
31
0.0
0
LINE
8
0
6
CONTINUOUS
10
-0.311774
20
0.027796
30
0.0
11
-0.311774
21
0.032796
31
0.0
0
LINE
8
0
6
CONTINUOUS
10
-0.311774
20
0.036996
30
0.0
11
-0.311774
21
0.037543
31
0.0
0
LINE
8
0
6
CONTINUOUS
10
-0.312072
20
0.022796
30
0.0
11
-0.311774
21
0.022796
31
0.0
0
LINE
8
0
6
CONTINUOUS
10
-0.311774
20
0.022796
30
0.0
11
-0.311774
21
0.024136
31
0.0
0
LINE
8
0
6
CONTINUOUS
10
-0.311774
20
0.036716
30
0.0
11
-0.311774
21
0.036996
31
0.0
0
LINE
8
0
6
CONTINUOUS
10
-0.347000
20
0.037796
30
0.0
11
-0.347000
21
0.036816
31
0.0
0
LINE
8
0
6
CONTINUOUS
10
-0.330880
20
0.018572
30
0.0
11
-0.330199
21
0.019618
31
0.0
0
LINE
8
0
6
CONTINUOUS
10
-0.338080
20
0.037796
30
0.0
11
-0.346177
21
0.037796
31
0.0
0
LINE
8
0
6
CONTINUOUS
10
-0.329658
20
0.020168
30
0.0
11
-0.328875
21
0.020868
31
0.0
0
LINE
8
0
6
CONTINUOUS
10
-0.347000
20
0.036816
30
0.0
11
-0.347000
21
0.029669
31
0.0
0
LINE
8
0
6
CONTINUOUS
10
-0.331530
20
0.017054
30
0.0
11
-0.330880
21
0.018572
31
0.0
0
LINE
8
0
6
CONTINUOUS
10
-0.331294
20
0.037796
30
0.0
11
-0.338080
21
0.037796
31
0.0
0
LINE
8
0
6
CONTINUOUS
10
-0.328875
20
0.020868
30
0.0
11
-0.326421
21
0.022208
31
0.0
0
LINE
8
0
6
CONTINUOUS
10
-0.321872
20
0.037796
30
0.0
11
-0.331294
21
0.037796
31
0.0
0
LINE
8
0
6
CONTINUOUS
10
-0.326421
20
0.022208
30
0.0
11
-0.321872
21
0.022796
31
0.0
0
LINE
8
0
6
CONTINUOUS
10
-0.347000
20
0.029669
30
0.0
11
-0.347000
21
0.023727
31
0.0
0
LINE
8
0
6
CONTINUOUS
10
-0.331752
20
0.015633
30
0.0
11
-0.331530
21
0.017054
31
0.0
0
LINE
8
0
6
CONTINUOUS
10
-0.347000
20
0.023727
30
0.0
11
-0.347000
21
-0.002102
31
0.0
0
LINE
8
0
6
CONTINUOUS
10
-0.346177
20
0.037796
30
0.0
11
-0.347000
21
0.037796
31
0.0
0
LINE
8
0
6
CONTINUOUS
10
-0.330199
20
0.019618
30
0.0
11
-0.329658
21
0.020168
31
0.0
0
LINE
8
0
6
CONTINUOUS
10
-0.312072
20
0.037796
30
0.0
11
-0.321872
21
0.037796
31
0.0
0
LINE
8
0
6
CONTINUOUS
10
-0.321872
20
0.022796
30
0.0
11
-0.312072
21
0.022796
31
0.0
0
LINE
8
0
6
CONTINUOUS
10
-0.311774
20
-0.032000
30
0.0
11
-0.311774
21
-0.028340
31
0.0
0
LINE
8
0
6
CONTINUOUS
10
-0.311774
20
-0.042000
30
0.0
11
-0.311774
21
-0.041746
31
0.0
0
LINE
8
0
6
CONTINUOUS
10
-0.311774
20
-0.037000
30
0.0
11
-0.311774
21
-0.032000
31
0.0
0
LINE
8
0
6
CONTINUOUS
10
-0.311774
20
-0.041746
30
0.0
11
-0.311774
21
-0.041200
31
0.0
0
LINE
8
0
6
CONTINUOUS
10
-0.311774
20
-0.028340
30
0.0
11
-0.311774
21
-0.027000
31
0.0
0
LINE
8
0
6
CONTINUOUS
10
-0.311774
20
-0.027000
30
0.0
11
-0.312003
21
-0.027000
31
0.0
0
LINE
8
0
6
CONTINUOUS
10
-0.311774
20
-0.041200
30
0.0
11
-0.311774
21
-0.040919
31
0.0
0
LINE
8
0
6
CONTINUOUS
10
-0.330199
20
-0.023822
30
0.0
11
-0.330880
21
-0.022776
31
0.0
0
LINE
8
0
6
CONTINUOUS
10
-0.328875
20
-0.025072
30
0.0
11
-0.329658
21
-0.024372
31
0.0
0
LINE
8
0
6
CONTINUOUS
10
-0.330880
20
-0.022776
30
0.0
11
-0.331530
21
-0.021258
31
0.0
0
LINE
8
0
6
CONTINUOUS
10
-0.326421
20
-0.026411
30
0.0
11
-0.328875
21
-0.025072
31
0.0
0
LINE
8
0
6
CONTINUOUS
10
-0.321872
20
-0.027000
30
0.0
11
-0.326421
21
-0.026411
31
0.0
0
LINE
8
0
6
CONTINUOUS
10
-0.347000
20
-0.027931
30
0.0
11
-0.346766
21
-0.033872
31
0.0
0
LINE
8
0
6
CONTINUOUS
10
-0.331530
20
-0.021258
30
0.0
11
-0.331752
21
-0.019837
31
0.0
0
LINE
8
0
6
CONTINUOUS
10
-0.329658
20
-0.024372
30
0.0
11
-0.330199
21
-0.023822
31
0.0
0
LINE
8
0
6
CONTINUOUS
10
-0.312003
20
-0.027000
30
0.0
11
-0.321872
21
-0.027000
31
0.0
0
LINE
8
0
6
CONTINUOUS
10
-0.311774
20
-0.027000
30
0.0
11
-0.311774
21
-0.028340
31
0.0
0
LINE
8
0
6
CONTINUOUS
10
-0.311728
20
-0.027000
30
0.0
11
-0.311774
21
-0.027000
31
0.0
0
LINE
8
0
6
CONTINUOUS
10
-0.311774
20
-0.028340
30
0.0
11
-0.311774
21
-0.032000
31
0.0
0
LINE
8
0
6
CONTINUOUS
10
-0.311774
20
-0.040780
30
0.0
11
-0.311774
21
-0.041200
31
0.0
0
LINE
8
0
6
CONTINUOUS
10
-0.311774
20
-0.041746
30
0.0
11
-0.311774
21
-0.042000
31
0.0
0
LINE
8
0
6
CONTINUOUS
10
-0.311774
20
-0.032000
30
0.0
11
-0.311774
21
-0.037000
31
0.0
0
LINE
8
0
6
CONTINUOUS
10
-0.311774
20
-0.041200
30
0.0
11
-0.311774
21
-0.041746
31
0.0
0
LINE
8
0
6
CONTINUOUS
10
-0.311774
20
-0.037000
30
0.0
11
-0.311774
21
-0.040780
31
0.0
0
LINE
8
0
6
CONTINUOUS
10
-0.310767
20
-0.028340
30
0.0
11
-0.310767
21
-0.027000
31
0.0
0
LINE
8
0
6
CONTINUOUS
10
-0.310767
20
-0.027000
30
0.0
11
-0.310813
21
-0.027000
31
0.0
0
LINE
8
0
6
CONTINUOUS
10
-0.310813
20
-0.027000
30
0.0
11
-0.311728
21
-0.027000
31
0.0
0
LINE
8
0
6
CONTINUOUS
10
-0.310767
20
-0.032000
30
0.0
11
-0.310767
21
-0.028340
31
0.0
0
LINE
8
0
6
CONTINUOUS
10
-0.310767
20
-0.041200
30
0.0
11
-0.310767
21
-0.040780
31
0.0
0
LINE
8
0
6
CONTINUOUS
10
-0.310767
20
-0.042000
30
0.0
11
-0.310767
21
-0.041746
31
0.0
0
LINE
8
0
6
CONTINUOUS
10
-0.310767
20
-0.037000
30
0.0
11
-0.310767
21
-0.032000
31
0.0
0
LINE
8
0
6
CONTINUOUS
10
-0.310767
20
-0.041746
30
0.0
11
-0.310767
21
-0.041200
31
0.0
0
LINE
8
0
6
CONTINUOUS
10
-0.310767
20
-0.040780
30
0.0
11
-0.310767
21
-0.037000
31
0.0
0
LINE
8
0
6
CONTINUOUS
10
-0.311774
20
0.022796
30
0.0
11
-0.311728
21
0.022796
31
0.0
0
LINE
8
0
6
CONTINUOUS
10
-0.311774
20
0.024136
30
0.0
11
-0.311774
21
0.022796
31
0.0
0
LINE
8
0
6
CONTINUOUS
10
-0.311774
20
0.027796
30
0.0
11
-0.311774
21
0.024136
31
0.0
0
LINE
8
0
6
CONTINUOUS
10
-0.311774
20
0.036996
30
0.0
11
-0.311774
21
0.036576
31
0.0
0
LINE
8
0
6
CONTINUOUS
10
-0.311774
20
0.037796
30
0.0
11
-0.311774
21
0.037543
31
0.0
0
LINE
8
0
6
CONTINUOUS
10
-0.311774
20
0.032796
30
0.0
11
-0.311774
21
0.027796
31
0.0
0
LINE
8
0
6
CONTINUOUS
10
-0.311774
20
0.037543
30
0.0
11
-0.311774
21
0.036996
31
0.0
0
LINE
8
0
6
CONTINUOUS
10
-0.310767
20
0.037796
30
0.0
11
-0.310813
21
0.037796
31
0.0
0
LINE
8
0
6
CONTINUOUS
10
-0.311774
20
0.036576
30
0.0
11
-0.311774
21
0.032796
31
0.0
0
LINE
8
0
6
CONTINUOUS
10
-0.310813
20
0.022796
30
0.0
11
-0.310767
21
0.022796
31
0.0
0
LINE
8
0
6
CONTINUOUS
10
-0.310767
20
0.022796
30
0.0
11
-0.310767
21
0.024136
31
0.0
0
LINE
8
0
6
CONTINUOUS
10
-0.311728
20
0.022796
30
0.0
11
-0.310813
21
0.022796
31
0.0
0
LINE
8
0
6
CONTINUOUS
10
-0.310767
20
0.024136
30
0.0
11
-0.310767
21
0.027796
31
0.0
0
LINE
8
0
6
CONTINUOUS
10
-0.310767
20
0.036576
30
0.0
11
-0.310767
21
0.036996
31
0.0
0
LINE
8
0
6
CONTINUOUS
10
-0.310767
20
0.037543
30
0.0
11
-0.310767
21
0.037796
31
0.0
0
LINE
8
0
6
CONTINUOUS
10
-0.310767
20
0.027796
30
0.0
11
-0.310767
21
0.032796
31
0.0
0
LINE
8
0
6
CONTINUOUS
10
-0.310767
20
0.036996
30
0.0
11
-0.310767
21
0.037543
31
0.0
0
LINE
8
0
6
CONTINUOUS
10
-0.311728
20
0.037796
30
0.0
11
-0.311774
21
0.037796
31
0.0
0
LINE
8
0
6
CONTINUOUS
10
-0.310813
20
0.037796
30
0.0
11
-0.311728
21
0.037796
31
0.0
0
LINE
8
0
6
CONTINUOUS
10
-0.310767
20
0.032796
30
0.0
11
-0.310767
21
0.036576
31
0.0
0
LINE
8
0
6
CONTINUOUS
10
-0.008226
20
-0.027000
30
0.0
11
-0.008272
21
-0.027000
31
0.0
0
LINE
8
0
6
CONTINUOUS
10
-0.008226
20
-0.028340
30
0.0
11
-0.008226
21
-0.027000
31
0.0
0
LINE
8
0
6
CONTINUOUS
10
-0.008226
20
-0.032000
30
0.0
11
-0.008226
21
-0.028340
31
0.0
0
LINE
8
0
6
CONTINUOUS
10
-0.008226
20
-0.041200
30
0.0
11
-0.008226
21
-0.040780
31
0.0
0
LINE
8
0
6
CONTINUOUS
10
-0.008226
20
-0.042000
30
0.0
11
-0.008226
21
-0.041746
31
0.0
0
LINE
8
0
6
CONTINUOUS
10
-0.008226
20
-0.037000
30
0.0
11
-0.008226
21
-0.032000
31
0.0
0
LINE
8
0
6
CONTINUOUS
10
-0.008226
20
-0.041746
30
0.0
11
-0.008226
21
-0.041200
31
0.0
0
LINE
8
0
6
CONTINUOUS
10
-0.008226
20
-0.040780
30
0.0
11
-0.008226
21
-0.037000
31
0.0
0
LINE
8
0
6
CONTINUOUS
10
-0.009187
20
-0.027000
30
0.0
11
-0.009233
21
-0.027000
31
0.0
0
LINE
8
0
6
CONTINUOUS
10
-0.009233
20
-0.027000
30
0.0
11
-0.009233
21
-0.028340
31
0.0
0
LINE
8
0
6
CONTINUOUS
10
-0.008272
20
-0.027000
30
0.0
11
-0.009187
21
-0.027000
31
0.0
0
LINE
8
0
6
CONTINUOUS
10
-0.009233
20
-0.028340
30
0.0
11
-0.009233
21
-0.032000
31
0.0
0
LINE
8
0
6
CONTINUOUS
10
-0.009233
20
-0.040780
30
0.0
11
-0.009233
21
-0.041200
31
0.0
0
LINE
8
0
6
CONTINUOUS
10
-0.009233
20
-0.041746
30
0.0
11
-0.009233
21
-0.042000
31
0.0
0
LINE
8
0
6
CONTINUOUS
10
-0.009233
20
-0.032000
30
0.0
11
-0.009233
21
-0.037000
31
0.0
0
LINE
8
0
6
CONTINUOUS
10
-0.009233
20
-0.041200
30
0.0
11
-0.009233
21
-0.041746
31
0.0
0
LINE
8
0
6
CONTINUOUS
10
-0.009233
20
-0.037000
30
0.0
11
-0.009233
21
-0.040780
31
0.0
0
LINE
8
0
6
CONTINUOUS
10
-0.008226
20
0.022796
30
0.0
11
-0.008226
21
0.024136
31
0.0
0
LINE
8
0
6
CONTINUOUS
10
-0.008272
20
0.022796
30
0.0
11
-0.008226
21
0.022796
31
0.0
0
LINE
8
0
6
CONTINUOUS
10
-0.008226
20
0.024136
30
0.0
11
-0.008226
21
0.027796
31
0.0
0
LINE
8
0
6
CONTINUOUS
10
-0.008226
20
0.036576
30
0.0
11
-0.008226
21
0.036996
31
0.0
0
LINE
8
0
6
CONTINUOUS
10
-0.008226
20
0.037543
30
0.0
11
-0.008226
21
0.037796
31
0.0
0
LINE
8
0
6
CONTINUOUS
10
-0.008226
20
0.027796
30
0.0
11
-0.008226
21
0.032796
31
0.0
0
LINE
8
0
6
CONTINUOUS
10
-0.008226
20
0.036996
30
0.0
11
-0.008226
21
0.037543
31
0.0
0
LINE
8
0
6
CONTINUOUS
10
-0.009187
20
0.037796
30
0.0
11
-0.009233
21
0.037796
31
0.0
0
LINE
8
0
6
CONTINUOUS
10
-0.008226
20
0.032796
30
0.0
11
-0.008226
21
0.036576
31
0.0
0
LINE
8
0
6
CONTINUOUS
10
-0.009233
20
0.024136
30
0.0
11
-0.009233
21
0.022796
31
0.0
0
LINE
8
0
6
CONTINUOUS
10
-0.009233
20
0.022796
30
0.0
11
-0.009187
21
0.022796
31
0.0
0
LINE
8
0
6
CONTINUOUS
10
-0.009187
20
0.022796
30
0.0
11
-0.008272
21
0.022796
31
0.0
0
LINE
8
0
6
CONTINUOUS
10
-0.009233
20
0.027796
30
0.0
11
-0.009233
21
0.024136
31
0.0
0
LINE
8
0
6
CONTINUOUS
10
-0.009233
20
0.036996
30
0.0
11
-0.009233
21
0.036576
31
0.0
0
LINE
8
0
6
CONTINUOUS
10
-0.009233
20
0.037796
30
0.0
11
-0.009233
21
0.037543
31
0.0
0
LINE
8
0
6
CONTINUOUS
10
-0.009233
20
0.032796
30
0.0
11
-0.009233
21
0.027796
31
0.0
0
LINE
8
0
6
CONTINUOUS
10
-0.009233
20
0.037543
30
0.0
11
-0.009233
21
0.036996
31
0.0
0
LINE
8
0
6
CONTINUOUS
10
-0.008226
20
0.037796
30
0.0
11
-0.008272
21
0.037796
31
0.0
0
LINE
8
0
6
CONTINUOUS
10
-0.008272
20
0.037796
30
0.0
11
-0.009187
21
0.037796
31
0.0
0
LINE
8
0
6
CONTINUOUS
10
-0.009233
20
0.036576
30
0.0
11
-0.009233
21
0.032796
31
0.0
0
LINE
8
0
6
CONTINUOUS
10
0.310767
20
0.036576
30
0.0
11
0.310767
21
0.036996
31
0.0
0
LINE
8
0
6
CONTINUOUS
10
0.310767
20
0.037543
30
0.0
11
0.310767
21
0.037796
31
0.0
0
LINE
8
0
6
CONTINUOUS
10
-0.160000
20
0.022796
30
0.0
11
0.310486
21
0.022796
31
0.0
0
LINE
8
0
6
CONTINUOUS
10
0.310767
20
0.036996
30
0.0
11
0.310767
21
0.037543
31
0.0
0
LINE
8
0
6
CONTINUOUS
10
0.310767
20
0.024136
30
0.0
11
0.310767
21
0.027796
31
0.0
0
LINE
8
0
6
CONTINUOUS
10
0.310767
20
0.037796
30
0.0
11
0.310486
21
0.037796
31
0.0
0
LINE
8
0
6
CONTINUOUS
10
0.310767
20
0.022796
30
0.0
11
0.310767
21
0.024136
31
0.0
0
LINE
8
0
6
CONTINUOUS
10
0.310486
20
0.022796
30
0.0
11
0.310767
21
0.022796
31
0.0
0
LINE
8
0
6
CONTINUOUS
10
0.310767
20
0.032796
30
0.0
11
0.310767
21
0.036576
31
0.0
0
LINE
8
0
6
CONTINUOUS
10
0.310767
20
0.027796
30
0.0
11
0.310767
21
0.032796
31
0.0
0
LINE
8
0
6
CONTINUOUS
10
-0.310767
20
0.036996
30
0.0
11
-0.310767
21
0.036576
31
0.0
0
LINE
8
0
6
CONTINUOUS
10
-0.160000
20
0.037796
30
0.0
11
-0.310486
21
0.037796
31
0.0
0
LINE
8
0
6
CONTINUOUS
10
-0.310767
20
0.037796
30
0.0
11
-0.310767
21
0.037543
31
0.0
0
LINE
8
0
6
CONTINUOUS
10
-0.310486
20
0.022796
30
0.0
11
-0.160000
21
0.022796
31
0.0
0
LINE
8
0
6
CONTINUOUS
10
-0.310767
20
0.037543
30
0.0
11
-0.310767
21
0.036996
31
0.0
0
LINE
8
0
6
CONTINUOUS
10
-0.310767
20
0.027796
30
0.0
11
-0.310767
21
0.024136
31
0.0
0
LINE
8
0
6
CONTINUOUS
10
-0.310486
20
0.037796
30
0.0
11
-0.310767
21
0.037796
31
0.0
0
LINE
8
0
6
CONTINUOUS
10
-0.310767
20
0.022796
30
0.0
11
-0.310486
21
0.022796
31
0.0
0
LINE
8
0
6
CONTINUOUS
10
-0.310767
20
0.024136
30
0.0
11
-0.310767
21
0.022796
31
0.0
0
LINE
8
0
6
CONTINUOUS
10
-0.310767
20
0.036576
30
0.0
11
-0.310767
21
0.032796
31
0.0
0
LINE
8
0
6
CONTINUOUS
10
-0.310767
20
0.032796
30
0.0
11
-0.310767
21
0.027796
31
0.0
0
LINE
8
0
6
CONTINUOUS
10
0.310767
20
-0.041200
30
0.0
11
0.310767
21
-0.040780
31
0.0
0
LINE
8
0
6
CONTINUOUS
10
0.310767
20
-0.042000
30
0.0
11
0.310767
21
-0.041746
31
0.0
0
LINE
8
0
6
CONTINUOUS
10
0.310486
20
-0.027000
30
0.0
11
-0.160000
21
-0.027000
31
0.0
0
LINE
8
0
6
CONTINUOUS
10
0.310767
20
-0.041746
30
0.0
11
0.310767
21
-0.041200
31
0.0
0
LINE
8
0
6
CONTINUOUS
10
0.310767
20
-0.032000
30
0.0
11
0.310767
21
-0.028340
31
0.0
0
LINE
8
0
6
CONTINUOUS
10
0.310767
20
-0.027000
30
0.0
11
0.310486
21
-0.027000
31
0.0
0
LINE
8
0
6
CONTINUOUS
10
0.310767
20
-0.028340
30
0.0
11
0.310767
21
-0.027000
31
0.0
0
LINE
8
0
6
CONTINUOUS
10
0.310767
20
-0.040780
30
0.0
11
0.310767
21
-0.037000
31
0.0
0
LINE
8
0
6
CONTINUOUS
10
0.310767
20
-0.037000
30
0.0
11
0.310767
21
-0.032000
31
0.0
0
LINE
8
0
6
CONTINUOUS
10
-0.310767
20
-0.040780
30
0.0
11
-0.310767
21
-0.041200
31
0.0
0
LINE
8
0
6
CONTINUOUS
10
-0.310767
20
-0.041746
30
0.0
11
-0.310767
21
-0.042000
31
0.0
0
LINE
8
0
6
CONTINUOUS
10
-0.160000
20
-0.027000
30
0.0
11
-0.310486
21
-0.027000
31
0.0
0
LINE
8
0
6
CONTINUOUS
10
-0.310767
20
-0.041200
30
0.0
11
-0.310767
21
-0.041746
31
0.0
0
LINE
8
0
6
CONTINUOUS
10
-0.310767
20
-0.028340
30
0.0
11
-0.310767
21
-0.032000
31
0.0
0
LINE
8
0
6
CONTINUOUS
10
-0.310767
20
-0.027000
30
0.0
11
-0.310767
21
-0.028340
31
0.0
0
LINE
8
0
6
CONTINUOUS
10
-0.310486
20
-0.027000
30
0.0
11
-0.310767
21
-0.027000
31
0.0
0
LINE
8
0
6
CONTINUOUS
10
-0.310767
20
-0.037000
30
0.0
11
-0.310767
21
-0.040780
31
0.0
0
LINE
8
0
6
CONTINUOUS
10
-0.310767
20
-0.032000
30
0.0
11
-0.310767
21
-0.037000
31
0.0
0
LINE
8
0
6
CONTINUOUS
10
-0.269505
20
0.038574
30
0.0
11
-0.269505
21
0.041426
31
0.0
0
LINE
8
0
6
CONTINUOUS
10
-0.270838
20
0.042000
30
0.0
11
-0.345667
21
0.042000
31
0.0
0
LINE
8
0
6
CONTINUOUS
10
-0.269505
20
0.042000
30
0.0
11
-0.270838
21
0.042000
31
0.0
0
LINE
8
0
6
CONTINUOUS
10
-0.269505
20
0.041426
30
0.0
11
-0.269505
21
0.042000
31
0.0
0
LINE
8
0
6
CONTINUOUS
10
-0.345667
20
0.038000
30
0.0
11
-0.270838
21
0.038000
31
0.0
0
LINE
8
0
6
CONTINUOUS
10
-0.270838
20
0.038000
30
0.0
11
-0.269505
21
0.038000
31
0.0
0
LINE
8
0
6
CONTINUOUS
10
-0.269505
20
0.038000
30
0.0
11
-0.269505
21
0.038574
31
0.0
0
LINE
8
0
6
CONTINUOUS
10
-0.347000
20
0.041426
30
0.0
11
-0.347000
21
0.038574
31
0.0
0
LINE
8
0
6
CONTINUOUS
10
-0.347000
20
0.042000
30
0.0
11
-0.347000
21
0.041426
31
0.0
0
LINE
8
0
6
CONTINUOUS
10
-0.345667
20
0.042000
30
0.0
11
-0.347000
21
0.042000
31
0.0
0
LINE
8
0
6
CONTINUOUS
10
-0.347000
20
0.038000
30
0.0
11
-0.345667
21
0.038000
31
0.0
0
LINE
8
0
6
CONTINUOUS
10
-0.347000
20
0.038574
30
0.0
11
-0.347000
21
0.038000
31
0.0
0
LINE
8
0
6
CONTINUOUS
10
0.269505
20
0.041426
30
0.0
11
0.269505
21
0.038574
31
0.0
0
LINE
8
0
6
CONTINUOUS
10
0.345667
20
0.042000
30
0.0
11
0.270838
21
0.042000
31
0.0
0
LINE
8
0
6
CONTINUOUS
10
0.269505
20
0.042000
30
0.0
11
0.269505
21
0.041426
31
0.0
0
LINE
8
0
6
CONTINUOUS
10
0.270838
20
0.042000
30
0.0
11
0.269505
21
0.042000
31
0.0
0
LINE
8
0
6
CONTINUOUS
10
0.270838
20
0.038000
30
0.0
11
0.345667
21
0.038000
31
0.0
0
LINE
8
0
6
CONTINUOUS
10
0.269505
20
0.038000
30
0.0
11
0.270838
21
0.038000
31
0.0
0
LINE
8
0
6
CONTINUOUS
10
0.269505
20
0.038574
30
0.0
11
0.269505
21
0.038000
31
0.0
0
LINE
8
0
6
CONTINUOUS
10
0.347000
20
0.038574
30
0.0
11
0.347000
21
0.041426
31
0.0
0
LINE
8
0
6
CONTINUOUS
10
0.347000
20
0.041426
30
0.0
11
0.347000
21
0.042000
31
0.0
0
LINE
8
0
6
CONTINUOUS
10
0.347000
20
0.042000
30
0.0
11
0.345667
21
0.042000
31
0.0
0
LINE
8
0
6
CONTINUOUS
10
0.347000
20
0.038000
30
0.0
11
0.347000
21
0.038574
31
0.0
0
LINE
8
0
6
CONTINUOUS
10
0.345667
20
0.038000
30
0.0
11
0.347000
21
0.038000
31
0.0
0
ENDSEC
0
EOF
