999
unknown String-ID: 20550
0
SECTION
2
HEADER
9
$ACADVER
1
AC1009
9
$DWGCODEPAGE
3
unknown String-ID: 20561
0
ENDSEC
0
SECTION
2
TABLES
0
TABLE
2
LAYER
70
1
0
LAYER
2
0
70
0
62
7
6
CONTINUOUS
0
ENDTAB
0
ENDSEC
0
SECTION
2
ENTITIES
0
LINE
8
0
6
CONTINUOUS
10
0.021887
20
0.132173
30
0.0
11
0.028327
21
0.131376
31
0.0
0
LINE
8
0
6
CONTINUOUS
10
0.030490
20
0.131127
30
0.0
11
0.029601
21
0.131376
31
0.0
0
LINE
8
0
6
CONTINUOUS
10
0.032005
20
0.120692
30
0.0
11
0.032175
21
0.121906
31
0.0
0
LINE
8
0
6
CONTINUOUS
10
0.031525
20
0.119674
30
0.0
11
0.032005
21
0.120692
31
0.0
0
LINE
8
0
6
CONTINUOUS
10
0.030806
20
0.118994
30
0.0
11
0.031525
21
0.119674
31
0.0
0
LINE
8
0
6
CONTINUOUS
10
0.030490
20
0.118868
30
0.0
11
0.030806
21
0.118994
31
0.0
0
LINE
8
0
6
CONTINUOUS
10
0.030806
20
0.131000
30
0.0
11
0.030490
21
0.131127
31
0.0
0
LINE
8
0
6
CONTINUOUS
10
0.031525
20
0.130320
30
0.0
11
0.030806
21
0.131000
31
0.0
0
LINE
8
0
6
CONTINUOUS
10
0.032005
20
0.129303
30
0.0
11
0.031525
21
0.130320
31
0.0
0
LINE
8
0
6
CONTINUOUS
10
0.032175
20
0.128089
30
0.0
11
0.032005
21
0.129303
31
0.0
0
LINE
8
0
6
CONTINUOUS
10
0.023455
20
0.132199
30
0.0
11
0.023236
21
0.132199
31
0.0
0
LINE
8
0
6
CONTINUOUS
10
0.029888
20
0.131173
30
0.0
11
0.029784
21
0.131637
31
0.0
0
LINE
8
0
6
CONTINUOUS
10
0.029784
20
0.131637
30
0.0
11
0.029468
21
0.131995
31
0.0
0
LINE
8
0
6
CONTINUOUS
10
0.029468
20
0.131995
30
0.0
11
0.029023
21
0.132199
31
0.0
0
LINE
8
0
6
CONTINUOUS
10
0.029023
20
0.132199
30
0.0
11
0.028372
21
0.132199
31
0.0
0
LINE
8
0
6
CONTINUOUS
10
0.028372
20
0.132199
30
0.0
11
0.026451
21
0.132199
31
0.0
0
LINE
8
0
6
CONTINUOUS
10
0.026451
20
0.132199
30
0.0
11
0.024020
21
0.132199
31
0.0
0
LINE
8
0
6
CONTINUOUS
10
0.024020
20
0.132199
30
0.0
11
0.024334
21
0.131995
31
0.0
0
LINE
8
0
6
CONTINUOUS
10
0.029888
20
0.085726
30
0.0
11
0.029888
21
0.086025
31
0.0
0
LINE
8
0
6
CONTINUOUS
10
0.029216
20
0.085726
30
0.0
11
0.029888
21
0.085726
31
0.0
0
LINE
8
0
6
CONTINUOUS
10
0.027230
20
0.085726
30
0.0
11
0.029216
21
0.085726
31
0.0
0
LINE
8
0
6
CONTINUOUS
10
0.024953
20
0.082687
30
0.0
11
0.025295
21
0.082362
31
0.0
0
LINE
8
0
6
CONTINUOUS
10
0.025295
20
0.082362
30
0.0
11
0.025522
21
0.081875
31
0.0
0
LINE
8
0
6
CONTINUOUS
10
0.024549
20
0.082801
30
0.0
11
0.024953
21
0.082687
31
0.0
0
LINE
8
0
6
CONTINUOUS
10
0.026972
20
0.082801
30
0.0
11
0.024549
21
0.082801
31
0.0
0
LINE
8
0
6
CONTINUOUS
10
0.020240
20
0.085726
30
0.0
11
0.020240
21
0.083028
31
0.0
0
LINE
8
0
6
CONTINUOUS
10
0.020240
20
0.083028
30
0.0
11
0.020240
21
0.082801
31
0.0
0
LINE
8
0
6
CONTINUOUS
10
0.027515
20
0.083028
30
0.0
11
0.027515
21
0.085726
31
0.0
0
LINE
8
0
6
CONTINUOUS
10
0.021908
20
0.086025
30
0.0
11
0.021908
21
0.085726
31
0.0
0
LINE
8
0
6
CONTINUOUS
10
0.021908
20
0.085726
30
0.0
11
0.024033
21
0.085726
31
0.0
0
LINE
8
0
6
CONTINUOUS
10
0.025522
20
0.081875
30
0.0
11
0.025603
21
0.081301
31
0.0
0
LINE
8
0
6
CONTINUOUS
10
0.027515
20
0.082801
30
0.0
11
0.027515
21
0.083028
31
0.0
0
LINE
8
0
6
CONTINUOUS
10
0.026901
20
0.082801
30
0.0
11
0.027515
21
0.082801
31
0.0
0
LINE
8
0
6
CONTINUOUS
10
0.026886
20
0.082801
30
0.0
11
0.022393
21
0.082801
31
0.0
0
LINE
8
0
6
CONTINUOUS
10
0.024472
20
0.082801
30
0.0
11
0.026886
21
0.082801
31
0.0
0
LINE
8
0
6
CONTINUOUS
10
0.025092
20
0.082801
30
0.0
11
0.026901
21
0.082801
31
0.0
0
LINE
8
0
6
CONTINUOUS
10
0.021900
20
0.118521
30
0.0
11
0.021908
21
0.086025
31
0.0
0
LINE
8
0
6
CONTINUOUS
10
0.032880
20
0.082801
30
0.0
11
0.032774
21
0.082801
31
0.0
0
LINE
8
0
6
CONTINUOUS
10
0.033648
20
0.082801
30
0.0
11
0.032880
21
0.082801
31
0.0
0
LINE
8
0
6
CONTINUOUS
10
0.033538
20
0.082801
30
0.0
11
0.033648
21
0.082801
31
0.0
0
LINE
8
0
6
CONTINUOUS
10
0.032774
20
0.082801
30
0.0
11
0.033538
21
0.082801
31
0.0
0
LINE
8
0
6
CONTINUOUS
10
0.034222
20
0.082687
30
0.0
11
0.033648
21
0.082801
31
0.0
0
LINE
8
0
6
CONTINUOUS
10
0.033648
20
0.082801
30
0.0
11
0.032880
21
0.082801
31
0.0
0
LINE
8
0
6
CONTINUOUS
10
0.034709
20
0.082362
30
0.0
11
0.034222
21
0.082687
31
0.0
0
LINE
8
0
6
CONTINUOUS
10
0.032880
20
0.082801
30
0.0
11
0.030617
21
0.082801
31
0.0
0
LINE
8
0
6
CONTINUOUS
10
0.030617
20
0.082801
30
0.0
11
0.026972
21
0.082801
31
0.0
0
LINE
8
0
6
CONTINUOUS
10
0.035033
20
0.081875
30
0.0
11
0.034709
21
0.082362
31
0.0
0
LINE
8
0
6
CONTINUOUS
10
0.035148
20
0.081301
30
0.0
11
0.035033
21
0.081875
31
0.0
0
LINE
8
0
6
CONTINUOUS
10
0.035148
20
0.081167
30
0.0
11
0.035148
21
0.081301
31
0.0
0
LINE
8
0
6
CONTINUOUS
10
0.035148
20
0.075013
30
0.0
11
0.035148
21
0.081167
31
0.0
0
LINE
8
0
6
CONTINUOUS
10
0.035148
20
0.074801
30
0.0
11
0.035148
21
0.075013
31
0.0
0
LINE
8
0
6
CONTINUOUS
10
0.034343
20
0.074801
30
0.0
11
0.035148
21
0.074801
31
0.0
0
LINE
8
0
6
CONTINUOUS
10
0.031969
20
0.074801
30
0.0
11
0.034343
21
0.074801
31
0.0
0
LINE
8
0
6
CONTINUOUS
10
0.028144
20
0.074801
30
0.0
11
0.031969
21
0.074801
31
0.0
0
LINE
8
0
6
CONTINUOUS
10
0.025603
20
0.074801
30
0.0
11
0.028144
21
0.074801
31
0.0
0
LINE
8
0
6
CONTINUOUS
10
0.025603
20
0.075013
30
0.0
11
0.025603
21
0.074801
31
0.0
0
LINE
8
0
6
CONTINUOUS
10
0.013219
20
0.132199
30
0.0
11
0.012114
21
0.132199
31
0.0
0
LINE
8
0
6
CONTINUOUS
10
0.025603
20
0.081167
30
0.0
11
0.025603
21
0.075013
31
0.0
0
LINE
8
0
6
CONTINUOUS
10
0.025603
20
0.081301
30
0.0
11
0.025603
21
0.081167
31
0.0
0
LINE
8
0
6
CONTINUOUS
10
0.012114
20
0.132199
30
0.0
11
0.011742
21
0.132199
31
0.0
0
LINE
8
0
6
CONTINUOUS
10
0.011140
20
0.132199
30
0.0
11
0.010696
21
0.132199
31
0.0
0
LINE
8
0
6
CONTINUOUS
10
0.012404
20
0.132199
30
0.0
11
0.011140
21
0.132199
31
0.0
0
LINE
8
0
6
CONTINUOUS
10
0.024020
20
0.132199
30
0.0
11
0.013219
21
0.132199
31
0.0
0
LINE
8
0
6
CONTINUOUS
10
0.024334
20
0.131995
30
0.0
11
0.024020
21
0.132199
31
0.0
0
LINE
8
0
6
CONTINUOUS
10
0.023455
20
0.132199
30
0.0
11
0.012404
21
0.132199
31
0.0
0
LINE
8
0
6
CONTINUOUS
10
0.029888
20
0.086025
30
0.0
11
0.029888
21
0.118699
31
0.0
0
LINE
8
0
6
CONTINUOUS
10
0.024033
20
0.085726
30
0.0
11
0.027230
21
0.085726
31
0.0
0
LINE
8
0
6
CONTINUOUS
10
0.029605
20
0.118619
30
0.0
11
0.030490
21
0.118868
31
0.0
0
LINE
8
0
6
CONTINUOUS
10
0.029601
20
0.131376
30
0.0
11
0.023347
21
0.132173
31
0.0
0
LINE
8
0
6
CONTINUOUS
10
0.030466
20
0.129355
30
0.0
11
0.030642
21
0.128102
31
0.0
0
LINE
8
0
6
CONTINUOUS
10
0.029964
20
0.119578
30
0.0
11
0.029213
21
0.118868
31
0.0
0
LINE
8
0
6
CONTINUOUS
10
0.030642
20
0.128102
30
0.0
11
0.030642
21
0.121893
31
0.0
0
LINE
8
0
6
CONTINUOUS
10
0.023343
20
0.118529
30
0.0
11
0.029605
21
0.118619
31
0.0
0
LINE
8
0
6
CONTINUOUS
10
0.028327
20
0.131376
30
0.0
11
0.029213
21
0.131127
31
0.0
0
LINE
8
0
6
CONTINUOUS
10
0.029964
20
0.130417
30
0.0
11
0.030466
21
0.129355
31
0.0
0
LINE
8
0
6
CONTINUOUS
10
0.030466
20
0.120640
30
0.0
11
0.029964
21
0.119578
31
0.0
0
LINE
8
0
6
CONTINUOUS
10
0.030642
20
0.121893
30
0.0
11
0.030466
21
0.120640
31
0.0
0
LINE
8
0
6
CONTINUOUS
10
0.029213
20
0.131127
30
0.0
11
0.029964
21
0.130417
31
0.0
0
LINE
8
0
6
CONTINUOUS
10
0.021270
20
0.132199
30
0.0
11
0.021887
21
0.132173
31
0.0
0
LINE
8
0
6
CONTINUOUS
10
0.023236
20
0.132199
30
0.0
11
0.021270
21
0.132199
31
0.0
0
LINE
8
0
6
CONTINUOUS
10
0.010853
20
0.132199
30
0.0
11
0.010313
21
0.132199
31
0.0
0
LINE
8
0
6
CONTINUOUS
10
0.010313
20
0.132199
30
0.0
11
0.009931
21
0.132199
31
0.0
0
LINE
8
0
6
CONTINUOUS
10
0.012154
20
0.132199
30
0.0
11
0.010853
21
0.132199
31
0.0
0
LINE
8
0
6
CONTINUOUS
10
0.029213
20
0.118868
30
0.0
11
0.028327
21
0.118619
31
0.0
0
LINE
8
0
6
CONTINUOUS
10
0.006489
20
0.132199
30
0.0
11
0.003048
21
0.132199
31
0.0
0
LINE
8
0
6
CONTINUOUS
10
0.009931
20
0.132199
30
0.0
11
0.006489
21
0.132199
31
0.0
0
LINE
8
0
6
CONTINUOUS
10
0.006771
20
0.132199
30
0.0
11
0.005024
21
0.132199
31
0.0
0
LINE
8
0
6
CONTINUOUS
10
0.005024
20
0.132199
30
0.0
11
0.003048
21
0.132199
31
0.0
0
LINE
8
0
6
CONTINUOUS
10
0.003048
20
0.132199
30
0.0
11
0.001073
21
0.132199
31
0.0
0
LINE
8
0
6
CONTINUOUS
10
0.001073
20
0.132199
30
0.0
11
-0.000675
21
0.132199
31
0.0
0
LINE
8
0
6
CONTINUOUS
10
0.018187
20
0.132199
30
0.0
11
0.006771
21
0.132199
31
0.0
0
LINE
8
0
6
CONTINUOUS
10
-0.000675
20
0.132199
30
0.0
11
-0.012091
21
0.132199
31
0.0
0
LINE
8
0
6
CONTINUOUS
10
0.019304
20
0.132199
30
0.0
11
0.007656
21
0.132199
31
0.0
0
LINE
8
0
6
CONTINUOUS
10
0.021270
20
0.132199
30
0.0
11
0.019304
21
0.132199
31
0.0
0
LINE
8
0
6
CONTINUOUS
10
0.005694
20
0.132199
30
0.0
11
0.003431
21
0.132199
31
0.0
0
LINE
8
0
6
CONTINUOUS
10
0.003431
20
0.132199
30
0.0
11
0.003048
21
0.132199
31
0.0
0
LINE
8
0
6
CONTINUOUS
10
0.007656
20
0.132199
30
0.0
11
0.005694
21
0.132199
31
0.0
0
LINE
8
0
6
CONTINUOUS
10
-0.023869
20
0.119578
30
0.0
11
-0.024371
21
0.120640
31
0.0
0
LINE
8
0
6
CONTINUOUS
10
-0.015791
20
0.118518
30
0.0
11
-0.022232
21
0.118619
31
0.0
0
LINE
8
0
6
CONTINUOUS
10
-0.023509
20
0.131376
30
0.0
11
-0.024394
21
0.131127
31
0.0
0
LINE
8
0
6
CONTINUOUS
10
-0.022232
20
0.118619
30
0.0
11
-0.023118
21
0.118868
31
0.0
0
LINE
8
0
6
CONTINUOUS
10
-0.023118
20
0.118868
30
0.0
11
-0.023869
21
0.119578
31
0.0
0
LINE
8
0
6
CONTINUOUS
10
-0.024371
20
0.120640
30
0.0
11
-0.024547
21
0.121893
31
0.0
0
LINE
8
0
6
CONTINUOUS
10
-0.024711
20
0.118994
30
0.0
11
-0.024394
21
0.118868
31
0.0
0
LINE
8
0
6
CONTINUOUS
10
-0.025429
20
0.119674
30
0.0
11
-0.024711
21
0.118994
31
0.0
0
LINE
8
0
6
CONTINUOUS
10
-0.025910
20
0.120692
30
0.0
11
-0.025429
21
0.119674
31
0.0
0
LINE
8
0
6
CONTINUOUS
10
-0.026080
20
0.121906
30
0.0
11
-0.025910
21
0.120692
31
0.0
0
LINE
8
0
6
CONTINUOUS
10
-0.025910
20
0.129303
30
0.0
11
-0.026080
21
0.128089
31
0.0
0
LINE
8
0
6
CONTINUOUS
10
-0.025429
20
0.130320
30
0.0
11
-0.025910
21
0.129303
31
0.0
0
LINE
8
0
6
CONTINUOUS
10
-0.024711
20
0.131001
30
0.0
11
-0.025429
21
0.130320
31
0.0
0
LINE
8
0
6
CONTINUOUS
10
-0.024394
20
0.131127
30
0.0
11
-0.024711
21
0.131001
31
0.0
0
LINE
8
0
6
CONTINUOUS
10
-0.017925
20
0.132199
30
0.0
11
-0.020356
21
0.132199
31
0.0
0
LINE
8
0
6
CONTINUOUS
10
-0.018239
20
0.131995
30
0.0
11
-0.017925
21
0.132199
31
0.0
0
LINE
8
0
6
CONTINUOUS
10
-0.023688
20
0.131637
30
0.0
11
-0.023793
21
0.131173
31
0.0
0
LINE
8
0
6
CONTINUOUS
10
-0.023373
20
0.131995
30
0.0
11
-0.023688
21
0.131637
31
0.0
0
LINE
8
0
6
CONTINUOUS
10
-0.022928
20
0.132199
30
0.0
11
-0.023373
21
0.131995
31
0.0
0
LINE
8
0
6
CONTINUOUS
10
-0.022277
20
0.132199
30
0.0
11
-0.022928
21
0.132199
31
0.0
0
LINE
8
0
6
CONTINUOUS
10
-0.020356
20
0.132199
30
0.0
11
-0.022277
21
0.132199
31
0.0
0
LINE
8
0
6
CONTINUOUS
10
-0.023793
20
0.118700
30
0.0
11
-0.023793
21
0.086025
31
0.0
0
LINE
8
0
6
CONTINUOUS
10
-0.023793
20
0.086025
30
0.0
11
-0.023793
21
0.085726
31
0.0
0
LINE
8
0
6
CONTINUOUS
10
-0.023793
20
0.085726
30
0.0
11
-0.023120
21
0.085726
31
0.0
0
LINE
8
0
6
CONTINUOUS
10
-0.023120
20
0.085726
30
0.0
11
-0.021135
21
0.085726
31
0.0
0
LINE
8
0
6
CONTINUOUS
10
-0.015812
20
0.086025
30
0.0
11
-0.015806
21
0.118518
31
0.0
0
LINE
8
0
6
CONTINUOUS
10
-0.021419
20
0.085726
30
0.0
11
-0.021419
21
0.083028
31
0.0
0
LINE
8
0
6
CONTINUOUS
10
-0.021419
20
0.083028
30
0.0
11
-0.021419
21
0.082801
31
0.0
0
LINE
8
0
6
CONTINUOUS
10
-0.018996
20
0.082801
30
0.0
11
-0.016082
21
0.082801
31
0.0
0
LINE
8
0
6
CONTINUOUS
10
-0.014144
20
0.083028
30
0.0
11
-0.014144
21
0.085719
31
0.0
0
LINE
8
0
6
CONTINUOUS
10
-0.014144
20
0.082801
30
0.0
11
-0.014144
21
0.083028
31
0.0
0
LINE
8
0
6
CONTINUOUS
10
-0.016082
20
0.082801
30
0.0
11
-0.014144
21
0.082801
31
0.0
0
LINE
8
0
6
CONTINUOUS
10
-0.027552
20
0.082801
30
0.0
11
-0.028127
21
0.082687
31
0.0
0
LINE
8
0
6
CONTINUOUS
10
-0.026785
20
0.082801
30
0.0
11
-0.027552
21
0.082801
31
0.0
0
LINE
8
0
6
CONTINUOUS
10
-0.020876
20
0.082801
30
0.0
11
-0.024522
21
0.082801
31
0.0
0
LINE
8
0
6
CONTINUOUS
10
-0.024522
20
0.082801
30
0.0
11
-0.026785
21
0.082801
31
0.0
0
LINE
8
0
6
CONTINUOUS
10
-0.028127
20
0.082687
30
0.0
11
-0.028614
21
0.082362
31
0.0
0
LINE
8
0
6
CONTINUOUS
10
-0.028614
20
0.082362
30
0.0
11
-0.028938
21
0.081875
31
0.0
0
LINE
8
0
6
CONTINUOUS
10
-0.018857
20
0.082687
30
0.0
11
-0.018454
21
0.082801
31
0.0
0
LINE
8
0
6
CONTINUOUS
10
-0.018454
20
0.082801
30
0.0
11
-0.020876
21
0.082801
31
0.0
0
LINE
8
0
6
CONTINUOUS
10
-0.028938
20
0.081875
30
0.0
11
-0.029052
21
0.081301
31
0.0
0
LINE
8
0
6
CONTINUOUS
10
-0.019200
20
0.082362
30
0.0
11
-0.018857
21
0.082687
31
0.0
0
LINE
8
0
6
CONTINUOUS
10
-0.029052
20
0.081301
30
0.0
11
-0.029052
21
0.081167
31
0.0
0
LINE
8
0
6
CONTINUOUS
10
-0.019427
20
0.081875
30
0.0
11
-0.019200
21
0.082362
31
0.0
0
LINE
8
0
6
CONTINUOUS
10
-0.029052
20
0.081167
30
0.0
11
-0.029052
21
0.075013
31
0.0
0
LINE
8
0
6
CONTINUOUS
10
-0.019508
20
0.081301
30
0.0
11
-0.019427
21
0.081875
31
0.0
0
LINE
8
0
6
CONTINUOUS
10
-0.029052
20
0.074801
30
0.0
11
-0.028248
21
0.074801
31
0.0
0
LINE
8
0
6
CONTINUOUS
10
-0.029052
20
0.075013
30
0.0
11
-0.029052
21
0.074801
31
0.0
0
LINE
8
0
6
CONTINUOUS
10
-0.019508
20
0.081167
30
0.0
11
-0.019508
21
0.081301
31
0.0
0
LINE
8
0
6
CONTINUOUS
10
-0.025873
20
0.074801
30
0.0
11
-0.022049
21
0.074801
31
0.0
0
LINE
8
0
6
CONTINUOUS
10
-0.028248
20
0.074801
30
0.0
11
-0.025873
21
0.074801
31
0.0
0
LINE
8
0
6
CONTINUOUS
10
-0.019508
20
0.075013
30
0.0
11
-0.019508
21
0.081167
31
0.0
0
LINE
8
0
6
CONTINUOUS
10
-0.019508
20
0.074801
30
0.0
11
-0.019508
21
0.075013
31
0.0
0
LINE
8
0
6
CONTINUOUS
10
-0.022049
20
0.074801
30
0.0
11
-0.019508
21
0.074801
31
0.0
0
LINE
8
0
6
CONTINUOUS
10
-0.015812
20
0.085726
30
0.0
11
-0.015812
21
0.086025
31
0.0
0
LINE
8
0
6
CONTINUOUS
10
-0.017937
20
0.085726
30
0.0
11
-0.015812
21
0.085726
31
0.0
0
LINE
8
0
6
CONTINUOUS
10
-0.005045
20
0.132199
30
0.0
11
-0.006309
21
0.132199
31
0.0
0
LINE
8
0
6
CONTINUOUS
10
-0.004601
20
0.132199
30
0.0
11
-0.005045
21
0.132199
31
0.0
0
LINE
8
0
6
CONTINUOUS
10
-0.005647
20
0.132199
30
0.0
11
-0.006019
21
0.132199
31
0.0
0
LINE
8
0
6
CONTINUOUS
10
-0.006019
20
0.132199
30
0.0
11
-0.007124
21
0.132199
31
0.0
0
LINE
8
0
6
CONTINUOUS
10
-0.022232
20
0.131376
30
0.0
11
-0.015791
21
0.132173
31
0.0
0
LINE
8
0
6
CONTINUOUS
10
-0.006309
20
0.132199
30
0.0
11
-0.017360
21
0.132199
31
0.0
0
LINE
8
0
6
CONTINUOUS
10
-0.017925
20
0.132199
30
0.0
11
-0.018239
21
0.131995
31
0.0
0
LINE
8
0
6
CONTINUOUS
10
-0.007124
20
0.132199
30
0.0
11
-0.017925
21
0.132199
31
0.0
0
LINE
8
0
6
CONTINUOUS
10
-0.021135
20
0.085726
30
0.0
11
-0.017937
21
0.085726
31
0.0
0
LINE
8
0
6
CONTINUOUS
10
-0.015175
20
0.132199
30
0.0
11
-0.017142
21
0.132199
31
0.0
0
LINE
8
0
6
CONTINUOUS
10
-0.015791
20
0.132173
30
0.0
11
-0.015175
21
0.132199
31
0.0
0
LINE
8
0
6
CONTINUOUS
10
-0.024547
20
0.128102
30
0.0
11
-0.024371
21
0.129355
31
0.0
0
LINE
8
0
6
CONTINUOUS
10
-0.024547
20
0.121893
30
0.0
11
-0.024547
21
0.128102
31
0.0
0
LINE
8
0
6
CONTINUOUS
10
-0.023869
20
0.130417
30
0.0
11
-0.023118
21
0.131127
31
0.0
0
LINE
8
0
6
CONTINUOUS
10
-0.023118
20
0.131127
30
0.0
11
-0.022232
21
0.131376
31
0.0
0
LINE
8
0
6
CONTINUOUS
10
-0.024394
20
0.118868
30
0.0
11
-0.023506
21
0.118619
31
0.0
0
LINE
8
0
6
CONTINUOUS
10
-0.024371
20
0.129355
30
0.0
11
-0.023869
21
0.130417
31
0.0
0
LINE
8
0
6
CONTINUOUS
10
-0.017252
20
0.132173
30
0.0
11
-0.023509
21
0.131376
31
0.0
0
LINE
8
0
6
CONTINUOUS
10
-0.017142
20
0.132199
30
0.0
11
-0.017360
21
0.132199
31
0.0
0
LINE
8
0
6
CONTINUOUS
10
0.019726
20
0.130921
30
0.0
11
0.019726
21
0.119778
31
0.0
0
LINE
8
0
6
CONTINUOUS
10
0.029964
20
0.119578
30
0.0
11
0.030466
21
0.120640
31
0.0
0
LINE
8
0
6
CONTINUOUS
10
0.021887
20
0.118518
30
0.0
11
0.028327
21
0.118619
31
0.0
0
LINE
8
0
6
CONTINUOUS
10
0.028327
20
0.118619
30
0.0
11
0.029213
21
0.118868
31
0.0
0
LINE
8
0
6
CONTINUOUS
10
0.029213
20
0.118868
30
0.0
11
0.029964
21
0.119578
31
0.0
0
LINE
8
0
6
CONTINUOUS
10
0.030466
20
0.120640
30
0.0
11
0.030642
21
0.121893
31
0.0
0
LINE
8
0
6
CONTINUOUS
10
0.019726
20
0.119527
30
0.0
11
0.019822
21
0.119027
31
0.0
0
LINE
8
0
6
CONTINUOUS
10
0.019652
20
0.131637
30
0.0
11
0.019726
21
0.131173
31
0.0
0
LINE
8
0
6
CONTINUOUS
10
0.019417
20
0.131995
30
0.0
11
0.019652
21
0.131637
31
0.0
0
LINE
8
0
6
CONTINUOUS
10
-0.015791
20
0.132173
30
0.0
11
-0.022232
21
0.131376
31
0.0
0
LINE
8
0
6
CONTINUOUS
10
-0.022232
20
0.118619
30
0.0
11
-0.015806
21
0.118521
31
0.0
0
LINE
8
0
6
CONTINUOUS
10
-0.013632
20
0.119780
30
0.0
11
-0.013632
21
0.130921
31
0.0
0
LINE
8
0
6
CONTINUOUS
10
-0.013558
20
0.131637
30
0.0
11
-0.013323
21
0.131995
31
0.0
0
LINE
8
0
6
CONTINUOUS
10
-0.013632
20
0.131173
30
0.0
11
-0.013558
21
0.131637
31
0.0
0
LINE
8
0
6
CONTINUOUS
10
-0.013729
20
0.119029
30
0.0
11
-0.013632
21
0.119529
31
0.0
0
LINE
8
0
6
CONTINUOUS
10
-0.012991
20
0.132199
30
0.0
11
-0.013209
21
0.132199
31
0.0
0
LINE
8
0
6
CONTINUOUS
10
0.018831
20
0.131173
30
0.0
11
0.019730
21
0.131173
31
0.0
0
LINE
8
0
6
CONTINUOUS
10
0.018186
20
0.132199
30
0.0
11
0.014318
21
0.132199
31
0.0
0
LINE
8
0
6
CONTINUOUS
10
0.018518
20
0.131995
30
0.0
11
0.018186
21
0.132199
31
0.0
0
LINE
8
0
6
CONTINUOUS
10
-0.002925
20
0.131173
30
0.0
11
0.003048
21
0.131173
31
0.0
0
LINE
8
0
6
CONTINUOUS
10
-0.008598
20
0.131173
30
0.0
11
-0.002925
21
0.131173
31
0.0
0
LINE
8
0
6
CONTINUOUS
10
0.003048
20
0.131173
30
0.0
11
0.009020
21
0.131173
31
0.0
0
LINE
8
0
6
CONTINUOUS
10
-0.012737
20
0.131173
30
0.0
11
-0.008598
21
0.131173
31
0.0
0
LINE
8
0
6
CONTINUOUS
10
-0.012659
20
0.131637
30
0.0
11
-0.012737
21
0.131173
31
0.0
0
LINE
8
0
6
CONTINUOUS
10
0.003048
20
0.132199
30
0.0
11
-0.002733
21
0.132199
31
0.0
0
LINE
8
0
6
CONTINUOUS
10
0.009020
20
0.131173
30
0.0
11
0.014693
21
0.131173
31
0.0
0
LINE
8
0
6
CONTINUOUS
10
-0.012424
20
0.131995
30
0.0
11
-0.012659
21
0.131637
31
0.0
0
LINE
8
0
6
CONTINUOUS
10
-0.002733
20
0.132199
30
0.0
11
-0.008223
21
0.132199
31
0.0
0
LINE
8
0
6
CONTINUOUS
10
0.008828
20
0.132199
30
0.0
11
0.003048
21
0.132199
31
0.0
0
LINE
8
0
6
CONTINUOUS
10
0.018831
20
0.131173
30
0.0
11
0.018753
21
0.131637
31
0.0
0
LINE
8
0
6
CONTINUOUS
10
0.014693
20
0.131173
30
0.0
11
0.018831
21
0.131173
31
0.0
0
LINE
8
0
6
CONTINUOUS
10
0.014318
20
0.132199
30
0.0
11
0.008828
21
0.132199
31
0.0
0
LINE
8
0
6
CONTINUOUS
10
0.018753
20
0.131637
30
0.0
11
0.018518
21
0.131995
31
0.0
0
LINE
8
0
6
CONTINUOUS
10
-0.008223
20
0.132199
30
0.0
11
-0.012092
21
0.132199
31
0.0
0
LINE
8
0
6
CONTINUOUS
10
-0.012092
20
0.132199
30
0.0
11
-0.012424
21
0.131995
31
0.0
0
LINE
8
0
6
CONTINUOUS
10
-0.002925
20
0.131173
30
0.0
11
-0.008598
21
0.131173
31
0.0
0
LINE
8
0
6
CONTINUOUS
10
0.009020
20
0.131173
30
0.0
11
0.003048
21
0.131173
31
0.0
0
LINE
8
0
6
CONTINUOUS
10
0.014693
20
0.131173
30
0.0
11
0.009020
21
0.131173
31
0.0
0
LINE
8
0
6
CONTINUOUS
10
-0.002925
20
0.085726
30
0.0
11
0.003048
21
0.085726
31
0.0
0
LINE
8
0
6
CONTINUOUS
10
-0.008598
20
0.085726
30
0.0
11
-0.002960
21
0.085726
31
0.0
0
LINE
8
0
6
CONTINUOUS
10
0.003048
20
0.085726
30
0.0
11
0.009020
21
0.085726
31
0.0
0
LINE
8
0
6
CONTINUOUS
10
-0.018857
20
0.082687
30
0.0
11
-0.019200
21
0.082362
31
0.0
0
LINE
8
0
6
CONTINUOUS
10
0.009020
20
0.085726
30
0.0
11
0.014693
21
0.085726
31
0.0
0
LINE
8
0
6
CONTINUOUS
10
-0.019200
20
0.082362
30
0.0
11
-0.019427
21
0.081875
31
0.0
0
LINE
8
0
6
CONTINUOUS
10
-0.018454
20
0.082801
30
0.0
11
-0.018857
21
0.082687
31
0.0
0
LINE
8
0
6
CONTINUOUS
10
-0.016031
20
0.082801
30
0.0
11
-0.018454
21
0.082801
31
0.0
0
LINE
8
0
6
CONTINUOUS
10
-0.014144
20
0.085726
30
0.0
11
-0.014144
21
0.083028
31
0.0
0
LINE
8
0
6
CONTINUOUS
10
-0.014144
20
0.082801
30
0.0
11
-0.012207
21
0.082801
31
0.0
0
LINE
8
0
6
CONTINUOUS
10
-0.014144
20
0.083028
30
0.0
11
-0.014144
21
0.082801
31
0.0
0
LINE
8
0
6
CONTINUOUS
10
-0.015812
20
0.086025
30
0.0
11
-0.015812
21
0.085726
31
0.0
0
LINE
8
0
6
CONTINUOUS
10
-0.015812
20
0.085726
30
0.0
11
-0.013687
21
0.085726
31
0.0
0
LINE
8
0
6
CONTINUOUS
10
0.021908
20
0.086025
30
0.0
11
0.021900
21
0.118519
31
0.0
0
LINE
8
0
6
CONTINUOUS
10
-0.019427
20
0.081875
30
0.0
11
-0.019508
21
0.081301
31
0.0
0
LINE
8
0
6
CONTINUOUS
10
-0.002397
20
0.082801
30
0.0
11
0.003048
21
0.082801
31
0.0
0
LINE
8
0
6
CONTINUOUS
10
-0.018377
20
0.082801
30
0.0
11
-0.015963
21
0.082801
31
0.0
0
LINE
8
0
6
CONTINUOUS
10
-0.014339
20
0.082801
30
0.0
11
-0.018377
21
0.082801
31
0.0
0
LINE
8
0
6
CONTINUOUS
10
-0.012380
20
0.082801
30
0.0
11
-0.014339
21
0.082801
31
0.0
0
LINE
8
0
6
CONTINUOUS
10
-0.007568
20
0.082801
30
0.0
11
-0.002397
21
0.082801
31
0.0
0
LINE
8
0
6
CONTINUOUS
10
-0.012207
20
0.082801
30
0.0
11
-0.007568
21
0.082801
31
0.0
0
LINE
8
0
6
CONTINUOUS
10
-0.015806
20
0.118521
30
0.0
11
-0.015812
21
0.086025
31
0.0
0
LINE
8
0
6
CONTINUOUS
10
-0.003737
20
0.082801
30
0.0
11
0.003048
21
0.082801
31
0.0
0
LINE
8
0
6
CONTINUOUS
10
0.003048
20
0.082801
30
0.0
11
-0.002458
21
0.082801
31
0.0
0
LINE
8
0
6
CONTINUOUS
10
-0.008598
20
0.131173
30
0.0
11
-0.013636
21
0.131173
31
0.0
0
LINE
8
0
6
CONTINUOUS
10
0.020240
20
0.083028
30
0.0
11
0.020240
21
0.085719
31
0.0
0
LINE
8
0
6
CONTINUOUS
10
-0.010182
20
0.082801
30
0.0
11
-0.003737
21
0.082801
31
0.0
0
LINE
8
0
6
CONTINUOUS
10
-0.002458
20
0.082801
30
0.0
11
-0.007688
21
0.082801
31
0.0
0
LINE
8
0
6
CONTINUOUS
10
-0.015963
20
0.082801
30
0.0
11
-0.010182
21
0.082801
31
0.0
0
LINE
8
0
6
CONTINUOUS
10
-0.007688
20
0.082801
30
0.0
11
-0.012380
21
0.082801
31
0.0
0
LINE
8
0
6
CONTINUOUS
10
0.020240
20
0.082801
30
0.0
11
0.020240
21
0.083028
31
0.0
0
LINE
8
0
6
CONTINUOUS
10
0.003048
20
0.082801
30
0.0
11
-0.003762
21
0.082801
31
0.0
0
LINE
8
0
6
CONTINUOUS
10
0.009857
20
0.082801
30
0.0
11
0.003048
21
0.082801
31
0.0
0
LINE
8
0
6
CONTINUOUS
10
-0.003762
20
0.082801
30
0.0
11
-0.010229
21
0.082801
31
0.0
0
LINE
8
0
6
CONTINUOUS
10
-0.010229
20
0.082801
30
0.0
11
-0.016031
21
0.082801
31
0.0
0
LINE
8
0
6
CONTINUOUS
10
0.022126
20
0.082801
30
0.0
11
0.016324
21
0.082801
31
0.0
0
LINE
8
0
6
CONTINUOUS
10
0.016324
20
0.082801
30
0.0
11
0.009857
21
0.082801
31
0.0
0
LINE
8
0
6
CONTINUOUS
10
0.024953
20
0.082687
30
0.0
11
0.024549
21
0.082801
31
0.0
0
LINE
8
0
6
CONTINUOUS
10
0.024549
20
0.082801
30
0.0
11
0.022126
21
0.082801
31
0.0
0
LINE
8
0
6
CONTINUOUS
10
0.025295
20
0.082362
30
0.0
11
0.024953
21
0.082687
31
0.0
0
LINE
8
0
6
CONTINUOUS
10
0.025522
20
0.081875
30
0.0
11
0.025295
21
0.082362
31
0.0
0
LINE
8
0
6
CONTINUOUS
10
-0.004095
20
0.074801
30
0.0
11
0.003048
21
0.074801
31
0.0
0
LINE
8
0
6
CONTINUOUS
10
0.025603
20
0.081301
30
0.0
11
0.025522
21
0.081875
31
0.0
0
LINE
8
0
6
CONTINUOUS
10
0.003048
20
0.074801
30
0.0
11
0.010190
21
0.074801
31
0.0
0
LINE
8
0
6
CONTINUOUS
10
-0.010880
20
0.074801
30
0.0
11
-0.004095
21
0.074801
31
0.0
0
LINE
8
0
6
CONTINUOUS
10
-0.016966
20
0.074801
30
0.0
11
-0.010880
21
0.074801
31
0.0
0
LINE
8
0
6
CONTINUOUS
10
0.025603
20
0.081167
30
0.0
11
0.025603
21
0.081301
31
0.0
0
LINE
8
0
6
CONTINUOUS
10
0.016975
20
0.074801
30
0.0
11
0.023062
21
0.074801
31
0.0
0
LINE
8
0
6
CONTINUOUS
10
0.010190
20
0.074801
30
0.0
11
0.016975
21
0.074801
31
0.0
0
LINE
8
0
6
CONTINUOUS
10
0.025603
20
0.075013
30
0.0
11
0.025603
21
0.081167
31
0.0
0
LINE
8
0
6
CONTINUOUS
10
0.019730
20
0.131173
30
0.0
11
0.014693
21
0.131173
31
0.0
0
LINE
8
0
6
CONTINUOUS
10
0.025603
20
0.074801
30
0.0
11
0.025603
21
0.075013
31
0.0
0
LINE
8
0
6
CONTINUOUS
10
0.023062
20
0.074801
30
0.0
11
0.025603
21
0.074801
31
0.0
0
LINE
8
0
6
CONTINUOUS
10
0.021908
20
0.085726
30
0.0
11
0.021908
21
0.086025
31
0.0
0
LINE
8
0
6
CONTINUOUS
10
0.019783
20
0.085726
30
0.0
11
0.021908
21
0.085726
31
0.0
0
LINE
8
0
6
CONTINUOUS
10
-0.019508
20
0.074801
30
0.0
11
-0.016966
21
0.074801
31
0.0
0
LINE
8
0
6
CONTINUOUS
10
-0.019508
20
0.075013
30
0.0
11
-0.019508
21
0.074801
31
0.0
0
LINE
8
0
6
CONTINUOUS
10
0.000688
20
0.132199
30
0.0
11
-0.001311
21
0.132199
31
0.0
0
LINE
8
0
6
CONTINUOUS
10
-0.019508
20
0.081167
30
0.0
11
-0.019508
21
0.075013
31
0.0
0
LINE
8
0
6
CONTINUOUS
10
-0.019508
20
0.081301
30
0.0
11
-0.019508
21
0.081167
31
0.0
0
LINE
8
0
6
CONTINUOUS
10
0.003047
20
0.132199
30
0.0
11
0.000688
21
0.132199
31
0.0
0
LINE
8
0
6
CONTINUOUS
10
0.005406
20
0.132199
30
0.0
11
0.003047
21
0.132199
31
0.0
0
LINE
8
0
6
CONTINUOUS
10
0.007405
20
0.132199
30
0.0
11
0.005406
21
0.132199
31
0.0
0
LINE
8
0
6
CONTINUOUS
10
0.028327
20
0.131376
30
0.0
11
0.021887
21
0.132173
31
0.0
0
LINE
8
0
6
CONTINUOUS
10
-0.013558
20
0.131637
30
0.0
11
-0.013636
21
0.131173
31
0.0
0
LINE
8
0
6
CONTINUOUS
10
-0.013323
20
0.131995
30
0.0
11
-0.013558
21
0.131637
31
0.0
0
LINE
8
0
6
CONTINUOUS
10
-0.012991
20
0.132199
30
0.0
11
-0.013323
21
0.131995
31
0.0
0
LINE
8
0
6
CONTINUOUS
10
-0.001311
20
0.132199
30
0.0
11
-0.012991
21
0.132199
31
0.0
0
LINE
8
0
6
CONTINUOUS
10
0.019085
20
0.132199
30
0.0
11
0.007405
21
0.132199
31
0.0
0
LINE
8
0
6
CONTINUOUS
10
0.019417
20
0.131995
30
0.0
11
0.019085
21
0.132199
31
0.0
0
LINE
8
0
6
CONTINUOUS
10
0.019652
20
0.131637
30
0.0
11
0.019417
21
0.131995
31
0.0
0
LINE
8
0
6
CONTINUOUS
10
0.019730
20
0.131173
30
0.0
11
0.019652
21
0.131637
31
0.0
0
LINE
8
0
6
CONTINUOUS
10
0.003048
20
0.131173
30
0.0
11
-0.002925
21
0.131173
31
0.0
0
LINE
8
0
6
CONTINUOUS
10
0.014693
20
0.085726
30
0.0
11
0.019783
21
0.085726
31
0.0
0
LINE
8
0
6
CONTINUOUS
10
-0.013687
20
0.085726
30
0.0
11
-0.008598
21
0.085726
31
0.0
0
LINE
8
0
6
CONTINUOUS
10
0.021270
20
0.132199
30
0.0
11
0.019303
21
0.132199
31
0.0
0
LINE
8
0
6
CONTINUOUS
10
0.021887
20
0.132173
30
0.0
11
0.021270
21
0.132199
31
0.0
0
LINE
8
0
6
CONTINUOUS
10
0.019085
20
0.132199
30
0.0
11
0.019417
21
0.131995
31
0.0
0
LINE
8
0
6
CONTINUOUS
10
-0.013323
20
0.131995
30
0.0
11
-0.012991
21
0.132199
31
0.0
0
LINE
8
0
6
CONTINUOUS
10
-0.013632
20
0.130921
30
0.0
11
-0.013632
21
0.131173
31
0.0
0
LINE
8
0
6
CONTINUOUS
10
-0.013632
20
0.119529
30
0.0
11
-0.013632
21
0.119780
31
0.0
0
LINE
8
0
6
CONTINUOUS
10
0.019726
20
0.119778
30
0.0
11
0.019726
21
0.119527
31
0.0
0
LINE
8
0
6
CONTINUOUS
10
0.019726
20
0.131173
30
0.0
11
0.019726
21
0.130921
31
0.0
0
LINE
8
0
6
CONTINUOUS
10
-0.024371
20
0.129355
30
0.0
11
-0.024547
21
0.128102
31
0.0
0
LINE
8
0
6
CONTINUOUS
10
-0.023869
20
0.119578
30
0.0
11
-0.023118
21
0.118868
31
0.0
0
LINE
8
0
6
CONTINUOUS
10
-0.024547
20
0.128102
30
0.0
11
-0.024547
21
0.121893
31
0.0
0
LINE
8
0
6
CONTINUOUS
10
-0.022232
20
0.131376
30
0.0
11
-0.023118
21
0.131127
31
0.0
0
LINE
8
0
6
CONTINUOUS
10
-0.023869
20
0.130417
30
0.0
11
-0.024371
21
0.129355
31
0.0
0
LINE
8
0
6
CONTINUOUS
10
-0.024371
20
0.120640
30
0.0
11
-0.023869
21
0.119578
31
0.0
0
LINE
8
0
6
CONTINUOUS
10
-0.024547
20
0.121893
30
0.0
11
-0.024371
21
0.120640
31
0.0
0
LINE
8
0
6
CONTINUOUS
10
-0.023118
20
0.131127
30
0.0
11
-0.023869
21
0.130417
31
0.0
0
LINE
8
0
6
CONTINUOUS
10
-0.015175
20
0.132199
30
0.0
11
-0.015791
21
0.132173
31
0.0
0
LINE
8
0
6
CONTINUOUS
10
-0.013209
20
0.132199
30
0.0
11
-0.015175
21
0.132199
31
0.0
0
LINE
8
0
6
CONTINUOUS
10
-0.023118
20
0.118868
30
0.0
11
-0.022232
21
0.118619
31
0.0
0
LINE
8
0
6
CONTINUOUS
10
0.030642
20
0.128102
30
0.0
11
0.030466
21
0.129355
31
0.0
0
LINE
8
0
6
CONTINUOUS
10
0.030642
20
0.121893
30
0.0
11
0.030642
21
0.128102
31
0.0
0
LINE
8
0
6
CONTINUOUS
10
0.029964
20
0.130417
30
0.0
11
0.029213
21
0.131127
31
0.0
0
LINE
8
0
6
CONTINUOUS
10
0.029213
20
0.131127
30
0.0
11
0.028327
21
0.131376
31
0.0
0
LINE
8
0
6
CONTINUOUS
10
0.030466
20
0.129355
30
0.0
11
0.029964
21
0.130417
31
0.0
0
LINE
8
0
6
CONTINUOUS
10
0.019303
20
0.132199
30
0.0
11
0.019085
21
0.132199
31
0.0
0
LINE
8
0
6
CONTINUOUS
10
0.035431
20
0.108809
30
0.0
11
0.035371
21
0.108809
31
0.0
0
LINE
8
0
6
CONTINUOUS
10
0.035371
20
0.098809
30
0.0
11
0.035431
21
0.098809
31
0.0
0
LINE
8
0
6
CONTINUOUS
10
0.035431
20
0.098809
30
0.0
11
0.035681
21
0.098877
31
0.0
0
LINE
8
0
6
CONTINUOUS
10
0.035681
20
0.098877
30
0.0
11
0.035864
21
0.099061
31
0.0
0
LINE
8
0
6
CONTINUOUS
10
0.035931
20
0.099314
30
0.0
11
0.035931
21
0.099467
31
0.0
0
LINE
8
0
6
CONTINUOUS
10
0.035864
20
0.099061
30
0.0
11
0.035931
21
0.099314
31
0.0
0
LINE
8
0
6
CONTINUOUS
10
0.035931
20
0.099467
30
0.0
11
0.035931
21
0.099916
31
0.0
0
LINE
8
0
6
CONTINUOUS
10
0.035931
20
0.099916
30
0.0
11
0.035931
21
0.100630
31
0.0
0
LINE
8
0
6
CONTINUOUS
10
0.035931
20
0.100630
30
0.0
11
0.035931
21
0.101561
31
0.0
0
LINE
8
0
6
CONTINUOUS
10
0.035931
20
0.101561
30
0.0
11
0.035931
21
0.102646
31
0.0
0
LINE
8
0
6
CONTINUOUS
10
0.035931
20
0.102646
30
0.0
11
0.035931
21
0.103809
31
0.0
0
LINE
8
0
6
CONTINUOUS
10
0.035931
20
0.104973
30
0.0
11
0.035931
21
0.106057
31
0.0
0
LINE
8
0
6
CONTINUOUS
10
0.035931
20
0.106057
30
0.0
11
0.035931
21
0.106988
31
0.0
0
LINE
8
0
6
CONTINUOUS
10
0.035931
20
0.106988
30
0.0
11
0.035931
21
0.107703
31
0.0
0
LINE
8
0
6
CONTINUOUS
10
0.035931
20
0.107703
30
0.0
11
0.035931
21
0.108152
31
0.0
0
LINE
8
0
6
CONTINUOUS
10
0.035681
20
0.108742
30
0.0
11
0.035431
21
0.108809
31
0.0
0
LINE
8
0
6
CONTINUOUS
10
0.035864
20
0.108557
30
0.0
11
0.035681
21
0.108742
31
0.0
0
LINE
8
0
6
CONTINUOUS
10
0.035931
20
0.108305
30
0.0
11
0.035864
21
0.108557
31
0.0
0
LINE
8
0
6
CONTINUOUS
10
0.035931
20
0.108152
30
0.0
11
0.035931
21
0.108305
31
0.0
0
LINE
8
0
6
CONTINUOUS
10
0.035371
20
0.108809
30
0.0
11
0.029889
21
0.108809
31
0.0
0
LINE
8
0
6
CONTINUOUS
10
0.029888
20
0.098809
30
0.0
11
0.035371
21
0.098809
31
0.0
0
LINE
8
0
6
CONTINUOUS
10
-0.026142
20
0.025801
30
0.0
11
-0.029960
21
0.025801
31
0.0
0
LINE
8
0
6
CONTINUOUS
10
-0.029960
20
0.011801
30
0.0
11
-0.026142
21
0.011801
31
0.0
0
LINE
8
0
6
CONTINUOUS
10
-0.023803
20
0.025801
30
0.0
11
-0.026142
21
0.025801
31
0.0
0
LINE
8
0
6
CONTINUOUS
10
-0.026142
20
0.011801
30
0.0
11
-0.023803
21
0.011801
31
0.0
0
LINE
8
0
6
CONTINUOUS
10
-0.039246
20
0.007013
30
0.0
11
-0.038397
21
0.014375
31
0.0
0
LINE
8
0
6
CONTINUOUS
10
-0.039857
20
-0.001589
30
0.0
11
-0.039246
21
0.007013
31
0.0
0
LINE
8
0
6
CONTINUOUS
10
-0.034904
20
0.023757
30
0.0
11
-0.033424
21
0.024877
31
0.0
0
LINE
8
0
6
CONTINUOUS
10
-0.035709
20
0.022845
30
0.0
11
-0.034904
21
0.023757
31
0.0
0
LINE
8
0
6
CONTINUOUS
10
-0.033424
20
0.024877
30
0.0
11
-0.031748
21
0.025549
31
0.0
0
LINE
8
0
6
CONTINUOUS
10
-0.031748
20
0.025549
30
0.0
11
-0.029960
21
0.025801
31
0.0
0
LINE
8
0
6
CONTINUOUS
10
-0.038216
20
0.015868
30
0.0
11
-0.038397
21
0.014375
31
0.0
0
LINE
8
0
6
CONTINUOUS
10
-0.037421
20
0.019865
30
0.0
11
-0.036790
21
0.021447
31
0.0
0
LINE
8
0
6
CONTINUOUS
10
-0.038216
20
0.015868
30
0.0
11
-0.037421
21
0.019865
31
0.0
0
LINE
8
0
6
CONTINUOUS
10
-0.036790
20
0.021447
30
0.0
11
-0.035709
21
0.022845
31
0.0
0
LINE
8
0
6
CONTINUOUS
10
-0.040959
20
-0.033641
30
0.0
11
-0.040756
21
-0.023505
31
0.0
0
LINE
8
0
6
CONTINUOUS
10
-0.041084
20
-0.043816
30
0.0
11
-0.040959
21
-0.033641
31
0.0
0
LINE
8
0
6
CONTINUOUS
10
-0.040380
20
-0.012651
30
0.0
11
-0.039857
21
-0.001589
31
0.0
0
LINE
8
0
6
CONTINUOUS
10
-0.040756
20
-0.023505
30
0.0
11
-0.040380
21
-0.012651
31
0.0
0
LINE
8
0
6
CONTINUOUS
10
-0.040711
20
-0.062651
30
0.0
11
-0.040899
21
-0.053199
31
0.0
0
LINE
8
0
6
CONTINUOUS
10
-0.039256
20
-0.083327
30
0.0
11
-0.040157
21
-0.072996
31
0.0
0
LINE
8
0
6
CONTINUOUS
10
-0.040157
20
-0.072996
30
0.0
11
-0.040711
21
-0.062651
31
0.0
0
LINE
8
0
6
CONTINUOUS
10
-0.040899
20
-0.053199
30
0.0
11
-0.041084
21
-0.043816
31
0.0
0
LINE
8
0
6
CONTINUOUS
10
-0.032191
20
-0.115973
30
0.0
11
-0.035020
21
-0.106813
31
0.0
0
LINE
8
0
6
CONTINUOUS
10
-0.028338
20
-0.123666
30
0.0
11
-0.032191
21
-0.115973
31
0.0
0
LINE
8
0
6
CONTINUOUS
10
-0.035233
20
-0.105844
30
0.0
11
-0.037569
21
-0.094540
31
0.0
0
LINE
8
0
6
CONTINUOUS
10
-0.035020
20
-0.106813
30
0.0
11
-0.035233
21
-0.105844
31
0.0
0
LINE
8
0
6
CONTINUOUS
10
-0.037569
20
-0.094540
30
0.0
11
-0.039256
21
-0.083327
31
0.0
0
LINE
8
0
6
CONTINUOUS
10
-0.004421
20
-0.062514
30
0.0
11
-0.004234
21
-0.053199
31
0.0
0
LINE
8
0
6
CONTINUOUS
10
-0.004965
20
-0.072518
30
0.0
11
-0.004421
21
-0.062514
31
0.0
0
LINE
8
0
6
CONTINUOUS
10
-0.005843
20
-0.082458
30
0.0
11
-0.004965
21
-0.072518
31
0.0
0
LINE
8
0
6
CONTINUOUS
10
-0.004234
20
-0.053199
30
0.0
11
-0.004234
21
-0.051151
31
0.0
0
LINE
8
0
6
CONTINUOUS
10
-0.017815
20
-0.119907
30
0.0
11
-0.014786
21
-0.116642
31
0.0
0
LINE
8
0
6
CONTINUOUS
10
-0.016522
20
-0.118853
30
0.0
11
-0.014995
21
-0.118220
31
0.0
0
LINE
8
0
6
CONTINUOUS
10
-0.017299
20
-0.131947
30
0.0
11
-0.021012
21
-0.130931
31
0.0
0
LINE
8
0
6
CONTINUOUS
10
-0.015596
20
-0.132199
30
0.0
11
-0.017299
21
-0.131947
31
0.0
0
LINE
8
0
6
CONTINUOUS
10
-0.012007
20
-0.110849
30
0.0
11
-0.009483
21
-0.102805
31
0.0
0
LINE
8
0
6
CONTINUOUS
10
-0.015595
20
-0.117879
30
0.0
11
-0.012007
21
-0.110849
31
0.0
0
LINE
8
0
6
CONTINUOUS
10
-0.009695
20
-0.103775
30
0.0
11
-0.007449
21
-0.092953
31
0.0
0
LINE
8
0
6
CONTINUOUS
10
-0.007449
20
-0.092953
30
0.0
11
-0.005843
21
-0.082458
31
0.0
0
LINE
8
0
6
CONTINUOUS
10
-0.028338
20
-0.123666
30
0.0
11
-0.027529
21
-0.124903
31
0.0
0
LINE
8
0
6
CONTINUOUS
10
-0.023832
20
-0.129243
30
0.0
11
-0.027529
21
-0.124903
31
0.0
0
LINE
8
0
6
CONTINUOUS
10
-0.022539
20
-0.130298
30
0.0
11
-0.023832
21
-0.129243
31
0.0
0
LINE
8
0
6
CONTINUOUS
10
-0.021012
20
-0.130931
30
0.0
11
-0.022539
21
-0.130298
31
0.0
0
LINE
8
0
6
CONTINUOUS
10
-0.027039
20
-0.048438
30
0.0
11
-0.026957
21
-0.053199
31
0.0
0
LINE
8
0
6
CONTINUOUS
10
-0.025281
20
0.007013
30
0.0
11
-0.025774
21
0.000081
31
0.0
0
LINE
8
0
6
CONTINUOUS
10
-0.024729
20
0.011801
30
0.0
11
-0.025281
21
0.007013
31
0.0
0
LINE
8
0
6
CONTINUOUS
10
-0.025348
20
-0.082458
30
0.0
11
-0.026226
21
-0.072518
31
0.0
0
LINE
8
0
6
CONTINUOUS
10
-0.017873
20
-0.117982
30
0.0
11
-0.015596
21
-0.118199
31
0.0
0
LINE
8
0
6
CONTINUOUS
10
-0.015595
20
-0.117515
30
0.0
11
-0.016405
21
-0.116642
31
0.0
0
LINE
8
0
6
CONTINUOUS
10
-0.019185
20
-0.110849
30
0.0
11
-0.021708
21
-0.102805
31
0.0
0
LINE
8
0
6
CONTINUOUS
10
-0.021496
20
-0.103775
30
0.0
11
-0.023742
21
-0.092953
31
0.0
0
LINE
8
0
6
CONTINUOUS
10
-0.015715
20
-0.117644
30
0.0
11
-0.019185
21
-0.110849
31
0.0
0
LINE
8
0
6
CONTINUOUS
10
-0.023742
20
-0.092953
30
0.0
11
-0.025348
21
-0.082458
31
0.0
0
LINE
8
0
6
CONTINUOUS
10
-0.026770
20
-0.062514
30
0.0
11
-0.026957
21
-0.053199
31
0.0
0
LINE
8
0
6
CONTINUOUS
10
-0.026226
20
-0.072518
30
0.0
11
-0.026770
21
-0.062514
31
0.0
0
LINE
8
0
6
CONTINUOUS
10
-0.007359
20
-0.129243
30
0.0
11
-0.003662
21
-0.124903
31
0.0
0
LINE
8
0
6
CONTINUOUS
10
-0.002853
20
-0.123666
30
0.0
11
0.001000
21
-0.115973
31
0.0
0
LINE
8
0
6
CONTINUOUS
10
-0.003662
20
-0.124903
30
0.0
11
-0.002853
21
-0.123666
31
0.0
0
LINE
8
0
6
CONTINUOUS
10
0.001000
20
-0.115973
30
0.0
11
0.003829
21
-0.106813
31
0.0
0
LINE
8
0
6
CONTINUOUS
10
-0.007359
20
-0.129243
30
0.0
11
-0.008652
21
-0.130298
31
0.0
0
LINE
8
0
6
CONTINUOUS
10
-0.008652
20
-0.130298
30
0.0
11
-0.010179
21
-0.130931
31
0.0
0
LINE
8
0
6
CONTINUOUS
10
-0.013892
20
-0.131947
30
0.0
11
-0.010179
21
-0.130931
31
0.0
0
LINE
8
0
6
CONTINUOUS
10
-0.015596
20
-0.132199
30
0.0
11
-0.013892
21
-0.131947
31
0.0
0
LINE
8
0
6
CONTINUOUS
10
0.004042
20
-0.105844
30
0.0
11
0.006378
21
-0.094540
31
0.0
0
LINE
8
0
6
CONTINUOUS
10
0.003829
20
-0.106813
30
0.0
11
0.004042
21
-0.105844
31
0.0
0
LINE
8
0
6
CONTINUOUS
10
0.006378
20
-0.094540
30
0.0
11
0.008065
21
-0.083327
31
0.0
0
LINE
8
0
6
CONTINUOUS
10
0.008065
20
-0.083327
30
0.0
11
0.008966
21
-0.072996
31
0.0
0
LINE
8
0
6
CONTINUOUS
10
0.008966
20
-0.072996
30
0.0
11
0.009520
21
-0.062651
31
0.0
0
LINE
8
0
6
CONTINUOUS
10
0.009520
20
-0.062651
30
0.0
11
0.009708
21
-0.053199
31
0.0
0
LINE
8
0
6
CONTINUOUS
10
0.009708
20
-0.053199
30
0.0
11
0.009708
21
-0.051151
31
0.0
0
LINE
8
0
6
CONTINUOUS
10
-0.002720
20
-0.049770
30
0.0
11
-0.002240
21
-0.049770
31
0.0
0
LINE
8
0
6
CONTINUOUS
10
-0.002720
20
-0.040628
30
0.0
11
-0.002720
21
-0.049770
31
0.0
0
LINE
8
0
6
CONTINUOUS
10
-0.002240
20
-0.040628
30
0.0
11
-0.002720
21
-0.040628
31
0.0
0
LINE
8
0
6
CONTINUOUS
10
-0.005201
20
-0.039199
30
0.0
11
-0.005620
21
-0.039343
31
0.0
0
LINE
8
0
6
CONTINUOUS
10
-0.006375
20
-0.039199
30
0.0
11
-0.005201
21
-0.039199
31
0.0
0
LINE
8
0
6
CONTINUOUS
10
-0.005620
20
-0.039343
30
0.0
11
-0.006375
21
-0.039199
31
0.0
0
LINE
8
0
6
CONTINUOUS
10
-0.005620
20
-0.039343
30
0.0
11
-0.007140
21
-0.039459
31
0.0
0
LINE
8
0
6
CONTINUOUS
10
-0.005620
20
-0.051055
30
0.0
11
-0.007140
21
-0.050939
31
0.0
0
LINE
8
0
6
CONTINUOUS
10
-0.008414
20
-0.039913
30
0.0
11
-0.008676
21
-0.040628
31
0.0
0
LINE
8
0
6
CONTINUOUS
10
-0.008205
20
-0.039913
30
0.0
11
-0.008414
21
-0.039913
31
0.0
0
LINE
8
0
6
CONTINUOUS
10
-0.008676
20
-0.040628
30
0.0
11
-0.008205
21
-0.039913
31
0.0
0
LINE
8
0
6
CONTINUOUS
10
-0.008414
20
-0.039913
30
0.0
11
-0.008676
21
-0.040628
31
0.0
0
LINE
8
0
6
CONTINUOUS
10
-0.008205
20
-0.039913
30
0.0
11
-0.008414
21
-0.039913
31
0.0
0
LINE
8
0
6
CONTINUOUS
10
-0.008588
20
-0.040628
30
0.0
11
-0.008205
21
-0.039913
31
0.0
0
LINE
8
0
6
CONTINUOUS
10
-0.008676
20
-0.040628
30
0.0
11
-0.008588
21
-0.040628
31
0.0
0
LINE
8
0
6
CONTINUOUS
10
-0.008414
20
-0.050485
30
0.0
11
-0.007623
21
-0.050985
31
0.0
0
LINE
8
0
6
CONTINUOUS
10
-0.008205
20
-0.050485
30
0.0
11
-0.008414
21
-0.050485
31
0.0
0
LINE
8
0
6
CONTINUOUS
10
-0.007623
20
-0.050985
30
0.0
11
-0.008205
21
-0.050485
31
0.0
0
LINE
8
0
6
CONTINUOUS
10
-0.008205
20
-0.050485
30
0.0
11
-0.008414
21
-0.050485
31
0.0
0
LINE
8
0
6
CONTINUOUS
10
-0.008414
20
-0.050485
30
0.0
11
-0.008205
21
-0.050485
31
0.0
0
LINE
8
0
6
CONTINUOUS
10
-0.008676
20
-0.049770
30
0.0
11
-0.008414
21
-0.050485
31
0.0
0
LINE
8
0
6
CONTINUOUS
10
-0.008588
20
-0.049770
30
0.0
11
-0.008676
21
-0.049770
31
0.0
0
LINE
8
0
6
CONTINUOUS
10
-0.008205
20
-0.050485
30
0.0
11
-0.008588
21
-0.049770
31
0.0
0
LINE
8
0
6
CONTINUOUS
10
-0.008676
20
-0.040628
30
0.0
11
-0.008676
21
-0.049770
31
0.0
0
LINE
8
0
6
CONTINUOUS
10
-0.008588
20
-0.040628
30
0.0
11
-0.008676
21
-0.040628
31
0.0
0
LINE
8
0
6
CONTINUOUS
10
-0.008588
20
-0.049770
30
0.0
11
-0.008588
21
-0.040628
31
0.0
0
LINE
8
0
6
CONTINUOUS
10
-0.008676
20
-0.049770
30
0.0
11
-0.008588
21
-0.049770
31
0.0
0
LINE
8
0
6
CONTINUOUS
10
-0.007140
20
-0.050939
30
0.0
11
-0.008205
21
-0.050485
31
0.0
0
LINE
8
0
6
CONTINUOUS
10
-0.008205
20
-0.039913
30
0.0
11
-0.008414
21
-0.039913
31
0.0
0
LINE
8
0
6
CONTINUOUS
10
-0.007140
20
-0.039459
30
0.0
11
-0.008205
21
-0.039913
31
0.0
0
LINE
8
0
6
CONTINUOUS
10
-0.008414
20
-0.039913
30
0.0
11
-0.007623
21
-0.039413
31
0.0
0
LINE
8
0
6
CONTINUOUS
10
-0.007623
20
-0.039413
30
0.0
11
-0.007140
21
-0.039459
31
0.0
0
LINE
8
0
6
CONTINUOUS
10
-0.008414
20
-0.039913
30
0.0
11
-0.007623
21
-0.039413
31
0.0
0
LINE
8
0
6
CONTINUOUS
10
-0.007140
20
-0.039459
30
0.0
11
-0.008414
21
-0.039913
31
0.0
0
LINE
8
0
6
CONTINUOUS
10
-0.003542
20
-0.039199
30
0.0
11
-0.005201
21
-0.039199
31
0.0
0
LINE
8
0
6
CONTINUOUS
10
-0.003542
20
-0.051199
30
0.0
11
-0.004108
21
-0.050900
31
0.0
0
LINE
8
0
6
CONTINUOUS
10
-0.005620
20
-0.051055
30
0.0
11
-0.003542
21
-0.051199
31
0.0
0
LINE
8
0
6
CONTINUOUS
10
-0.004108
20
-0.050900
30
0.0
11
-0.005620
21
-0.051055
31
0.0
0
LINE
8
0
6
CONTINUOUS
10
-0.004108
20
-0.050900
30
0.0
11
-0.005620
21
-0.051055
31
0.0
0
LINE
8
0
6
CONTINUOUS
10
-0.005201
20
-0.051199
30
0.0
11
-0.003542
21
-0.051199
31
0.0
0
LINE
8
0
6
CONTINUOUS
10
-0.004108
20
-0.039498
30
0.0
11
-0.005620
21
-0.039343
31
0.0
0
LINE
8
0
6
CONTINUOUS
10
-0.003542
20
-0.039199
30
0.0
11
-0.004108
21
-0.039498
31
0.0
0
LINE
8
0
6
CONTINUOUS
10
-0.005201
20
-0.039199
30
0.0
11
-0.003542
21
-0.039199
31
0.0
0
LINE
8
0
6
CONTINUOUS
10
-0.003542
20
-0.039199
30
0.0
11
-0.004108
21
-0.039498
31
0.0
0
LINE
8
0
6
CONTINUOUS
10
-0.005201
20
-0.039199
30
0.0
11
-0.003542
21
-0.039199
31
0.0
0
LINE
8
0
6
CONTINUOUS
10
-0.004108
20
-0.039498
30
0.0
11
-0.005201
21
-0.039199
31
0.0
0
LINE
8
0
6
CONTINUOUS
10
-0.006704
20
-0.039199
30
0.0
11
-0.006854
21
-0.039199
31
0.0
0
LINE
8
0
6
CONTINUOUS
10
-0.006854
20
-0.039199
30
0.0
11
-0.006704
21
-0.039199
31
0.0
0
LINE
8
0
6
CONTINUOUS
10
-0.005947
20
-0.039199
30
0.0
11
-0.006704
21
-0.039199
31
0.0
0
LINE
8
0
6
CONTINUOUS
10
-0.008676
20
-0.049770
30
0.0
11
-0.008676
21
-0.040628
31
0.0
0
LINE
8
0
6
CONTINUOUS
10
-0.007623
20
-0.050985
30
0.0
11
-0.008414
21
-0.050485
31
0.0
0
LINE
8
0
6
CONTINUOUS
10
-0.008414
20
-0.039913
30
0.0
11
-0.007623
21
-0.039413
31
0.0
0
LINE
8
0
6
CONTINUOUS
10
-0.005201
20
-0.051199
30
0.0
11
-0.006375
21
-0.051199
31
0.0
0
LINE
8
0
6
CONTINUOUS
10
-0.007623
20
-0.050985
30
0.0
11
-0.006854
21
-0.051199
31
0.0
0
LINE
8
0
6
CONTINUOUS
10
-0.006854
20
-0.051199
30
0.0
11
-0.006375
21
-0.051199
31
0.0
0
LINE
8
0
6
CONTINUOUS
10
-0.007623
20
-0.039413
30
0.0
11
-0.006854
21
-0.039199
31
0.0
0
LINE
8
0
6
CONTINUOUS
10
-0.003542
20
-0.039199
30
0.0
11
-0.001448
21
-0.039199
31
0.0
0
LINE
8
0
6
CONTINUOUS
10
-0.001448
20
-0.051199
30
0.0
11
-0.003542
21
-0.051199
31
0.0
0
LINE
8
0
6
CONTINUOUS
10
-0.002720
20
-0.040628
30
0.0
11
-0.003151
21
-0.039913
31
0.0
0
LINE
8
0
6
CONTINUOUS
10
-0.002720
20
-0.049770
30
0.0
11
-0.002720
21
-0.040628
31
0.0
0
LINE
8
0
6
CONTINUOUS
10
-0.003151
20
-0.050485
30
0.0
11
-0.002720
21
-0.049770
31
0.0
0
LINE
8
0
6
CONTINUOUS
10
-0.003151
20
-0.039913
30
0.0
11
-0.004108
21
-0.039498
31
0.0
0
LINE
8
0
6
CONTINUOUS
10
-0.004108
20
-0.050900
30
0.0
11
-0.003151
21
-0.050485
31
0.0
0
LINE
8
0
6
CONTINUOUS
10
-0.004108
20
-0.039498
30
0.0
11
-0.005620
21
-0.039343
31
0.0
0
LINE
8
0
6
CONTINUOUS
10
-0.005620
20
-0.051055
30
0.0
11
-0.004108
21
-0.050900
31
0.0
0
LINE
8
0
6
CONTINUOUS
10
-0.005620
20
-0.039343
30
0.0
11
-0.007140
21
-0.039459
31
0.0
0
LINE
8
0
6
CONTINUOUS
10
-0.007140
20
-0.050939
30
0.0
11
-0.005620
21
-0.051055
31
0.0
0
LINE
8
0
6
CONTINUOUS
10
-0.007140
20
-0.039459
30
0.0
11
-0.008205
21
-0.039913
31
0.0
0
LINE
8
0
6
CONTINUOUS
10
-0.008205
20
-0.050485
30
0.0
11
-0.007140
21
-0.050939
31
0.0
0
LINE
8
0
6
CONTINUOUS
10
-0.008588
20
-0.040628
30
0.0
11
-0.008588
21
-0.049770
31
0.0
0
LINE
8
0
6
CONTINUOUS
10
-0.008205
20
-0.039913
30
0.0
11
-0.008588
21
-0.040628
31
0.0
0
LINE
8
0
6
CONTINUOUS
10
-0.008588
20
-0.049770
30
0.0
11
-0.008205
21
-0.050485
31
0.0
0
LINE
8
0
6
CONTINUOUS
10
-0.003151
20
-0.050485
30
0.0
11
-0.004108
21
-0.050900
31
0.0
0
LINE
8
0
6
CONTINUOUS
10
-0.002127
20
-0.050485
30
0.0
11
-0.003151
21
-0.050485
31
0.0
0
LINE
8
0
6
CONTINUOUS
10
-0.003151
20
-0.050485
30
0.0
11
-0.001787
21
-0.050985
31
0.0
0
LINE
8
0
6
CONTINUOUS
10
-0.002127
20
-0.050485
30
0.0
11
-0.003151
21
-0.050485
31
0.0
0
LINE
8
0
6
CONTINUOUS
10
-0.003151
20
-0.050485
30
0.0
11
-0.002127
21
-0.050485
31
0.0
0
LINE
8
0
6
CONTINUOUS
10
-0.002720
20
-0.049770
30
0.0
11
-0.003151
21
-0.050485
31
0.0
0
LINE
8
0
6
CONTINUOUS
10
-0.002240
20
-0.049770
30
0.0
11
-0.002720
21
-0.049770
31
0.0
0
LINE
8
0
6
CONTINUOUS
10
-0.003542
20
-0.051199
30
0.0
11
-0.001448
21
-0.051199
31
0.0
0
LINE
8
0
6
CONTINUOUS
10
-0.003151
20
-0.039913
30
0.0
11
-0.002127
21
-0.039913
31
0.0
0
LINE
8
0
6
CONTINUOUS
10
-0.004108
20
-0.039498
30
0.0
11
-0.003151
21
-0.039913
31
0.0
0
LINE
8
0
6
CONTINUOUS
10
-0.001787
20
-0.039413
30
0.0
11
-0.004108
21
-0.039498
31
0.0
0
LINE
8
0
6
CONTINUOUS
10
-0.004108
20
-0.039498
30
0.0
11
-0.002127
21
-0.039913
31
0.0
0
LINE
8
0
6
CONTINUOUS
10
-0.002720
20
-0.040628
30
0.0
11
-0.002240
21
-0.040628
31
0.0
0
LINE
8
0
6
CONTINUOUS
10
-0.003151
20
-0.039913
30
0.0
11
-0.002720
21
-0.040628
31
0.0
0
LINE
8
0
6
CONTINUOUS
10
-0.002127
20
-0.039913
30
0.0
11
-0.003151
21
-0.039913
31
0.0
0
LINE
8
0
6
CONTINUOUS
10
-0.003542
20
-0.039199
30
0.0
11
-0.004108
21
-0.039498
31
0.0
0
LINE
8
0
6
CONTINUOUS
10
-0.001448
20
-0.039199
30
0.0
11
-0.003542
21
-0.039199
31
0.0
0
LINE
8
0
6
CONTINUOUS
10
-0.001689
20
-0.040628
30
0.0
11
-0.002240
21
-0.040628
31
0.0
0
LINE
8
0
6
CONTINUOUS
10
-0.001689
20
-0.049770
30
0.0
11
-0.001689
21
-0.040628
31
0.0
0
LINE
8
0
6
CONTINUOUS
10
-0.002240
20
-0.049770
30
0.0
11
-0.001689
21
-0.049770
31
0.0
0
LINE
8
0
6
CONTINUOUS
10
0.010515
20
-0.039370
30
0.0
11
0.011655
21
-0.039270
31
0.0
0
LINE
8
0
6
CONTINUOUS
10
0.011655
20
-0.051128
30
0.0
11
0.010515
21
-0.051028
31
0.0
0
LINE
8
0
6
CONTINUOUS
10
0.011420
20
-0.051199
30
0.0
11
0.010006
21
-0.051199
31
0.0
0
LINE
8
0
6
CONTINUOUS
10
0.010006
20
-0.039199
30
0.0
11
0.011420
21
-0.039199
31
0.0
0
LINE
8
0
6
CONTINUOUS
10
0.008790
20
-0.040628
30
0.0
11
0.009161
21
-0.040628
31
0.0
0
LINE
8
0
6
CONTINUOUS
10
0.008103
20
-0.039913
30
0.0
11
0.008790
21
-0.040628
31
0.0
0
LINE
8
0
6
CONTINUOUS
10
0.009161
20
-0.040628
30
0.0
11
0.009047
21
-0.039913
31
0.0
0
LINE
8
0
6
CONTINUOUS
10
0.009047
20
-0.039913
30
0.0
11
0.008103
21
-0.039913
31
0.0
0
LINE
8
0
6
CONTINUOUS
10
0.008103
20
-0.039913
30
0.0
11
0.009161
21
-0.040628
31
0.0
0
LINE
8
0
6
CONTINUOUS
10
0.009047
20
-0.039913
30
0.0
11
0.008103
21
-0.039913
31
0.0
0
LINE
8
0
6
CONTINUOUS
10
0.009161
20
-0.040628
30
0.0
11
0.009459
21
-0.039913
31
0.0
0
LINE
8
0
6
CONTINUOUS
10
0.009459
20
-0.039913
30
0.0
11
0.009047
21
-0.039913
31
0.0
0
LINE
8
0
6
CONTINUOUS
10
0.009161
20
-0.049770
30
0.0
11
0.008790
21
-0.049770
31
0.0
0
LINE
8
0
6
CONTINUOUS
10
0.008790
20
-0.049770
30
0.0
11
0.008103
21
-0.050485
31
0.0
0
LINE
8
0
6
CONTINUOUS
10
0.008103
20
-0.050485
30
0.0
11
0.009047
21
-0.050485
31
0.0
0
LINE
8
0
6
CONTINUOUS
10
0.009459
20
-0.050485
30
0.0
11
0.009161
21
-0.049770
31
0.0
0
LINE
8
0
6
CONTINUOUS
10
0.009047
20
-0.050485
30
0.0
11
0.009459
21
-0.050485
31
0.0
0
LINE
8
0
6
CONTINUOUS
10
0.008618
20
-0.050985
30
0.0
11
0.009047
21
-0.050485
31
0.0
0
LINE
8
0
6
CONTINUOUS
10
0.008103
20
-0.050485
30
0.0
11
0.008618
21
-0.050985
31
0.0
0
LINE
8
0
6
CONTINUOUS
10
0.009047
20
-0.050485
30
0.0
11
0.008103
21
-0.050485
31
0.0
0
LINE
8
0
6
CONTINUOUS
10
0.009047
20
-0.050485
30
0.0
11
0.008103
21
-0.050485
31
0.0
0
LINE
8
0
6
CONTINUOUS
10
0.009161
20
-0.049770
30
0.0
11
0.009161
21
-0.040628
31
0.0
0
LINE
8
0
6
CONTINUOUS
10
0.008790
20
-0.049770
30
0.0
11
0.009161
21
-0.049770
31
0.0
0
LINE
8
0
6
CONTINUOUS
10
0.008790
20
-0.040628
30
0.0
11
0.008790
21
-0.049770
31
0.0
0
LINE
8
0
6
CONTINUOUS
10
0.009161
20
-0.040628
30
0.0
11
0.008790
21
-0.040628
31
0.0
0
LINE
8
0
6
CONTINUOUS
10
0.009047
20
-0.039913
30
0.0
11
0.008618
21
-0.039413
31
0.0
0
LINE
8
0
6
CONTINUOUS
10
0.006190
20
-0.039459
30
0.0
11
0.009047
21
-0.039913
31
0.0
0
LINE
8
0
6
CONTINUOUS
10
0.008618
20
-0.039413
30
0.0
11
0.006190
21
-0.039459
31
0.0
0
LINE
8
0
6
CONTINUOUS
10
0.008103
20
-0.039913
30
0.0
11
0.009047
21
-0.039913
31
0.0
0
LINE
8
0
6
CONTINUOUS
10
0.006190
20
-0.039459
30
0.0
11
0.008103
21
-0.039913
31
0.0
0
LINE
8
0
6
CONTINUOUS
10
0.008103
20
-0.050485
30
0.0
11
0.006190
21
-0.050939
31
0.0
0
LINE
8
0
6
CONTINUOUS
10
0.000964
20
-0.039199
30
0.0
11
0.000743
21
-0.039498
31
0.0
0
LINE
8
0
6
CONTINUOUS
10
0.003436
20
-0.039199
30
0.0
11
0.000964
21
-0.039199
31
0.0
0
LINE
8
0
6
CONTINUOUS
10
0.000743
20
-0.039498
30
0.0
11
0.003436
21
-0.039199
31
0.0
0
LINE
8
0
6
CONTINUOUS
10
0.003436
20
-0.039199
30
0.0
11
0.000964
21
-0.039199
31
0.0
0
LINE
8
0
6
CONTINUOUS
10
0.000743
20
-0.039498
30
0.0
11
0.003459
21
-0.039343
31
0.0
0
LINE
8
0
6
CONTINUOUS
10
0.000743
20
-0.050900
30
0.0
11
0.000964
21
-0.051199
31
0.0
0
LINE
8
0
6
CONTINUOUS
10
0.003459
20
-0.051055
30
0.0
11
0.000743
21
-0.050900
31
0.0
0
LINE
8
0
6
CONTINUOUS
10
0.003459
20
-0.051055
30
0.0
11
0.000743
21
-0.050900
31
0.0
0
LINE
8
0
6
CONTINUOUS
10
0.000964
20
-0.051199
30
0.0
11
0.003459
21
-0.051055
31
0.0
0
LINE
8
0
6
CONTINUOUS
10
0.003459
20
-0.039343
30
0.0
11
0.006190
21
-0.039459
31
0.0
0
LINE
8
0
6
CONTINUOUS
10
0.005923
20
-0.039199
30
0.0
11
0.003436
21
-0.039199
31
0.0
0
LINE
8
0
6
CONTINUOUS
10
0.003436
20
-0.039199
30
0.0
11
0.003459
21
-0.039343
31
0.0
0
LINE
8
0
6
CONTINUOUS
10
0.003459
20
-0.039343
30
0.0
11
0.005923
21
-0.039199
31
0.0
0
LINE
8
0
6
CONTINUOUS
10
0.006190
20
-0.050939
30
0.0
11
0.003459
21
-0.051055
31
0.0
0
LINE
8
0
6
CONTINUOUS
10
0.005923
20
-0.051199
30
0.0
11
0.003436
21
-0.051199
31
0.0
0
LINE
8
0
6
CONTINUOUS
10
0.003436
20
-0.039199
30
0.0
11
0.005923
21
-0.039199
31
0.0
0
LINE
8
0
6
CONTINUOUS
10
0.003436
20
-0.051199
30
0.0
11
0.000964
21
-0.051199
31
0.0
0
LINE
8
0
6
CONTINUOUS
10
0.000964
20
-0.039199
30
0.0
11
0.003436
21
-0.039199
31
0.0
0
LINE
8
0
6
CONTINUOUS
10
0.009459
20
-0.039913
30
0.0
11
0.010515
21
-0.039370
31
0.0
0
LINE
8
0
6
CONTINUOUS
10
0.009047
20
-0.039913
30
0.0
11
0.009459
21
-0.039913
31
0.0
0
LINE
8
0
6
CONTINUOUS
10
0.008166
20
-0.039199
30
0.0
11
0.010515
21
-0.039370
31
0.0
0
LINE
8
0
6
CONTINUOUS
10
0.010006
20
-0.039199
30
0.0
11
0.008166
21
-0.039199
31
0.0
0
LINE
8
0
6
CONTINUOUS
10
0.010515
20
-0.039370
30
0.0
11
0.010006
21
-0.039199
31
0.0
0
LINE
8
0
6
CONTINUOUS
10
0.010515
20
-0.051028
30
0.0
11
0.009459
21
-0.050485
31
0.0
0
LINE
8
0
6
CONTINUOUS
10
0.009459
20
-0.050485
30
0.0
11
0.009047
21
-0.050485
31
0.0
0
LINE
8
0
6
CONTINUOUS
10
0.009161
20
-0.049770
30
0.0
11
0.009459
21
-0.050485
31
0.0
0
LINE
8
0
6
CONTINUOUS
10
0.009161
20
-0.040628
30
0.0
11
0.009161
21
-0.049770
31
0.0
0
LINE
8
0
6
CONTINUOUS
10
0.009459
20
-0.039913
30
0.0
11
0.009161
21
-0.040628
31
0.0
0
LINE
8
0
6
CONTINUOUS
10
0.009459
20
-0.050485
30
0.0
11
0.010515
21
-0.051028
31
0.0
0
LINE
8
0
6
CONTINUOUS
10
0.010515
20
-0.039370
30
0.0
11
0.009459
21
-0.039913
31
0.0
0
LINE
8
0
6
CONTINUOUS
10
0.010515
20
-0.051028
30
0.0
11
0.011655
21
-0.051128
31
0.0
0
LINE
8
0
6
CONTINUOUS
10
0.011655
20
-0.039270
30
0.0
11
0.010515
21
-0.039370
31
0.0
0
LINE
8
0
6
CONTINUOUS
10
0.008166
20
-0.051199
30
0.0
11
0.005923
21
-0.051199
31
0.0
0
LINE
8
0
6
CONTINUOUS
10
0.005923
20
-0.039199
30
0.0
11
0.008166
21
-0.039199
31
0.0
0
LINE
8
0
6
CONTINUOUS
10
0.010006
20
-0.051199
30
0.0
11
0.008166
21
-0.051199
31
0.0
0
LINE
8
0
6
CONTINUOUS
10
0.008166
20
-0.039199
30
0.0
11
0.010006
21
-0.039199
31
0.0
0
LINE
8
0
6
CONTINUOUS
10
0.000964
20
-0.039199
30
0.0
11
-0.001448
21
-0.039199
31
0.0
0
LINE
8
0
6
CONTINUOUS
10
-0.000947
20
-0.039913
30
0.0
11
-0.002127
21
-0.039913
31
0.0
0
LINE
8
0
6
CONTINUOUS
10
-0.001689
20
-0.040628
30
0.0
11
-0.000947
21
-0.039913
31
0.0
0
LINE
8
0
6
CONTINUOUS
10
-0.002240
20
-0.040628
30
0.0
11
-0.001689
21
-0.040628
31
0.0
0
LINE
8
0
6
CONTINUOUS
10
-0.002127
20
-0.039913
30
0.0
11
0.000743
21
-0.039498
31
0.0
0
LINE
8
0
6
CONTINUOUS
10
0.000743
20
-0.039498
30
0.0
11
-0.001787
21
-0.039413
31
0.0
0
LINE
8
0
6
CONTINUOUS
10
-0.000947
20
-0.039913
30
0.0
11
0.000743
21
-0.039498
31
0.0
0
LINE
8
0
6
CONTINUOUS
10
-0.002127
20
-0.039913
30
0.0
11
-0.000947
21
-0.039913
31
0.0
0
LINE
8
0
6
CONTINUOUS
10
-0.001448
20
-0.051199
30
0.0
11
0.000964
21
-0.051199
31
0.0
0
LINE
8
0
6
CONTINUOUS
10
-0.001689
20
-0.049770
30
0.0
11
-0.002240
21
-0.049770
31
0.0
0
LINE
8
0
6
CONTINUOUS
10
-0.000947
20
-0.050485
30
0.0
11
-0.001689
21
-0.049770
31
0.0
0
LINE
8
0
6
CONTINUOUS
10
-0.002127
20
-0.050485
30
0.0
11
-0.000947
21
-0.050485
31
0.0
0
LINE
8
0
6
CONTINUOUS
10
-0.000947
20
-0.050485
30
0.0
11
-0.002127
21
-0.050485
31
0.0
0
LINE
8
0
6
CONTINUOUS
10
-0.001787
20
-0.050985
30
0.0
11
-0.000947
21
-0.050485
31
0.0
0
LINE
8
0
6
CONTINUOUS
10
-0.000947
20
-0.050485
30
0.0
11
-0.002127
21
-0.050485
31
0.0
0
LINE
8
0
6
CONTINUOUS
10
0.000743
20
-0.050900
30
0.0
11
-0.000945
21
-0.050485
31
0.0
0
LINE
8
0
6
CONTINUOUS
10
-0.001689
20
-0.049770
30
0.0
11
-0.000947
21
-0.050485
31
0.0
0
LINE
8
0
6
CONTINUOUS
10
-0.001689
20
-0.040628
30
0.0
11
-0.001689
21
-0.049770
31
0.0
0
LINE
8
0
6
CONTINUOUS
10
-0.000947
20
-0.039913
30
0.0
11
-0.001689
21
-0.040628
31
0.0
0
LINE
8
0
6
CONTINUOUS
10
-0.000947
20
-0.050485
30
0.0
11
0.000743
21
-0.050900
31
0.0
0
LINE
8
0
6
CONTINUOUS
10
0.000743
20
-0.039498
30
0.0
11
-0.000947
21
-0.039913
31
0.0
0
LINE
8
0
6
CONTINUOUS
10
0.000743
20
-0.050900
30
0.0
11
0.003459
21
-0.051055
31
0.0
0
LINE
8
0
6
CONTINUOUS
10
0.003459
20
-0.039343
30
0.0
11
0.000743
21
-0.039498
31
0.0
0
LINE
8
0
6
CONTINUOUS
10
0.003459
20
-0.051055
30
0.0
11
0.006190
21
-0.050939
31
0.0
0
LINE
8
0
6
CONTINUOUS
10
0.006190
20
-0.039459
30
0.0
11
0.003459
21
-0.039343
31
0.0
0
LINE
8
0
6
CONTINUOUS
10
0.006190
20
-0.050939
30
0.0
11
0.008103
21
-0.050485
31
0.0
0
LINE
8
0
6
CONTINUOUS
10
0.008103
20
-0.039913
30
0.0
11
0.006190
21
-0.039459
31
0.0
0
LINE
8
0
6
CONTINUOUS
10
0.008790
20
-0.049770
30
0.0
11
0.008790
21
-0.040628
31
0.0
0
LINE
8
0
6
CONTINUOUS
10
0.008103
20
-0.050485
30
0.0
11
0.008790
21
-0.049770
31
0.0
0
LINE
8
0
6
CONTINUOUS
10
0.008790
20
-0.040628
30
0.0
11
0.008103
21
-0.039913
31
0.0
0
LINE
8
0
6
CONTINUOUS
10
0.000964
20
-0.051199
30
0.0
11
-0.001448
21
-0.051199
31
0.0
0
LINE
8
0
6
CONTINUOUS
10
-0.001448
20
-0.039199
30
0.0
11
0.000964
21
-0.039199
31
0.0
0
LINE
8
0
6
CONTINUOUS
10
0.013887
20
-0.039913
30
0.0
11
0.014149
21
-0.040628
31
0.0
0
LINE
8
0
6
CONTINUOUS
10
0.013851
20
-0.039913
30
0.0
11
0.014149
21
-0.040628
31
0.0
0
LINE
8
0
6
CONTINUOUS
10
0.014149
20
-0.040628
30
0.0
11
0.013887
21
-0.039913
31
0.0
0
LINE
8
0
6
CONTINUOUS
10
0.012795
20
-0.039370
30
0.0
11
0.013851
21
-0.039913
31
0.0
0
LINE
8
0
6
CONTINUOUS
10
0.012177
20
-0.039199
30
0.0
11
0.012795
21
-0.039370
31
0.0
0
LINE
8
0
6
CONTINUOUS
10
0.012328
20
-0.039199
30
0.0
11
0.012177
21
-0.039199
31
0.0
0
LINE
8
0
6
CONTINUOUS
10
0.012328
20
-0.039199
30
0.0
11
0.012177
21
-0.039199
31
0.0
0
LINE
8
0
6
CONTINUOUS
10
0.012795
20
-0.039370
30
0.0
11
0.012328
21
-0.039199
31
0.0
0
LINE
8
0
6
CONTINUOUS
10
0.011723
20
-0.039199
30
0.0
11
0.011849
21
-0.039199
31
0.0
0
LINE
8
0
6
CONTINUOUS
10
0.013096
20
-0.039413
30
0.0
11
0.013887
21
-0.039913
31
0.0
0
LINE
8
0
6
CONTINUOUS
10
0.012328
20
-0.039199
30
0.0
11
0.013096
21
-0.039413
31
0.0
0
LINE
8
0
6
CONTINUOUS
10
0.014149
20
-0.049770
30
0.0
11
0.013851
21
-0.050485
31
0.0
0
LINE
8
0
6
CONTINUOUS
10
0.013887
20
-0.050485
30
0.0
11
0.014149
21
-0.049770
31
0.0
0
LINE
8
0
6
CONTINUOUS
10
0.013887
20
-0.050485
30
0.0
11
0.013096
21
-0.050985
31
0.0
0
LINE
8
0
6
CONTINUOUS
10
0.013851
20
-0.050485
30
0.0
11
0.012795
21
-0.051028
31
0.0
0
LINE
8
0
6
CONTINUOUS
10
0.013096
20
-0.050985
30
0.0
11
0.013887
21
-0.050485
31
0.0
0
LINE
8
0
6
CONTINUOUS
10
0.012177
20
-0.051199
30
0.0
11
0.012328
21
-0.051199
31
0.0
0
LINE
8
0
6
CONTINUOUS
10
0.013096
20
-0.050985
30
0.0
11
0.012328
21
-0.051199
31
0.0
0
LINE
8
0
6
CONTINUOUS
10
0.014149
20
-0.040628
30
0.0
11
0.014149
21
-0.049770
31
0.0
0
LINE
8
0
6
CONTINUOUS
10
0.012795
20
-0.051028
30
0.0
11
0.011655
21
-0.051128
31
0.0
0
LINE
8
0
6
CONTINUOUS
10
0.011420
20
-0.051199
30
0.0
11
0.012177
21
-0.051199
31
0.0
0
LINE
8
0
6
CONTINUOUS
10
0.012177
20
-0.039199
30
0.0
11
0.011420
21
-0.039199
31
0.0
0
LINE
8
0
6
CONTINUOUS
10
0.011655
20
-0.039270
30
0.0
11
0.012795
21
-0.039370
31
0.0
0
LINE
8
0
6
CONTINUOUS
10
0.014149
20
-0.040628
30
0.0
11
0.013851
21
-0.039913
31
0.0
0
LINE
8
0
6
CONTINUOUS
10
0.014149
20
-0.049770
30
0.0
11
0.014149
21
-0.040628
31
0.0
0
LINE
8
0
6
CONTINUOUS
10
0.013851
20
-0.050485
30
0.0
11
0.014149
21
-0.049770
31
0.0
0
LINE
8
0
6
CONTINUOUS
10
0.013851
20
-0.039913
30
0.0
11
0.012795
21
-0.039370
31
0.0
0
LINE
8
0
6
CONTINUOUS
10
0.012795
20
-0.051028
30
0.0
11
0.013851
21
-0.050485
31
0.0
0
LINE
8
0
6
CONTINUOUS
10
0.012795
20
-0.039370
30
0.0
11
0.011655
21
-0.039270
31
0.0
0
LINE
8
0
6
CONTINUOUS
10
0.011655
20
-0.051128
30
0.0
11
0.012795
21
-0.051028
31
0.0
0
LINE
8
0
6
CONTINUOUS
10
0.010763
20
-0.039199
30
0.0
11
0.009432
21
-0.039199
31
0.0
0
LINE
8
0
6
CONTINUOUS
10
0.009432
20
-0.039199
30
0.0
11
0.007684
21
-0.039199
31
0.0
0
LINE
8
0
6
CONTINUOUS
10
0.007684
20
-0.039199
30
0.0
11
0.005537
21
-0.039199
31
0.0
0
LINE
8
0
6
CONTINUOUS
10
0.005537
20
-0.039199
30
0.0
11
0.003184
21
-0.039199
31
0.0
0
LINE
8
0
6
CONTINUOUS
10
0.003184
20
-0.039199
30
0.0
11
0.000867
21
-0.039199
31
0.0
0
LINE
8
0
6
CONTINUOUS
10
0.000867
20
-0.039199
30
0.0
11
-0.001335
21
-0.039199
31
0.0
0
LINE
8
0
6
CONTINUOUS
10
0.011517
20
-0.039199
30
0.0
11
0.010763
21
-0.039199
31
0.0
0
LINE
8
0
6
CONTINUOUS
10
0.011723
20
-0.039199
30
0.0
11
0.011517
21
-0.039199
31
0.0
0
LINE
8
0
6
CONTINUOUS
10
0.011723
20
-0.039199
30
0.0
11
0.011723
21
-0.034199
31
0.0
0
LINE
8
0
6
CONTINUOUS
10
-0.005829
20
-0.039199
30
0.0
11
-0.006249
21
-0.039199
31
0.0
0
LINE
8
0
6
CONTINUOUS
10
-0.006249
20
-0.039199
30
0.0
11
-0.006249
21
-0.034199
31
0.0
0
LINE
8
0
6
CONTINUOUS
10
-0.004778
20
-0.039199
30
0.0
11
-0.005829
21
-0.039199
31
0.0
0
LINE
8
0
6
CONTINUOUS
10
-0.003243
20
-0.039199
30
0.0
11
-0.004778
21
-0.039199
31
0.0
0
LINE
8
0
6
CONTINUOUS
10
-0.001335
20
-0.039199
30
0.0
11
-0.003243
21
-0.039199
31
0.0
0
LINE
8
0
6
CONTINUOUS
10
-0.015021
20
-0.034199
30
0.0
11
-0.012907
21
-0.034199
31
0.0
0
LINE
8
0
6
CONTINUOUS
10
-0.012907
20
-0.034199
30
0.0
11
-0.010401
21
-0.034199
31
0.0
0
LINE
8
0
6
CONTINUOUS
10
-0.010401
20
-0.034199
30
0.0
11
-0.007554
21
-0.034199
31
0.0
0
LINE
8
0
6
CONTINUOUS
10
-0.007554
20
-0.034199
30
0.0
11
-0.004636
21
-0.034199
31
0.0
0
LINE
8
0
6
CONTINUOUS
10
-0.004636
20
-0.034199
30
0.0
11
-0.001935
21
-0.034199
31
0.0
0
LINE
8
0
6
CONTINUOUS
10
-0.001935
20
-0.034199
30
0.0
11
0.000476
21
-0.034199
31
0.0
0
LINE
8
0
6
CONTINUOUS
10
-0.012907
20
-0.034199
30
0.0
11
-0.015021
21
-0.034199
31
0.0
0
LINE
8
0
6
CONTINUOUS
10
-0.010401
20
-0.034199
30
0.0
11
-0.012907
21
-0.034199
31
0.0
0
LINE
8
0
6
CONTINUOUS
10
-0.007554
20
-0.034199
30
0.0
11
-0.010401
21
-0.034199
31
0.0
0
LINE
8
0
6
CONTINUOUS
10
-0.004636
20
-0.034199
30
0.0
11
-0.007554
21
-0.034199
31
0.0
0
LINE
8
0
6
CONTINUOUS
10
-0.001935
20
-0.034199
30
0.0
11
-0.004636
21
-0.034199
31
0.0
0
LINE
8
0
6
CONTINUOUS
10
0.000476
20
-0.034199
30
0.0
11
-0.001935
21
-0.034199
31
0.0
0
LINE
8
0
6
CONTINUOUS
10
-0.015021
20
-0.034199
30
0.0
11
-0.016527
21
-0.034199
31
0.0
0
LINE
8
0
6
CONTINUOUS
10
-0.016527
20
-0.034199
30
0.0
11
-0.017416
21
-0.034199
31
0.0
0
LINE
8
0
6
CONTINUOUS
10
-0.017416
20
-0.034199
30
0.0
11
-0.017566
21
-0.034199
31
0.0
0
LINE
8
0
6
CONTINUOUS
10
-0.016527
20
-0.034199
30
0.0
11
-0.015021
21
-0.034199
31
0.0
0
LINE
8
0
6
CONTINUOUS
10
-0.017416
20
-0.034199
30
0.0
11
-0.016527
21
-0.034199
31
0.0
0
LINE
8
0
6
CONTINUOUS
10
-0.017566
20
-0.034199
30
0.0
11
-0.017416
21
-0.034199
31
0.0
0
LINE
8
0
6
CONTINUOUS
10
-0.017566
20
-0.034199
30
0.0
11
-0.017566
21
-0.014199
31
0.0
0
LINE
8
0
6
CONTINUOUS
10
0.002379
20
-0.034199
30
0.0
11
0.000476
21
-0.034199
31
0.0
0
LINE
8
0
6
CONTINUOUS
10
0.000476
20
-0.034199
30
0.0
11
0.002379
21
-0.034199
31
0.0
0
LINE
8
0
6
CONTINUOUS
10
0.004263
20
-0.034199
30
0.0
11
0.006376
21
-0.034199
31
0.0
0
LINE
8
0
6
CONTINUOUS
10
0.006376
20
-0.034199
30
0.0
11
0.008882
21
-0.034199
31
0.0
0
LINE
8
0
6
CONTINUOUS
10
0.008882
20
-0.034199
30
0.0
11
0.011723
21
-0.034199
31
0.0
0
LINE
8
0
6
CONTINUOUS
10
0.011729
20
-0.034199
30
0.0
11
0.014647
21
-0.034199
31
0.0
0
LINE
8
0
6
CONTINUOUS
10
0.014647
20
-0.034199
30
0.0
11
0.017348
21
-0.034199
31
0.0
0
LINE
8
0
6
CONTINUOUS
10
0.017348
20
-0.034199
30
0.0
11
0.019760
21
-0.034199
31
0.0
0
LINE
8
0
6
CONTINUOUS
10
0.006376
20
-0.034199
30
0.0
11
0.004263
21
-0.034199
31
0.0
0
LINE
8
0
6
CONTINUOUS
10
0.008882
20
-0.034199
30
0.0
11
0.006376
21
-0.034199
31
0.0
0
LINE
8
0
6
CONTINUOUS
10
0.011729
20
-0.034199
30
0.0
11
0.008882
21
-0.034199
31
0.0
0
LINE
8
0
6
CONTINUOUS
10
0.014647
20
-0.034199
30
0.0
11
0.011729
21
-0.034199
31
0.0
0
LINE
8
0
6
CONTINUOUS
10
0.017348
20
-0.034199
30
0.0
11
0.014647
21
-0.034199
31
0.0
0
LINE
8
0
6
CONTINUOUS
10
0.019760
20
-0.034199
30
0.0
11
0.017348
21
-0.034199
31
0.0
0
LINE
8
0
6
CONTINUOUS
10
0.004263
20
-0.034199
30
0.0
11
0.002756
21
-0.034199
31
0.0
0
LINE
8
0
6
CONTINUOUS
10
0.002756
20
-0.034199
30
0.0
11
0.001868
21
-0.034199
31
0.0
0
LINE
8
0
6
CONTINUOUS
10
0.001868
20
-0.034199
30
0.0
11
0.001717
21
-0.034199
31
0.0
0
LINE
8
0
6
CONTINUOUS
10
0.002756
20
-0.034199
30
0.0
11
0.004263
21
-0.034199
31
0.0
0
LINE
8
0
6
CONTINUOUS
10
0.001868
20
-0.034199
30
0.0
11
0.002756
21
-0.034199
31
0.0
0
LINE
8
0
6
CONTINUOUS
10
0.001717
20
-0.034199
30
0.0
11
0.001868
21
-0.034199
31
0.0
0
LINE
8
0
6
CONTINUOUS
10
0.001717
20
-0.034199
30
0.0
11
0.001717
21
-0.014199
31
0.0
0
LINE
8
0
6
CONTINUOUS
10
0.023661
20
-0.034199
30
0.0
11
0.023006
21
-0.034199
31
0.0
0
LINE
8
0
6
CONTINUOUS
10
0.023006
20
-0.034199
30
0.0
11
0.021663
21
-0.034199
31
0.0
0
LINE
8
0
6
CONTINUOUS
10
0.021663
20
-0.034199
30
0.0
11
0.019760
21
-0.034199
31
0.0
0
LINE
8
0
6
CONTINUOUS
10
0.023661
20
-0.034199
30
0.0
11
0.023661
21
-0.014199
31
0.0
0
LINE
8
0
6
CONTINUOUS
10
0.023006
20
-0.034199
30
0.0
11
0.023661
21
-0.034199
31
0.0
0
LINE
8
0
6
CONTINUOUS
10
0.021663
20
-0.034199
30
0.0
11
0.023006
21
-0.034199
31
0.0
0
LINE
8
0
6
CONTINUOUS
10
0.019760
20
-0.034199
30
0.0
11
0.021663
21
-0.034199
31
0.0
0
LINE
8
0
6
CONTINUOUS
10
0.028779
20
-0.014199
30
0.0
11
0.027246
21
-0.014199
31
0.0
0
LINE
8
0
6
CONTINUOUS
10
0.026008
20
-0.014199
30
0.0
11
0.024135
21
-0.014199
31
0.0
0
LINE
8
0
6
CONTINUOUS
10
0.029563
20
-0.013310
30
0.0
11
0.028010
21
-0.013310
31
0.0
0
LINE
8
0
6
CONTINUOUS
10
0.027246
20
-0.014199
30
0.0
11
0.028779
21
-0.014199
31
0.0
0
LINE
8
0
6
CONTINUOUS
10
0.028010
20
-0.013310
30
0.0
11
0.024767
21
-0.013310
31
0.0
0
LINE
8
0
6
CONTINUOUS
10
0.024135
20
-0.014199
30
0.0
11
0.027246
21
-0.014199
31
0.0
0
LINE
8
0
6
CONTINUOUS
10
0.024767
20
-0.013310
30
0.0
11
0.020148
21
-0.013310
31
0.0
0
LINE
8
0
6
CONTINUOUS
10
0.022094
20
-0.014199
30
0.0
11
0.024135
21
-0.014199
31
0.0
0
LINE
8
0
6
CONTINUOUS
10
0.028010
20
-0.013310
30
0.0
11
0.029563
21
-0.013310
31
0.0
0
LINE
8
0
6
CONTINUOUS
10
0.024767
20
-0.013310
30
0.0
11
0.028010
21
-0.013310
31
0.0
0
LINE
8
0
6
CONTINUOUS
10
0.020148
20
-0.013310
30
0.0
11
0.024767
21
-0.013310
31
0.0
0
LINE
8
0
6
CONTINUOUS
10
0.029563
20
-0.013310
30
0.0
11
0.028779
21
-0.014199
31
0.0
0
LINE
8
0
6
CONTINUOUS
10
0.029898
20
-0.011531
30
0.0
11
0.029563
21
-0.013310
31
0.0
0
LINE
8
0
6
CONTINUOUS
10
0.029898
20
0.068801
30
0.0
11
0.029898
21
0.051801
31
0.0
0
LINE
8
0
6
CONTINUOUS
10
0.029898
20
0.045801
30
0.0
11
0.029898
21
-0.011531
31
0.0
0
LINE
8
0
6
CONTINUOUS
10
-0.018039
20
-0.014199
30
0.0
11
-0.017566
21
-0.014199
31
0.0
0
LINE
8
0
6
CONTINUOUS
10
-0.017566
20
-0.014199
30
0.0
11
-0.018039
21
-0.014199
31
0.0
0
LINE
8
0
6
CONTINUOUS
10
-0.022240
20
0.068801
30
0.0
11
-0.018988
21
0.068801
31
0.0
0
LINE
8
0
6
CONTINUOUS
10
-0.022316
20
-0.014199
30
0.0
11
-0.022684
21
-0.014199
31
0.0
0
LINE
8
0
6
CONTINUOUS
10
-0.020281
20
-0.014199
30
0.0
11
-0.022316
21
-0.014199
31
0.0
0
LINE
8
0
6
CONTINUOUS
10
-0.016723
20
-0.014199
30
0.0
11
-0.020281
21
-0.014199
31
0.0
0
LINE
8
0
6
CONTINUOUS
10
-0.022684
20
-0.014199
30
0.0
11
-0.022316
21
-0.014199
31
0.0
0
LINE
8
0
6
CONTINUOUS
10
-0.023468
20
-0.013310
30
0.0
11
-0.022684
21
-0.014199
31
0.0
0
LINE
8
0
6
CONTINUOUS
10
-0.022316
20
-0.014199
30
0.0
11
-0.020281
21
-0.014199
31
0.0
0
LINE
8
0
6
CONTINUOUS
10
-0.020991
20
-0.013310
30
0.0
11
-0.023119
21
-0.013310
31
0.0
0
LINE
8
0
6
CONTINUOUS
10
-0.020281
20
-0.014199
30
0.0
11
-0.016723
21
-0.014199
31
0.0
0
LINE
8
0
6
CONTINUOUS
10
-0.017331
20
-0.013310
30
0.0
11
-0.020991
21
-0.013310
31
0.0
0
LINE
8
0
6
CONTINUOUS
10
-0.023468
20
-0.013310
30
0.0
11
-0.023119
21
-0.013310
31
0.0
0
LINE
8
0
6
CONTINUOUS
10
-0.023803
20
-0.011531
30
0.0
11
-0.023468
21
-0.013310
31
0.0
0
LINE
8
0
6
CONTINUOUS
10
-0.023119
20
-0.013310
30
0.0
11
-0.020991
21
-0.013310
31
0.0
0
LINE
8
0
6
CONTINUOUS
10
-0.020991
20
-0.013310
30
0.0
11
-0.017331
21
-0.013310
31
0.0
0
LINE
8
0
6
CONTINUOUS
10
-0.023803
20
0.068801
30
0.0
11
-0.023803
21
0.051801
31
0.0
0
LINE
8
0
6
CONTINUOUS
10
-0.023803
20
0.045801
30
0.0
11
-0.023803
21
-0.011531
31
0.0
0
LINE
8
0
6
CONTINUOUS
10
0.000796
20
-0.014199
30
0.0
11
-0.005777
21
-0.014199
31
0.0
0
LINE
8
0
6
CONTINUOUS
10
-0.005777
20
-0.014199
30
0.0
11
-0.011705
21
-0.014199
31
0.0
0
LINE
8
0
6
CONTINUOUS
10
-0.011705
20
-0.014199
30
0.0
11
-0.016723
21
-0.014199
31
0.0
0
LINE
8
0
6
CONTINUOUS
10
0.000728
20
-0.013310
30
0.0
11
-0.006069
21
-0.013310
31
0.0
0
LINE
8
0
6
CONTINUOUS
10
-0.005777
20
-0.014199
30
0.0
11
0.000796
21
-0.014199
31
0.0
0
LINE
8
0
6
CONTINUOUS
10
-0.006069
20
-0.013310
30
0.0
11
-0.012212
21
-0.013310
31
0.0
0
LINE
8
0
6
CONTINUOUS
10
-0.011705
20
-0.014199
30
0.0
11
-0.005777
21
-0.014199
31
0.0
0
LINE
8
0
6
CONTINUOUS
10
-0.012212
20
-0.013310
30
0.0
11
-0.017331
21
-0.013310
31
0.0
0
LINE
8
0
6
CONTINUOUS
10
-0.016723
20
-0.014199
30
0.0
11
-0.011705
21
-0.014199
31
0.0
0
LINE
8
0
6
CONTINUOUS
10
-0.006069
20
-0.013310
30
0.0
11
0.000728
21
-0.013310
31
0.0
0
LINE
8
0
6
CONTINUOUS
10
-0.012212
20
-0.013310
30
0.0
11
-0.006069
21
-0.013310
31
0.0
0
LINE
8
0
6
CONTINUOUS
10
-0.017331
20
-0.013310
30
0.0
11
-0.012212
21
-0.013310
31
0.0
0
LINE
8
0
6
CONTINUOUS
10
0.007536
20
-0.014199
30
0.0
11
0.000796
21
-0.014199
31
0.0
0
LINE
8
0
6
CONTINUOUS
10
0.013915
20
-0.014199
30
0.0
11
0.007536
21
-0.014199
31
0.0
0
LINE
8
0
6
CONTINUOUS
10
0.000796
20
-0.014199
30
0.0
11
0.007536
21
-0.014199
31
0.0
0
LINE
8
0
6
CONTINUOUS
10
0.007691
20
-0.013310
30
0.0
11
0.000728
21
-0.013310
31
0.0
0
LINE
8
0
6
CONTINUOUS
10
0.007536
20
-0.014199
30
0.0
11
0.013915
21
-0.014199
31
0.0
0
LINE
8
0
6
CONTINUOUS
10
0.014303
20
-0.013310
30
0.0
11
0.007691
21
-0.013310
31
0.0
0
LINE
8
0
6
CONTINUOUS
10
0.020148
20
-0.013310
30
0.0
11
0.014303
21
-0.013310
31
0.0
0
LINE
8
0
6
CONTINUOUS
10
0.000728
20
-0.013310
30
0.0
11
0.007691
21
-0.013310
31
0.0
0
LINE
8
0
6
CONTINUOUS
10
0.007691
20
-0.013310
30
0.0
11
0.014303
21
-0.013310
31
0.0
0
LINE
8
0
6
CONTINUOUS
10
0.014303
20
-0.013310
30
0.0
11
0.020148
21
-0.013310
31
0.0
0
LINE
8
0
6
CONTINUOUS
10
0.035804
20
-0.023612
30
0.0
11
0.037105
21
-0.024030
31
0.0
0
LINE
8
0
6
CONTINUOUS
10
0.033835
20
-0.023456
30
0.0
11
0.035804
21
-0.023612
31
0.0
0
LINE
8
0
6
CONTINUOUS
10
0.037658
20
-0.024695
30
0.0
11
0.037105
21
-0.024030
31
0.0
0
LINE
8
0
6
CONTINUOUS
10
0.037105
20
-0.024030
30
0.0
11
0.035804
21
-0.023612
31
0.0
0
LINE
8
0
6
CONTINUOUS
10
0.036019
20
-0.023128
30
0.0
11
0.037377
21
-0.023558
31
0.0
0
LINE
8
0
6
CONTINUOUS
10
0.035804
20
-0.023612
30
0.0
11
0.033835
21
-0.023456
31
0.0
0
LINE
8
0
6
CONTINUOUS
10
0.033997
20
-0.022971
30
0.0
11
0.036019
21
-0.023128
31
0.0
0
LINE
8
0
6
CONTINUOUS
10
0.037377
20
-0.023558
30
0.0
11
0.036019
21
-0.023128
31
0.0
0
LINE
8
0
6
CONTINUOUS
10
0.036019
20
-0.023128
30
0.0
11
0.033997
21
-0.022971
31
0.0
0
LINE
8
0
6
CONTINUOUS
10
0.037658
20
-0.024695
30
0.0
11
0.037322
21
-0.025582
31
0.0
0
LINE
8
0
6
CONTINUOUS
10
0.037322
20
-0.025582
30
0.0
11
0.036594
21
-0.026254
31
0.0
0
LINE
8
0
6
CONTINUOUS
10
0.037322
20
-0.025582
30
0.0
11
0.037658
21
-0.024695
31
0.0
0
LINE
8
0
6
CONTINUOUS
10
0.037322
20
-0.025582
30
0.0
11
0.037600
21
-0.025163
31
0.0
0
LINE
8
0
6
CONTINUOUS
10
0.036594
20
-0.026254
30
0.0
11
0.037322
21
-0.025582
31
0.0
0
LINE
8
0
6
CONTINUOUS
10
0.037933
20
-0.024250
30
0.0
11
0.037908
21
-0.023501
31
0.0
0
LINE
8
0
6
CONTINUOUS
10
0.037600
20
-0.025163
30
0.0
11
0.037933
21
-0.024250
31
0.0
0
LINE
8
0
6
CONTINUOUS
10
0.037908
20
-0.023501
30
0.0
11
0.029898
21
0.007776
31
0.0
0
LINE
8
0
6
CONTINUOUS
10
0.025221
20
-0.024695
30
0.0
11
0.028346
21
-0.024030
31
0.0
0
LINE
8
0
6
CONTINUOUS
10
0.028346
20
-0.024030
30
0.0
11
0.031261
21
-0.023612
31
0.0
0
LINE
8
0
6
CONTINUOUS
10
0.031261
20
-0.023612
30
0.0
11
0.033835
21
-0.023456
31
0.0
0
LINE
8
0
6
CONTINUOUS
10
0.025117
20
-0.024250
30
0.0
11
0.028347
21
-0.023558
31
0.0
0
LINE
8
0
6
CONTINUOUS
10
0.028346
20
-0.024030
30
0.0
11
0.025221
21
-0.024695
31
0.0
0
LINE
8
0
6
CONTINUOUS
10
0.028347
20
-0.023558
30
0.0
11
0.031369
21
-0.023128
31
0.0
0
LINE
8
0
6
CONTINUOUS
10
0.031261
20
-0.023612
30
0.0
11
0.028346
21
-0.024030
31
0.0
0
LINE
8
0
6
CONTINUOUS
10
0.031369
20
-0.023128
30
0.0
11
0.033997
21
-0.022971
31
0.0
0
LINE
8
0
6
CONTINUOUS
10
0.033835
20
-0.023456
30
0.0
11
0.031261
21
-0.023612
31
0.0
0
LINE
8
0
6
CONTINUOUS
10
0.028347
20
-0.023558
30
0.0
11
0.025117
21
-0.024250
31
0.0
0
LINE
8
0
6
CONTINUOUS
10
0.031369
20
-0.023128
30
0.0
11
0.028347
21
-0.023558
31
0.0
0
LINE
8
0
6
CONTINUOUS
10
0.033997
20
-0.022971
30
0.0
11
0.031369
21
-0.023128
31
0.0
0
LINE
8
0
6
CONTINUOUS
10
0.023661
20
-0.025142
30
0.0
11
0.025221
21
-0.024695
31
0.0
0
LINE
8
0
6
CONTINUOUS
10
0.025221
20
-0.024695
30
0.0
11
0.023661
21
-0.025142
31
0.0
0
LINE
8
0
6
CONTINUOUS
10
0.023661
20
-0.024665
30
0.0
11
0.025117
21
-0.024250
31
0.0
0
LINE
8
0
6
CONTINUOUS
10
0.025117
20
-0.024250
30
0.0
11
0.023661
21
-0.024665
31
0.0
0
LINE
8
0
6
CONTINUOUS
10
0.022421
20
-0.047269
30
0.0
11
0.023773
21
-0.046446
31
0.0
0
LINE
8
0
6
CONTINUOUS
10
0.021569
20
-0.048041
30
0.0
11
0.022421
21
-0.047269
31
0.0
0
LINE
8
0
6
CONTINUOUS
10
0.021317
20
-0.048723
30
0.0
11
0.021569
21
-0.048041
31
0.0
0
LINE
8
0
6
CONTINUOUS
10
0.021735
20
-0.049238
30
0.0
11
0.021317
21
-0.048723
31
0.0
0
LINE
8
0
6
CONTINUOUS
10
0.022738
20
-0.049547
30
0.0
11
0.021735
21
-0.049238
31
0.0
0
LINE
8
0
6
CONTINUOUS
10
0.024221
20
-0.049663
30
0.0
11
0.022738
21
-0.049547
31
0.0
0
LINE
8
0
6
CONTINUOUS
10
0.022662
20
-0.046446
30
0.0
11
0.021085
21
-0.047407
31
0.0
0
LINE
8
0
6
CONTINUOUS
10
0.021085
20
-0.047407
30
0.0
11
0.020090
21
-0.048307
31
0.0
0
LINE
8
0
6
CONTINUOUS
10
0.020090
20
-0.048307
30
0.0
11
0.019796
21
-0.049103
31
0.0
0
LINE
8
0
6
CONTINUOUS
10
0.019796
20
-0.049103
30
0.0
11
0.020284
21
-0.049704
31
0.0
0
LINE
8
0
6
CONTINUOUS
10
0.015979
20
-0.034199
30
0.0
11
0.019796
21
-0.049103
31
0.0
0
LINE
8
0
6
CONTINUOUS
10
0.020284
20
-0.049704
30
0.0
11
0.021455
21
-0.050064
31
0.0
0
LINE
8
0
6
CONTINUOUS
10
0.021455
20
-0.050064
30
0.0
11
0.023185
21
-0.050199
31
0.0
0
LINE
8
0
6
CONTINUOUS
10
0.023773
20
-0.046446
30
0.0
11
0.022421
21
-0.047269
31
0.0
0
LINE
8
0
6
CONTINUOUS
10
0.021085
20
-0.047407
30
0.0
11
0.022662
21
-0.046446
31
0.0
0
LINE
8
0
6
CONTINUOUS
10
0.022421
20
-0.047269
30
0.0
11
0.021569
21
-0.048041
31
0.0
0
LINE
8
0
6
CONTINUOUS
10
0.020090
20
-0.048307
30
0.0
11
0.021085
21
-0.047407
31
0.0
0
LINE
8
0
6
CONTINUOUS
10
0.021569
20
-0.048041
30
0.0
11
0.021317
21
-0.048723
31
0.0
0
LINE
8
0
6
CONTINUOUS
10
0.019796
20
-0.049103
30
0.0
11
0.020090
21
-0.048307
31
0.0
0
LINE
8
0
6
CONTINUOUS
10
0.021317
20
-0.048723
30
0.0
11
0.021735
21
-0.049238
31
0.0
0
LINE
8
0
6
CONTINUOUS
10
0.020284
20
-0.049704
30
0.0
11
0.019796
21
-0.049103
31
0.0
0
LINE
8
0
6
CONTINUOUS
10
0.021735
20
-0.049238
30
0.0
11
0.022738
21
-0.049547
31
0.0
0
LINE
8
0
6
CONTINUOUS
10
0.021455
20
-0.050064
30
0.0
11
0.020284
21
-0.049704
31
0.0
0
LINE
8
0
6
CONTINUOUS
10
0.022738
20
-0.049547
30
0.0
11
0.024221
21
-0.049663
31
0.0
0
LINE
8
0
6
CONTINUOUS
10
0.023185
20
-0.050199
30
0.0
11
0.021455
21
-0.050064
31
0.0
0
LINE
8
0
6
CONTINUOUS
10
0.022662
20
-0.046446
30
0.0
11
0.024799
21
-0.045485
31
0.0
0
LINE
8
0
6
CONTINUOUS
10
0.025605
20
-0.045622
30
0.0
11
0.023773
21
-0.046446
31
0.0
0
LINE
8
0
6
CONTINUOUS
10
0.024799
20
-0.045485
30
0.0
11
0.027287
21
-0.044584
31
0.0
0
LINE
8
0
6
CONTINUOUS
10
0.027738
20
-0.044850
30
0.0
11
0.025605
21
-0.045622
31
0.0
0
LINE
8
0
6
CONTINUOUS
10
0.027287
20
-0.044584
30
0.0
11
0.030070
21
-0.043788
31
0.0
0
LINE
8
0
6
CONTINUOUS
10
0.030123
20
-0.044168
30
0.0
11
0.027738
21
-0.044850
31
0.0
0
LINE
8
0
6
CONTINUOUS
10
0.030070
20
-0.043788
30
0.0
11
0.032880
21
-0.043188
31
0.0
0
LINE
8
0
6
CONTINUOUS
10
0.032532
20
-0.043653
30
0.0
11
0.030123
21
-0.044168
31
0.0
0
LINE
8
0
6
CONTINUOUS
10
0.032880
20
-0.043188
30
0.0
11
0.035443
21
-0.042827
31
0.0
0
LINE
8
0
6
CONTINUOUS
10
0.034729
20
-0.043344
30
0.0
11
0.032532
21
-0.043653
31
0.0
0
LINE
8
0
6
CONTINUOUS
10
0.035443
20
-0.042827
30
0.0
11
0.037696
21
-0.042692
31
0.0
0
LINE
8
0
6
CONTINUOUS
10
0.036659
20
-0.043228
30
0.0
11
0.034729
21
-0.043344
31
0.0
0
LINE
8
0
6
CONTINUOUS
10
0.025269
20
-0.025039
30
0.0
11
0.023661
21
-0.025498
31
0.0
0
LINE
8
0
6
CONTINUOUS
10
0.028079
20
-0.024438
30
0.0
11
0.025269
21
-0.025039
31
0.0
0
LINE
8
0
6
CONTINUOUS
10
0.030642
20
-0.024078
30
0.0
11
0.028079
21
-0.024438
31
0.0
0
LINE
8
0
6
CONTINUOUS
10
0.032894
20
-0.023943
30
0.0
11
0.030642
21
-0.024078
31
0.0
0
LINE
8
0
6
CONTINUOUS
10
0.023773
20
-0.046446
30
0.0
11
0.025605
21
-0.045622
31
0.0
0
LINE
8
0
6
CONTINUOUS
10
0.025605
20
-0.045622
30
0.0
11
0.027738
21
-0.044850
31
0.0
0
LINE
8
0
6
CONTINUOUS
10
0.027738
20
-0.044850
30
0.0
11
0.030123
21
-0.044168
31
0.0
0
LINE
8
0
6
CONTINUOUS
10
0.030123
20
-0.044168
30
0.0
11
0.032532
21
-0.043653
31
0.0
0
LINE
8
0
6
CONTINUOUS
10
0.032532
20
-0.043653
30
0.0
11
0.034729
21
-0.043344
31
0.0
0
LINE
8
0
6
CONTINUOUS
10
0.034729
20
-0.043344
30
0.0
11
0.036659
21
-0.043228
31
0.0
0
LINE
8
0
6
CONTINUOUS
10
0.024799
20
-0.045485
30
0.0
11
0.022662
21
-0.046446
31
0.0
0
LINE
8
0
6
CONTINUOUS
10
0.027287
20
-0.044584
30
0.0
11
0.024799
21
-0.045485
31
0.0
0
LINE
8
0
6
CONTINUOUS
10
0.023661
20
-0.025498
30
0.0
11
0.025269
21
-0.025039
31
0.0
0
LINE
8
0
6
CONTINUOUS
10
0.030070
20
-0.043788
30
0.0
11
0.027287
21
-0.044584
31
0.0
0
LINE
8
0
6
CONTINUOUS
10
0.025269
20
-0.025039
30
0.0
11
0.028079
21
-0.024438
31
0.0
0
LINE
8
0
6
CONTINUOUS
10
0.032880
20
-0.043188
30
0.0
11
0.030070
21
-0.043788
31
0.0
0
LINE
8
0
6
CONTINUOUS
10
0.028079
20
-0.024438
30
0.0
11
0.030642
21
-0.024078
31
0.0
0
LINE
8
0
6
CONTINUOUS
10
0.035443
20
-0.042827
30
0.0
11
0.032880
21
-0.043188
31
0.0
0
LINE
8
0
6
CONTINUOUS
10
0.030642
20
-0.024078
30
0.0
11
0.032894
21
-0.023943
31
0.0
0
LINE
8
0
6
CONTINUOUS
10
0.037696
20
-0.042692
30
0.0
11
0.035443
21
-0.042827
31
0.0
0
LINE
8
0
6
CONTINUOUS
10
0.038459
20
-0.045622
30
0.0
11
0.037107
21
-0.046446
31
0.0
0
LINE
8
0
6
CONTINUOUS
10
0.039312
20
-0.044850
30
0.0
11
0.038459
21
-0.045622
31
0.0
0
LINE
8
0
6
CONTINUOUS
10
0.039564
20
-0.044168
30
0.0
11
0.039312
21
-0.044850
31
0.0
0
LINE
8
0
6
CONTINUOUS
10
0.039145
20
-0.043653
30
0.0
11
0.039564
21
-0.044168
31
0.0
0
LINE
8
0
6
CONTINUOUS
10
0.038142
20
-0.043344
30
0.0
11
0.039145
21
-0.043653
31
0.0
0
LINE
8
0
6
CONTINUOUS
10
0.036659
20
-0.043228
30
0.0
11
0.038142
21
-0.043344
31
0.0
0
LINE
8
0
6
CONTINUOUS
10
0.038218
20
-0.046446
30
0.0
11
0.039796
21
-0.045485
31
0.0
0
LINE
8
0
6
CONTINUOUS
10
0.039796
20
-0.045485
30
0.0
11
0.040790
21
-0.044584
31
0.0
0
LINE
8
0
6
CONTINUOUS
10
0.040790
20
-0.044584
30
0.0
11
0.041084
21
-0.043788
31
0.0
0
LINE
8
0
6
CONTINUOUS
10
0.035795
20
-0.024438
30
0.0
11
0.036283
21
-0.025039
31
0.0
0
LINE
8
0
6
CONTINUOUS
10
0.041084
20
-0.043788
30
0.0
11
0.040596
21
-0.043188
31
0.0
0
LINE
8
0
6
CONTINUOUS
10
0.036283
20
-0.025039
30
0.0
11
0.041084
21
-0.043788
31
0.0
0
LINE
8
0
6
CONTINUOUS
10
0.034624
20
-0.024078
30
0.0
11
0.035795
21
-0.024438
31
0.0
0
LINE
8
0
6
CONTINUOUS
10
0.040596
20
-0.043188
30
0.0
11
0.039426
21
-0.042827
31
0.0
0
LINE
8
0
6
CONTINUOUS
10
0.032894
20
-0.023943
30
0.0
11
0.034624
21
-0.024078
31
0.0
0
LINE
8
0
6
CONTINUOUS
10
0.039426
20
-0.042827
30
0.0
11
0.037696
21
-0.042692
31
0.0
0
LINE
8
0
6
CONTINUOUS
10
0.036283
20
-0.025039
30
0.0
11
0.035795
21
-0.024438
31
0.0
0
LINE
8
0
6
CONTINUOUS
10
0.035795
20
-0.024438
30
0.0
11
0.034624
21
-0.024078
31
0.0
0
LINE
8
0
6
CONTINUOUS
10
0.034624
20
-0.024078
30
0.0
11
0.032894
21
-0.023943
31
0.0
0
LINE
8
0
6
CONTINUOUS
10
0.037107
20
-0.046446
30
0.0
11
0.038459
21
-0.045622
31
0.0
0
LINE
8
0
6
CONTINUOUS
10
0.039796
20
-0.045485
30
0.0
11
0.038218
21
-0.046446
31
0.0
0
LINE
8
0
6
CONTINUOUS
10
0.038459
20
-0.045622
30
0.0
11
0.039312
21
-0.044850
31
0.0
0
LINE
8
0
6
CONTINUOUS
10
0.040790
20
-0.044584
30
0.0
11
0.039796
21
-0.045485
31
0.0
0
LINE
8
0
6
CONTINUOUS
10
0.039312
20
-0.044850
30
0.0
11
0.039564
21
-0.044168
31
0.0
0
LINE
8
0
6
CONTINUOUS
10
0.041084
20
-0.043788
30
0.0
11
0.040790
21
-0.044584
31
0.0
0
LINE
8
0
6
CONTINUOUS
10
0.039564
20
-0.044168
30
0.0
11
0.039145
21
-0.043653
31
0.0
0
LINE
8
0
6
CONTINUOUS
10
0.040596
20
-0.043188
30
0.0
11
0.041084
21
-0.043788
31
0.0
0
LINE
8
0
6
CONTINUOUS
10
0.039145
20
-0.043653
30
0.0
11
0.038142
21
-0.043344
31
0.0
0
LINE
8
0
6
CONTINUOUS
10
0.039426
20
-0.042827
30
0.0
11
0.040596
21
-0.043188
31
0.0
0
LINE
8
0
6
CONTINUOUS
10
0.038142
20
-0.043344
30
0.0
11
0.036659
21
-0.043228
31
0.0
0
LINE
8
0
6
CONTINUOUS
10
0.037696
20
-0.042692
30
0.0
11
0.039426
21
-0.042827
31
0.0
0
LINE
8
0
6
CONTINUOUS
10
0.038218
20
-0.046446
30
0.0
11
0.036081
21
-0.047407
31
0.0
0
LINE
8
0
6
CONTINUOUS
10
0.035275
20
-0.047269
30
0.0
11
0.037107
21
-0.046446
31
0.0
0
LINE
8
0
6
CONTINUOUS
10
0.036081
20
-0.047407
30
0.0
11
0.033593
21
-0.048307
31
0.0
0
LINE
8
0
6
CONTINUOUS
10
0.033142
20
-0.048041
30
0.0
11
0.035275
21
-0.047269
31
0.0
0
LINE
8
0
6
CONTINUOUS
10
0.033593
20
-0.048307
30
0.0
11
0.030810
21
-0.049103
31
0.0
0
LINE
8
0
6
CONTINUOUS
10
0.030757
20
-0.048723
30
0.0
11
0.033142
21
-0.048041
31
0.0
0
LINE
8
0
6
CONTINUOUS
10
0.030810
20
-0.049103
30
0.0
11
0.028000
21
-0.049704
31
0.0
0
LINE
8
0
6
CONTINUOUS
10
0.028349
20
-0.049238
30
0.0
11
0.030757
21
-0.048723
31
0.0
0
LINE
8
0
6
CONTINUOUS
10
0.028000
20
-0.049704
30
0.0
11
0.025437
21
-0.050064
31
0.0
0
LINE
8
0
6
CONTINUOUS
10
0.026152
20
-0.049547
30
0.0
11
0.028349
21
-0.049238
31
0.0
0
LINE
8
0
6
CONTINUOUS
10
0.025437
20
-0.050064
30
0.0
11
0.023185
21
-0.050199
31
0.0
0
LINE
8
0
6
CONTINUOUS
10
0.024221
20
-0.049663
30
0.0
11
0.026152
21
-0.049547
31
0.0
0
LINE
8
0
6
CONTINUOUS
10
0.037107
20
-0.046446
30
0.0
11
0.035275
21
-0.047269
31
0.0
0
LINE
8
0
6
CONTINUOUS
10
0.035275
20
-0.047269
30
0.0
11
0.033142
21
-0.048041
31
0.0
0
LINE
8
0
6
CONTINUOUS
10
0.033142
20
-0.048041
30
0.0
11
0.030757
21
-0.048723
31
0.0
0
LINE
8
0
6
CONTINUOUS
10
0.030757
20
-0.048723
30
0.0
11
0.028349
21
-0.049238
31
0.0
0
LINE
8
0
6
CONTINUOUS
10
0.028349
20
-0.049238
30
0.0
11
0.026152
21
-0.049547
31
0.0
0
LINE
8
0
6
CONTINUOUS
10
0.026152
20
-0.049547
30
0.0
11
0.024221
21
-0.049663
31
0.0
0
LINE
8
0
6
CONTINUOUS
10
0.036081
20
-0.047407
30
0.0
11
0.038218
21
-0.046446
31
0.0
0
LINE
8
0
6
CONTINUOUS
10
0.033593
20
-0.048307
30
0.0
11
0.036081
21
-0.047407
31
0.0
0
LINE
8
0
6
CONTINUOUS
10
0.030810
20
-0.049103
30
0.0
11
0.033593
21
-0.048307
31
0.0
0
LINE
8
0
6
CONTINUOUS
10
0.028000
20
-0.049704
30
0.0
11
0.030810
21
-0.049103
31
0.0
0
LINE
8
0
6
CONTINUOUS
10
0.025437
20
-0.050064
30
0.0
11
0.028000
21
-0.049704
31
0.0
0
LINE
8
0
6
CONTINUOUS
10
0.023185
20
-0.050199
30
0.0
11
0.025437
21
-0.050064
31
0.0
0
LINE
8
0
6
CONTINUOUS
10
-0.030124
20
-0.026600
30
0.0
11
-0.031226
21
-0.025582
31
0.0
0
LINE
8
0
6
CONTINUOUS
10
-0.028330
20
-0.027696
30
0.0
11
-0.030124
21
-0.026600
31
0.0
0
LINE
8
0
6
CONTINUOUS
10
-0.031226
20
-0.025582
30
0.0
11
-0.030124
21
-0.026600
31
0.0
0
LINE
8
0
6
CONTINUOUS
10
-0.031505
20
-0.025163
30
0.0
11
-0.031226
21
-0.025582
31
0.0
0
LINE
8
0
6
CONTINUOUS
10
-0.030124
20
-0.026600
30
0.0
11
-0.028330
21
-0.027696
31
0.0
0
LINE
8
0
6
CONTINUOUS
10
-0.028510
20
-0.027342
30
0.0
11
-0.030354
21
-0.026220
31
0.0
0
LINE
8
0
6
CONTINUOUS
10
-0.031838
20
-0.024250
30
0.0
11
-0.031505
21
-0.025163
31
0.0
0
LINE
8
0
6
CONTINUOUS
10
-0.031813
20
-0.023501
30
0.0
11
-0.031838
21
-0.024250
31
0.0
0
LINE
8
0
6
CONTINUOUS
10
-0.031505
20
-0.025163
30
0.0
11
-0.030354
21
-0.026220
31
0.0
0
LINE
8
0
6
CONTINUOUS
10
-0.030354
20
-0.026220
30
0.0
11
-0.028510
21
-0.027342
31
0.0
0
LINE
8
0
6
CONTINUOUS
10
-0.023803
20
0.007776
30
0.0
11
-0.031813
21
-0.023501
31
0.0
0
LINE
8
0
6
CONTINUOUS
10
-0.019961
20
-0.030697
30
0.0
11
-0.023055
21
-0.029810
31
0.0
0
LINE
8
0
6
CONTINUOUS
10
-0.023055
20
-0.029810
30
0.0
11
-0.025887
21
-0.028792
31
0.0
0
LINE
8
0
6
CONTINUOUS
10
-0.025887
20
-0.028792
30
0.0
11
-0.028330
21
-0.027696
31
0.0
0
LINE
8
0
6
CONTINUOUS
10
-0.019883
20
-0.030434
30
0.0
11
-0.023082
21
-0.029520
31
0.0
0
LINE
8
0
6
CONTINUOUS
10
-0.023055
20
-0.029810
30
0.0
11
-0.019961
21
-0.030697
31
0.0
0
LINE
8
0
6
CONTINUOUS
10
-0.023082
20
-0.029520
30
0.0
11
-0.026017
21
-0.028464
31
0.0
0
LINE
8
0
6
CONTINUOUS
10
-0.025887
20
-0.028792
30
0.0
11
-0.023055
21
-0.029810
31
0.0
0
LINE
8
0
6
CONTINUOUS
10
-0.026017
20
-0.028464
30
0.0
11
-0.028510
21
-0.027342
31
0.0
0
LINE
8
0
6
CONTINUOUS
10
-0.028330
20
-0.027696
30
0.0
11
-0.025887
21
-0.028792
31
0.0
0
LINE
8
0
6
CONTINUOUS
10
-0.023082
20
-0.029520
30
0.0
11
-0.019883
21
-0.030434
31
0.0
0
LINE
8
0
6
CONTINUOUS
10
-0.026017
20
-0.028464
30
0.0
11
-0.023082
21
-0.029520
31
0.0
0
LINE
8
0
6
CONTINUOUS
10
-0.028510
20
-0.027342
30
0.0
11
-0.026017
21
-0.028464
31
0.0
0
LINE
8
0
6
CONTINUOUS
10
-0.017566
20
-0.031207
30
0.0
11
-0.019961
21
-0.030697
31
0.0
0
LINE
8
0
6
CONTINUOUS
10
-0.019961
20
-0.030697
30
0.0
11
-0.017566
21
-0.031207
31
0.0
0
LINE
8
0
6
CONTINUOUS
10
-0.017566
20
-0.030930
30
0.0
11
-0.019883
21
-0.030434
31
0.0
0
LINE
8
0
6
CONTINUOUS
10
-0.019883
20
-0.030434
30
0.0
11
-0.017566
21
-0.030930
31
0.0
0
LINE
8
0
6
CONTINUOUS
10
-0.032123
20
-0.046446
30
0.0
11
-0.029986
21
-0.047407
31
0.0
0
LINE
8
0
6
CONTINUOUS
10
-0.029986
20
-0.047407
30
0.0
11
-0.027498
21
-0.048307
31
0.0
0
LINE
8
0
6
CONTINUOUS
10
-0.027498
20
-0.048307
30
0.0
11
-0.024715
21
-0.049103
31
0.0
0
LINE
8
0
6
CONTINUOUS
10
-0.024715
20
-0.049103
30
0.0
11
-0.021905
21
-0.049704
31
0.0
0
LINE
8
0
6
CONTINUOUS
10
-0.021905
20
-0.049704
30
0.0
11
-0.019342
21
-0.050064
31
0.0
0
LINE
8
0
6
CONTINUOUS
10
-0.019342
20
-0.050064
30
0.0
11
-0.017089
21
-0.050199
31
0.0
0
LINE
8
0
6
CONTINUOUS
10
-0.029986
20
-0.047407
30
0.0
11
-0.032123
21
-0.046446
31
0.0
0
LINE
8
0
6
CONTINUOUS
10
-0.027498
20
-0.048307
30
0.0
11
-0.029986
21
-0.047407
31
0.0
0
LINE
8
0
6
CONTINUOUS
10
-0.024715
20
-0.049103
30
0.0
11
-0.027498
21
-0.048307
31
0.0
0
LINE
8
0
6
CONTINUOUS
10
-0.021905
20
-0.049704
30
0.0
11
-0.024715
21
-0.049103
31
0.0
0
LINE
8
0
6
CONTINUOUS
10
-0.019342
20
-0.050064
30
0.0
11
-0.021905
21
-0.049704
31
0.0
0
LINE
8
0
6
CONTINUOUS
10
-0.017089
20
-0.050199
30
0.0
11
-0.019342
21
-0.050064
31
0.0
0
LINE
8
0
6
CONTINUOUS
10
-0.032123
20
-0.046446
30
0.0
11
-0.033701
21
-0.045485
31
0.0
0
LINE
8
0
6
CONTINUOUS
10
-0.033701
20
-0.045485
30
0.0
11
-0.034695
21
-0.044584
31
0.0
0
LINE
8
0
6
CONTINUOUS
10
-0.034695
20
-0.044584
30
0.0
11
-0.034989
21
-0.043788
31
0.0
0
LINE
8
0
6
CONTINUOUS
10
-0.033701
20
-0.045485
30
0.0
11
-0.032123
21
-0.046446
31
0.0
0
LINE
8
0
6
CONTINUOUS
10
-0.034695
20
-0.044584
30
0.0
11
-0.033701
21
-0.045485
31
0.0
0
LINE
8
0
6
CONTINUOUS
10
-0.034989
20
-0.043788
30
0.0
11
-0.034695
21
-0.044584
31
0.0
0
LINE
8
0
6
CONTINUOUS
10
-0.034989
20
-0.043788
30
0.0
11
-0.030499
21
-0.026254
31
0.0
0
LINE
8
0
6
CONTINUOUS
10
-0.013701
20
-0.049103
30
0.0
11
-0.014189
21
-0.049704
31
0.0
0
LINE
8
0
6
CONTINUOUS
10
-0.014189
20
-0.049704
30
0.0
11
-0.015359
21
-0.050064
31
0.0
0
LINE
8
0
6
CONTINUOUS
10
-0.015359
20
-0.050064
30
0.0
11
-0.017089
21
-0.050199
31
0.0
0
LINE
8
0
6
CONTINUOUS
10
-0.013701
20
-0.049103
30
0.0
11
-0.009884
21
-0.034199
31
0.0
0
LINE
8
0
6
CONTINUOUS
10
-0.014189
20
-0.049704
30
0.0
11
-0.013701
21
-0.049103
31
0.0
0
LINE
8
0
6
CONTINUOUS
10
-0.015359
20
-0.050064
30
0.0
11
-0.014189
21
-0.049704
31
0.0
0
LINE
8
0
6
CONTINUOUS
10
-0.017089
20
-0.050199
30
0.0
11
-0.015359
21
-0.050064
31
0.0
0
LINE
8
0
6
CONTINUOUS
10
0.029898
20
0.030640
30
0.0
11
0.030001
21
0.031109
31
0.0
0
LINE
8
0
6
CONTINUOUS
10
0.030001
20
0.031109
30
0.0
11
0.030001
21
0.040801
31
0.0
0
LINE
8
0
6
CONTINUOUS
10
0.030001
20
0.051801
30
0.0
11
0.030001
21
0.057801
31
0.0
0
LINE
8
0
6
CONTINUOUS
10
0.030001
20
0.062801
30
0.0
11
0.030001
21
0.068801
31
0.0
0
LINE
8
0
6
CONTINUOUS
10
-0.023803
20
0.030641
30
0.0
11
-0.023906
21
0.031109
31
0.0
0
LINE
8
0
6
CONTINUOUS
10
-0.023906
20
0.031109
30
0.0
11
-0.023906
21
0.045801
31
0.0
0
LINE
8
0
6
CONTINUOUS
10
-0.023906
20
0.051801
30
0.0
11
-0.023906
21
0.068801
31
0.0
0
LINE
8
0
6
CONTINUOUS
10
-0.018143
20
-0.030199
30
0.0
11
-0.018956
21
-0.030199
31
0.0
0
LINE
8
0
6
CONTINUOUS
10
-0.017566
20
-0.030199
30
0.0
11
-0.018143
21
-0.030199
31
0.0
0
LINE
8
0
6
CONTINUOUS
10
-0.018956
20
-0.030199
30
0.0
11
-0.018143
21
-0.030199
31
0.0
0
LINE
8
0
6
CONTINUOUS
10
-0.019626
20
-0.029430
30
0.0
11
-0.018956
21
-0.030199
31
0.0
0
LINE
8
0
6
CONTINUOUS
10
-0.018143
20
-0.030199
30
0.0
11
-0.017566
21
-0.030199
31
0.0
0
LINE
8
0
6
CONTINUOUS
10
-0.017566
20
-0.029430
30
0.0
11
-0.018812
21
-0.029430
31
0.0
0
LINE
8
0
6
CONTINUOUS
10
-0.019626
20
-0.029430
30
0.0
11
-0.018812
21
-0.029430
31
0.0
0
LINE
8
0
6
CONTINUOUS
10
-0.019913
20
-0.027891
30
0.0
11
-0.019626
21
-0.029430
31
0.0
0
LINE
8
0
6
CONTINUOUS
10
-0.018812
20
-0.029430
30
0.0
11
-0.017566
21
-0.029430
31
0.0
0
LINE
8
0
6
CONTINUOUS
10
-0.019913
20
-0.014199
30
0.0
11
-0.019913
21
-0.027891
31
0.0
0
LINE
8
0
6
CONTINUOUS
10
0.032749
20
0.051801
30
0.0
11
0.033153
21
0.051801
31
0.0
0
LINE
8
0
6
CONTINUOUS
10
0.031629
20
0.051801
30
0.0
11
0.032749
21
0.051801
31
0.0
0
LINE
8
0
6
CONTINUOUS
10
0.033153
20
0.051801
30
0.0
11
0.032749
21
0.051801
31
0.0
0
LINE
8
0
6
CONTINUOUS
10
0.033153
20
0.045801
30
0.0
11
0.033153
21
0.051801
31
0.0
0
LINE
8
0
6
CONTINUOUS
10
0.032749
20
0.045801
30
0.0
11
0.033153
21
0.045801
31
0.0
0
LINE
8
0
6
CONTINUOUS
10
0.032749
20
0.051801
30
0.0
11
0.031629
21
0.051801
31
0.0
0
LINE
8
0
6
CONTINUOUS
10
0.031629
20
0.045801
30
0.0
11
0.032749
21
0.045801
31
0.0
0
LINE
8
0
6
CONTINUOUS
10
0.033153
20
0.045801
30
0.0
11
0.032749
21
0.045801
31
0.0
0
LINE
8
0
6
CONTINUOUS
10
0.032749
20
0.045801
30
0.0
11
0.031629
21
0.045801
31
0.0
0
LINE
8
0
6
CONTINUOUS
10
0.030369
20
0.062801
30
0.0
11
0.030534
21
0.062801
31
0.0
0
LINE
8
0
6
CONTINUOUS
10
0.029911
20
0.062801
30
0.0
11
0.030369
21
0.062801
31
0.0
0
LINE
8
0
6
CONTINUOUS
10
0.030534
20
0.062801
30
0.0
11
0.030369
21
0.062801
31
0.0
0
LINE
8
0
6
CONTINUOUS
10
0.030534
20
0.057801
30
0.0
11
0.030534
21
0.062801
31
0.0
0
LINE
8
0
6
CONTINUOUS
10
0.030369
20
0.057801
30
0.0
11
0.030534
21
0.057801
31
0.0
0
LINE
8
0
6
CONTINUOUS
10
0.030369
20
0.062801
30
0.0
11
0.029911
21
0.062801
31
0.0
0
LINE
8
0
6
CONTINUOUS
10
0.029911
20
0.057801
30
0.0
11
0.030369
21
0.057801
31
0.0
0
LINE
8
0
6
CONTINUOUS
10
0.030534
20
0.057801
30
0.0
11
0.030369
21
0.057801
31
0.0
0
LINE
8
0
6
CONTINUOUS
10
0.030369
20
0.057801
30
0.0
11
0.029911
21
0.057801
31
0.0
0
LINE
8
0
6
CONTINUOUS
10
0.030534
20
0.040801
30
0.0
11
0.030534
21
0.045801
31
0.0
0
LINE
8
0
6
CONTINUOUS
10
0.030369
20
0.040801
30
0.0
11
0.030534
21
0.040801
31
0.0
0
LINE
8
0
6
CONTINUOUS
10
0.029911
20
0.040801
30
0.0
11
0.030369
21
0.040801
31
0.0
0
LINE
8
0
6
CONTINUOUS
10
0.030534
20
0.040801
30
0.0
11
0.030369
21
0.040801
31
0.0
0
LINE
8
0
6
CONTINUOUS
10
0.030369
20
0.040801
30
0.0
11
0.029911
21
0.040801
31
0.0
0
LINE
8
0
6
CONTINUOUS
10
-0.025989
20
0.045801
30
0.0
11
-0.025989
21
0.051801
31
0.0
0
LINE
8
0
6
CONTINUOUS
10
-0.026654
20
0.051801
30
0.0
11
-0.025534
21
0.051801
31
0.0
0
LINE
8
0
6
CONTINUOUS
10
-0.027058
20
0.051801
30
0.0
11
-0.026654
21
0.051801
31
0.0
0
LINE
8
0
6
CONTINUOUS
10
-0.025534
20
0.051801
30
0.0
11
-0.026654
21
0.051801
31
0.0
0
LINE
8
0
6
CONTINUOUS
10
-0.026654
20
0.045801
30
0.0
11
-0.025534
21
0.045801
31
0.0
0
LINE
8
0
6
CONTINUOUS
10
-0.026654
20
0.051801
30
0.0
11
-0.027058
21
0.051801
31
0.0
0
LINE
8
0
6
CONTINUOUS
10
-0.027058
20
0.045801
30
0.0
11
-0.026654
21
0.045801
31
0.0
0
LINE
8
0
6
CONTINUOUS
10
-0.027058
20
0.045801
30
0.0
11
-0.027058
21
0.051801
31
0.0
0
LINE
8
0
6
CONTINUOUS
10
-0.025534
20
0.045801
30
0.0
11
-0.026654
21
0.045801
31
0.0
0
LINE
8
0
6
CONTINUOUS
10
-0.026654
20
0.045801
30
0.0
11
-0.027058
21
0.045801
31
0.0
0
LINE
8
0
6
CONTINUOUS
10
-0.023906
20
0.062801
30
0.0
11
-0.024274
21
0.062801
31
0.0
0
LINE
8
0
6
CONTINUOUS
10
-0.024274
20
0.062801
30
0.0
11
-0.024439
21
0.062801
31
0.0
0
LINE
8
0
6
CONTINUOUS
10
-0.023906
20
0.057801
30
0.0
11
-0.024274
21
0.057801
31
0.0
0
LINE
8
0
6
CONTINUOUS
10
-0.024274
20
0.062801
30
0.0
11
-0.023906
21
0.062801
31
0.0
0
LINE
8
0
6
CONTINUOUS
10
-0.024274
20
0.057801
30
0.0
11
-0.024439
21
0.057801
31
0.0
0
LINE
8
0
6
CONTINUOUS
10
-0.024439
20
0.062801
30
0.0
11
-0.024274
21
0.062801
31
0.0
0
LINE
8
0
6
CONTINUOUS
10
-0.024439
20
0.062801
30
0.0
11
-0.024439
21
0.057801
31
0.0
0
LINE
8
0
6
CONTINUOUS
10
-0.024274
20
0.057801
30
0.0
11
-0.023906
21
0.057801
31
0.0
0
LINE
8
0
6
CONTINUOUS
10
-0.024439
20
0.057801
30
0.0
11
-0.024274
21
0.057801
31
0.0
0
LINE
8
0
6
CONTINUOUS
10
-0.023906
20
0.040801
30
0.0
11
-0.024274
21
0.040801
31
0.0
0
LINE
8
0
6
CONTINUOUS
10
-0.024274
20
0.040801
30
0.0
11
-0.024439
21
0.040801
31
0.0
0
LINE
8
0
6
CONTINUOUS
10
-0.024439
20
0.045801
30
0.0
11
-0.024439
21
0.040801
31
0.0
0
LINE
8
0
6
CONTINUOUS
10
-0.024274
20
0.040801
30
0.0
11
-0.023906
21
0.040801
31
0.0
0
LINE
8
0
6
CONTINUOUS
10
-0.024439
20
0.040801
30
0.0
11
-0.024274
21
0.040801
31
0.0
0
LINE
8
0
6
CONTINUOUS
10
-0.019168
20
0.051801
30
0.0
11
-0.023140
21
0.051801
31
0.0
0
LINE
8
0
6
CONTINUOUS
10
-0.023140
20
0.051801
30
0.0
11
-0.025481
21
0.051801
31
0.0
0
LINE
8
0
6
CONTINUOUS
10
-0.025481
20
0.051801
30
0.0
11
-0.025879
21
0.051801
31
0.0
0
LINE
8
0
6
CONTINUOUS
10
-0.019168
20
0.045801
30
0.0
11
-0.023140
21
0.045801
31
0.0
0
LINE
8
0
6
CONTINUOUS
10
-0.023140
20
0.051801
30
0.0
11
-0.019168
21
0.051801
31
0.0
0
LINE
8
0
6
CONTINUOUS
10
-0.023140
20
0.045801
30
0.0
11
-0.025481
21
0.045801
31
0.0
0
LINE
8
0
6
CONTINUOUS
10
-0.025481
20
0.051801
30
0.0
11
-0.023140
21
0.051801
31
0.0
0
LINE
8
0
6
CONTINUOUS
10
-0.025481
20
0.045801
30
0.0
11
-0.025879
21
0.045801
31
0.0
0
LINE
8
0
6
CONTINUOUS
10
-0.025879
20
0.051801
30
0.0
11
-0.025481
21
0.051801
31
0.0
0
LINE
8
0
6
CONTINUOUS
10
-0.025879
20
0.051801
30
0.0
11
-0.025879
21
0.045801
31
0.0
0
LINE
8
0
6
CONTINUOUS
10
-0.023140
20
0.045801
30
0.0
11
-0.019168
21
0.045801
31
0.0
0
LINE
8
0
6
CONTINUOUS
10
-0.025481
20
0.045801
30
0.0
11
-0.023140
21
0.045801
31
0.0
0
LINE
8
0
6
CONTINUOUS
10
-0.025879
20
0.045801
30
0.0
11
-0.025481
21
0.045801
31
0.0
0
LINE
8
0
6
CONTINUOUS
10
-0.013596
20
0.051801
30
0.0
11
-0.019168
21
0.051801
31
0.0
0
LINE
8
0
6
CONTINUOUS
10
-0.006989
20
0.051801
30
0.0
11
-0.013596
21
0.051801
31
0.0
0
LINE
8
0
6
CONTINUOUS
10
0.000517
20
0.051801
30
0.0
11
-0.006989
21
0.051801
31
0.0
0
LINE
8
0
6
CONTINUOUS
10
0.008209
20
0.051801
30
0.0
11
0.000517
21
0.051801
31
0.0
0
LINE
8
0
6
CONTINUOUS
10
0.011239
20
0.051801
30
0.0
11
0.008209
21
0.051801
31
0.0
0
LINE
8
0
6
CONTINUOUS
10
-0.019168
20
0.051801
30
0.0
11
-0.013596
21
0.051801
31
0.0
0
LINE
8
0
6
CONTINUOUS
10
-0.013596
20
0.045801
30
0.0
11
-0.019168
21
0.045801
31
0.0
0
LINE
8
0
6
CONTINUOUS
10
-0.013596
20
0.051801
30
0.0
11
-0.006989
21
0.051801
31
0.0
0
LINE
8
0
6
CONTINUOUS
10
-0.006989
20
0.045801
30
0.0
11
-0.013596
21
0.045801
31
0.0
0
LINE
8
0
6
CONTINUOUS
10
-0.006989
20
0.051801
30
0.0
11
0.000517
21
0.051801
31
0.0
0
LINE
8
0
6
CONTINUOUS
10
0.000517
20
0.045801
30
0.0
11
-0.006989
21
0.045801
31
0.0
0
LINE
8
0
6
CONTINUOUS
10
0.000517
20
0.051801
30
0.0
11
0.008209
21
0.051801
31
0.0
0
LINE
8
0
6
CONTINUOUS
10
0.008209
20
0.045801
30
0.0
11
0.000517
21
0.045801
31
0.0
0
LINE
8
0
6
CONTINUOUS
10
0.011239
20
0.051801
30
0.0
11
0.011101
21
0.045801
31
0.0
0
LINE
8
0
6
CONTINUOUS
10
0.008209
20
0.051801
30
0.0
11
0.011239
21
0.051801
31
0.0
0
LINE
8
0
6
CONTINUOUS
10
0.011101
20
0.045801
30
0.0
11
0.008209
21
0.045801
31
0.0
0
LINE
8
0
6
CONTINUOUS
10
-0.019168
20
0.045801
30
0.0
11
-0.013596
21
0.045801
31
0.0
0
LINE
8
0
6
CONTINUOUS
10
-0.013596
20
0.045801
30
0.0
11
-0.006989
21
0.045801
31
0.0
0
LINE
8
0
6
CONTINUOUS
10
-0.006989
20
0.045801
30
0.0
11
0.000517
21
0.045801
31
0.0
0
LINE
8
0
6
CONTINUOUS
10
0.000517
20
0.045801
30
0.0
11
0.008209
21
0.045801
31
0.0
0
LINE
8
0
6
CONTINUOUS
10
0.008209
20
0.045801
30
0.0
11
0.011101
21
0.045801
31
0.0
0
LINE
8
0
6
CONTINUOUS
10
0.014090
20
0.051801
30
0.0
11
0.011239
21
0.051801
31
0.0
0
LINE
8
0
6
CONTINUOUS
10
0.016596
20
0.051801
30
0.0
11
0.014090
21
0.051801
31
0.0
0
LINE
8
0
6
CONTINUOUS
10
0.019443
20
0.051801
30
0.0
11
0.016596
21
0.051801
31
0.0
0
LINE
8
0
6
CONTINUOUS
10
0.022361
20
0.051801
30
0.0
11
0.019443
21
0.051801
31
0.0
0
LINE
8
0
6
CONTINUOUS
10
0.025062
20
0.051801
30
0.0
11
0.022361
21
0.051801
31
0.0
0
LINE
8
0
6
CONTINUOUS
10
0.027474
20
0.051801
30
0.0
11
0.025062
21
0.051801
31
0.0
0
LINE
8
0
6
CONTINUOUS
10
0.011239
20
0.051801
30
0.0
11
0.014090
21
0.051801
31
0.0
0
LINE
8
0
6
CONTINUOUS
10
0.011101
20
0.045801
30
0.0
11
0.011239
21
0.051801
31
0.0
0
LINE
8
0
6
CONTINUOUS
10
0.014090
20
0.045801
30
0.0
11
0.011101
21
0.045801
31
0.0
0
LINE
8
0
6
CONTINUOUS
10
0.014090
20
0.051801
30
0.0
11
0.016596
21
0.051801
31
0.0
0
LINE
8
0
6
CONTINUOUS
10
0.016596
20
0.045801
30
0.0
11
0.014090
21
0.045801
31
0.0
0
LINE
8
0
6
CONTINUOUS
10
0.016596
20
0.051801
30
0.0
11
0.019443
21
0.051801
31
0.0
0
LINE
8
0
6
CONTINUOUS
10
0.019443
20
0.045801
30
0.0
11
0.016596
21
0.045801
31
0.0
0
LINE
8
0
6
CONTINUOUS
10
0.019443
20
0.051801
30
0.0
11
0.022361
21
0.051801
31
0.0
0
LINE
8
0
6
CONTINUOUS
10
0.022361
20
0.045801
30
0.0
11
0.019450
21
0.045801
31
0.0
0
LINE
8
0
6
CONTINUOUS
10
0.022361
20
0.051801
30
0.0
11
0.025062
21
0.051801
31
0.0
0
LINE
8
0
6
CONTINUOUS
10
0.025062
20
0.045801
30
0.0
11
0.022361
21
0.045801
31
0.0
0
LINE
8
0
6
CONTINUOUS
10
0.025062
20
0.051801
30
0.0
11
0.027474
21
0.051801
31
0.0
0
LINE
8
0
6
CONTINUOUS
10
0.027474
20
0.045801
30
0.0
11
0.025062
21
0.045801
31
0.0
0
LINE
8
0
6
CONTINUOUS
10
0.011101
20
0.045801
30
0.0
11
0.014090
21
0.045801
31
0.0
0
LINE
8
0
6
CONTINUOUS
10
0.014090
20
0.045801
30
0.0
11
0.016596
21
0.045801
31
0.0
0
LINE
8
0
6
CONTINUOUS
10
0.016596
20
0.045801
30
0.0
11
0.019443
21
0.045801
31
0.0
0
LINE
8
0
6
CONTINUOUS
10
0.019443
20
0.045801
30
0.0
11
0.022361
21
0.045801
31
0.0
0
LINE
8
0
6
CONTINUOUS
10
0.022361
20
0.045801
30
0.0
11
0.025062
21
0.045801
31
0.0
0
LINE
8
0
6
CONTINUOUS
10
0.025062
20
0.045801
30
0.0
11
0.027474
21
0.045801
31
0.0
0
LINE
8
0
6
CONTINUOUS
10
0.020491
20
0.062801
30
0.0
11
0.021356
21
0.062801
31
0.0
0
LINE
8
0
6
CONTINUOUS
10
0.021356
20
0.062801
30
0.0
11
0.022381
21
0.062801
31
0.0
0
LINE
8
0
6
CONTINUOUS
10
0.022381
20
0.062801
30
0.0
11
0.023545
21
0.062801
31
0.0
0
LINE
8
0
6
CONTINUOUS
10
0.023545
20
0.062801
30
0.0
11
0.024739
21
0.062801
31
0.0
0
LINE
8
0
6
CONTINUOUS
10
0.024739
20
0.062801
30
0.0
11
0.025844
21
0.062801
31
0.0
0
LINE
8
0
6
CONTINUOUS
10
0.025844
20
0.062801
30
0.0
11
0.026831
21
0.062801
31
0.0
0
LINE
8
0
6
CONTINUOUS
10
0.020491
20
0.057801
30
0.0
11
0.021356
21
0.057801
31
0.0
0
LINE
8
0
6
CONTINUOUS
10
0.021356
20
0.062801
30
0.0
11
0.020491
21
0.062801
31
0.0
0
LINE
8
0
6
CONTINUOUS
10
0.021356
20
0.057801
30
0.0
11
0.022381
21
0.057801
31
0.0
0
LINE
8
0
6
CONTINUOUS
10
0.022381
20
0.062801
30
0.0
11
0.021356
21
0.062801
31
0.0
0
LINE
8
0
6
CONTINUOUS
10
0.022381
20
0.057801
30
0.0
11
0.023545
21
0.057801
31
0.0
0
LINE
8
0
6
CONTINUOUS
10
0.023545
20
0.062801
30
0.0
11
0.022381
21
0.062801
31
0.0
0
LINE
8
0
6
CONTINUOUS
10
0.023545
20
0.057801
30
0.0
11
0.024739
21
0.057801
31
0.0
0
LINE
8
0
6
CONTINUOUS
10
0.024739
20
0.062801
30
0.0
11
0.023545
21
0.062801
31
0.0
0
LINE
8
0
6
CONTINUOUS
10
0.024739
20
0.057801
30
0.0
11
0.025844
21
0.057801
31
0.0
0
LINE
8
0
6
CONTINUOUS
10
0.025844
20
0.062801
30
0.0
11
0.024739
21
0.062801
31
0.0
0
LINE
8
0
6
CONTINUOUS
10
0.025844
20
0.057801
30
0.0
11
0.026831
21
0.057801
31
0.0
0
LINE
8
0
6
CONTINUOUS
10
0.026831
20
0.062801
30
0.0
11
0.025844
21
0.062801
31
0.0
0
LINE
8
0
6
CONTINUOUS
10
0.021356
20
0.057801
30
0.0
11
0.020491
21
0.057801
31
0.0
0
LINE
8
0
6
CONTINUOUS
10
0.022381
20
0.057801
30
0.0
11
0.021356
21
0.057801
31
0.0
0
LINE
8
0
6
CONTINUOUS
10
0.023545
20
0.057801
30
0.0
11
0.022381
21
0.057801
31
0.0
0
LINE
8
0
6
CONTINUOUS
10
0.024739
20
0.057801
30
0.0
11
0.023545
21
0.057801
31
0.0
0
LINE
8
0
6
CONTINUOUS
10
0.025844
20
0.057801
30
0.0
11
0.024739
21
0.057801
31
0.0
0
LINE
8
0
6
CONTINUOUS
10
0.026831
20
0.057801
30
0.0
11
0.025844
21
0.057801
31
0.0
0
LINE
8
0
6
CONTINUOUS
10
0.019875
20
0.062801
30
0.0
11
0.020491
21
0.062801
31
0.0
0
LINE
8
0
6
CONTINUOUS
10
0.019511
20
0.062801
30
0.0
11
0.019875
21
0.062801
31
0.0
0
LINE
8
0
6
CONTINUOUS
10
0.019450
20
0.062801
30
0.0
11
0.019511
21
0.062801
31
0.0
0
LINE
8
0
6
CONTINUOUS
10
0.020491
20
0.062801
30
0.0
11
0.019875
21
0.062801
31
0.0
0
LINE
8
0
6
CONTINUOUS
10
0.019875
20
0.057801
30
0.0
11
0.020491
21
0.057801
31
0.0
0
LINE
8
0
6
CONTINUOUS
10
0.019875
20
0.062801
30
0.0
11
0.019511
21
0.062801
31
0.0
0
LINE
8
0
6
CONTINUOUS
10
0.019511
20
0.057801
30
0.0
11
0.019875
21
0.057801
31
0.0
0
LINE
8
0
6
CONTINUOUS
10
0.019511
20
0.062801
30
0.0
11
0.019450
21
0.062801
31
0.0
0
LINE
8
0
6
CONTINUOUS
10
0.019450
20
0.057801
30
0.0
11
0.019511
21
0.057801
31
0.0
0
LINE
8
0
6
CONTINUOUS
10
0.019450
20
0.057801
30
0.0
11
0.019450
21
0.062801
31
0.0
0
LINE
8
0
6
CONTINUOUS
10
0.020491
20
0.057801
30
0.0
11
0.019875
21
0.057801
31
0.0
0
LINE
8
0
6
CONTINUOUS
10
0.019875
20
0.057801
30
0.0
11
0.019511
21
0.057801
31
0.0
0
LINE
8
0
6
CONTINUOUS
10
0.019511
20
0.057801
30
0.0
11
0.019450
21
0.057801
31
0.0
0
LINE
8
0
6
CONTINUOUS
10
0.028159
20
0.062801
30
0.0
11
0.028427
21
0.062801
31
0.0
0
LINE
8
0
6
CONTINUOUS
10
0.027609
20
0.062801
30
0.0
11
0.028159
21
0.062801
31
0.0
0
LINE
8
0
6
CONTINUOUS
10
0.026831
20
0.062801
30
0.0
11
0.027609
21
0.062801
31
0.0
0
LINE
8
0
6
CONTINUOUS
10
0.028427
20
0.062801
30
0.0
11
0.028159
21
0.062801
31
0.0
0
LINE
8
0
6
CONTINUOUS
10
0.028427
20
0.057801
30
0.0
11
0.028427
21
0.062801
31
0.0
0
LINE
8
0
6
CONTINUOUS
10
0.028159
20
0.057801
30
0.0
11
0.028427
21
0.057801
31
0.0
0
LINE
8
0
6
CONTINUOUS
10
0.028159
20
0.062801
30
0.0
11
0.027609
21
0.062801
31
0.0
0
LINE
8
0
6
CONTINUOUS
10
0.027609
20
0.057801
30
0.0
11
0.028159
21
0.057801
31
0.0
0
LINE
8
0
6
CONTINUOUS
10
0.027609
20
0.062801
30
0.0
11
0.026831
21
0.062801
31
0.0
0
LINE
8
0
6
CONTINUOUS
10
0.026831
20
0.057801
30
0.0
11
0.027609
21
0.057801
31
0.0
0
LINE
8
0
6
CONTINUOUS
10
0.028427
20
0.057801
30
0.0
11
0.028159
21
0.057801
31
0.0
0
LINE
8
0
6
CONTINUOUS
10
0.028159
20
0.057801
30
0.0
11
0.027609
21
0.057801
31
0.0
0
LINE
8
0
6
CONTINUOUS
10
0.027609
20
0.057801
30
0.0
11
0.026831
21
0.057801
31
0.0
0
LINE
8
0
6
CONTINUOUS
10
0.031974
20
0.051801
30
0.0
11
0.031375
21
0.051801
31
0.0
0
LINE
8
0
6
CONTINUOUS
10
0.031974
20
0.045801
30
0.0
11
0.031375
21
0.045801
31
0.0
0
LINE
8
0
6
CONTINUOUS
10
0.031974
20
0.051801
30
0.0
11
0.031974
21
0.045801
31
0.0
0
LINE
8
0
6
CONTINUOUS
10
0.031375
20
0.051801
30
0.0
11
0.031974
21
0.051801
31
0.0
0
LINE
8
0
6
CONTINUOUS
10
0.031375
20
0.045801
30
0.0
11
0.031974
21
0.045801
31
0.0
0
LINE
8
0
6
CONTINUOUS
10
0.031375
20
0.051801
30
0.0
11
0.030720
21
0.051801
31
0.0
0
LINE
8
0
6
CONTINUOUS
10
0.030720
20
0.051801
30
0.0
11
0.029376
21
0.051801
31
0.0
0
LINE
8
0
6
CONTINUOUS
10
0.029376
20
0.051801
30
0.0
11
0.027474
21
0.051801
31
0.0
0
LINE
8
0
6
CONTINUOUS
10
0.031375
20
0.045801
30
0.0
11
0.030720
21
0.045801
31
0.0
0
LINE
8
0
6
CONTINUOUS
10
0.031375
20
0.051801
30
0.0
11
0.031375
21
0.045801
31
0.0
0
LINE
8
0
6
CONTINUOUS
10
0.030720
20
0.051801
30
0.0
11
0.031375
21
0.051801
31
0.0
0
LINE
8
0
6
CONTINUOUS
10
0.030720
20
0.045801
30
0.0
11
0.029376
21
0.045801
31
0.0
0
LINE
8
0
6
CONTINUOUS
10
0.029376
20
0.051801
30
0.0
11
0.030720
21
0.051801
31
0.0
0
LINE
8
0
6
CONTINUOUS
10
0.029376
20
0.045801
30
0.0
11
0.027474
21
0.045801
31
0.0
0
LINE
8
0
6
CONTINUOUS
10
0.027474
20
0.051801
30
0.0
11
0.029376
21
0.051801
31
0.0
0
LINE
8
0
6
CONTINUOUS
10
0.030720
20
0.045801
30
0.0
11
0.031375
21
0.045801
31
0.0
0
LINE
8
0
6
CONTINUOUS
10
0.029376
20
0.045801
30
0.0
11
0.030720
21
0.045801
31
0.0
0
LINE
8
0
6
CONTINUOUS
10
0.027474
20
0.045801
30
0.0
11
0.029376
21
0.045801
31
0.0
0
LINE
8
0
6
CONTINUOUS
10
0.020946
20
0.051801
30
0.0
11
0.020946
21
0.057801
31
0.0
0
LINE
8
0
6
CONTINUOUS
10
0.026931
20
0.051801
30
0.0
11
0.026931
21
0.057801
31
0.0
0
LINE
8
0
6
CONTINUOUS
10
0.020491
20
0.040801
30
0.0
11
0.021356
21
0.040801
31
0.0
0
LINE
8
0
6
CONTINUOUS
10
0.021356
20
0.040801
30
0.0
11
0.022381
21
0.040801
31
0.0
0
LINE
8
0
6
CONTINUOUS
10
0.022381
20
0.040801
30
0.0
11
0.023545
21
0.040801
31
0.0
0
LINE
8
0
6
CONTINUOUS
10
0.023545
20
0.040801
30
0.0
11
0.024739
21
0.040801
31
0.0
0
LINE
8
0
6
CONTINUOUS
10
0.024739
20
0.040801
30
0.0
11
0.025844
21
0.040801
31
0.0
0
LINE
8
0
6
CONTINUOUS
10
0.025844
20
0.040801
30
0.0
11
0.026831
21
0.040801
31
0.0
0
LINE
8
0
6
CONTINUOUS
10
0.021356
20
0.040801
30
0.0
11
0.020491
21
0.040801
31
0.0
0
LINE
8
0
6
CONTINUOUS
10
0.022381
20
0.040801
30
0.0
11
0.021356
21
0.040801
31
0.0
0
LINE
8
0
6
CONTINUOUS
10
0.023545
20
0.040801
30
0.0
11
0.022381
21
0.040801
31
0.0
0
LINE
8
0
6
CONTINUOUS
10
0.024739
20
0.040801
30
0.0
11
0.023545
21
0.040801
31
0.0
0
LINE
8
0
6
CONTINUOUS
10
0.025844
20
0.040801
30
0.0
11
0.024739
21
0.040801
31
0.0
0
LINE
8
0
6
CONTINUOUS
10
0.026831
20
0.040801
30
0.0
11
0.025844
21
0.040801
31
0.0
0
LINE
8
0
6
CONTINUOUS
10
0.019875
20
0.040801
30
0.0
11
0.020491
21
0.040801
31
0.0
0
LINE
8
0
6
CONTINUOUS
10
0.019511
20
0.040801
30
0.0
11
0.019875
21
0.040801
31
0.0
0
LINE
8
0
6
CONTINUOUS
10
0.019450
20
0.040801
30
0.0
11
0.019511
21
0.040801
31
0.0
0
LINE
8
0
6
CONTINUOUS
10
0.019450
20
0.040801
30
0.0
11
0.019450
21
0.045801
31
0.0
0
LINE
8
0
6
CONTINUOUS
10
0.020491
20
0.040801
30
0.0
11
0.019875
21
0.040801
31
0.0
0
LINE
8
0
6
CONTINUOUS
10
0.019875
20
0.040801
30
0.0
11
0.019511
21
0.040801
31
0.0
0
LINE
8
0
6
CONTINUOUS
10
0.019511
20
0.040801
30
0.0
11
0.019450
21
0.040801
31
0.0
0
LINE
8
0
6
CONTINUOUS
10
0.028427
20
0.040801
30
0.0
11
0.028427
21
0.045801
31
0.0
0
LINE
8
0
6
CONTINUOUS
10
0.028159
20
0.040801
30
0.0
11
0.028427
21
0.040801
31
0.0
0
LINE
8
0
6
CONTINUOUS
10
0.027609
20
0.040801
30
0.0
11
0.028159
21
0.040801
31
0.0
0
LINE
8
0
6
CONTINUOUS
10
0.026831
20
0.040801
30
0.0
11
0.027609
21
0.040801
31
0.0
0
LINE
8
0
6
CONTINUOUS
10
0.028427
20
0.040801
30
0.0
11
0.028159
21
0.040801
31
0.0
0
LINE
8
0
6
CONTINUOUS
10
0.028159
20
0.040801
30
0.0
11
0.027609
21
0.040801
31
0.0
0
LINE
8
0
6
CONTINUOUS
10
0.027609
20
0.040801
30
0.0
11
0.026831
21
0.040801
31
0.0
0
LINE
8
0
6
CONTINUOUS
10
0.033210
20
0.074801
30
0.0
11
0.034087
21
0.074339
31
0.0
0
LINE
8
0
6
CONTINUOUS
10
0.034087
20
0.073263
30
0.0
11
0.033210
21
0.072801
31
0.0
0
LINE
8
0
6
CONTINUOUS
10
0.034087
20
0.074339
30
0.0
11
0.034087
21
0.073263
31
0.0
0
LINE
8
0
6
CONTINUOUS
10
-0.027992
20
0.073263
30
0.0
11
-0.027115
21
0.072801
31
0.0
0
LINE
8
0
6
CONTINUOUS
10
-0.027992
20
0.074339
30
0.0
11
-0.027992
21
0.073263
31
0.0
0
LINE
8
0
6
CONTINUOUS
10
-0.027115
20
0.074801
30
0.0
11
-0.027992
21
0.074339
31
0.0
0
LINE
8
0
6
CONTINUOUS
10
0.033210
20
0.070801
30
0.0
11
0.034087
21
0.070339
31
0.0
0
LINE
8
0
6
CONTINUOUS
10
0.034087
20
0.069263
30
0.0
11
0.033210
21
0.068801
31
0.0
0
LINE
8
0
6
CONTINUOUS
10
0.034087
20
0.070339
30
0.0
11
0.034087
21
0.069263
31
0.0
0
LINE
8
0
6
CONTINUOUS
10
-0.027992
20
0.069263
30
0.0
11
-0.027115
21
0.068801
31
0.0
0
LINE
8
0
6
CONTINUOUS
10
-0.027992
20
0.070339
30
0.0
11
-0.027992
21
0.069263
31
0.0
0
LINE
8
0
6
CONTINUOUS
10
-0.027115
20
0.070801
30
0.0
11
-0.027992
21
0.070339
31
0.0
0
LINE
8
0
6
CONTINUOUS
10
0.033210
20
0.072801
30
0.0
11
0.034087
21
0.072339
31
0.0
0
LINE
8
0
6
CONTINUOUS
10
0.034087
20
0.071263
30
0.0
11
0.033210
21
0.070801
31
0.0
0
LINE
8
0
6
CONTINUOUS
10
0.034087
20
0.072339
30
0.0
11
0.034087
21
0.071263
31
0.0
0
LINE
8
0
6
CONTINUOUS
10
-0.027992
20
0.071263
30
0.0
11
-0.027115
21
0.070801
31
0.0
0
LINE
8
0
6
CONTINUOUS
10
-0.027992
20
0.072339
30
0.0
11
-0.027992
21
0.071263
31
0.0
0
LINE
8
0
6
CONTINUOUS
10
-0.027115
20
0.072801
30
0.0
11
-0.027992
21
0.072339
31
0.0
0
LINE
8
0
6
CONTINUOUS
10
0.022974
20
0.074339
30
0.0
11
0.028336
21
0.074339
31
0.0
0
LINE
8
0
6
CONTINUOUS
10
0.028336
20
0.074339
30
0.0
11
0.032122
21
0.074339
31
0.0
0
LINE
8
0
6
CONTINUOUS
10
0.032122
20
0.074339
30
0.0
11
0.033969
21
0.074339
31
0.0
0
LINE
8
0
6
CONTINUOUS
10
0.033095
20
0.074801
30
0.0
11
0.033969
21
0.074339
31
0.0
0
LINE
8
0
6
CONTINUOUS
10
0.022496
20
0.072801
30
0.0
11
0.027763
21
0.072801
31
0.0
0
LINE
8
0
6
CONTINUOUS
10
0.027763
20
0.072801
30
0.0
11
0.031359
21
0.072801
31
0.0
0
LINE
8
0
6
CONTINUOUS
10
0.031359
20
0.072801
30
0.0
11
0.033095
21
0.072801
31
0.0
0
LINE
8
0
6
CONTINUOUS
10
0.022496
20
0.072801
30
0.0
11
0.027763
21
0.072801
31
0.0
0
LINE
8
0
6
CONTINUOUS
10
0.028336
20
0.073263
30
0.0
11
0.022974
21
0.073263
31
0.0
0
LINE
8
0
6
CONTINUOUS
10
0.027763
20
0.072801
30
0.0
11
0.031359
21
0.072801
31
0.0
0
LINE
8
0
6
CONTINUOUS
10
0.032122
20
0.073263
30
0.0
11
0.028336
21
0.073263
31
0.0
0
LINE
8
0
6
CONTINUOUS
10
0.031359
20
0.072801
30
0.0
11
0.033095
21
0.072801
31
0.0
0
LINE
8
0
6
CONTINUOUS
10
0.033969
20
0.073263
30
0.0
11
0.032122
21
0.073263
31
0.0
0
LINE
8
0
6
CONTINUOUS
10
0.033969
20
0.073263
30
0.0
11
0.033095
21
0.072801
31
0.0
0
LINE
8
0
6
CONTINUOUS
10
0.022974
20
0.073263
30
0.0
11
0.028336
21
0.073263
31
0.0
0
LINE
8
0
6
CONTINUOUS
10
0.028336
20
0.074339
30
0.0
11
0.022974
21
0.074339
31
0.0
0
LINE
8
0
6
CONTINUOUS
10
0.028336
20
0.073263
30
0.0
11
0.032122
21
0.073263
31
0.0
0
LINE
8
0
6
CONTINUOUS
10
0.032122
20
0.074339
30
0.0
11
0.028336
21
0.074339
31
0.0
0
LINE
8
0
6
CONTINUOUS
10
0.032122
20
0.073263
30
0.0
11
0.033969
21
0.073263
31
0.0
0
LINE
8
0
6
CONTINUOUS
10
0.033969
20
0.074339
30
0.0
11
0.032122
21
0.074339
31
0.0
0
LINE
8
0
6
CONTINUOUS
10
0.033969
20
0.074339
30
0.0
11
0.033969
21
0.073263
31
0.0
0
LINE
8
0
6
CONTINUOUS
10
0.015794
20
0.072801
30
0.0
11
0.022496
21
0.072801
31
0.0
0
LINE
8
0
6
CONTINUOUS
10
0.008372
20
0.072801
30
0.0
11
0.015794
21
0.072801
31
0.0
0
LINE
8
0
6
CONTINUOUS
10
0.000419
20
0.072801
30
0.0
11
0.008372
21
0.072801
31
0.0
0
LINE
8
0
6
CONTINUOUS
10
-0.007351
20
0.072801
30
0.0
11
0.000419
21
0.072801
31
0.0
0
LINE
8
0
6
CONTINUOUS
10
-0.014254
20
0.072801
30
0.0
11
-0.007351
21
0.072801
31
0.0
0
LINE
8
0
6
CONTINUOUS
10
-0.020130
20
0.072801
30
0.0
11
-0.014254
21
0.072801
31
0.0
0
LINE
8
0
6
CONTINUOUS
10
0.022974
20
0.073263
30
0.0
11
0.016177
21
0.073263
31
0.0
0
LINE
8
0
6
CONTINUOUS
10
0.015794
20
0.072801
30
0.0
11
0.022496
21
0.072801
31
0.0
0
LINE
8
0
6
CONTINUOUS
10
0.016177
20
0.073263
30
0.0
11
0.008565
21
0.073263
31
0.0
0
LINE
8
0
6
CONTINUOUS
10
0.008372
20
0.072801
30
0.0
11
0.015794
21
0.072801
31
0.0
0
LINE
8
0
6
CONTINUOUS
10
0.008565
20
0.073263
30
0.0
11
0.000342
21
0.073263
31
0.0
0
LINE
8
0
6
CONTINUOUS
10
0.000419
20
0.072801
30
0.0
11
0.008372
21
0.072801
31
0.0
0
LINE
8
0
6
CONTINUOUS
10
0.000342
20
0.073263
30
0.0
11
-0.007682
21
0.073263
31
0.0
0
LINE
8
0
6
CONTINUOUS
10
-0.007351
20
0.072801
30
0.0
11
0.000419
21
0.072801
31
0.0
0
LINE
8
0
6
CONTINUOUS
10
-0.007682
20
0.073263
30
0.0
11
-0.014744
21
0.073263
31
0.0
0
LINE
8
0
6
CONTINUOUS
10
-0.014254
20
0.072801
30
0.0
11
-0.007351
21
0.072801
31
0.0
0
LINE
8
0
6
CONTINUOUS
10
-0.014744
20
0.073263
30
0.0
11
-0.020700
21
0.073263
31
0.0
0
LINE
8
0
6
CONTINUOUS
10
-0.020130
20
0.072801
30
0.0
11
-0.014254
21
0.072801
31
0.0
0
LINE
8
0
6
CONTINUOUS
10
0.022974
20
0.074339
30
0.0
11
0.016177
21
0.074339
31
0.0
0
LINE
8
0
6
CONTINUOUS
10
0.016177
20
0.073263
30
0.0
11
0.022974
21
0.073263
31
0.0
0
LINE
8
0
6
CONTINUOUS
10
0.016177
20
0.074339
30
0.0
11
0.008565
21
0.074339
31
0.0
0
LINE
8
0
6
CONTINUOUS
10
0.008565
20
0.073263
30
0.0
11
0.016177
21
0.073263
31
0.0
0
LINE
8
0
6
CONTINUOUS
10
0.008565
20
0.074339
30
0.0
11
0.000342
21
0.074339
31
0.0
0
LINE
8
0
6
CONTINUOUS
10
0.000342
20
0.073263
30
0.0
11
0.008565
21
0.073263
31
0.0
0
LINE
8
0
6
CONTINUOUS
10
0.000342
20
0.074339
30
0.0
11
-0.007682
21
0.074339
31
0.0
0
LINE
8
0
6
CONTINUOUS
10
-0.007682
20
0.073263
30
0.0
11
0.000342
21
0.073263
31
0.0
0
LINE
8
0
6
CONTINUOUS
10
-0.007682
20
0.074339
30
0.0
11
-0.014744
21
0.074339
31
0.0
0
LINE
8
0
6
CONTINUOUS
10
-0.014744
20
0.073263
30
0.0
11
-0.007682
21
0.073263
31
0.0
0
LINE
8
0
6
CONTINUOUS
10
-0.014744
20
0.074339
30
0.0
11
-0.020700
21
0.074339
31
0.0
0
LINE
8
0
6
CONTINUOUS
10
-0.020700
20
0.073263
30
0.0
11
-0.014744
21
0.073263
31
0.0
0
LINE
8
0
6
CONTINUOUS
10
-0.027000
20
0.072801
30
0.0
11
-0.026640
21
0.072801
31
0.0
0
LINE
8
0
6
CONTINUOUS
10
-0.026640
20
0.072801
30
0.0
11
-0.024296
21
0.072801
31
0.0
0
LINE
8
0
6
CONTINUOUS
10
-0.024296
20
0.072801
30
0.0
11
-0.020130
21
0.072801
31
0.0
0
LINE
8
0
6
CONTINUOUS
10
-0.027000
20
0.072801
30
0.0
11
-0.026640
21
0.072801
31
0.0
0
LINE
8
0
6
CONTINUOUS
10
-0.027873
20
0.073263
30
0.0
11
-0.027000
21
0.072801
31
0.0
0
LINE
8
0
6
CONTINUOUS
10
-0.027449
20
0.073263
30
0.0
11
-0.027873
21
0.073263
31
0.0
0
LINE
8
0
6
CONTINUOUS
10
-0.026640
20
0.072801
30
0.0
11
-0.024296
21
0.072801
31
0.0
0
LINE
8
0
6
CONTINUOUS
10
-0.024946
20
0.073263
30
0.0
11
-0.027449
21
0.073263
31
0.0
0
LINE
8
0
6
CONTINUOUS
10
-0.024296
20
0.072801
30
0.0
11
-0.020130
21
0.072801
31
0.0
0
LINE
8
0
6
CONTINUOUS
10
-0.020700
20
0.073263
30
0.0
11
-0.024946
21
0.073263
31
0.0
0
LINE
8
0
6
CONTINUOUS
10
-0.027873
20
0.073263
30
0.0
11
-0.027449
21
0.073263
31
0.0
0
LINE
8
0
6
CONTINUOUS
10
-0.027873
20
0.074339
30
0.0
11
-0.027873
21
0.073263
31
0.0
0
LINE
8
0
6
CONTINUOUS
10
-0.027449
20
0.074339
30
0.0
11
-0.027873
21
0.074339
31
0.0
0
LINE
8
0
6
CONTINUOUS
10
-0.027449
20
0.073263
30
0.0
11
-0.024946
21
0.073263
31
0.0
0
LINE
8
0
6
CONTINUOUS
10
-0.024946
20
0.074339
30
0.0
11
-0.027449
21
0.074339
31
0.0
0
LINE
8
0
6
CONTINUOUS
10
-0.024946
20
0.073263
30
0.0
11
-0.020700
21
0.073263
31
0.0
0
LINE
8
0
6
CONTINUOUS
10
-0.020700
20
0.074339
30
0.0
11
-0.024946
21
0.074339
31
0.0
0
LINE
8
0
6
CONTINUOUS
10
0.016177
20
0.074339
30
0.0
11
0.022974
21
0.074339
31
0.0
0
LINE
8
0
6
CONTINUOUS
10
0.008565
20
0.074339
30
0.0
11
0.016177
21
0.074339
31
0.0
0
LINE
8
0
6
CONTINUOUS
10
0.000342
20
0.074339
30
0.0
11
0.008565
21
0.074339
31
0.0
0
LINE
8
0
6
CONTINUOUS
10
-0.007682
20
0.074339
30
0.0
11
0.000342
21
0.074339
31
0.0
0
LINE
8
0
6
CONTINUOUS
10
-0.014744
20
0.074339
30
0.0
11
-0.007682
21
0.074339
31
0.0
0
LINE
8
0
6
CONTINUOUS
10
-0.020700
20
0.074339
30
0.0
11
-0.014744
21
0.074339
31
0.0
0
LINE
8
0
6
CONTINUOUS
10
-0.027873
20
0.074339
30
0.0
11
-0.027449
21
0.074339
31
0.0
0
LINE
8
0
6
CONTINUOUS
10
-0.027000
20
0.074801
30
0.0
11
-0.027873
21
0.074339
31
0.0
0
LINE
8
0
6
CONTINUOUS
10
-0.027449
20
0.074339
30
0.0
11
-0.024946
21
0.074339
31
0.0
0
LINE
8
0
6
CONTINUOUS
10
-0.024946
20
0.074339
30
0.0
11
-0.020700
21
0.074339
31
0.0
0
LINE
8
0
6
CONTINUOUS
10
0.027763
20
0.070801
30
0.0
11
0.022496
21
0.070801
31
0.0
0
LINE
8
0
6
CONTINUOUS
10
0.031359
20
0.070801
30
0.0
11
0.027763
21
0.070801
31
0.0
0
LINE
8
0
6
CONTINUOUS
10
0.033095
20
0.070801
30
0.0
11
0.031359
21
0.070801
31
0.0
0
LINE
8
0
6
CONTINUOUS
10
0.022974
20
0.070339
30
0.0
11
0.028336
21
0.070339
31
0.0
0
LINE
8
0
6
CONTINUOUS
10
0.027763
20
0.070801
30
0.0
11
0.022496
21
0.070801
31
0.0
0
LINE
8
0
6
CONTINUOUS
10
0.028336
20
0.070339
30
0.0
11
0.032122
21
0.070339
31
0.0
0
LINE
8
0
6
CONTINUOUS
10
0.031359
20
0.070801
30
0.0
11
0.027763
21
0.070801
31
0.0
0
LINE
8
0
6
CONTINUOUS
10
0.032122
20
0.070339
30
0.0
11
0.033969
21
0.070339
31
0.0
0
LINE
8
0
6
CONTINUOUS
10
0.033095
20
0.070801
30
0.0
11
0.031359
21
0.070801
31
0.0
0
LINE
8
0
6
CONTINUOUS
10
0.033095
20
0.070801
30
0.0
11
0.033969
21
0.070339
31
0.0
0
LINE
8
0
6
CONTINUOUS
10
0.027763
20
0.068801
30
0.0
11
0.022496
21
0.068801
31
0.0
0
LINE
8
0
6
CONTINUOUS
10
0.031359
20
0.068801
30
0.0
11
0.027763
21
0.068801
31
0.0
0
LINE
8
0
6
CONTINUOUS
10
0.033095
20
0.068801
30
0.0
11
0.031359
21
0.068801
31
0.0
0
LINE
8
0
6
CONTINUOUS
10
0.022496
20
0.068801
30
0.0
11
0.027763
21
0.068801
31
0.0
0
LINE
8
0
6
CONTINUOUS
10
0.028336
20
0.069263
30
0.0
11
0.022974
21
0.069263
31
0.0
0
LINE
8
0
6
CONTINUOUS
10
0.027763
20
0.068801
30
0.0
11
0.031359
21
0.068801
31
0.0
0
LINE
8
0
6
CONTINUOUS
10
0.032122
20
0.069263
30
0.0
11
0.028336
21
0.069263
31
0.0
0
LINE
8
0
6
CONTINUOUS
10
0.031359
20
0.068801
30
0.0
11
0.033095
21
0.068801
31
0.0
0
LINE
8
0
6
CONTINUOUS
10
0.033969
20
0.069263
30
0.0
11
0.032122
21
0.069263
31
0.0
0
LINE
8
0
6
CONTINUOUS
10
0.033969
20
0.069263
30
0.0
11
0.033095
21
0.068801
31
0.0
0
LINE
8
0
6
CONTINUOUS
10
0.022974
20
0.069263
30
0.0
11
0.028336
21
0.069263
31
0.0
0
LINE
8
0
6
CONTINUOUS
10
0.028336
20
0.070339
30
0.0
11
0.022974
21
0.070339
31
0.0
0
LINE
8
0
6
CONTINUOUS
10
0.028336
20
0.069263
30
0.0
11
0.032122
21
0.069263
31
0.0
0
LINE
8
0
6
CONTINUOUS
10
0.032122
20
0.070339
30
0.0
11
0.028336
21
0.070339
31
0.0
0
LINE
8
0
6
CONTINUOUS
10
0.032122
20
0.069263
30
0.0
11
0.033969
21
0.069263
31
0.0
0
LINE
8
0
6
CONTINUOUS
10
0.033969
20
0.070339
30
0.0
11
0.032122
21
0.070339
31
0.0
0
LINE
8
0
6
CONTINUOUS
10
0.033969
20
0.070339
30
0.0
11
0.033969
21
0.069263
31
0.0
0
LINE
8
0
6
CONTINUOUS
10
0.022496
20
0.068801
30
0.0
11
0.015794
21
0.068801
31
0.0
0
LINE
8
0
6
CONTINUOUS
10
0.015794
20
0.068801
30
0.0
11
0.008372
21
0.068801
31
0.0
0
LINE
8
0
6
CONTINUOUS
10
0.008372
20
0.068801
30
0.0
11
0.000419
21
0.068801
31
0.0
0
LINE
8
0
6
CONTINUOUS
10
0.000419
20
0.068801
30
0.0
11
-0.007351
21
0.068801
31
0.0
0
LINE
8
0
6
CONTINUOUS
10
-0.007351
20
0.068801
30
0.0
11
-0.014254
21
0.068801
31
0.0
0
LINE
8
0
6
CONTINUOUS
10
-0.014254
20
0.068801
30
0.0
11
-0.020130
21
0.068801
31
0.0
0
LINE
8
0
6
CONTINUOUS
10
0.022974
20
0.069263
30
0.0
11
0.016177
21
0.069263
31
0.0
0
LINE
8
0
6
CONTINUOUS
10
0.015794
20
0.068801
30
0.0
11
0.022496
21
0.068801
31
0.0
0
LINE
8
0
6
CONTINUOUS
10
0.016177
20
0.069263
30
0.0
11
0.008565
21
0.069263
31
0.0
0
LINE
8
0
6
CONTINUOUS
10
0.008372
20
0.068801
30
0.0
11
0.015794
21
0.068801
31
0.0
0
LINE
8
0
6
CONTINUOUS
10
0.008565
20
0.069263
30
0.0
11
0.000342
21
0.069263
31
0.0
0
LINE
8
0
6
CONTINUOUS
10
0.000419
20
0.068801
30
0.0
11
0.008372
21
0.068801
31
0.0
0
LINE
8
0
6
CONTINUOUS
10
0.000342
20
0.069263
30
0.0
11
-0.007682
21
0.069263
31
0.0
0
LINE
8
0
6
CONTINUOUS
10
-0.007351
20
0.068801
30
0.0
11
0.000419
21
0.068801
31
0.0
0
LINE
8
0
6
CONTINUOUS
10
-0.007682
20
0.069263
30
0.0
11
-0.014744
21
0.069263
31
0.0
0
LINE
8
0
6
CONTINUOUS
10
-0.014254
20
0.068801
30
0.0
11
-0.007351
21
0.068801
31
0.0
0
LINE
8
0
6
CONTINUOUS
10
-0.014744
20
0.069263
30
0.0
11
-0.020700
21
0.069263
31
0.0
0
LINE
8
0
6
CONTINUOUS
10
-0.020130
20
0.068801
30
0.0
11
-0.014254
21
0.068801
31
0.0
0
LINE
8
0
6
CONTINUOUS
10
0.022974
20
0.070339
30
0.0
11
0.016177
21
0.070339
31
0.0
0
LINE
8
0
6
CONTINUOUS
10
0.016177
20
0.069263
30
0.0
11
0.022974
21
0.069263
31
0.0
0
LINE
8
0
6
CONTINUOUS
10
0.016177
20
0.070339
30
0.0
11
0.008565
21
0.070339
31
0.0
0
LINE
8
0
6
CONTINUOUS
10
0.008565
20
0.069263
30
0.0
11
0.016177
21
0.069263
31
0.0
0
LINE
8
0
6
CONTINUOUS
10
0.008565
20
0.070339
30
0.0
11
0.000342
21
0.070339
31
0.0
0
LINE
8
0
6
CONTINUOUS
10
0.000342
20
0.069263
30
0.0
11
0.008565
21
0.069263
31
0.0
0
LINE
8
0
6
CONTINUOUS
10
0.000342
20
0.070339
30
0.0
11
-0.007682
21
0.070339
31
0.0
0
LINE
8
0
6
CONTINUOUS
10
-0.007682
20
0.069263
30
0.0
11
0.000342
21
0.069263
31
0.0
0
LINE
8
0
6
CONTINUOUS
10
-0.007682
20
0.070339
30
0.0
11
-0.014744
21
0.070339
31
0.0
0
LINE
8
0
6
CONTINUOUS
10
-0.014744
20
0.069263
30
0.0
11
-0.007682
21
0.069263
31
0.0
0
LINE
8
0
6
CONTINUOUS
10
-0.014744
20
0.070339
30
0.0
11
-0.020700
21
0.070339
31
0.0
0
LINE
8
0
6
CONTINUOUS
10
-0.020700
20
0.069263
30
0.0
11
-0.014744
21
0.069263
31
0.0
0
LINE
8
0
6
CONTINUOUS
10
-0.026640
20
0.068801
30
0.0
11
-0.027000
21
0.068801
31
0.0
0
LINE
8
0
6
CONTINUOUS
10
-0.024296
20
0.068801
30
0.0
11
-0.026640
21
0.068801
31
0.0
0
LINE
8
0
6
CONTINUOUS
10
-0.020130
20
0.068801
30
0.0
11
-0.024296
21
0.068801
31
0.0
0
LINE
8
0
6
CONTINUOUS
10
-0.027000
20
0.068801
30
0.0
11
-0.026640
21
0.068801
31
0.0
0
LINE
8
0
6
CONTINUOUS
10
-0.027873
20
0.069263
30
0.0
11
-0.027000
21
0.068801
31
0.0
0
LINE
8
0
6
CONTINUOUS
10
-0.027449
20
0.069263
30
0.0
11
-0.027873
21
0.069263
31
0.0
0
LINE
8
0
6
CONTINUOUS
10
-0.026640
20
0.068801
30
0.0
11
-0.024296
21
0.068801
31
0.0
0
LINE
8
0
6
CONTINUOUS
10
-0.024946
20
0.069263
30
0.0
11
-0.027449
21
0.069263
31
0.0
0
LINE
8
0
6
CONTINUOUS
10
-0.024296
20
0.068801
30
0.0
11
-0.020130
21
0.068801
31
0.0
0
LINE
8
0
6
CONTINUOUS
10
-0.020700
20
0.069263
30
0.0
11
-0.024946
21
0.069263
31
0.0
0
LINE
8
0
6
CONTINUOUS
10
-0.027873
20
0.069263
30
0.0
11
-0.027449
21
0.069263
31
0.0
0
LINE
8
0
6
CONTINUOUS
10
-0.027873
20
0.070339
30
0.0
11
-0.027873
21
0.069263
31
0.0
0
LINE
8
0
6
CONTINUOUS
10
-0.027449
20
0.070339
30
0.0
11
-0.027873
21
0.070339
31
0.0
0
LINE
8
0
6
CONTINUOUS
10
-0.027449
20
0.069263
30
0.0
11
-0.024946
21
0.069263
31
0.0
0
LINE
8
0
6
CONTINUOUS
10
-0.024946
20
0.070339
30
0.0
11
-0.027449
21
0.070339
31
0.0
0
LINE
8
0
6
CONTINUOUS
10
-0.024946
20
0.069263
30
0.0
11
-0.020700
21
0.069263
31
0.0
0
LINE
8
0
6
CONTINUOUS
10
-0.020700
20
0.070339
30
0.0
11
-0.024946
21
0.070339
31
0.0
0
LINE
8
0
6
CONTINUOUS
10
0.022496
20
0.070801
30
0.0
11
0.015794
21
0.070801
31
0.0
0
LINE
8
0
6
CONTINUOUS
10
0.015794
20
0.070801
30
0.0
11
0.008372
21
0.070801
31
0.0
0
LINE
8
0
6
CONTINUOUS
10
0.008372
20
0.070801
30
0.0
11
0.000419
21
0.070801
31
0.0
0
LINE
8
0
6
CONTINUOUS
10
0.000419
20
0.070801
30
0.0
11
-0.007351
21
0.070801
31
0.0
0
LINE
8
0
6
CONTINUOUS
10
-0.007351
20
0.070801
30
0.0
11
-0.014254
21
0.070801
31
0.0
0
LINE
8
0
6
CONTINUOUS
10
-0.014254
20
0.070801
30
0.0
11
-0.020130
21
0.070801
31
0.0
0
LINE
8
0
6
CONTINUOUS
10
0.022496
20
0.070801
30
0.0
11
0.015794
21
0.070801
31
0.0
0
LINE
8
0
6
CONTINUOUS
10
0.016177
20
0.070339
30
0.0
11
0.022974
21
0.070339
31
0.0
0
LINE
8
0
6
CONTINUOUS
10
0.015794
20
0.070801
30
0.0
11
0.008372
21
0.070801
31
0.0
0
LINE
8
0
6
CONTINUOUS
10
0.008565
20
0.070339
30
0.0
11
0.016177
21
0.070339
31
0.0
0
LINE
8
0
6
CONTINUOUS
10
0.008372
20
0.070801
30
0.0
11
0.000419
21
0.070801
31
0.0
0
LINE
8
0
6
CONTINUOUS
10
0.000342
20
0.070339
30
0.0
11
0.008565
21
0.070339
31
0.0
0
LINE
8
0
6
CONTINUOUS
10
0.000419
20
0.070801
30
0.0
11
-0.007351
21
0.070801
31
0.0
0
LINE
8
0
6
CONTINUOUS
10
-0.007682
20
0.070339
30
0.0
11
0.000342
21
0.070339
31
0.0
0
LINE
8
0
6
CONTINUOUS
10
-0.007351
20
0.070801
30
0.0
11
-0.014254
21
0.070801
31
0.0
0
LINE
8
0
6
CONTINUOUS
10
-0.014744
20
0.070339
30
0.0
11
-0.007682
21
0.070339
31
0.0
0
LINE
8
0
6
CONTINUOUS
10
-0.014254
20
0.070801
30
0.0
11
-0.020130
21
0.070801
31
0.0
0
LINE
8
0
6
CONTINUOUS
10
-0.020700
20
0.070339
30
0.0
11
-0.014744
21
0.070339
31
0.0
0
LINE
8
0
6
CONTINUOUS
10
-0.026640
20
0.070801
30
0.0
11
-0.027000
21
0.070801
31
0.0
0
LINE
8
0
6
CONTINUOUS
10
-0.024296
20
0.070801
30
0.0
11
-0.026640
21
0.070801
31
0.0
0
LINE
8
0
6
CONTINUOUS
10
-0.020130
20
0.070801
30
0.0
11
-0.024296
21
0.070801
31
0.0
0
LINE
8
0
6
CONTINUOUS
10
-0.027873
20
0.070339
30
0.0
11
-0.027449
21
0.070339
31
0.0
0
LINE
8
0
6
CONTINUOUS
10
-0.027000
20
0.070801
30
0.0
11
-0.027873
21
0.070339
31
0.0
0
LINE
8
0
6
CONTINUOUS
10
-0.026640
20
0.070801
30
0.0
11
-0.027000
21
0.070801
31
0.0
0
LINE
8
0
6
CONTINUOUS
10
-0.027449
20
0.070339
30
0.0
11
-0.024946
21
0.070339
31
0.0
0
LINE
8
0
6
CONTINUOUS
10
-0.024296
20
0.070801
30
0.0
11
-0.026640
21
0.070801
31
0.0
0
LINE
8
0
6
CONTINUOUS
10
-0.024946
20
0.070339
30
0.0
11
-0.020700
21
0.070339
31
0.0
0
LINE
8
0
6
CONTINUOUS
10
-0.020130
20
0.070801
30
0.0
11
-0.024296
21
0.070801
31
0.0
0
LINE
8
0
6
CONTINUOUS
10
0.022496
20
0.072801
30
0.0
11
0.027763
21
0.072801
31
0.0
0
LINE
8
0
6
CONTINUOUS
10
0.027763
20
0.072801
30
0.0
11
0.031359
21
0.072801
31
0.0
0
LINE
8
0
6
CONTINUOUS
10
0.031359
20
0.072801
30
0.0
11
0.033095
21
0.072801
31
0.0
0
LINE
8
0
6
CONTINUOUS
10
0.022974
20
0.072339
30
0.0
11
0.028336
21
0.072339
31
0.0
0
LINE
8
0
6
CONTINUOUS
10
0.027763
20
0.072801
30
0.0
11
0.022496
21
0.072801
31
0.0
0
LINE
8
0
6
CONTINUOUS
10
0.028336
20
0.072339
30
0.0
11
0.032122
21
0.072339
31
0.0
0
LINE
8
0
6
CONTINUOUS
10
0.031359
20
0.072801
30
0.0
11
0.027763
21
0.072801
31
0.0
0
LINE
8
0
6
CONTINUOUS
10
0.032122
20
0.072339
30
0.0
11
0.033969
21
0.072339
31
0.0
0
LINE
8
0
6
CONTINUOUS
10
0.033095
20
0.072801
30
0.0
11
0.031359
21
0.072801
31
0.0
0
LINE
8
0
6
CONTINUOUS
10
0.033095
20
0.072801
30
0.0
11
0.033969
21
0.072339
31
0.0
0
LINE
8
0
6
CONTINUOUS
10
0.027763
20
0.070801
30
0.0
11
0.022496
21
0.070801
31
0.0
0
LINE
8
0
6
CONTINUOUS
10
0.031359
20
0.070801
30
0.0
11
0.027763
21
0.070801
31
0.0
0
LINE
8
0
6
CONTINUOUS
10
0.033095
20
0.070801
30
0.0
11
0.031359
21
0.070801
31
0.0
0
LINE
8
0
6
CONTINUOUS
10
0.022496
20
0.070801
30
0.0
11
0.027763
21
0.070801
31
0.0
0
LINE
8
0
6
CONTINUOUS
10
0.028336
20
0.071263
30
0.0
11
0.022974
21
0.071263
31
0.0
0
LINE
8
0
6
CONTINUOUS
10
0.027763
20
0.070801
30
0.0
11
0.031359
21
0.070801
31
0.0
0
LINE
8
0
6
CONTINUOUS
10
0.032122
20
0.071263
30
0.0
11
0.028336
21
0.071263
31
0.0
0
LINE
8
0
6
CONTINUOUS
10
0.031359
20
0.070801
30
0.0
11
0.033095
21
0.070801
31
0.0
0
LINE
8
0
6
CONTINUOUS
10
0.033969
20
0.071263
30
0.0
11
0.032122
21
0.071263
31
0.0
0
LINE
8
0
6
CONTINUOUS
10
0.033969
20
0.071263
30
0.0
11
0.033095
21
0.070801
31
0.0
0
LINE
8
0
6
CONTINUOUS
10
0.022974
20
0.071263
30
0.0
11
0.028336
21
0.071263
31
0.0
0
LINE
8
0
6
CONTINUOUS
10
0.028336
20
0.072339
30
0.0
11
0.022974
21
0.072339
31
0.0
0
LINE
8
0
6
CONTINUOUS
10
0.028336
20
0.071263
30
0.0
11
0.032122
21
0.071263
31
0.0
0
LINE
8
0
6
CONTINUOUS
10
0.032122
20
0.072339
30
0.0
11
0.028336
21
0.072339
31
0.0
0
LINE
8
0
6
CONTINUOUS
10
0.032122
20
0.071263
30
0.0
11
0.033969
21
0.071263
31
0.0
0
LINE
8
0
6
CONTINUOUS
10
0.033969
20
0.072339
30
0.0
11
0.032122
21
0.072339
31
0.0
0
LINE
8
0
6
CONTINUOUS
10
0.033969
20
0.072339
30
0.0
11
0.033969
21
0.071263
31
0.0
0
LINE
8
0
6
CONTINUOUS
10
0.022496
20
0.070801
30
0.0
11
0.015794
21
0.070801
31
0.0
0
LINE
8
0
6
CONTINUOUS
10
0.015794
20
0.070801
30
0.0
11
0.008372
21
0.070801
31
0.0
0
LINE
8
0
6
CONTINUOUS
10
0.008372
20
0.070801
30
0.0
11
0.000419
21
0.070801
31
0.0
0
LINE
8
0
6
CONTINUOUS
10
0.000419
20
0.070801
30
0.0
11
-0.007351
21
0.070801
31
0.0
0
LINE
8
0
6
CONTINUOUS
10
-0.007351
20
0.070801
30
0.0
11
-0.014254
21
0.070801
31
0.0
0
LINE
8
0
6
CONTINUOUS
10
-0.014254
20
0.070801
30
0.0
11
-0.020130
21
0.070801
31
0.0
0
LINE
8
0
6
CONTINUOUS
10
0.022974
20
0.071263
30
0.0
11
0.016177
21
0.071263
31
0.0
0
LINE
8
0
6
CONTINUOUS
10
0.015794
20
0.070801
30
0.0
11
0.022496
21
0.070801
31
0.0
0
LINE
8
0
6
CONTINUOUS
10
0.016177
20
0.071263
30
0.0
11
0.008565
21
0.071263
31
0.0
0
LINE
8
0
6
CONTINUOUS
10
0.008372
20
0.070801
30
0.0
11
0.015794
21
0.070801
31
0.0
0
LINE
8
0
6
CONTINUOUS
10
0.008565
20
0.071263
30
0.0
11
0.000342
21
0.071263
31
0.0
0
LINE
8
0
6
CONTINUOUS
10
0.000419
20
0.070801
30
0.0
11
0.008372
21
0.070801
31
0.0
0
LINE
8
0
6
CONTINUOUS
10
0.000342
20
0.071263
30
0.0
11
-0.007682
21
0.071263
31
0.0
0
LINE
8
0
6
CONTINUOUS
10
-0.007351
20
0.070801
30
0.0
11
0.000419
21
0.070801
31
0.0
0
LINE
8
0
6
CONTINUOUS
10
-0.007682
20
0.071263
30
0.0
11
-0.014744
21
0.071263
31
0.0
0
LINE
8
0
6
CONTINUOUS
10
-0.014254
20
0.070801
30
0.0
11
-0.007351
21
0.070801
31
0.0
0
LINE
8
0
6
CONTINUOUS
10
-0.014744
20
0.071263
30
0.0
11
-0.020700
21
0.071263
31
0.0
0
LINE
8
0
6
CONTINUOUS
10
-0.020130
20
0.070801
30
0.0
11
-0.014254
21
0.070801
31
0.0
0
LINE
8
0
6
CONTINUOUS
10
0.022974
20
0.072339
30
0.0
11
0.016177
21
0.072339
31
0.0
0
LINE
8
0
6
CONTINUOUS
10
0.016177
20
0.071263
30
0.0
11
0.022974
21
0.071263
31
0.0
0
LINE
8
0
6
CONTINUOUS
10
0.016177
20
0.072339
30
0.0
11
0.008565
21
0.072339
31
0.0
0
LINE
8
0
6
CONTINUOUS
10
0.008565
20
0.071263
30
0.0
11
0.016177
21
0.071263
31
0.0
0
LINE
8
0
6
CONTINUOUS
10
0.008565
20
0.072339
30
0.0
11
0.000342
21
0.072339
31
0.0
0
LINE
8
0
6
CONTINUOUS
10
0.000342
20
0.071263
30
0.0
11
0.008565
21
0.071263
31
0.0
0
LINE
8
0
6
CONTINUOUS
10
0.000342
20
0.072339
30
0.0
11
-0.007682
21
0.072339
31
0.0
0
LINE
8
0
6
CONTINUOUS
10
-0.007682
20
0.071263
30
0.0
11
0.000342
21
0.071263
31
0.0
0
LINE
8
0
6
CONTINUOUS
10
-0.007682
20
0.072339
30
0.0
11
-0.014744
21
0.072339
31
0.0
0
LINE
8
0
6
CONTINUOUS
10
-0.014744
20
0.071263
30
0.0
11
-0.007682
21
0.071263
31
0.0
0
LINE
8
0
6
CONTINUOUS
10
-0.014744
20
0.072339
30
0.0
11
-0.020700
21
0.072339
31
0.0
0
LINE
8
0
6
CONTINUOUS
10
-0.020700
20
0.071263
30
0.0
11
-0.014744
21
0.071263
31
0.0
0
LINE
8
0
6
CONTINUOUS
10
-0.026640
20
0.070801
30
0.0
11
-0.027000
21
0.070801
31
0.0
0
LINE
8
0
6
CONTINUOUS
10
-0.024296
20
0.070801
30
0.0
11
-0.026640
21
0.070801
31
0.0
0
LINE
8
0
6
CONTINUOUS
10
-0.020130
20
0.070801
30
0.0
11
-0.024296
21
0.070801
31
0.0
0
LINE
8
0
6
CONTINUOUS
10
-0.027000
20
0.070801
30
0.0
11
-0.026640
21
0.070801
31
0.0
0
LINE
8
0
6
CONTINUOUS
10
-0.027873
20
0.071263
30
0.0
11
-0.027000
21
0.070801
31
0.0
0
LINE
8
0
6
CONTINUOUS
10
-0.027449
20
0.071263
30
0.0
11
-0.027873
21
0.071263
31
0.0
0
LINE
8
0
6
CONTINUOUS
10
-0.026640
20
0.070801
30
0.0
11
-0.024296
21
0.070801
31
0.0
0
LINE
8
0
6
CONTINUOUS
10
-0.024946
20
0.071263
30
0.0
11
-0.027449
21
0.071263
31
0.0
0
LINE
8
0
6
CONTINUOUS
10
-0.024296
20
0.070801
30
0.0
11
-0.020130
21
0.070801
31
0.0
0
LINE
8
0
6
CONTINUOUS
10
-0.020700
20
0.071263
30
0.0
11
-0.024946
21
0.071263
31
0.0
0
LINE
8
0
6
CONTINUOUS
10
-0.027873
20
0.071263
30
0.0
11
-0.027449
21
0.071263
31
0.0
0
LINE
8
0
6
CONTINUOUS
10
-0.027873
20
0.072339
30
0.0
11
-0.027873
21
0.071263
31
0.0
0
LINE
8
0
6
CONTINUOUS
10
-0.027449
20
0.072339
30
0.0
11
-0.027873
21
0.072339
31
0.0
0
LINE
8
0
6
CONTINUOUS
10
-0.027449
20
0.071263
30
0.0
11
-0.024946
21
0.071263
31
0.0
0
LINE
8
0
6
CONTINUOUS
10
-0.024946
20
0.072339
30
0.0
11
-0.027449
21
0.072339
31
0.0
0
LINE
8
0
6
CONTINUOUS
10
-0.024946
20
0.071263
30
0.0
11
-0.020700
21
0.071263
31
0.0
0
LINE
8
0
6
CONTINUOUS
10
-0.020700
20
0.072339
30
0.0
11
-0.024946
21
0.072339
31
0.0
0
LINE
8
0
6
CONTINUOUS
10
0.015794
20
0.072801
30
0.0
11
0.022496
21
0.072801
31
0.0
0
LINE
8
0
6
CONTINUOUS
10
0.008372
20
0.072801
30
0.0
11
0.015794
21
0.072801
31
0.0
0
LINE
8
0
6
CONTINUOUS
10
0.000419
20
0.072801
30
0.0
11
0.008372
21
0.072801
31
0.0
0
LINE
8
0
6
CONTINUOUS
10
-0.007351
20
0.072801
30
0.0
11
0.000419
21
0.072801
31
0.0
0
LINE
8
0
6
CONTINUOUS
10
-0.014254
20
0.072801
30
0.0
11
-0.007351
21
0.072801
31
0.0
0
LINE
8
0
6
CONTINUOUS
10
-0.020130
20
0.072801
30
0.0
11
-0.014254
21
0.072801
31
0.0
0
LINE
8
0
6
CONTINUOUS
10
0.022496
20
0.072801
30
0.0
11
0.015794
21
0.072801
31
0.0
0
LINE
8
0
6
CONTINUOUS
10
0.016177
20
0.072339
30
0.0
11
0.022974
21
0.072339
31
0.0
0
LINE
8
0
6
CONTINUOUS
10
0.015794
20
0.072801
30
0.0
11
0.008372
21
0.072801
31
0.0
0
LINE
8
0
6
CONTINUOUS
10
0.008565
20
0.072339
30
0.0
11
0.016177
21
0.072339
31
0.0
0
LINE
8
0
6
CONTINUOUS
10
0.008372
20
0.072801
30
0.0
11
0.000419
21
0.072801
31
0.0
0
LINE
8
0
6
CONTINUOUS
10
0.000342
20
0.072339
30
0.0
11
0.008565
21
0.072339
31
0.0
0
LINE
8
0
6
CONTINUOUS
10
0.000419
20
0.072801
30
0.0
11
-0.007351
21
0.072801
31
0.0
0
LINE
8
0
6
CONTINUOUS
10
-0.007682
20
0.072339
30
0.0
11
0.000342
21
0.072339
31
0.0
0
LINE
8
0
6
CONTINUOUS
10
-0.007351
20
0.072801
30
0.0
11
-0.014254
21
0.072801
31
0.0
0
LINE
8
0
6
CONTINUOUS
10
-0.014744
20
0.072339
30
0.0
11
-0.007682
21
0.072339
31
0.0
0
LINE
8
0
6
CONTINUOUS
10
-0.014254
20
0.072801
30
0.0
11
-0.020130
21
0.072801
31
0.0
0
LINE
8
0
6
CONTINUOUS
10
-0.020700
20
0.072339
30
0.0
11
-0.014744
21
0.072339
31
0.0
0
LINE
8
0
6
CONTINUOUS
10
-0.027000
20
0.072801
30
0.0
11
-0.026640
21
0.072801
31
0.0
0
LINE
8
0
6
CONTINUOUS
10
-0.026640
20
0.072801
30
0.0
11
-0.024296
21
0.072801
31
0.0
0
LINE
8
0
6
CONTINUOUS
10
-0.024296
20
0.072801
30
0.0
11
-0.020130
21
0.072801
31
0.0
0
LINE
8
0
6
CONTINUOUS
10
-0.027873
20
0.072339
30
0.0
11
-0.027449
21
0.072339
31
0.0
0
LINE
8
0
6
CONTINUOUS
10
-0.027000
20
0.072801
30
0.0
11
-0.027873
21
0.072339
31
0.0
0
LINE
8
0
6
CONTINUOUS
10
-0.026640
20
0.072801
30
0.0
11
-0.027000
21
0.072801
31
0.0
0
LINE
8
0
6
CONTINUOUS
10
-0.027449
20
0.072339
30
0.0
11
-0.024946
21
0.072339
31
0.0
0
LINE
8
0
6
CONTINUOUS
10
-0.024296
20
0.072801
30
0.0
11
-0.026640
21
0.072801
31
0.0
0
LINE
8
0
6
CONTINUOUS
10
-0.024946
20
0.072339
30
0.0
11
-0.020700
21
0.072339
31
0.0
0
LINE
8
0
6
CONTINUOUS
10
-0.020130
20
0.072801
30
0.0
11
-0.024296
21
0.072801
31
0.0
0
ENDSEC
0
EOF
