999
unknown String-ID: 20550
0
SECTION
2
HEADER
9
$ACADVER
1
AC1009
9
$DWGCODEPAGE
3
unknown String-ID: 20561
0
ENDSEC
0
SECTION
2
TABLES
0
TABLE
2
LAYER
70
1
0
LAYER
2
0
70
0
62
7
6
CONTINUOUS
0
ENDTAB
0
ENDSEC
0
SECTION
2
ENTITIES
0
LINE
8
0
6
CONTINUOUS
10
-0.081812
20
0.130921
30
0.0
11
-0.081812
21
0.119778
31
0.0
0
LINE
8
0
6
CONTINUOUS
10
-0.071574
20
0.119578
30
0.0
11
-0.071072
21
0.120640
31
0.0
0
LINE
8
0
6
CONTINUOUS
10
-0.079651
20
0.118518
30
0.0
11
-0.073211
21
0.118619
31
0.0
0
LINE
8
0
6
CONTINUOUS
10
-0.073211
20
0.118619
30
0.0
11
-0.072325
21
0.118868
31
0.0
0
LINE
8
0
6
CONTINUOUS
10
-0.072325
20
0.118868
30
0.0
11
-0.071574
21
0.119578
31
0.0
0
LINE
8
0
6
CONTINUOUS
10
-0.071072
20
0.120640
30
0.0
11
-0.070896
21
0.121893
31
0.0
0
LINE
8
0
6
CONTINUOUS
10
-0.081812
20
0.119527
30
0.0
11
-0.081716
21
0.119027
31
0.0
0
LINE
8
0
6
CONTINUOUS
10
-0.081886
20
0.131637
30
0.0
11
-0.081812
21
0.131173
31
0.0
0
LINE
8
0
6
CONTINUOUS
10
-0.082121
20
0.131995
30
0.0
11
-0.081886
21
0.131637
31
0.0
0
LINE
8
0
6
CONTINUOUS
10
-0.117329
20
0.132173
30
0.0
11
-0.123770
21
0.131376
31
0.0
0
LINE
8
0
6
CONTINUOUS
10
-0.123770
20
0.118619
30
0.0
11
-0.117344
21
0.118521
31
0.0
0
LINE
8
0
6
CONTINUOUS
10
-0.115170
20
0.119780
30
0.0
11
-0.115170
21
0.130921
31
0.0
0
LINE
8
0
6
CONTINUOUS
10
-0.115096
20
0.131637
30
0.0
11
-0.114861
21
0.131995
31
0.0
0
LINE
8
0
6
CONTINUOUS
10
-0.115170
20
0.131173
30
0.0
11
-0.115096
21
0.131637
31
0.0
0
LINE
8
0
6
CONTINUOUS
10
-0.115267
20
0.119029
30
0.0
11
-0.115170
21
0.119529
31
0.0
0
LINE
8
0
6
CONTINUOUS
10
-0.114529
20
0.132199
30
0.0
11
-0.114747
21
0.132199
31
0.0
0
LINE
8
0
6
CONTINUOUS
10
-0.082707
20
0.131173
30
0.0
11
-0.081808
21
0.131173
31
0.0
0
LINE
8
0
6
CONTINUOUS
10
-0.083352
20
0.132199
30
0.0
11
-0.087220
21
0.132199
31
0.0
0
LINE
8
0
6
CONTINUOUS
10
-0.083020
20
0.131995
30
0.0
11
-0.083352
21
0.132199
31
0.0
0
LINE
8
0
6
CONTINUOUS
10
-0.104463
20
0.131173
30
0.0
11
-0.098491
21
0.131173
31
0.0
0
LINE
8
0
6
CONTINUOUS
10
-0.110136
20
0.131173
30
0.0
11
-0.104463
21
0.131173
31
0.0
0
LINE
8
0
6
CONTINUOUS
10
-0.098491
20
0.131173
30
0.0
11
-0.092518
21
0.131173
31
0.0
0
LINE
8
0
6
CONTINUOUS
10
-0.114275
20
0.131173
30
0.0
11
-0.110136
21
0.131173
31
0.0
0
LINE
8
0
6
CONTINUOUS
10
-0.114197
20
0.131637
30
0.0
11
-0.114275
21
0.131173
31
0.0
0
LINE
8
0
6
CONTINUOUS
10
-0.098491
20
0.132199
30
0.0
11
-0.104271
21
0.132199
31
0.0
0
LINE
8
0
6
CONTINUOUS
10
-0.092518
20
0.131173
30
0.0
11
-0.086845
21
0.131173
31
0.0
0
LINE
8
0
6
CONTINUOUS
10
-0.113962
20
0.131995
30
0.0
11
-0.114197
21
0.131637
31
0.0
0
LINE
8
0
6
CONTINUOUS
10
-0.104271
20
0.132199
30
0.0
11
-0.109761
21
0.132199
31
0.0
0
LINE
8
0
6
CONTINUOUS
10
-0.092710
20
0.132199
30
0.0
11
-0.098491
21
0.132199
31
0.0
0
LINE
8
0
6
CONTINUOUS
10
-0.082707
20
0.131173
30
0.0
11
-0.082785
21
0.131637
31
0.0
0
LINE
8
0
6
CONTINUOUS
10
-0.086845
20
0.131173
30
0.0
11
-0.082707
21
0.131173
31
0.0
0
LINE
8
0
6
CONTINUOUS
10
-0.087220
20
0.132199
30
0.0
11
-0.092710
21
0.132199
31
0.0
0
LINE
8
0
6
CONTINUOUS
10
-0.082785
20
0.131637
30
0.0
11
-0.083020
21
0.131995
31
0.0
0
LINE
8
0
6
CONTINUOUS
10
-0.109761
20
0.132199
30
0.0
11
-0.113630
21
0.132199
31
0.0
0
LINE
8
0
6
CONTINUOUS
10
-0.113630
20
0.132199
30
0.0
11
-0.113962
21
0.131995
31
0.0
0
LINE
8
0
6
CONTINUOUS
10
-0.104463
20
0.131173
30
0.0
11
-0.110136
21
0.131173
31
0.0
0
LINE
8
0
6
CONTINUOUS
10
-0.092518
20
0.131173
30
0.0
11
-0.098491
21
0.131173
31
0.0
0
LINE
8
0
6
CONTINUOUS
10
-0.086845
20
0.131173
30
0.0
11
-0.092518
21
0.131173
31
0.0
0
LINE
8
0
6
CONTINUOUS
10
-0.104463
20
0.085726
30
0.0
11
-0.098491
21
0.085726
31
0.0
0
LINE
8
0
6
CONTINUOUS
10
-0.110136
20
0.085726
30
0.0
11
-0.104463
21
0.085726
31
0.0
0
LINE
8
0
6
CONTINUOUS
10
-0.098491
20
0.085726
30
0.0
11
-0.092518
21
0.085726
31
0.0
0
LINE
8
0
6
CONTINUOUS
10
-0.120396
20
0.082687
30
0.0
11
-0.120738
21
0.082362
31
0.0
0
LINE
8
0
6
CONTINUOUS
10
-0.092518
20
0.085726
30
0.0
11
-0.086845
21
0.085726
31
0.0
0
LINE
8
0
6
CONTINUOUS
10
-0.120738
20
0.082362
30
0.0
11
-0.120965
21
0.081875
31
0.0
0
LINE
8
0
6
CONTINUOUS
10
-0.119992
20
0.082801
30
0.0
11
-0.120396
21
0.082687
31
0.0
0
LINE
8
0
6
CONTINUOUS
10
-0.117569
20
0.082801
30
0.0
11
-0.119992
21
0.082801
31
0.0
0
LINE
8
0
6
CONTINUOUS
10
-0.115683
20
0.085726
30
0.0
11
-0.115683
21
0.083028
31
0.0
0
LINE
8
0
6
CONTINUOUS
10
-0.115683
20
0.082801
30
0.0
11
-0.113746
21
0.082801
31
0.0
0
LINE
8
0
6
CONTINUOUS
10
-0.115683
20
0.083028
30
0.0
11
-0.115683
21
0.082801
31
0.0
0
LINE
8
0
6
CONTINUOUS
10
-0.117351
20
0.086025
30
0.0
11
-0.117351
21
0.085726
31
0.0
0
LINE
8
0
6
CONTINUOUS
10
-0.117351
20
0.085726
30
0.0
11
-0.115226
21
0.085726
31
0.0
0
LINE
8
0
6
CONTINUOUS
10
-0.079630
20
0.086025
30
0.0
11
-0.079638
21
0.118519
31
0.0
0
LINE
8
0
6
CONTINUOUS
10
-0.120965
20
0.081875
30
0.0
11
-0.121046
21
0.081301
31
0.0
0
LINE
8
0
6
CONTINUOUS
10
-0.103935
20
0.082801
30
0.0
11
-0.098491
21
0.082801
31
0.0
0
LINE
8
0
6
CONTINUOUS
10
-0.119915
20
0.082801
30
0.0
11
-0.117501
21
0.082801
31
0.0
0
LINE
8
0
6
CONTINUOUS
10
-0.115877
20
0.082801
30
0.0
11
-0.119915
21
0.082801
31
0.0
0
LINE
8
0
6
CONTINUOUS
10
-0.113918
20
0.082801
30
0.0
11
-0.115877
21
0.082801
31
0.0
0
LINE
8
0
6
CONTINUOUS
10
-0.109106
20
0.082801
30
0.0
11
-0.103935
21
0.082801
31
0.0
0
LINE
8
0
6
CONTINUOUS
10
-0.113746
20
0.082801
30
0.0
11
-0.109106
21
0.082801
31
0.0
0
LINE
8
0
6
CONTINUOUS
10
-0.117344
20
0.118521
30
0.0
11
-0.117351
21
0.086025
31
0.0
0
LINE
8
0
6
CONTINUOUS
10
-0.105275
20
0.082801
30
0.0
11
-0.098491
21
0.082801
31
0.0
0
LINE
8
0
6
CONTINUOUS
10
-0.098491
20
0.082801
30
0.0
11
-0.103997
21
0.082801
31
0.0
0
LINE
8
0
6
CONTINUOUS
10
-0.110136
20
0.131173
30
0.0
11
-0.115174
21
0.131173
31
0.0
0
LINE
8
0
6
CONTINUOUS
10
-0.081298
20
0.083028
30
0.0
11
-0.081298
21
0.085726
31
0.0
0
LINE
8
0
6
CONTINUOUS
10
-0.111720
20
0.082801
30
0.0
11
-0.105275
21
0.082801
31
0.0
0
LINE
8
0
6
CONTINUOUS
10
-0.103997
20
0.082801
30
0.0
11
-0.109226
21
0.082801
31
0.0
0
LINE
8
0
6
CONTINUOUS
10
-0.117501
20
0.082801
30
0.0
11
-0.111720
21
0.082801
31
0.0
0
LINE
8
0
6
CONTINUOUS
10
-0.109226
20
0.082801
30
0.0
11
-0.113918
21
0.082801
31
0.0
0
LINE
8
0
6
CONTINUOUS
10
-0.081298
20
0.082801
30
0.0
11
-0.081298
21
0.083028
31
0.0
0
LINE
8
0
6
CONTINUOUS
10
-0.098491
20
0.082801
30
0.0
11
-0.105300
21
0.082801
31
0.0
0
LINE
8
0
6
CONTINUOUS
10
-0.091681
20
0.082801
30
0.0
11
-0.098491
21
0.082801
31
0.0
0
LINE
8
0
6
CONTINUOUS
10
-0.105300
20
0.082801
30
0.0
11
-0.111767
21
0.082801
31
0.0
0
LINE
8
0
6
CONTINUOUS
10
-0.111767
20
0.082801
30
0.0
11
-0.117569
21
0.082801
31
0.0
0
LINE
8
0
6
CONTINUOUS
10
-0.079412
20
0.082801
30
0.0
11
-0.085214
21
0.082801
31
0.0
0
LINE
8
0
6
CONTINUOUS
10
-0.085214
20
0.082801
30
0.0
11
-0.091681
21
0.082801
31
0.0
0
LINE
8
0
6
CONTINUOUS
10
-0.076586
20
0.082687
30
0.0
11
-0.076989
21
0.082801
31
0.0
0
LINE
8
0
6
CONTINUOUS
10
-0.076989
20
0.082801
30
0.0
11
-0.079412
21
0.082801
31
0.0
0
LINE
8
0
6
CONTINUOUS
10
-0.076243
20
0.082362
30
0.0
11
-0.076586
21
0.082687
31
0.0
0
LINE
8
0
6
CONTINUOUS
10
-0.076016
20
0.081875
30
0.0
11
-0.076243
21
0.082362
31
0.0
0
LINE
8
0
6
CONTINUOUS
10
-0.105633
20
0.074801
30
0.0
11
-0.098491
21
0.074801
31
0.0
0
LINE
8
0
6
CONTINUOUS
10
-0.075935
20
0.081301
30
0.0
11
-0.076016
21
0.081875
31
0.0
0
LINE
8
0
6
CONTINUOUS
10
-0.098491
20
0.074801
30
0.0
11
-0.091348
21
0.074801
31
0.0
0
LINE
8
0
6
CONTINUOUS
10
-0.112418
20
0.074801
30
0.0
11
-0.105633
21
0.074801
31
0.0
0
LINE
8
0
6
CONTINUOUS
10
-0.118505
20
0.074801
30
0.0
11
-0.112418
21
0.074801
31
0.0
0
LINE
8
0
6
CONTINUOUS
10
-0.075935
20
0.081167
30
0.0
11
-0.075935
21
0.081301
31
0.0
0
LINE
8
0
6
CONTINUOUS
10
-0.084563
20
0.074801
30
0.0
11
-0.078477
21
0.074801
31
0.0
0
LINE
8
0
6
CONTINUOUS
10
-0.091348
20
0.074801
30
0.0
11
-0.084563
21
0.074801
31
0.0
0
LINE
8
0
6
CONTINUOUS
10
-0.075935
20
0.075013
30
0.0
11
-0.075935
21
0.081167
31
0.0
0
LINE
8
0
6
CONTINUOUS
10
-0.081808
20
0.131173
30
0.0
11
-0.086845
21
0.131173
31
0.0
0
LINE
8
0
6
CONTINUOUS
10
-0.075935
20
0.074801
30
0.0
11
-0.075935
21
0.075013
31
0.0
0
LINE
8
0
6
CONTINUOUS
10
-0.078477
20
0.074801
30
0.0
11
-0.075935
21
0.074801
31
0.0
0
LINE
8
0
6
CONTINUOUS
10
-0.079630
20
0.085726
30
0.0
11
-0.079630
21
0.086025
31
0.0
0
LINE
8
0
6
CONTINUOUS
10
-0.081755
20
0.085726
30
0.0
11
-0.079630
21
0.085726
31
0.0
0
LINE
8
0
6
CONTINUOUS
10
-0.121046
20
0.074801
30
0.0
11
-0.118505
21
0.074801
31
0.0
0
LINE
8
0
6
CONTINUOUS
10
-0.121046
20
0.075013
30
0.0
11
-0.121046
21
0.074801
31
0.0
0
LINE
8
0
6
CONTINUOUS
10
-0.100850
20
0.132199
30
0.0
11
-0.102849
21
0.132199
31
0.0
0
LINE
8
0
6
CONTINUOUS
10
-0.121046
20
0.081167
30
0.0
11
-0.121046
21
0.075013
31
0.0
0
LINE
8
0
6
CONTINUOUS
10
-0.121046
20
0.081301
30
0.0
11
-0.121046
21
0.081167
31
0.0
0
LINE
8
0
6
CONTINUOUS
10
-0.098491
20
0.132199
30
0.0
11
-0.100850
21
0.132199
31
0.0
0
LINE
8
0
6
CONTINUOUS
10
-0.096132
20
0.132199
30
0.0
11
-0.098491
21
0.132199
31
0.0
0
LINE
8
0
6
CONTINUOUS
10
-0.094133
20
0.132199
30
0.0
11
-0.096132
21
0.132199
31
0.0
0
LINE
8
0
6
CONTINUOUS
10
-0.073211
20
0.131376
30
0.0
11
-0.079651
21
0.132173
31
0.0
0
LINE
8
0
6
CONTINUOUS
10
-0.115096
20
0.131637
30
0.0
11
-0.115174
21
0.131173
31
0.0
0
LINE
8
0
6
CONTINUOUS
10
-0.114861
20
0.131995
30
0.0
11
-0.115096
21
0.131637
31
0.0
0
LINE
8
0
6
CONTINUOUS
10
-0.114529
20
0.132199
30
0.0
11
-0.114861
21
0.131995
31
0.0
0
LINE
8
0
6
CONTINUOUS
10
-0.102849
20
0.132199
30
0.0
11
-0.114529
21
0.132199
31
0.0
0
LINE
8
0
6
CONTINUOUS
10
-0.082453
20
0.132199
30
0.0
11
-0.094133
21
0.132199
31
0.0
0
LINE
8
0
6
CONTINUOUS
10
-0.082121
20
0.131995
30
0.0
11
-0.082453
21
0.132199
31
0.0
0
LINE
8
0
6
CONTINUOUS
10
-0.081886
20
0.131637
30
0.0
11
-0.082121
21
0.131995
31
0.0
0
LINE
8
0
6
CONTINUOUS
10
-0.081808
20
0.131173
30
0.0
11
-0.081886
21
0.131637
31
0.0
0
LINE
8
0
6
CONTINUOUS
10
-0.098491
20
0.131173
30
0.0
11
-0.104463
21
0.131173
31
0.0
0
LINE
8
0
6
CONTINUOUS
10
-0.086845
20
0.085726
30
0.0
11
-0.081755
21
0.085726
31
0.0
0
LINE
8
0
6
CONTINUOUS
10
-0.115226
20
0.085726
30
0.0
11
-0.110136
21
0.085726
31
0.0
0
LINE
8
0
6
CONTINUOUS
10
-0.080268
20
0.132199
30
0.0
11
-0.082235
21
0.132199
31
0.0
0
LINE
8
0
6
CONTINUOUS
10
-0.079651
20
0.132173
30
0.0
11
-0.080268
21
0.132199
31
0.0
0
LINE
8
0
6
CONTINUOUS
10
-0.082453
20
0.132199
30
0.0
11
-0.082121
21
0.131995
31
0.0
0
LINE
8
0
6
CONTINUOUS
10
-0.114861
20
0.131995
30
0.0
11
-0.114529
21
0.132199
31
0.0
0
LINE
8
0
6
CONTINUOUS
10
-0.115170
20
0.130921
30
0.0
11
-0.115170
21
0.131173
31
0.0
0
LINE
8
0
6
CONTINUOUS
10
-0.115170
20
0.119529
30
0.0
11
-0.115170
21
0.119780
31
0.0
0
LINE
8
0
6
CONTINUOUS
10
-0.081812
20
0.119778
30
0.0
11
-0.081812
21
0.119527
31
0.0
0
LINE
8
0
6
CONTINUOUS
10
-0.081812
20
0.131173
30
0.0
11
-0.081812
21
0.130921
31
0.0
0
LINE
8
0
6
CONTINUOUS
10
-0.125909
20
0.129355
30
0.0
11
-0.126085
21
0.128102
31
0.0
0
LINE
8
0
6
CONTINUOUS
10
-0.125407
20
0.119578
30
0.0
11
-0.124656
21
0.118868
31
0.0
0
LINE
8
0
6
CONTINUOUS
10
-0.126085
20
0.128102
30
0.0
11
-0.126085
21
0.121893
31
0.0
0
LINE
8
0
6
CONTINUOUS
10
-0.123770
20
0.131376
30
0.0
11
-0.124656
21
0.131127
31
0.0
0
LINE
8
0
6
CONTINUOUS
10
-0.125407
20
0.130417
30
0.0
11
-0.125909
21
0.129355
31
0.0
0
LINE
8
0
6
CONTINUOUS
10
-0.125909
20
0.120640
30
0.0
11
-0.125407
21
0.119578
31
0.0
0
LINE
8
0
6
CONTINUOUS
10
-0.126085
20
0.121893
30
0.0
11
-0.125909
21
0.120640
31
0.0
0
LINE
8
0
6
CONTINUOUS
10
-0.124656
20
0.131127
30
0.0
11
-0.125407
21
0.130417
31
0.0
0
LINE
8
0
6
CONTINUOUS
10
-0.116713
20
0.132199
30
0.0
11
-0.117329
21
0.132173
31
0.0
0
LINE
8
0
6
CONTINUOUS
10
-0.114747
20
0.132199
30
0.0
11
-0.116713
21
0.132199
31
0.0
0
LINE
8
0
6
CONTINUOUS
10
-0.124656
20
0.118868
30
0.0
11
-0.123770
21
0.118619
31
0.0
0
LINE
8
0
6
CONTINUOUS
10
-0.070896
20
0.128102
30
0.0
11
-0.071072
21
0.129355
31
0.0
0
LINE
8
0
6
CONTINUOUS
10
-0.070896
20
0.121893
30
0.0
11
-0.070896
21
0.128102
31
0.0
0
LINE
8
0
6
CONTINUOUS
10
-0.071574
20
0.130417
30
0.0
11
-0.072325
21
0.131127
31
0.0
0
LINE
8
0
6
CONTINUOUS
10
-0.072325
20
0.131127
30
0.0
11
-0.073211
21
0.131376
31
0.0
0
LINE
8
0
6
CONTINUOUS
10
-0.071072
20
0.129355
30
0.0
11
-0.071574
21
0.130417
31
0.0
0
LINE
8
0
6
CONTINUOUS
10
-0.082235
20
0.132199
30
0.0
11
-0.082453
21
0.132199
31
0.0
0
LINE
8
0
6
CONTINUOUS
10
-0.079651
20
0.132173
30
0.0
11
-0.073211
21
0.131376
31
0.0
0
LINE
8
0
6
CONTINUOUS
10
-0.071049
20
0.131127
30
0.0
11
-0.071937
21
0.131376
31
0.0
0
LINE
8
0
6
CONTINUOUS
10
-0.069533
20
0.120692
30
0.0
11
-0.069363
21
0.121906
31
0.0
0
LINE
8
0
6
CONTINUOUS
10
-0.070013
20
0.119674
30
0.0
11
-0.069533
21
0.120692
31
0.0
0
LINE
8
0
6
CONTINUOUS
10
-0.070732
20
0.118994
30
0.0
11
-0.070013
21
0.119674
31
0.0
0
LINE
8
0
6
CONTINUOUS
10
-0.071049
20
0.118868
30
0.0
11
-0.070732
21
0.118994
31
0.0
0
LINE
8
0
6
CONTINUOUS
10
-0.070732
20
0.131000
30
0.0
11
-0.071049
21
0.131127
31
0.0
0
LINE
8
0
6
CONTINUOUS
10
-0.070013
20
0.130320
30
0.0
11
-0.070732
21
0.131000
31
0.0
0
LINE
8
0
6
CONTINUOUS
10
-0.069533
20
0.129303
30
0.0
11
-0.070013
21
0.130320
31
0.0
0
LINE
8
0
6
CONTINUOUS
10
-0.069363
20
0.128089
30
0.0
11
-0.069533
21
0.129303
31
0.0
0
LINE
8
0
6
CONTINUOUS
10
-0.078083
20
0.132199
30
0.0
11
-0.078302
21
0.132199
31
0.0
0
LINE
8
0
6
CONTINUOUS
10
-0.071650
20
0.131173
30
0.0
11
-0.071755
21
0.131637
31
0.0
0
LINE
8
0
6
CONTINUOUS
10
-0.071755
20
0.131637
30
0.0
11
-0.072070
21
0.131995
31
0.0
0
LINE
8
0
6
CONTINUOUS
10
-0.072070
20
0.131995
30
0.0
11
-0.072515
21
0.132199
31
0.0
0
LINE
8
0
6
CONTINUOUS
10
-0.072515
20
0.132199
30
0.0
11
-0.073166
21
0.132199
31
0.0
0
LINE
8
0
6
CONTINUOUS
10
-0.073166
20
0.132199
30
0.0
11
-0.075087
21
0.132199
31
0.0
0
LINE
8
0
6
CONTINUOUS
10
-0.075087
20
0.132199
30
0.0
11
-0.077518
21
0.132199
31
0.0
0
LINE
8
0
6
CONTINUOUS
10
-0.077518
20
0.132199
30
0.0
11
-0.077205
21
0.131995
31
0.0
0
LINE
8
0
6
CONTINUOUS
10
-0.071650
20
0.085726
30
0.0
11
-0.071650
21
0.086025
31
0.0
0
LINE
8
0
6
CONTINUOUS
10
-0.072323
20
0.085726
30
0.0
11
-0.071650
21
0.085726
31
0.0
0
LINE
8
0
6
CONTINUOUS
10
-0.074308
20
0.085726
30
0.0
11
-0.072323
21
0.085726
31
0.0
0
LINE
8
0
6
CONTINUOUS
10
-0.076586
20
0.082687
30
0.0
11
-0.076243
21
0.082362
31
0.0
0
LINE
8
0
6
CONTINUOUS
10
-0.076243
20
0.082362
30
0.0
11
-0.076016
21
0.081875
31
0.0
0
LINE
8
0
6
CONTINUOUS
10
-0.076989
20
0.082801
30
0.0
11
-0.076586
21
0.082687
31
0.0
0
LINE
8
0
6
CONTINUOUS
10
-0.074566
20
0.082801
30
0.0
11
-0.076989
21
0.082801
31
0.0
0
LINE
8
0
6
CONTINUOUS
10
-0.081298
20
0.085726
30
0.0
11
-0.081298
21
0.083028
31
0.0
0
LINE
8
0
6
CONTINUOUS
10
-0.081298
20
0.083028
30
0.0
11
-0.081298
21
0.082801
31
0.0
0
LINE
8
0
6
CONTINUOUS
10
-0.074023
20
0.083028
30
0.0
11
-0.074023
21
0.085726
31
0.0
0
LINE
8
0
6
CONTINUOUS
10
-0.079630
20
0.086025
30
0.0
11
-0.079630
21
0.085726
31
0.0
0
LINE
8
0
6
CONTINUOUS
10
-0.079630
20
0.085726
30
0.0
11
-0.077505
21
0.085726
31
0.0
0
LINE
8
0
6
CONTINUOUS
10
-0.076016
20
0.081875
30
0.0
11
-0.075935
21
0.081301
31
0.0
0
LINE
8
0
6
CONTINUOUS
10
-0.074023
20
0.082801
30
0.0
11
-0.074023
21
0.083028
31
0.0
0
LINE
8
0
6
CONTINUOUS
10
-0.074637
20
0.082801
30
0.0
11
-0.074023
21
0.082801
31
0.0
0
LINE
8
0
6
CONTINUOUS
10
-0.074652
20
0.082801
30
0.0
11
-0.079145
21
0.082801
31
0.0
0
LINE
8
0
6
CONTINUOUS
10
-0.077066
20
0.082801
30
0.0
11
-0.074652
21
0.082801
31
0.0
0
LINE
8
0
6
CONTINUOUS
10
-0.076446
20
0.082801
30
0.0
11
-0.074637
21
0.082801
31
0.0
0
LINE
8
0
6
CONTINUOUS
10
-0.079638
20
0.118521
30
0.0
11
-0.079630
21
0.086025
31
0.0
0
LINE
8
0
6
CONTINUOUS
10
-0.068658
20
0.082801
30
0.0
11
-0.068765
21
0.082801
31
0.0
0
LINE
8
0
6
CONTINUOUS
10
-0.067891
20
0.082801
30
0.0
11
-0.068658
21
0.082801
31
0.0
0
LINE
8
0
6
CONTINUOUS
10
-0.068000
20
0.082801
30
0.0
11
-0.067891
21
0.082801
31
0.0
0
LINE
8
0
6
CONTINUOUS
10
-0.068765
20
0.082801
30
0.0
11
-0.068000
21
0.082801
31
0.0
0
LINE
8
0
6
CONTINUOUS
10
-0.067316
20
0.082687
30
0.0
11
-0.067891
21
0.082801
31
0.0
0
LINE
8
0
6
CONTINUOUS
10
-0.067891
20
0.082801
30
0.0
11
-0.068658
21
0.082801
31
0.0
0
LINE
8
0
6
CONTINUOUS
10
-0.066829
20
0.082362
30
0.0
11
-0.067316
21
0.082687
31
0.0
0
LINE
8
0
6
CONTINUOUS
10
-0.068658
20
0.082801
30
0.0
11
-0.070921
21
0.082801
31
0.0
0
LINE
8
0
6
CONTINUOUS
10
-0.070921
20
0.082801
30
0.0
11
-0.074566
21
0.082801
31
0.0
0
LINE
8
0
6
CONTINUOUS
10
-0.066505
20
0.081875
30
0.0
11
-0.066829
21
0.082362
31
0.0
0
LINE
8
0
6
CONTINUOUS
10
-0.066391
20
0.081301
30
0.0
11
-0.066505
21
0.081875
31
0.0
0
LINE
8
0
6
CONTINUOUS
10
-0.066391
20
0.081167
30
0.0
11
-0.066391
21
0.081301
31
0.0
0
LINE
8
0
6
CONTINUOUS
10
-0.066391
20
0.075013
30
0.0
11
-0.066391
21
0.081167
31
0.0
0
LINE
8
0
6
CONTINUOUS
10
-0.066391
20
0.074801
30
0.0
11
-0.066391
21
0.075013
31
0.0
0
LINE
8
0
6
CONTINUOUS
10
-0.067195
20
0.074801
30
0.0
11
-0.066391
21
0.074801
31
0.0
0
LINE
8
0
6
CONTINUOUS
10
-0.069569
20
0.074801
30
0.0
11
-0.067195
21
0.074801
31
0.0
0
LINE
8
0
6
CONTINUOUS
10
-0.073394
20
0.074801
30
0.0
11
-0.069569
21
0.074801
31
0.0
0
LINE
8
0
6
CONTINUOUS
10
-0.075935
20
0.074801
30
0.0
11
-0.073394
21
0.074801
31
0.0
0
LINE
8
0
6
CONTINUOUS
10
-0.075935
20
0.075013
30
0.0
11
-0.075935
21
0.074801
31
0.0
0
LINE
8
0
6
CONTINUOUS
10
-0.088319
20
0.132199
30
0.0
11
-0.089424
21
0.132199
31
0.0
0
LINE
8
0
6
CONTINUOUS
10
-0.075935
20
0.081167
30
0.0
11
-0.075935
21
0.075013
31
0.0
0
LINE
8
0
6
CONTINUOUS
10
-0.075935
20
0.081301
30
0.0
11
-0.075935
21
0.081167
31
0.0
0
LINE
8
0
6
CONTINUOUS
10
-0.089424
20
0.132199
30
0.0
11
-0.089796
21
0.132199
31
0.0
0
LINE
8
0
6
CONTINUOUS
10
-0.090398
20
0.132199
30
0.0
11
-0.090842
21
0.132199
31
0.0
0
LINE
8
0
6
CONTINUOUS
10
-0.089134
20
0.132199
30
0.0
11
-0.090398
21
0.132199
31
0.0
0
LINE
8
0
6
CONTINUOUS
10
-0.077518
20
0.132199
30
0.0
11
-0.088319
21
0.132199
31
0.0
0
LINE
8
0
6
CONTINUOUS
10
-0.077205
20
0.131995
30
0.0
11
-0.077518
21
0.132199
31
0.0
0
LINE
8
0
6
CONTINUOUS
10
-0.078083
20
0.132199
30
0.0
11
-0.089134
21
0.132199
31
0.0
0
LINE
8
0
6
CONTINUOUS
10
-0.071650
20
0.086025
30
0.0
11
-0.071650
21
0.118699
31
0.0
0
LINE
8
0
6
CONTINUOUS
10
-0.077505
20
0.085726
30
0.0
11
-0.074308
21
0.085726
31
0.0
0
LINE
8
0
6
CONTINUOUS
10
-0.071933
20
0.118619
30
0.0
11
-0.071049
21
0.118868
31
0.0
0
LINE
8
0
6
CONTINUOUS
10
-0.071937
20
0.131376
30
0.0
11
-0.078191
21
0.132173
31
0.0
0
LINE
8
0
6
CONTINUOUS
10
-0.071072
20
0.129355
30
0.0
11
-0.070896
21
0.128102
31
0.0
0
LINE
8
0
6
CONTINUOUS
10
-0.071574
20
0.119578
30
0.0
11
-0.072325
21
0.118868
31
0.0
0
LINE
8
0
6
CONTINUOUS
10
-0.070896
20
0.128102
30
0.0
11
-0.070896
21
0.121893
31
0.0
0
LINE
8
0
6
CONTINUOUS
10
-0.078195
20
0.118529
30
0.0
11
-0.071933
21
0.118619
31
0.0
0
LINE
8
0
6
CONTINUOUS
10
-0.073211
20
0.131376
30
0.0
11
-0.072325
21
0.131127
31
0.0
0
LINE
8
0
6
CONTINUOUS
10
-0.071574
20
0.130417
30
0.0
11
-0.071072
21
0.129355
31
0.0
0
LINE
8
0
6
CONTINUOUS
10
-0.071072
20
0.120640
30
0.0
11
-0.071574
21
0.119578
31
0.0
0
LINE
8
0
6
CONTINUOUS
10
-0.070896
20
0.121893
30
0.0
11
-0.071072
21
0.120640
31
0.0
0
LINE
8
0
6
CONTINUOUS
10
-0.072325
20
0.131127
30
0.0
11
-0.071574
21
0.130417
31
0.0
0
LINE
8
0
6
CONTINUOUS
10
-0.080268
20
0.132199
30
0.0
11
-0.079651
21
0.132173
31
0.0
0
LINE
8
0
6
CONTINUOUS
10
-0.078302
20
0.132199
30
0.0
11
-0.080268
21
0.132199
31
0.0
0
LINE
8
0
6
CONTINUOUS
10
-0.090685
20
0.132199
30
0.0
11
-0.091225
21
0.132199
31
0.0
0
LINE
8
0
6
CONTINUOUS
10
-0.091225
20
0.132199
30
0.0
11
-0.091607
21
0.132199
31
0.0
0
LINE
8
0
6
CONTINUOUS
10
-0.089384
20
0.132199
30
0.0
11
-0.090685
21
0.132199
31
0.0
0
LINE
8
0
6
CONTINUOUS
10
-0.072325
20
0.118868
30
0.0
11
-0.073211
21
0.118619
31
0.0
0
LINE
8
0
6
CONTINUOUS
10
-0.095049
20
0.132199
30
0.0
11
-0.098491
21
0.132199
31
0.0
0
LINE
8
0
6
CONTINUOUS
10
-0.091607
20
0.132199
30
0.0
11
-0.095049
21
0.132199
31
0.0
0
LINE
8
0
6
CONTINUOUS
10
-0.094767
20
0.132199
30
0.0
11
-0.096514
21
0.132199
31
0.0
0
LINE
8
0
6
CONTINUOUS
10
-0.096514
20
0.132199
30
0.0
11
-0.098490
21
0.132199
31
0.0
0
LINE
8
0
6
CONTINUOUS
10
-0.098490
20
0.132199
30
0.0
11
-0.100465
21
0.132199
31
0.0
0
LINE
8
0
6
CONTINUOUS
10
-0.100465
20
0.132199
30
0.0
11
-0.102213
21
0.132199
31
0.0
0
LINE
8
0
6
CONTINUOUS
10
-0.083351
20
0.132199
30
0.0
11
-0.094767
21
0.132199
31
0.0
0
LINE
8
0
6
CONTINUOUS
10
-0.102213
20
0.132199
30
0.0
11
-0.113629
21
0.132199
31
0.0
0
LINE
8
0
6
CONTINUOUS
10
-0.082234
20
0.132199
30
0.0
11
-0.093882
21
0.132199
31
0.0
0
LINE
8
0
6
CONTINUOUS
10
-0.080268
20
0.132199
30
0.0
11
-0.082234
21
0.132199
31
0.0
0
LINE
8
0
6
CONTINUOUS
10
-0.095845
20
0.132199
30
0.0
11
-0.098108
21
0.132199
31
0.0
0
LINE
8
0
6
CONTINUOUS
10
-0.098108
20
0.132199
30
0.0
11
-0.098490
21
0.132199
31
0.0
0
LINE
8
0
6
CONTINUOUS
10
-0.093882
20
0.132199
30
0.0
11
-0.095845
21
0.132199
31
0.0
0
LINE
8
0
6
CONTINUOUS
10
-0.125407
20
0.119578
30
0.0
11
-0.125909
21
0.120640
31
0.0
0
LINE
8
0
6
CONTINUOUS
10
-0.117329
20
0.118518
30
0.0
11
-0.123770
21
0.118619
31
0.0
0
LINE
8
0
6
CONTINUOUS
10
-0.125048
20
0.131376
30
0.0
11
-0.125932
21
0.131127
31
0.0
0
LINE
8
0
6
CONTINUOUS
10
-0.123770
20
0.118619
30
0.0
11
-0.124656
21
0.118868
31
0.0
0
LINE
8
0
6
CONTINUOUS
10
-0.124656
20
0.118868
30
0.0
11
-0.125407
21
0.119578
31
0.0
0
LINE
8
0
6
CONTINUOUS
10
-0.125909
20
0.120640
30
0.0
11
-0.126085
21
0.121893
31
0.0
0
LINE
8
0
6
CONTINUOUS
10
-0.126249
20
0.118994
30
0.0
11
-0.125932
21
0.118868
31
0.0
0
LINE
8
0
6
CONTINUOUS
10
-0.126968
20
0.119674
30
0.0
11
-0.126249
21
0.118994
31
0.0
0
LINE
8
0
6
CONTINUOUS
10
-0.127448
20
0.120692
30
0.0
11
-0.126968
21
0.119674
31
0.0
0
LINE
8
0
6
CONTINUOUS
10
-0.127618
20
0.121906
30
0.0
11
-0.127448
21
0.120692
31
0.0
0
LINE
8
0
6
CONTINUOUS
10
-0.127448
20
0.129303
30
0.0
11
-0.127618
21
0.128089
31
0.0
0
LINE
8
0
6
CONTINUOUS
10
-0.126968
20
0.130320
30
0.0
11
-0.127448
21
0.129303
31
0.0
0
LINE
8
0
6
CONTINUOUS
10
-0.126249
20
0.131001
30
0.0
11
-0.126968
21
0.130320
31
0.0
0
LINE
8
0
6
CONTINUOUS
10
-0.125932
20
0.131127
30
0.0
11
-0.126249
21
0.131001
31
0.0
0
LINE
8
0
6
CONTINUOUS
10
-0.119463
20
0.132199
30
0.0
11
-0.121894
21
0.132199
31
0.0
0
LINE
8
0
6
CONTINUOUS
10
-0.119777
20
0.131995
30
0.0
11
-0.119463
21
0.132199
31
0.0
0
LINE
8
0
6
CONTINUOUS
10
-0.125227
20
0.131637
30
0.0
11
-0.125331
21
0.131173
31
0.0
0
LINE
8
0
6
CONTINUOUS
10
-0.124911
20
0.131995
30
0.0
11
-0.125227
21
0.131637
31
0.0
0
LINE
8
0
6
CONTINUOUS
10
-0.124466
20
0.132199
30
0.0
11
-0.124911
21
0.131995
31
0.0
0
LINE
8
0
6
CONTINUOUS
10
-0.123815
20
0.132199
30
0.0
11
-0.124466
21
0.132199
31
0.0
0
LINE
8
0
6
CONTINUOUS
10
-0.121894
20
0.132199
30
0.0
11
-0.123815
21
0.132199
31
0.0
0
LINE
8
0
6
CONTINUOUS
10
-0.125331
20
0.118700
30
0.0
11
-0.125331
21
0.086025
31
0.0
0
LINE
8
0
6
CONTINUOUS
10
-0.125331
20
0.086025
30
0.0
11
-0.125331
21
0.085726
31
0.0
0
LINE
8
0
6
CONTINUOUS
10
-0.125331
20
0.085726
30
0.0
11
-0.124658
21
0.085726
31
0.0
0
LINE
8
0
6
CONTINUOUS
10
-0.124658
20
0.085726
30
0.0
11
-0.122673
21
0.085726
31
0.0
0
LINE
8
0
6
CONTINUOUS
10
-0.117351
20
0.086025
30
0.0
11
-0.117344
21
0.118518
31
0.0
0
LINE
8
0
6
CONTINUOUS
10
-0.122958
20
0.085726
30
0.0
11
-0.122958
21
0.083028
31
0.0
0
LINE
8
0
6
CONTINUOUS
10
-0.122958
20
0.083028
30
0.0
11
-0.122958
21
0.082801
31
0.0
0
LINE
8
0
6
CONTINUOUS
10
-0.120535
20
0.082801
30
0.0
11
-0.117620
21
0.082801
31
0.0
0
LINE
8
0
6
CONTINUOUS
10
-0.115683
20
0.083028
30
0.0
11
-0.115683
21
0.085726
31
0.0
0
LINE
8
0
6
CONTINUOUS
10
-0.115683
20
0.082801
30
0.0
11
-0.115683
21
0.083028
31
0.0
0
LINE
8
0
6
CONTINUOUS
10
-0.117620
20
0.082801
30
0.0
11
-0.115683
21
0.082801
31
0.0
0
LINE
8
0
6
CONTINUOUS
10
-0.129091
20
0.082801
30
0.0
11
-0.129665
21
0.082687
31
0.0
0
LINE
8
0
6
CONTINUOUS
10
-0.128323
20
0.082801
30
0.0
11
-0.129091
21
0.082801
31
0.0
0
LINE
8
0
6
CONTINUOUS
10
-0.122415
20
0.082801
30
0.0
11
-0.126060
21
0.082801
31
0.0
0
LINE
8
0
6
CONTINUOUS
10
-0.126060
20
0.082801
30
0.0
11
-0.128323
21
0.082801
31
0.0
0
LINE
8
0
6
CONTINUOUS
10
-0.129665
20
0.082687
30
0.0
11
-0.130152
21
0.082362
31
0.0
0
LINE
8
0
6
CONTINUOUS
10
-0.130152
20
0.082362
30
0.0
11
-0.130476
21
0.081875
31
0.0
0
LINE
8
0
6
CONTINUOUS
10
-0.120395
20
0.082687
30
0.0
11
-0.119992
21
0.082801
31
0.0
0
LINE
8
0
6
CONTINUOUS
10
-0.119992
20
0.082801
30
0.0
11
-0.122415
21
0.082801
31
0.0
0
LINE
8
0
6
CONTINUOUS
10
-0.130476
20
0.081875
30
0.0
11
-0.130590
21
0.081301
31
0.0
0
LINE
8
0
6
CONTINUOUS
10
-0.120738
20
0.082362
30
0.0
11
-0.120395
21
0.082687
31
0.0
0
LINE
8
0
6
CONTINUOUS
10
-0.130590
20
0.081301
30
0.0
11
-0.130590
21
0.081167
31
0.0
0
LINE
8
0
6
CONTINUOUS
10
-0.120965
20
0.081875
30
0.0
11
-0.120738
21
0.082362
31
0.0
0
LINE
8
0
6
CONTINUOUS
10
-0.130590
20
0.081167
30
0.0
11
-0.130590
21
0.075013
31
0.0
0
LINE
8
0
6
CONTINUOUS
10
-0.121046
20
0.081301
30
0.0
11
-0.120965
21
0.081875
31
0.0
0
LINE
8
0
6
CONTINUOUS
10
-0.130590
20
0.074801
30
0.0
11
-0.129786
21
0.074801
31
0.0
0
LINE
8
0
6
CONTINUOUS
10
-0.130590
20
0.075013
30
0.0
11
-0.130590
21
0.074801
31
0.0
0
LINE
8
0
6
CONTINUOUS
10
-0.121046
20
0.081167
30
0.0
11
-0.121046
21
0.081301
31
0.0
0
LINE
8
0
6
CONTINUOUS
10
-0.127412
20
0.074801
30
0.0
11
-0.123587
21
0.074801
31
0.0
0
LINE
8
0
6
CONTINUOUS
10
-0.129786
20
0.074801
30
0.0
11
-0.127412
21
0.074801
31
0.0
0
LINE
8
0
6
CONTINUOUS
10
-0.121046
20
0.075013
30
0.0
11
-0.121046
21
0.081167
31
0.0
0
LINE
8
0
6
CONTINUOUS
10
-0.121046
20
0.074801
30
0.0
11
-0.121046
21
0.075013
31
0.0
0
LINE
8
0
6
CONTINUOUS
10
-0.123587
20
0.074801
30
0.0
11
-0.121046
21
0.074801
31
0.0
0
LINE
8
0
6
CONTINUOUS
10
-0.117351
20
0.085726
30
0.0
11
-0.117351
21
0.086025
31
0.0
0
LINE
8
0
6
CONTINUOUS
10
-0.119476
20
0.085726
30
0.0
11
-0.117351
21
0.085726
31
0.0
0
LINE
8
0
6
CONTINUOUS
10
-0.106583
20
0.132199
30
0.0
11
-0.107847
21
0.132199
31
0.0
0
LINE
8
0
6
CONTINUOUS
10
-0.106139
20
0.132199
30
0.0
11
-0.106583
21
0.132199
31
0.0
0
LINE
8
0
6
CONTINUOUS
10
-0.107185
20
0.132199
30
0.0
11
-0.107557
21
0.132199
31
0.0
0
LINE
8
0
6
CONTINUOUS
10
-0.107557
20
0.132199
30
0.0
11
-0.108662
21
0.132199
31
0.0
0
LINE
8
0
6
CONTINUOUS
10
-0.123770
20
0.131376
30
0.0
11
-0.117329
21
0.132173
31
0.0
0
LINE
8
0
6
CONTINUOUS
10
-0.107847
20
0.132199
30
0.0
11
-0.118898
21
0.132199
31
0.0
0
LINE
8
0
6
CONTINUOUS
10
-0.119463
20
0.132199
30
0.0
11
-0.119777
21
0.131995
31
0.0
0
LINE
8
0
6
CONTINUOUS
10
-0.108662
20
0.132199
30
0.0
11
-0.119463
21
0.132199
31
0.0
0
LINE
8
0
6
CONTINUOUS
10
-0.122673
20
0.085726
30
0.0
11
-0.119476
21
0.085726
31
0.0
0
LINE
8
0
6
CONTINUOUS
10
-0.116713
20
0.132199
30
0.0
11
-0.118680
21
0.132199
31
0.0
0
LINE
8
0
6
CONTINUOUS
10
-0.117329
20
0.132173
30
0.0
11
-0.116713
21
0.132199
31
0.0
0
LINE
8
0
6
CONTINUOUS
10
-0.126085
20
0.128102
30
0.0
11
-0.125909
21
0.129355
31
0.0
0
LINE
8
0
6
CONTINUOUS
10
-0.126085
20
0.121893
30
0.0
11
-0.126085
21
0.128102
31
0.0
0
LINE
8
0
6
CONTINUOUS
10
-0.125407
20
0.130417
30
0.0
11
-0.124656
21
0.131127
31
0.0
0
LINE
8
0
6
CONTINUOUS
10
-0.124656
20
0.131127
30
0.0
11
-0.123770
21
0.131376
31
0.0
0
LINE
8
0
6
CONTINUOUS
10
-0.125932
20
0.118868
30
0.0
11
-0.125044
21
0.118619
31
0.0
0
LINE
8
0
6
CONTINUOUS
10
-0.125909
20
0.129355
30
0.0
11
-0.125407
21
0.130417
31
0.0
0
LINE
8
0
6
CONTINUOUS
10
-0.118790
20
0.132173
30
0.0
11
-0.125048
21
0.131376
31
0.0
0
LINE
8
0
6
CONTINUOUS
10
-0.118680
20
0.132199
30
0.0
11
-0.118898
21
0.132199
31
0.0
0
LINE
8
0
6
CONTINUOUS
10
0.012788
20
0.108639
30
0.0
11
0.011494
21
0.108809
31
0.0
0
LINE
8
0
6
CONTINUOUS
10
0.013994
20
0.108139
30
0.0
11
0.012788
21
0.108639
31
0.0
0
LINE
8
0
6
CONTINUOUS
10
0.015029
20
0.107345
30
0.0
11
0.013994
21
0.108139
31
0.0
0
LINE
8
0
6
CONTINUOUS
10
0.015824
20
0.106309
30
0.0
11
0.015029
21
0.107345
31
0.0
0
LINE
8
0
6
CONTINUOUS
10
0.016323
20
0.105103
30
0.0
11
0.015824
21
0.106309
31
0.0
0
LINE
8
0
6
CONTINUOUS
10
0.016494
20
0.103809
30
0.0
11
0.016323
21
0.105103
31
0.0
0
LINE
8
0
6
CONTINUOUS
10
0.016323
20
0.102515
30
0.0
11
0.016494
21
0.103809
31
0.0
0
LINE
8
0
6
CONTINUOUS
10
0.015824
20
0.101309
30
0.0
11
0.016323
21
0.102515
31
0.0
0
LINE
8
0
6
CONTINUOUS
10
0.015029
20
0.100274
30
0.0
11
0.015824
21
0.101309
31
0.0
0
LINE
8
0
6
CONTINUOUS
10
0.013994
20
0.099479
30
0.0
11
0.015029
21
0.100274
31
0.0
0
LINE
8
0
6
CONTINUOUS
10
0.012788
20
0.098980
30
0.0
11
0.013994
21
0.099479
31
0.0
0
LINE
8
0
6
CONTINUOUS
10
0.011494
20
0.098809
30
0.0
11
0.012788
21
0.098980
31
0.0
0
LINE
8
0
6
CONTINUOUS
10
0.010200
20
0.098980
30
0.0
11
0.011494
21
0.098809
31
0.0
0
LINE
8
0
6
CONTINUOUS
10
0.008994
20
0.099479
30
0.0
11
0.010200
21
0.098980
31
0.0
0
LINE
8
0
6
CONTINUOUS
10
0.007958
20
0.100274
30
0.0
11
0.008994
21
0.099479
31
0.0
0
LINE
8
0
6
CONTINUOUS
10
0.007164
20
0.101309
30
0.0
11
0.007958
21
0.100274
31
0.0
0
LINE
8
0
6
CONTINUOUS
10
0.006664
20
0.102515
30
0.0
11
0.007164
21
0.101309
31
0.0
0
LINE
8
0
6
CONTINUOUS
10
0.006494
20
0.103809
30
0.0
11
0.006664
21
0.102515
31
0.0
0
LINE
8
0
6
CONTINUOUS
10
0.006664
20
0.105103
30
0.0
11
0.006494
21
0.103809
31
0.0
0
LINE
8
0
6
CONTINUOUS
10
0.007164
20
0.106309
30
0.0
11
0.006664
21
0.105103
31
0.0
0
LINE
8
0
6
CONTINUOUS
10
0.007958
20
0.107345
30
0.0
11
0.007164
21
0.106309
31
0.0
0
LINE
8
0
6
CONTINUOUS
10
0.008994
20
0.108139
30
0.0
11
0.007958
21
0.107345
31
0.0
0
LINE
8
0
6
CONTINUOUS
10
0.010200
20
0.108639
30
0.0
11
0.008994
21
0.108139
31
0.0
0
LINE
8
0
6
CONTINUOUS
10
0.011494
20
0.108809
30
0.0
11
0.010200
21
0.108639
31
0.0
0
LINE
8
0
6
CONTINUOUS
10
-0.015331
20
0.131166
30
0.0
11
-0.015331
21
0.131083
31
0.0
0
LINE
8
0
6
CONTINUOUS
10
-0.005226
20
0.085719
30
0.0
11
-0.000136
21
0.085719
31
0.0
0
LINE
8
0
6
CONTINUOUS
10
0.038350
20
0.131083
30
0.0
11
0.038350
21
0.131166
31
0.0
0
LINE
8
0
6
CONTINUOUS
10
0.023155
20
0.085719
30
0.0
11
0.028244
21
0.085719
31
0.0
0
LINE
8
0
6
CONTINUOUS
10
-0.003746
20
0.082793
30
0.0
11
0.000894
21
0.082793
31
0.0
0
LINE
8
0
6
CONTINUOUS
10
0.000239
20
0.132191
30
0.0
11
-0.004686
21
0.132191
31
0.0
0
LINE
8
0
6
CONTINUOUS
10
-0.012958
20
0.083020
30
0.0
11
-0.012958
21
0.082793
31
0.0
0
LINE
8
0
6
CONTINUOUS
10
0.027705
20
0.132191
30
0.0
11
0.022780
21
0.132191
31
0.0
0
LINE
8
0
6
CONTINUOUS
10
0.035977
20
0.082793
30
0.0
11
0.035977
21
0.083020
31
0.0
0
LINE
8
0
6
CONTINUOUS
10
0.000894
20
0.082793
30
0.0
11
0.006065
21
0.082793
31
0.0
0
LINE
8
0
6
CONTINUOUS
10
0.006065
20
0.082793
30
0.0
11
0.011509
21
0.082793
31
0.0
0
LINE
8
0
6
CONTINUOUS
10
-0.007620
20
0.082793
30
0.0
11
-0.003746
21
0.082793
31
0.0
0
LINE
8
0
6
CONTINUOUS
10
-0.014911
20
0.131987
30
0.0
11
-0.015227
21
0.131629
31
0.0
0
LINE
8
0
6
CONTINUOUS
10
-0.015227
20
0.131629
30
0.0
11
-0.015331
21
0.131166
31
0.0
0
LINE
8
0
6
CONTINUOUS
10
0.038245
20
0.131629
30
0.0
11
0.037930
21
0.131987
31
0.0
0
LINE
8
0
6
CONTINUOUS
10
0.038350
20
0.131166
30
0.0
11
0.038245
21
0.131629
31
0.0
0
LINE
8
0
6
CONTINUOUS
10
0.005537
20
0.085719
30
0.0
11
0.011509
21
0.085719
31
0.0
0
LINE
8
0
6
CONTINUOUS
10
0.032495
20
0.085719
30
0.0
11
0.035692
21
0.085719
31
0.0
0
LINE
8
0
6
CONTINUOUS
10
0.011509
20
0.085719
30
0.0
11
0.017482
21
0.085719
31
0.0
0
LINE
8
0
6
CONTINUOUS
10
-0.009476
20
0.085719
30
0.0
11
-0.005226
21
0.085719
31
0.0
0
LINE
8
0
6
CONTINUOUS
10
0.035692
20
0.085719
30
0.0
11
0.037677
21
0.085719
31
0.0
0
LINE
8
0
6
CONTINUOUS
10
-0.015331
20
0.086017
30
0.0
11
-0.015331
21
0.085719
31
0.0
0
LINE
8
0
6
CONTINUOUS
10
-0.015331
20
0.085719
30
0.0
11
-0.014659
21
0.085719
31
0.0
0
LINE
8
0
6
CONTINUOUS
10
0.017482
20
0.085719
30
0.0
11
0.023155
21
0.085719
31
0.0
0
LINE
8
0
6
CONTINUOUS
10
0.038350
20
0.085719
30
0.0
11
0.038350
21
0.086017
31
0.0
0
LINE
8
0
6
CONTINUOUS
10
0.037677
20
0.085719
30
0.0
11
0.038350
21
0.085719
31
0.0
0
LINE
8
0
6
CONTINUOUS
10
-0.000136
20
0.085719
30
0.0
11
0.005501
21
0.085719
31
0.0
0
LINE
8
0
6
CONTINUOUS
10
-0.014659
20
0.085719
30
0.0
11
-0.012673
21
0.085719
31
0.0
0
LINE
8
0
6
CONTINUOUS
10
0.028244
20
0.085719
30
0.0
11
0.032495
21
0.085719
31
0.0
0
LINE
8
0
6
CONTINUOUS
10
-0.012673
20
0.085719
30
0.0
11
-0.009476
21
0.085719
31
0.0
0
LINE
8
0
6
CONTINUOUS
10
-0.020591
20
0.081160
30
0.0
11
-0.020591
21
0.075005
31
0.0
0
LINE
8
0
6
CONTINUOUS
10
0.043609
20
0.075005
30
0.0
11
0.043609
21
0.081160
31
0.0
0
LINE
8
0
6
CONTINUOUS
10
0.027705
20
0.132191
30
0.0
11
0.027638
21
0.132191
31
0.0
0
LINE
8
0
6
CONTINUOUS
10
0.031818
20
0.132191
30
0.0
11
0.027705
21
0.132191
31
0.0
0
LINE
8
0
6
CONTINUOUS
10
0.031734
20
0.132191
30
0.0
11
0.031818
21
0.132191
31
0.0
0
LINE
8
0
6
CONTINUOUS
10
0.027638
20
0.132191
30
0.0
11
0.031734
21
0.132191
31
0.0
0
LINE
8
0
6
CONTINUOUS
10
0.043495
20
0.081867
30
0.0
11
0.043171
21
0.082354
31
0.0
0
LINE
8
0
6
CONTINUOUS
10
-0.020152
20
0.082354
30
0.0
11
-0.020476
21
0.081867
31
0.0
0
LINE
8
0
6
CONTINUOUS
10
0.043609
20
0.081293
30
0.0
11
0.043495
21
0.081867
31
0.0
0
LINE
8
0
6
CONTINUOUS
10
-0.020476
20
0.081867
30
0.0
11
-0.020591
21
0.081293
31
0.0
0
LINE
8
0
6
CONTINUOUS
10
-0.008505
20
0.074793
30
0.0
11
-0.002418
21
0.074793
31
0.0
0
LINE
8
0
6
CONTINUOUS
10
0.043609
20
0.074793
30
0.0
11
0.043609
21
0.075005
31
0.0
0
LINE
8
0
6
CONTINUOUS
10
0.042805
20
0.074793
30
0.0
11
0.043609
21
0.074793
31
0.0
0
LINE
8
0
6
CONTINUOUS
10
0.031523
20
0.074793
30
0.0
11
0.036606
21
0.074793
31
0.0
0
LINE
8
0
6
CONTINUOUS
10
-0.020591
20
0.074793
30
0.0
11
-0.019786
21
0.074793
31
0.0
0
LINE
8
0
6
CONTINUOUS
10
-0.020591
20
0.075005
30
0.0
11
-0.020591
21
0.074793
31
0.0
0
LINE
8
0
6
CONTINUOUS
10
0.025437
20
0.074793
30
0.0
11
0.031523
21
0.074793
31
0.0
0
LINE
8
0
6
CONTINUOUS
10
-0.013587
20
0.074793
30
0.0
11
-0.008505
21
0.074793
31
0.0
0
LINE
8
0
6
CONTINUOUS
10
-0.017412
20
0.074793
30
0.0
11
-0.013587
21
0.074793
31
0.0
0
LINE
8
0
6
CONTINUOUS
10
0.018652
20
0.074793
30
0.0
11
0.025437
21
0.074793
31
0.0
0
LINE
8
0
6
CONTINUOUS
10
-0.002418
20
0.074793
30
0.0
11
0.004367
21
0.074793
31
0.0
0
LINE
8
0
6
CONTINUOUS
10
0.036606
20
0.074793
30
0.0
11
0.040431
21
0.074793
31
0.0
0
LINE
8
0
6
CONTINUOUS
10
0.011509
20
0.074793
30
0.0
11
0.018652
21
0.074793
31
0.0
0
LINE
8
0
6
CONTINUOUS
10
0.040431
20
0.074793
30
0.0
11
0.042805
21
0.074793
31
0.0
0
LINE
8
0
6
CONTINUOUS
10
-0.019786
20
0.074793
30
0.0
11
-0.017412
21
0.074793
31
0.0
0
LINE
8
0
6
CONTINUOUS
10
0.004367
20
0.074793
30
0.0
11
0.011509
21
0.074793
31
0.0
0
LINE
8
0
6
CONTINUOUS
10
-0.007569
20
0.082793
30
0.0
11
-0.007501
21
0.082793
31
0.0
0
LINE
8
0
6
CONTINUOUS
10
-0.015331
20
0.131083
30
0.0
11
-0.015331
21
0.086017
31
0.0
0
LINE
8
0
6
CONTINUOUS
10
0.038350
20
0.086017
30
0.0
11
0.038350
21
0.131083
31
0.0
0
LINE
8
0
6
CONTINUOUS
10
-0.012958
20
0.085719
30
0.0
11
-0.012958
21
0.083020
31
0.0
0
LINE
8
0
6
CONTINUOUS
10
0.035977
20
0.083020
30
0.0
11
0.035977
21
0.085719
31
0.0
0
LINE
8
0
6
CONTINUOUS
10
-0.014466
20
0.132191
30
0.0
11
-0.014911
21
0.131987
31
0.0
0
LINE
8
0
6
CONTINUOUS
10
-0.013815
20
0.132191
30
0.0
11
-0.014466
21
0.132191
31
0.0
0
LINE
8
0
6
CONTINUOUS
10
-0.011894
20
0.132191
30
0.0
11
-0.013815
21
0.132191
31
0.0
0
LINE
8
0
6
CONTINUOUS
10
-0.008799
20
0.132191
30
0.0
11
-0.011894
21
0.132191
31
0.0
0
LINE
8
0
6
CONTINUOUS
10
-0.004686
20
0.132191
30
0.0
11
-0.008799
21
0.132191
31
0.0
0
LINE
8
0
6
CONTINUOUS
10
0.005729
20
0.132191
30
0.0
11
0.000239
21
0.132191
31
0.0
0
LINE
8
0
6
CONTINUOUS
10
0.011509
20
0.132191
30
0.0
11
0.005729
21
0.132191
31
0.0
0
LINE
8
0
6
CONTINUOUS
10
0.017290
20
0.132191
30
0.0
11
0.011509
21
0.132191
31
0.0
0
LINE
8
0
6
CONTINUOUS
10
0.022780
20
0.132191
30
0.0
11
0.017290
21
0.132191
31
0.0
0
LINE
8
0
6
CONTINUOUS
10
0.031818
20
0.132191
30
0.0
11
0.027705
21
0.132191
31
0.0
0
LINE
8
0
6
CONTINUOUS
10
0.034913
20
0.132191
30
0.0
11
0.031818
21
0.132191
31
0.0
0
LINE
8
0
6
CONTINUOUS
10
0.036834
20
0.132191
30
0.0
11
0.034913
21
0.132191
31
0.0
0
LINE
8
0
6
CONTINUOUS
10
0.037930
20
0.131987
30
0.0
11
0.037485
21
0.132191
31
0.0
0
LINE
8
0
6
CONTINUOUS
10
0.037485
20
0.132191
30
0.0
11
0.036834
21
0.132191
31
0.0
0
LINE
8
0
6
CONTINUOUS
10
0.043171
20
0.082354
30
0.0
11
0.042684
21
0.082679
31
0.0
0
LINE
8
0
6
CONTINUOUS
10
-0.019665
20
0.082679
30
0.0
11
-0.020152
21
0.082354
31
0.0
0
LINE
8
0
6
CONTINUOUS
10
0.042684
20
0.082679
30
0.0
11
0.042109
21
0.082793
31
0.0
0
LINE
8
0
6
CONTINUOUS
10
0.042109
20
0.082793
30
0.0
11
0.041342
21
0.082793
31
0.0
0
LINE
8
0
6
CONTINUOUS
10
0.041342
20
0.082793
30
0.0
11
0.039079
21
0.082793
31
0.0
0
LINE
8
0
6
CONTINUOUS
10
0.039079
20
0.082793
30
0.0
11
0.035434
21
0.082793
31
0.0
0
LINE
8
0
6
CONTINUOUS
10
0.035434
20
0.082793
30
0.0
11
0.030588
21
0.082793
31
0.0
0
LINE
8
0
6
CONTINUOUS
10
0.024786
20
0.082793
30
0.0
11
0.018319
21
0.082793
31
0.0
0
LINE
8
0
6
CONTINUOUS
10
0.018319
20
0.082793
30
0.0
11
0.011509
21
0.082793
31
0.0
0
LINE
8
0
6
CONTINUOUS
10
0.011509
20
0.082793
30
0.0
11
0.004700
21
0.082793
31
0.0
0
LINE
8
0
6
CONTINUOUS
10
0.004700
20
0.082793
30
0.0
11
-0.001767
21
0.082793
31
0.0
0
LINE
8
0
6
CONTINUOUS
10
-0.012415
20
0.082793
30
0.0
11
-0.016060
21
0.082793
31
0.0
0
LINE
8
0
6
CONTINUOUS
10
-0.016060
20
0.082793
30
0.0
11
-0.018323
21
0.082793
31
0.0
0
LINE
8
0
6
CONTINUOUS
10
-0.019091
20
0.082793
30
0.0
11
-0.019665
21
0.082679
31
0.0
0
LINE
8
0
6
CONTINUOUS
10
-0.018323
20
0.082793
30
0.0
11
-0.019091
21
0.082793
31
0.0
0
LINE
8
0
6
CONTINUOUS
10
0.030588
20
0.082793
30
0.0
11
0.024786
21
0.082793
31
0.0
0
LINE
8
0
6
CONTINUOUS
10
-0.001767
20
0.082793
30
0.0
11
-0.007569
21
0.082793
31
0.0
0
LINE
8
0
6
CONTINUOUS
10
-0.020591
20
0.081293
30
0.0
11
-0.020591
21
0.081160
31
0.0
0
LINE
8
0
6
CONTINUOUS
10
0.043609
20
0.081160
30
0.0
11
0.043609
21
0.081293
31
0.0
0
LINE
8
0
6
CONTINUOUS
10
-0.007501
20
0.082793
30
0.0
11
-0.001720
21
0.082793
31
0.0
0
LINE
8
0
6
CONTINUOUS
10
0.000774
20
0.082793
30
0.0
11
-0.003918
21
0.082793
31
0.0
0
LINE
8
0
6
CONTINUOUS
10
0.004725
20
0.082793
30
0.0
11
0.011509
21
0.082793
31
0.0
0
LINE
8
0
6
CONTINUOUS
10
0.011509
20
0.082793
30
0.0
11
0.006003
21
0.082793
31
0.0
0
LINE
8
0
6
CONTINUOUS
10
-0.001720
20
0.082793
30
0.0
11
0.004725
21
0.082793
31
0.0
0
LINE
8
0
6
CONTINUOUS
10
0.006003
20
0.082793
30
0.0
11
0.000774
21
0.082793
31
0.0
0
LINE
8
0
6
CONTINUOUS
10
-0.003918
20
0.082793
30
0.0
11
-0.007836
21
0.082793
31
0.0
0
LINE
8
0
6
CONTINUOUS
10
0.034469
20
0.025801
30
0.0
11
0.064788
21
0.025801
31
0.0
0
LINE
8
0
6
CONTINUOUS
10
0.064788
20
0.011801
30
0.0
11
0.037329
21
0.011801
31
0.0
0
LINE
8
0
6
CONTINUOUS
10
-0.020483
20
0.025801
30
0.0
11
-0.011451
21
0.025801
31
0.0
0
LINE
8
0
6
CONTINUOUS
10
-0.014310
20
0.011801
30
0.0
11
-0.020483
21
0.011801
31
0.0
0
LINE
8
0
6
CONTINUOUS
10
-0.020483
20
0.025801
30
0.0
11
-0.056727
21
0.025801
31
0.0
0
LINE
8
0
6
CONTINUOUS
10
-0.056727
20
0.011801
30
0.0
11
-0.020483
21
0.011801
31
0.0
0
LINE
8
0
6
CONTINUOUS
10
0.116648
20
-0.053199
30
0.0
11
0.116079
21
-0.062324
31
0.0
0
LINE
8
0
6
CONTINUOUS
10
0.114453
20
-0.071857
30
0.0
11
0.111865
21
-0.081257
31
0.0
0
LINE
8
0
6
CONTINUOUS
10
0.116079
20
-0.062324
30
0.0
11
0.114453
21
-0.071857
31
0.0
0
LINE
8
0
6
CONTINUOUS
10
0.100805
20
-0.100914
30
0.0
11
0.093526
21
-0.108431
31
0.0
0
LINE
8
0
6
CONTINUOUS
10
0.093526
20
-0.108431
30
0.0
11
0.083151
21
-0.115008
31
0.0
0
LINE
8
0
6
CONTINUOUS
10
0.107301
20
-0.090758
30
0.0
11
0.100805
21
-0.100914
31
0.0
0
LINE
8
0
6
CONTINUOUS
10
0.111865
20
-0.081257
30
0.0
11
0.107301
21
-0.090758
31
0.0
0
LINE
8
0
6
CONTINUOUS
10
0.004489
20
-0.053199
30
0.0
11
0.005067
21
-0.062841
31
0.0
0
LINE
8
0
6
CONTINUOUS
10
0.005067
20
-0.062841
30
0.0
11
0.006799
21
-0.073658
31
0.0
0
LINE
8
0
6
CONTINUOUS
10
0.006799
20
-0.073658
30
0.0
11
0.009654
21
-0.084528
31
0.0
0
LINE
8
0
6
CONTINUOUS
10
0.004489
20
-0.050976
30
0.0
11
0.004489
21
-0.053199
31
0.0
0
LINE
8
0
6
CONTINUOUS
10
0.022685
20
-0.108704
30
0.0
11
0.031780
21
-0.118390
31
0.0
0
LINE
8
0
6
CONTINUOUS
10
0.043947
20
-0.126397
30
0.0
11
0.044372
21
-0.126607
31
0.0
0
LINE
8
0
6
CONTINUOUS
10
0.031780
20
-0.118390
30
0.0
11
0.043947
21
-0.126397
31
0.0
0
LINE
8
0
6
CONTINUOUS
10
0.015163
20
-0.096735
30
0.0
11
0.022685
21
-0.108704
31
0.0
0
LINE
8
0
6
CONTINUOUS
10
0.009654
20
-0.084528
30
0.0
11
0.015163
21
-0.096735
31
0.0
0
LINE
8
0
6
CONTINUOUS
10
0.114355
20
-0.034575
30
0.0
11
0.116060
21
-0.044083
31
0.0
0
LINE
8
0
6
CONTINUOUS
10
0.130015
20
-0.043548
30
0.0
11
0.128195
21
-0.032707
31
0.0
0
LINE
8
0
6
CONTINUOUS
10
0.116060
20
-0.044083
30
0.0
11
0.116648
21
-0.053199
31
0.0
0
LINE
8
0
6
CONTINUOUS
10
0.130590
20
-0.053199
30
0.0
11
0.130015
21
-0.043548
31
0.0
0
LINE
8
0
6
CONTINUOUS
10
0.111645
20
-0.025202
30
0.0
11
0.114355
21
-0.034575
31
0.0
0
LINE
8
0
6
CONTINUOUS
10
0.128195
20
-0.032707
30
0.0
11
0.125193
21
-0.021809
31
0.0
0
LINE
8
0
6
CONTINUOUS
10
0.100077
20
-0.005629
30
0.0
11
0.106874
21
-0.015752
31
0.0
0
LINE
8
0
6
CONTINUOUS
10
0.119394
20
-0.009551
30
0.0
11
0.111480
21
0.002452
31
0.0
0
LINE
8
0
6
CONTINUOUS
10
0.092474
20
0.001847
30
0.0
11
0.100077
21
-0.005629
31
0.0
0
LINE
8
0
6
CONTINUOUS
10
0.111480
20
0.002452
30
0.0
11
0.101899
21
0.012178
31
0.0
0
LINE
8
0
6
CONTINUOUS
10
0.081384
20
0.008540
30
0.0
11
0.092474
21
0.001847
31
0.0
0
LINE
8
0
6
CONTINUOUS
10
0.101899
20
0.012178
30
0.0
11
0.089100
21
0.020209
31
0.0
0
LINE
8
0
6
CONTINUOUS
10
0.106874
20
-0.015752
30
0.0
11
0.111645
21
-0.025202
31
0.0
0
LINE
8
0
6
CONTINUOUS
10
0.125193
20
-0.021809
30
0.0
11
0.119394
21
-0.009551
31
0.0
0
LINE
8
0
6
CONTINUOUS
10
0.064788
20
0.011801
30
0.0
11
0.072100
21
0.011584
31
0.0
0
LINE
8
0
6
CONTINUOUS
10
0.076793
20
0.024770
30
0.0
11
0.064788
21
0.025801
31
0.0
0
LINE
8
0
6
CONTINUOUS
10
0.072100
20
0.011584
30
0.0
11
0.081384
21
0.008540
31
0.0
0
LINE
8
0
6
CONTINUOUS
10
0.089100
20
0.020209
30
0.0
11
0.076793
21
0.024770
31
0.0
0
LINE
8
0
6
CONTINUOUS
10
0.128280
20
-0.073658
30
0.0
11
0.125424
21
-0.084528
31
0.0
0
LINE
8
0
6
CONTINUOUS
10
0.074507
20
-0.117982
30
0.0
11
0.067539
21
-0.118199
31
0.0
0
LINE
8
0
6
CONTINUOUS
10
0.067539
20
-0.132199
30
0.0
11
0.078979
21
-0.131168
31
0.0
0
LINE
8
0
6
CONTINUOUS
10
0.083353
20
-0.114939
30
0.0
11
0.074507
21
-0.117982
31
0.0
0
LINE
8
0
6
CONTINUOUS
10
0.078979
20
-0.131168
30
0.0
11
0.090707
21
-0.126607
31
0.0
0
LINE
8
0
6
CONTINUOUS
10
0.112394
20
-0.108704
30
0.0
11
0.103298
21
-0.118390
31
0.0
0
LINE
8
0
6
CONTINUOUS
10
0.119916
20
-0.096735
30
0.0
11
0.112394
21
-0.108704
31
0.0
0
LINE
8
0
6
CONTINUOUS
10
0.091131
20
-0.126397
30
0.0
11
0.090707
21
-0.126607
31
0.0
0
LINE
8
0
6
CONTINUOUS
10
0.103298
20
-0.118390
30
0.0
11
0.091131
21
-0.126397
31
0.0
0
LINE
8
0
6
CONTINUOUS
10
0.125424
20
-0.084528
30
0.0
11
0.119916
21
-0.096735
31
0.0
0
LINE
8
0
6
CONTINUOUS
10
0.130590
20
-0.053199
30
0.0
11
0.130011
21
-0.062841
31
0.0
0
LINE
8
0
6
CONTINUOUS
10
0.130011
20
-0.062841
30
0.0
11
0.128280
21
-0.073658
31
0.0
0
LINE
8
0
6
CONTINUOUS
10
0.060572
20
-0.117982
30
0.0
11
0.051930
21
-0.115009
31
0.0
0
LINE
8
0
6
CONTINUOUS
10
0.044372
20
-0.126607
30
0.0
11
0.056100
21
-0.131168
31
0.0
0
LINE
8
0
6
CONTINUOUS
10
0.041552
20
-0.108431
30
0.0
11
0.052150
21
-0.115149
31
0.0
0
LINE
8
0
6
CONTINUOUS
10
0.034273
20
-0.100914
30
0.0
11
0.041552
21
-0.108431
31
0.0
0
LINE
8
0
6
CONTINUOUS
10
0.067539
20
-0.118199
30
0.0
11
0.060572
21
-0.117982
31
0.0
0
LINE
8
0
6
CONTINUOUS
10
0.056100
20
-0.131168
30
0.0
11
0.067539
21
-0.132199
31
0.0
0
LINE
8
0
6
CONTINUOUS
10
0.027778
20
-0.090758
30
0.0
11
0.034273
21
-0.100914
31
0.0
0
LINE
8
0
6
CONTINUOUS
10
0.023213
20
-0.081257
30
0.0
11
0.027778
21
-0.090758
31
0.0
0
LINE
8
0
6
CONTINUOUS
10
0.020626
20
-0.071857
30
0.0
11
0.023213
21
-0.081257
31
0.0
0
LINE
8
0
6
CONTINUOUS
10
0.018999
20
-0.062324
30
0.0
11
0.020626
21
-0.071857
31
0.0
0
LINE
8
0
6
CONTINUOUS
10
0.018430
20
-0.053199
30
0.0
11
0.018999
21
-0.062324
31
0.0
0
LINE
8
0
6
CONTINUOUS
10
0.018430
20
-0.050976
30
0.0
11
0.018430
21
-0.053199
31
0.0
0
LINE
8
0
6
CONTINUOUS
10
0.021462
20
-0.040628
30
0.0
11
0.021269
21
-0.040628
31
0.0
0
LINE
8
0
6
CONTINUOUS
10
0.021462
20
-0.049770
30
0.0
11
0.021462
21
-0.040628
31
0.0
0
LINE
8
0
6
CONTINUOUS
10
0.021269
20
-0.049770
30
0.0
11
0.021462
21
-0.049770
31
0.0
0
LINE
8
0
6
CONTINUOUS
10
0.021402
20
-0.039498
30
0.0
11
0.020540
21
-0.039199
31
0.0
0
LINE
8
0
6
CONTINUOUS
10
0.020785
20
-0.039199
30
0.0
11
0.021402
21
-0.039498
31
0.0
0
LINE
8
0
6
CONTINUOUS
10
0.020540
20
-0.039199
30
0.0
11
0.020785
21
-0.039199
31
0.0
0
LINE
8
0
6
CONTINUOUS
10
0.021402
20
-0.039498
30
0.0
11
0.020540
21
-0.039199
31
0.0
0
LINE
8
0
6
CONTINUOUS
10
0.020540
20
-0.039199
30
0.0
11
0.020785
21
-0.039199
31
0.0
0
LINE
8
0
6
CONTINUOUS
10
0.021288
20
-0.039343
30
0.0
11
0.021402
21
-0.039498
31
0.0
0
LINE
8
0
6
CONTINUOUS
10
0.021402
20
-0.050900
30
0.0
11
0.020540
21
-0.051199
31
0.0
0
LINE
8
0
6
CONTINUOUS
10
0.021288
20
-0.051055
30
0.0
11
0.021402
21
-0.050900
31
0.0
0
LINE
8
0
6
CONTINUOUS
10
0.021288
20
-0.051055
30
0.0
11
0.021402
21
-0.050900
31
0.0
0
LINE
8
0
6
CONTINUOUS
10
0.020540
20
-0.051199
30
0.0
11
0.021288
21
-0.051055
31
0.0
0
LINE
8
0
6
CONTINUOUS
10
0.021288
20
-0.039343
30
0.0
11
0.020785
21
-0.039199
31
0.0
0
LINE
8
0
6
CONTINUOUS
10
0.020785
20
-0.039199
30
0.0
11
0.020420
21
-0.039199
31
0.0
0
LINE
8
0
6
CONTINUOUS
10
0.021288
20
-0.039343
30
0.0
11
0.020785
21
-0.039199
31
0.0
0
LINE
8
0
6
CONTINUOUS
10
0.021288
20
-0.051055
30
0.0
11
0.020785
21
-0.051199
31
0.0
0
LINE
8
0
6
CONTINUOUS
10
0.020420
20
-0.039199
30
0.0
11
0.020785
21
-0.039199
31
0.0
0
LINE
8
0
6
CONTINUOUS
10
0.020785
20
-0.051199
30
0.0
11
0.020540
21
-0.051199
31
0.0
0
LINE
8
0
6
CONTINUOUS
10
0.020540
20
-0.039199
30
0.0
11
0.020445
21
-0.039199
31
0.0
0
LINE
8
0
6
CONTINUOUS
10
0.020785
20
-0.039199
30
0.0
11
0.020540
21
-0.039199
31
0.0
0
LINE
8
0
6
CONTINUOUS
10
0.020540
20
-0.039199
30
0.0
11
0.019709
21
-0.039199
31
0.0
0
LINE
8
0
6
CONTINUOUS
10
0.021402
20
-0.039498
30
0.0
11
0.020540
21
-0.039199
31
0.0
0
LINE
8
0
6
CONTINUOUS
10
0.021454
20
-0.039913
30
0.0
11
0.021046
21
-0.039913
31
0.0
0
LINE
8
0
6
CONTINUOUS
10
0.021462
20
-0.040628
30
0.0
11
0.021454
21
-0.039913
31
0.0
0
LINE
8
0
6
CONTINUOUS
10
0.021269
20
-0.040628
30
0.0
11
0.021462
21
-0.040628
31
0.0
0
LINE
8
0
6
CONTINUOUS
10
0.021046
20
-0.039913
30
0.0
11
0.021402
21
-0.039498
31
0.0
0
LINE
8
0
6
CONTINUOUS
10
0.021402
20
-0.039498
30
0.0
11
0.020378
21
-0.039413
31
0.0
0
LINE
8
0
6
CONTINUOUS
10
0.021454
20
-0.039913
30
0.0
11
0.021402
21
-0.039498
31
0.0
0
LINE
8
0
6
CONTINUOUS
10
0.021046
20
-0.039913
30
0.0
11
0.021454
21
-0.039913
31
0.0
0
LINE
8
0
6
CONTINUOUS
10
0.019709
20
-0.051199
30
0.0
11
0.020540
21
-0.051199
31
0.0
0
LINE
8
0
6
CONTINUOUS
10
0.021462
20
-0.049770
30
0.0
11
0.021269
21
-0.049770
31
0.0
0
LINE
8
0
6
CONTINUOUS
10
0.021454
20
-0.050485
30
0.0
11
0.021462
21
-0.049770
31
0.0
0
LINE
8
0
6
CONTINUOUS
10
0.021046
20
-0.050485
30
0.0
11
0.021454
21
-0.050485
31
0.0
0
LINE
8
0
6
CONTINUOUS
10
0.021454
20
-0.050485
30
0.0
11
0.021046
21
-0.050485
31
0.0
0
LINE
8
0
6
CONTINUOUS
10
0.020378
20
-0.050985
30
0.0
11
0.021454
21
-0.050485
31
0.0
0
LINE
8
0
6
CONTINUOUS
10
0.021454
20
-0.050485
30
0.0
11
0.021046
21
-0.050485
31
0.0
0
LINE
8
0
6
CONTINUOUS
10
0.021402
20
-0.050900
30
0.0
11
0.021454
21
-0.050485
31
0.0
0
LINE
8
0
6
CONTINUOUS
10
0.021462
20
-0.049770
30
0.0
11
0.021454
21
-0.050485
31
0.0
0
LINE
8
0
6
CONTINUOUS
10
0.021462
20
-0.040628
30
0.0
11
0.021462
21
-0.049770
31
0.0
0
LINE
8
0
6
CONTINUOUS
10
0.021454
20
-0.039913
30
0.0
11
0.021462
21
-0.040628
31
0.0
0
LINE
8
0
6
CONTINUOUS
10
0.021454
20
-0.050485
30
0.0
11
0.021402
21
-0.050900
31
0.0
0
LINE
8
0
6
CONTINUOUS
10
0.021402
20
-0.039498
30
0.0
11
0.021454
21
-0.039913
31
0.0
0
LINE
8
0
6
CONTINUOUS
10
0.021402
20
-0.050900
30
0.0
11
0.021288
21
-0.051055
31
0.0
0
LINE
8
0
6
CONTINUOUS
10
0.021288
20
-0.039343
30
0.0
11
0.021402
21
-0.039498
31
0.0
0
LINE
8
0
6
CONTINUOUS
10
0.020540
20
-0.051199
30
0.0
11
0.019709
21
-0.051199
31
0.0
0
LINE
8
0
6
CONTINUOUS
10
0.020540
20
-0.039199
30
0.0
11
0.020445
21
-0.039199
31
0.0
0
LINE
8
0
6
CONTINUOUS
10
0.019709
20
-0.039199
30
0.0
11
0.020540
21
-0.039199
31
0.0
0
LINE
8
0
6
CONTINUOUS
10
0.001457
20
-0.049770
30
0.0
11
0.001457
21
-0.040628
31
0.0
0
LINE
8
0
6
CONTINUOUS
10
0.004688
20
-0.039370
30
0.0
11
0.006936
21
-0.039270
31
0.0
0
LINE
8
0
6
CONTINUOUS
10
0.006936
20
-0.051128
30
0.0
11
0.004688
21
-0.051028
31
0.0
0
LINE
8
0
6
CONTINUOUS
10
0.007055
20
-0.051199
30
0.0
11
0.005080
21
-0.051199
31
0.0
0
LINE
8
0
6
CONTINUOUS
10
0.005080
20
-0.039199
30
0.0
11
0.007055
21
-0.039199
31
0.0
0
LINE
8
0
6
CONTINUOUS
10
0.001856
20
-0.040628
30
0.0
11
0.002018
21
-0.040628
31
0.0
0
LINE
8
0
6
CONTINUOUS
10
0.001827
20
-0.039913
30
0.0
11
0.001856
21
-0.040628
31
0.0
0
LINE
8
0
6
CONTINUOUS
10
0.002018
20
-0.040628
30
0.0
11
0.002260
21
-0.039913
31
0.0
0
LINE
8
0
6
CONTINUOUS
10
0.002260
20
-0.039913
30
0.0
11
0.001827
21
-0.039913
31
0.0
0
LINE
8
0
6
CONTINUOUS
10
0.001827
20
-0.039913
30
0.0
11
0.002018
21
-0.040628
31
0.0
0
LINE
8
0
6
CONTINUOUS
10
0.002260
20
-0.039913
30
0.0
11
0.001827
21
-0.039913
31
0.0
0
LINE
8
0
6
CONTINUOUS
10
0.002018
20
-0.040628
30
0.0
11
0.002606
21
-0.039913
31
0.0
0
LINE
8
0
6
CONTINUOUS
10
0.002606
20
-0.039913
30
0.0
11
0.002260
21
-0.039913
31
0.0
0
LINE
8
0
6
CONTINUOUS
10
0.002018
20
-0.049770
30
0.0
11
0.001856
21
-0.049770
31
0.0
0
LINE
8
0
6
CONTINUOUS
10
0.001856
20
-0.049770
30
0.0
11
0.001827
21
-0.050485
31
0.0
0
LINE
8
0
6
CONTINUOUS
10
0.001827
20
-0.050485
30
0.0
11
0.002260
21
-0.050485
31
0.0
0
LINE
8
0
6
CONTINUOUS
10
0.002606
20
-0.050485
30
0.0
11
0.002018
21
-0.049770
31
0.0
0
LINE
8
0
6
CONTINUOUS
10
0.002260
20
-0.050485
30
0.0
11
0.002606
21
-0.050485
31
0.0
0
LINE
8
0
6
CONTINUOUS
10
0.002925
20
-0.050985
30
0.0
11
0.002260
21
-0.050485
31
0.0
0
LINE
8
0
6
CONTINUOUS
10
0.001827
20
-0.050485
30
0.0
11
0.002925
21
-0.050985
31
0.0
0
LINE
8
0
6
CONTINUOUS
10
0.002260
20
-0.050485
30
0.0
11
0.001827
21
-0.050485
31
0.0
0
LINE
8
0
6
CONTINUOUS
10
0.002260
20
-0.050485
30
0.0
11
0.001827
21
-0.050485
31
0.0
0
LINE
8
0
6
CONTINUOUS
10
0.002018
20
-0.049770
30
0.0
11
0.002018
21
-0.040628
31
0.0
0
LINE
8
0
6
CONTINUOUS
10
0.001856
20
-0.049770
30
0.0
11
0.002018
21
-0.049770
31
0.0
0
LINE
8
0
6
CONTINUOUS
10
0.001856
20
-0.040628
30
0.0
11
0.001856
21
-0.049770
31
0.0
0
LINE
8
0
6
CONTINUOUS
10
0.002018
20
-0.040628
30
0.0
11
0.001856
21
-0.040628
31
0.0
0
LINE
8
0
6
CONTINUOUS
10
0.002260
20
-0.039913
30
0.0
11
0.002925
21
-0.039413
31
0.0
0
LINE
8
0
6
CONTINUOUS
10
0.001747
20
-0.039459
30
0.0
11
0.002260
21
-0.039913
31
0.0
0
LINE
8
0
6
CONTINUOUS
10
0.002925
20
-0.039413
30
0.0
11
0.001747
21
-0.039459
31
0.0
0
LINE
8
0
6
CONTINUOUS
10
0.001827
20
-0.039913
30
0.0
11
0.002260
21
-0.039913
31
0.0
0
LINE
8
0
6
CONTINUOUS
10
0.001747
20
-0.039459
30
0.0
11
0.001827
21
-0.039913
31
0.0
0
LINE
8
0
6
CONTINUOUS
10
0.001827
20
-0.050485
30
0.0
11
0.001747
21
-0.050939
31
0.0
0
LINE
8
0
6
CONTINUOUS
10
0.002134
20
-0.039199
30
0.0
11
0.002379
21
-0.039199
31
0.0
0
LINE
8
0
6
CONTINUOUS
10
0.002134
20
-0.039199
30
0.0
11
0.002379
21
-0.039199
31
0.0
0
LINE
8
0
6
CONTINUOUS
10
0.001517
20
-0.039498
30
0.0
11
0.001631
21
-0.039343
31
0.0
0
LINE
8
0
6
CONTINUOUS
10
0.001631
20
-0.051055
30
0.0
11
0.001517
21
-0.050900
31
0.0
0
LINE
8
0
6
CONTINUOUS
10
0.001631
20
-0.051055
30
0.0
11
0.001517
21
-0.050900
31
0.0
0
LINE
8
0
6
CONTINUOUS
10
0.001631
20
-0.039343
30
0.0
11
0.001747
21
-0.039459
31
0.0
0
LINE
8
0
6
CONTINUOUS
10
0.002134
20
-0.039199
30
0.0
11
0.001631
21
-0.039343
31
0.0
0
LINE
8
0
6
CONTINUOUS
10
0.002499
20
-0.039199
30
0.0
11
0.002134
21
-0.039199
31
0.0
0
LINE
8
0
6
CONTINUOUS
10
0.002134
20
-0.039199
30
0.0
11
0.001631
21
-0.039343
31
0.0
0
LINE
8
0
6
CONTINUOUS
10
0.001631
20
-0.039343
30
0.0
11
0.002499
21
-0.039199
31
0.0
0
LINE
8
0
6
CONTINUOUS
10
0.001747
20
-0.050939
30
0.0
11
0.001631
21
-0.051055
31
0.0
0
LINE
8
0
6
CONTINUOUS
10
0.001631
20
-0.051055
30
0.0
11
0.002134
21
-0.051199
31
0.0
0
LINE
8
0
6
CONTINUOUS
10
0.002499
20
-0.051199
30
0.0
11
0.002134
21
-0.051199
31
0.0
0
LINE
8
0
6
CONTINUOUS
10
0.002134
20
-0.039199
30
0.0
11
0.002499
21
-0.039199
31
0.0
0
LINE
8
0
6
CONTINUOUS
10
0.002379
20
-0.039199
30
0.0
11
0.002134
21
-0.039199
31
0.0
0
LINE
8
0
6
CONTINUOUS
10
0.002606
20
-0.039913
30
0.0
11
0.004688
21
-0.039370
31
0.0
0
LINE
8
0
6
CONTINUOUS
10
0.002260
20
-0.039913
30
0.0
11
0.002606
21
-0.039913
31
0.0
0
LINE
8
0
6
CONTINUOUS
10
0.003548
20
-0.039199
30
0.0
11
0.004688
21
-0.039370
31
0.0
0
LINE
8
0
6
CONTINUOUS
10
0.005080
20
-0.039199
30
0.0
11
0.003548
21
-0.039199
31
0.0
0
LINE
8
0
6
CONTINUOUS
10
0.004688
20
-0.039370
30
0.0
11
0.005080
21
-0.039199
31
0.0
0
LINE
8
0
6
CONTINUOUS
10
0.004688
20
-0.051028
30
0.0
11
0.002606
21
-0.050485
31
0.0
0
LINE
8
0
6
CONTINUOUS
10
0.002606
20
-0.050485
30
0.0
11
0.002260
21
-0.050485
31
0.0
0
LINE
8
0
6
CONTINUOUS
10
0.002018
20
-0.049770
30
0.0
11
0.002606
21
-0.050485
31
0.0
0
LINE
8
0
6
CONTINUOUS
10
0.002018
20
-0.040628
30
0.0
11
0.002018
21
-0.049770
31
0.0
0
LINE
8
0
6
CONTINUOUS
10
0.002606
20
-0.039913
30
0.0
11
0.002018
21
-0.040628
31
0.0
0
LINE
8
0
6
CONTINUOUS
10
0.002606
20
-0.050485
30
0.0
11
0.004688
21
-0.051028
31
0.0
0
LINE
8
0
6
CONTINUOUS
10
0.004688
20
-0.039370
30
0.0
11
0.002606
21
-0.039913
31
0.0
0
LINE
8
0
6
CONTINUOUS
10
0.004688
20
-0.051028
30
0.0
11
0.006936
21
-0.051128
31
0.0
0
LINE
8
0
6
CONTINUOUS
10
0.006936
20
-0.039270
30
0.0
11
0.004688
21
-0.039370
31
0.0
0
LINE
8
0
6
CONTINUOUS
10
0.003548
20
-0.051199
30
0.0
11
0.002499
21
-0.051199
31
0.0
0
LINE
8
0
6
CONTINUOUS
10
0.002499
20
-0.039199
30
0.0
11
0.003548
21
-0.039199
31
0.0
0
LINE
8
0
6
CONTINUOUS
10
0.005080
20
-0.051199
30
0.0
11
0.003548
21
-0.051199
31
0.0
0
LINE
8
0
6
CONTINUOUS
10
0.003548
20
-0.039199
30
0.0
11
0.005080
21
-0.039199
31
0.0
0
LINE
8
0
6
CONTINUOUS
10
0.002379
20
-0.039199
30
0.0
11
0.002474
21
-0.039199
31
0.0
0
LINE
8
0
6
CONTINUOUS
10
0.001457
20
-0.040628
30
0.0
11
0.001465
21
-0.039913
31
0.0
0
LINE
8
0
6
CONTINUOUS
10
0.001465
20
-0.039913
30
0.0
11
0.001517
21
-0.039498
31
0.0
0
LINE
8
0
6
CONTINUOUS
10
0.001465
20
-0.050485
30
0.0
11
0.001457
21
-0.049770
31
0.0
0
LINE
8
0
6
CONTINUOUS
10
0.001517
20
-0.050900
30
0.0
11
0.001465
21
-0.050485
31
0.0
0
LINE
8
0
6
CONTINUOUS
10
0.001457
20
-0.049770
30
0.0
11
0.001465
21
-0.050485
31
0.0
0
LINE
8
0
6
CONTINUOUS
10
0.001457
20
-0.040628
30
0.0
11
0.001457
21
-0.049770
31
0.0
0
LINE
8
0
6
CONTINUOUS
10
0.001465
20
-0.039913
30
0.0
11
0.001457
21
-0.040628
31
0.0
0
LINE
8
0
6
CONTINUOUS
10
0.001465
20
-0.050485
30
0.0
11
0.001517
21
-0.050900
31
0.0
0
LINE
8
0
6
CONTINUOUS
10
0.001517
20
-0.039498
30
0.0
11
0.001465
21
-0.039913
31
0.0
0
LINE
8
0
6
CONTINUOUS
10
0.001517
20
-0.050900
30
0.0
11
0.001631
21
-0.051055
31
0.0
0
LINE
8
0
6
CONTINUOUS
10
0.001631
20
-0.039343
30
0.0
11
0.001517
21
-0.039498
31
0.0
0
LINE
8
0
6
CONTINUOUS
10
0.001631
20
-0.051055
30
0.0
11
0.001747
21
-0.050939
31
0.0
0
LINE
8
0
6
CONTINUOUS
10
0.001747
20
-0.039459
30
0.0
11
0.001631
21
-0.039343
31
0.0
0
LINE
8
0
6
CONTINUOUS
10
0.001747
20
-0.050939
30
0.0
11
0.001827
21
-0.050485
31
0.0
0
LINE
8
0
6
CONTINUOUS
10
0.001827
20
-0.039913
30
0.0
11
0.001747
21
-0.039459
31
0.0
0
LINE
8
0
6
CONTINUOUS
10
0.001856
20
-0.049770
30
0.0
11
0.001856
21
-0.040628
31
0.0
0
LINE
8
0
6
CONTINUOUS
10
0.001827
20
-0.050485
30
0.0
11
0.001856
21
-0.049770
31
0.0
0
LINE
8
0
6
CONTINUOUS
10
0.001856
20
-0.040628
30
0.0
11
0.001827
21
-0.039913
31
0.0
0
LINE
8
0
6
CONTINUOUS
10
0.002474
20
-0.039199
30
0.0
11
0.002379
21
-0.039199
31
0.0
0
LINE
8
0
6
CONTINUOUS
10
0.020939
20
-0.040628
30
0.0
11
0.021269
21
-0.040628
31
0.0
0
LINE
8
0
6
CONTINUOUS
10
0.020335
20
-0.039913
30
0.0
11
0.020939
21
-0.040628
31
0.0
0
LINE
8
0
6
CONTINUOUS
10
0.021046
20
-0.039913
30
0.0
11
0.020335
21
-0.039913
31
0.0
0
LINE
8
0
6
CONTINUOUS
10
0.019709
20
-0.039199
30
0.0
11
0.018254
21
-0.039199
31
0.0
0
LINE
8
0
6
CONTINUOUS
10
0.020335
20
-0.039913
30
0.0
11
0.021046
21
-0.039913
31
0.0
0
LINE
8
0
6
CONTINUOUS
10
0.018941
20
-0.039498
30
0.0
11
0.020335
21
-0.039913
31
0.0
0
LINE
8
0
6
CONTINUOUS
10
0.018941
20
-0.039498
30
0.0
11
0.021046
21
-0.039913
31
0.0
0
LINE
8
0
6
CONTINUOUS
10
0.020378
20
-0.039413
30
0.0
11
0.018941
21
-0.039498
31
0.0
0
LINE
8
0
6
CONTINUOUS
10
0.018254
20
-0.039199
30
0.0
11
0.019709
21
-0.039199
31
0.0
0
LINE
8
0
6
CONTINUOUS
10
0.020335
20
-0.050485
30
0.0
11
0.021046
21
-0.050485
31
0.0
0
LINE
8
0
6
CONTINUOUS
10
0.020939
20
-0.049770
30
0.0
11
0.020335
21
-0.050485
31
0.0
0
LINE
8
0
6
CONTINUOUS
10
0.021269
20
-0.049770
30
0.0
11
0.020939
21
-0.049770
31
0.0
0
LINE
8
0
6
CONTINUOUS
10
0.018254
20
-0.051199
30
0.0
11
0.019709
21
-0.051199
31
0.0
0
LINE
8
0
6
CONTINUOUS
10
0.020335
20
-0.050485
30
0.0
11
0.018941
21
-0.050900
31
0.0
0
LINE
8
0
6
CONTINUOUS
10
0.021046
20
-0.050485
30
0.0
11
0.020335
21
-0.050485
31
0.0
0
LINE
8
0
6
CONTINUOUS
10
0.020335
20
-0.050485
30
0.0
11
0.020378
21
-0.050985
31
0.0
0
LINE
8
0
6
CONTINUOUS
10
0.021046
20
-0.050485
30
0.0
11
0.020335
21
-0.050485
31
0.0
0
LINE
8
0
6
CONTINUOUS
10
0.019709
20
-0.051199
30
0.0
11
0.018254
21
-0.051199
31
0.0
0
LINE
8
0
6
CONTINUOUS
10
0.020939
20
-0.049770
30
0.0
11
0.021269
21
-0.049770
31
0.0
0
LINE
8
0
6
CONTINUOUS
10
0.020939
20
-0.040628
30
0.0
11
0.020939
21
-0.049770
31
0.0
0
LINE
8
0
6
CONTINUOUS
10
0.021269
20
-0.040628
30
0.0
11
0.020939
21
-0.040628
31
0.0
0
LINE
8
0
6
CONTINUOUS
10
0.012248
20
-0.040628
30
0.0
11
0.012820
21
-0.039913
31
0.0
0
LINE
8
0
6
CONTINUOUS
10
0.011853
20
-0.040628
30
0.0
11
0.012248
21
-0.040628
31
0.0
0
LINE
8
0
6
CONTINUOUS
10
0.011802
20
-0.039913
30
0.0
11
0.011853
21
-0.040628
31
0.0
0
LINE
8
0
6
CONTINUOUS
10
0.012820
20
-0.039913
30
0.0
11
0.011802
21
-0.039913
31
0.0
0
LINE
8
0
6
CONTINUOUS
10
0.012820
20
-0.039913
30
0.0
11
0.011802
21
-0.039913
31
0.0
0
LINE
8
0
6
CONTINUOUS
10
0.011853
20
-0.040628
30
0.0
11
0.012820
21
-0.039913
31
0.0
0
LINE
8
0
6
CONTINUOUS
10
0.011265
20
-0.039913
30
0.0
11
0.011853
21
-0.040628
31
0.0
0
LINE
8
0
6
CONTINUOUS
10
0.011802
20
-0.039913
30
0.0
11
0.011265
21
-0.039913
31
0.0
0
LINE
8
0
6
CONTINUOUS
10
0.009183
20
-0.039370
30
0.0
11
0.011265
21
-0.039913
31
0.0
0
LINE
8
0
6
CONTINUOUS
10
0.011265
20
-0.039913
30
0.0
11
0.011802
21
-0.039913
31
0.0
0
LINE
8
0
6
CONTINUOUS
10
0.009362
20
-0.039199
30
0.0
11
0.009183
21
-0.039370
31
0.0
0
LINE
8
0
6
CONTINUOUS
10
0.011752
20
-0.039199
30
0.0
11
0.009362
21
-0.039199
31
0.0
0
LINE
8
0
6
CONTINUOUS
10
0.011752
20
-0.039199
30
0.0
11
0.009362
21
-0.039199
31
0.0
0
LINE
8
0
6
CONTINUOUS
10
0.009183
20
-0.039370
30
0.0
11
0.011752
21
-0.039199
31
0.0
0
LINE
8
0
6
CONTINUOUS
10
0.016682
20
-0.039343
30
0.0
11
0.016404
21
-0.039199
31
0.0
0
LINE
8
0
6
CONTINUOUS
10
0.014182
20
-0.039199
30
0.0
11
0.016682
21
-0.039343
31
0.0
0
LINE
8
0
6
CONTINUOUS
10
0.016404
20
-0.039199
30
0.0
11
0.014182
21
-0.039199
31
0.0
0
LINE
8
0
6
CONTINUOUS
10
0.014411
20
-0.039459
30
0.0
11
0.016682
21
-0.039343
31
0.0
0
LINE
8
0
6
CONTINUOUS
10
0.012820
20
-0.039913
30
0.0
11
0.014411
21
-0.039459
31
0.0
0
LINE
8
0
6
CONTINUOUS
10
0.011802
20
-0.039913
30
0.0
11
0.012820
21
-0.039913
31
0.0
0
LINE
8
0
6
CONTINUOUS
10
0.014411
20
-0.039459
30
0.0
11
0.011755
21
-0.039413
31
0.0
0
LINE
8
0
6
CONTINUOUS
10
0.011755
20
-0.039413
30
0.0
11
0.011802
21
-0.039913
31
0.0
0
LINE
8
0
6
CONTINUOUS
10
0.011802
20
-0.039913
30
0.0
11
0.014411
21
-0.039459
31
0.0
0
LINE
8
0
6
CONTINUOUS
10
0.014182
20
-0.039199
30
0.0
11
0.011752
21
-0.039199
31
0.0
0
LINE
8
0
6
CONTINUOUS
10
0.011802
20
-0.050485
30
0.0
11
0.012820
21
-0.050485
31
0.0
0
LINE
8
0
6
CONTINUOUS
10
0.012248
20
-0.049770
30
0.0
11
0.011853
21
-0.049770
31
0.0
0
LINE
8
0
6
CONTINUOUS
10
0.012820
20
-0.050485
30
0.0
11
0.012248
21
-0.049770
31
0.0
0
LINE
8
0
6
CONTINUOUS
10
0.011853
20
-0.049770
30
0.0
11
0.011265
21
-0.050485
31
0.0
0
LINE
8
0
6
CONTINUOUS
10
0.011265
20
-0.050485
30
0.0
11
0.011802
21
-0.050485
31
0.0
0
LINE
8
0
6
CONTINUOUS
10
0.011802
20
-0.050485
30
0.0
11
0.011755
21
-0.050985
31
0.0
0
LINE
8
0
6
CONTINUOUS
10
0.012820
20
-0.050485
30
0.0
11
0.011802
21
-0.050485
31
0.0
0
LINE
8
0
6
CONTINUOUS
10
0.011755
20
-0.050985
30
0.0
11
0.012820
21
-0.050485
31
0.0
0
LINE
8
0
6
CONTINUOUS
10
0.012820
20
-0.050485
30
0.0
11
0.011802
21
-0.050485
31
0.0
0
LINE
8
0
6
CONTINUOUS
10
0.011265
20
-0.050485
30
0.0
11
0.009183
21
-0.051028
31
0.0
0
LINE
8
0
6
CONTINUOUS
10
0.011802
20
-0.050485
30
0.0
11
0.011265
21
-0.050485
31
0.0
0
LINE
8
0
6
CONTINUOUS
10
0.009362
20
-0.051199
30
0.0
11
0.011752
21
-0.051199
31
0.0
0
LINE
8
0
6
CONTINUOUS
10
0.016682
20
-0.051055
30
0.0
11
0.014411
21
-0.050939
31
0.0
0
LINE
8
0
6
CONTINUOUS
10
0.014411
20
-0.050939
30
0.0
11
0.012820
21
-0.050485
31
0.0
0
LINE
8
0
6
CONTINUOUS
10
0.011752
20
-0.051199
30
0.0
11
0.014182
21
-0.051199
31
0.0
0
LINE
8
0
6
CONTINUOUS
10
0.011853
20
-0.040628
30
0.0
11
0.011853
21
-0.049770
31
0.0
0
LINE
8
0
6
CONTINUOUS
10
0.012248
20
-0.040628
30
0.0
11
0.011853
21
-0.040628
31
0.0
0
LINE
8
0
6
CONTINUOUS
10
0.012248
20
-0.049770
30
0.0
11
0.012248
21
-0.040628
31
0.0
0
LINE
8
0
6
CONTINUOUS
10
0.011853
20
-0.049770
30
0.0
11
0.012248
21
-0.049770
31
0.0
0
LINE
8
0
6
CONTINUOUS
10
0.016404
20
-0.051199
30
0.0
11
0.014182
21
-0.051199
31
0.0
0
LINE
8
0
6
CONTINUOUS
10
0.014182
20
-0.039199
30
0.0
11
0.016404
21
-0.039199
31
0.0
0
LINE
8
0
6
CONTINUOUS
10
0.020939
20
-0.040628
30
0.0
11
0.020335
21
-0.039913
31
0.0
0
LINE
8
0
6
CONTINUOUS
10
0.020939
20
-0.049770
30
0.0
11
0.020939
21
-0.040628
31
0.0
0
LINE
8
0
6
CONTINUOUS
10
0.020335
20
-0.050485
30
0.0
11
0.020939
21
-0.049770
31
0.0
0
LINE
8
0
6
CONTINUOUS
10
0.020335
20
-0.039913
30
0.0
11
0.018941
21
-0.039498
31
0.0
0
LINE
8
0
6
CONTINUOUS
10
0.018941
20
-0.050900
30
0.0
11
0.020335
21
-0.050485
31
0.0
0
LINE
8
0
6
CONTINUOUS
10
0.018941
20
-0.039498
30
0.0
11
0.016682
21
-0.039343
31
0.0
0
LINE
8
0
6
CONTINUOUS
10
0.016682
20
-0.051055
30
0.0
11
0.018941
21
-0.050900
31
0.0
0
LINE
8
0
6
CONTINUOUS
10
0.016682
20
-0.039343
30
0.0
11
0.014411
21
-0.039459
31
0.0
0
LINE
8
0
6
CONTINUOUS
10
0.014411
20
-0.050939
30
0.0
11
0.016682
21
-0.051055
31
0.0
0
LINE
8
0
6
CONTINUOUS
10
0.014411
20
-0.039459
30
0.0
11
0.012820
21
-0.039913
31
0.0
0
LINE
8
0
6
CONTINUOUS
10
0.012820
20
-0.050485
30
0.0
11
0.014411
21
-0.050939
31
0.0
0
LINE
8
0
6
CONTINUOUS
10
0.012248
20
-0.040628
30
0.0
11
0.012248
21
-0.049770
31
0.0
0
LINE
8
0
6
CONTINUOUS
10
0.012820
20
-0.039913
30
0.0
11
0.012248
21
-0.040628
31
0.0
0
LINE
8
0
6
CONTINUOUS
10
0.012248
20
-0.049770
30
0.0
11
0.012820
21
-0.050485
31
0.0
0
LINE
8
0
6
CONTINUOUS
10
0.016404
20
-0.051199
30
0.0
11
0.018254
21
-0.051199
31
0.0
0
LINE
8
0
6
CONTINUOUS
10
0.018941
20
-0.050900
30
0.0
11
0.016682
21
-0.051055
31
0.0
0
LINE
8
0
6
CONTINUOUS
10
0.018254
20
-0.051199
30
0.0
11
0.018941
21
-0.050900
31
0.0
0
LINE
8
0
6
CONTINUOUS
10
0.016682
20
-0.051055
30
0.0
11
0.018254
21
-0.051199
31
0.0
0
LINE
8
0
6
CONTINUOUS
10
0.018941
20
-0.050900
30
0.0
11
0.016682
21
-0.051055
31
0.0
0
LINE
8
0
6
CONTINUOUS
10
0.016404
20
-0.039199
30
0.0
11
0.018254
21
-0.039199
31
0.0
0
LINE
8
0
6
CONTINUOUS
10
0.016682
20
-0.039343
30
0.0
11
0.018941
21
-0.039498
31
0.0
0
LINE
8
0
6
CONTINUOUS
10
0.018254
20
-0.039199
30
0.0
11
0.016404
21
-0.039199
31
0.0
0
LINE
8
0
6
CONTINUOUS
10
0.018941
20
-0.039498
30
0.0
11
0.018254
21
-0.039199
31
0.0
0
LINE
8
0
6
CONTINUOUS
10
0.016404
20
-0.039199
30
0.0
11
0.018673
21
-0.039466
31
0.0
0
LINE
8
0
6
CONTINUOUS
10
0.018254
20
-0.039199
30
0.0
11
0.016404
21
-0.039199
31
0.0
0
LINE
8
0
6
CONTINUOUS
10
0.009183
20
-0.051028
30
0.0
11
0.006936
21
-0.051128
31
0.0
0
LINE
8
0
6
CONTINUOUS
10
0.007055
20
-0.051199
30
0.0
11
0.009362
21
-0.051199
31
0.0
0
LINE
8
0
6
CONTINUOUS
10
0.009362
20
-0.039199
30
0.0
11
0.007055
21
-0.039199
31
0.0
0
LINE
8
0
6
CONTINUOUS
10
0.006936
20
-0.039270
30
0.0
11
0.009183
21
-0.039370
31
0.0
0
LINE
8
0
6
CONTINUOUS
10
0.011853
20
-0.040628
30
0.0
11
0.011265
21
-0.039913
31
0.0
0
LINE
8
0
6
CONTINUOUS
10
0.011853
20
-0.049770
30
0.0
11
0.011853
21
-0.040628
31
0.0
0
LINE
8
0
6
CONTINUOUS
10
0.011265
20
-0.050485
30
0.0
11
0.011853
21
-0.049770
31
0.0
0
LINE
8
0
6
CONTINUOUS
10
0.011265
20
-0.039913
30
0.0
11
0.009185
21
-0.039371
31
0.0
0
LINE
8
0
6
CONTINUOUS
10
0.009183
20
-0.051028
30
0.0
11
0.011265
21
-0.050485
31
0.0
0
LINE
8
0
6
CONTINUOUS
10
0.009183
20
-0.039370
30
0.0
11
0.006936
21
-0.039270
31
0.0
0
LINE
8
0
6
CONTINUOUS
10
0.006936
20
-0.051128
30
0.0
11
0.009183
21
-0.051028
31
0.0
0
LINE
8
0
6
CONTINUOUS
10
0.007388
20
-0.039199
30
0.0
11
0.005480
21
-0.039199
31
0.0
0
LINE
8
0
6
CONTINUOUS
10
0.005480
20
-0.039199
30
0.0
11
0.003945
21
-0.039199
31
0.0
0
LINE
8
0
6
CONTINUOUS
10
0.003945
20
-0.039199
30
0.0
11
0.002895
21
-0.039199
31
0.0
0
LINE
8
0
6
CONTINUOUS
10
0.002895
20
-0.039199
30
0.0
11
0.002474
21
-0.039199
31
0.0
0
LINE
8
0
6
CONTINUOUS
10
0.002474
20
-0.030199
30
0.0
11
0.002474
21
-0.039199
31
0.0
0
LINE
8
0
6
CONTINUOUS
10
0.009589
20
-0.039199
30
0.0
11
0.007388
21
-0.039199
31
0.0
0
LINE
8
0
6
CONTINUOUS
10
0.011907
20
-0.039199
30
0.0
11
0.009589
21
-0.039199
31
0.0
0
LINE
8
0
6
CONTINUOUS
10
0.014260
20
-0.039199
30
0.0
11
0.011907
21
-0.039199
31
0.0
0
LINE
8
0
6
CONTINUOUS
10
0.016406
20
-0.039199
30
0.0
11
0.014260
21
-0.039199
31
0.0
0
LINE
8
0
6
CONTINUOUS
10
0.018155
20
-0.039199
30
0.0
11
0.016406
21
-0.039199
31
0.0
0
LINE
8
0
6
CONTINUOUS
10
0.019486
20
-0.039199
30
0.0
11
0.018155
21
-0.039199
31
0.0
0
LINE
8
0
6
CONTINUOUS
10
0.020445
20
-0.039199
30
0.0
11
0.020239
21
-0.039199
31
0.0
0
LINE
8
0
6
CONTINUOUS
10
0.020445
20
-0.030199
30
0.0
11
0.020445
21
-0.039199
31
0.0
0
LINE
8
0
6
CONTINUOUS
10
0.020239
20
-0.039199
30
0.0
11
0.019486
21
-0.039199
31
0.0
0
LINE
8
0
6
CONTINUOUS
10
-0.065221
20
0.019379
30
0.0
11
-0.065195
21
0.018801
31
0.0
0
LINE
8
0
6
CONTINUOUS
10
-0.056630
20
0.019379
30
0.0
11
-0.065221
21
0.019379
31
0.0
0
LINE
8
0
6
CONTINUOUS
10
-0.056604
20
0.018801
30
0.0
11
-0.056630
21
0.019379
31
0.0
0
LINE
8
0
6
CONTINUOUS
10
-0.071289
20
0.028801
30
0.0
11
-0.070843
21
0.028801
31
0.0
0
LINE
8
0
6
CONTINUOUS
10
-0.062252
20
0.028801
30
0.0
11
-0.061355
21
0.028801
31
0.0
0
LINE
8
0
6
CONTINUOUS
10
-0.070843
20
0.028801
30
0.0
11
-0.062252
21
0.028801
31
0.0
0
LINE
8
0
6
CONTINUOUS
10
-0.071001
20
0.028801
30
0.0
11
-0.071121
21
0.028169
31
0.0
0
LINE
8
0
6
CONTINUOUS
10
-0.071553
20
0.027801
30
0.0
11
-0.071001
21
0.028801
31
0.0
0
LINE
8
0
6
CONTINUOUS
10
-0.071121
20
0.028169
30
0.0
11
-0.071413
21
0.027801
31
0.0
0
LINE
8
0
6
CONTINUOUS
10
-0.070233
20
0.028801
30
0.0
11
-0.069277
21
0.028801
31
0.0
0
LINE
8
0
6
CONTINUOUS
10
-0.059091
20
0.028801
30
0.0
11
-0.058323
21
0.028801
31
0.0
0
LINE
8
0
6
CONTINUOUS
10
-0.060046
20
0.028801
30
0.0
11
-0.059091
21
0.028801
31
0.0
0
LINE
8
0
6
CONTINUOUS
10
-0.071001
20
0.028801
30
0.0
11
-0.070233
21
0.028801
31
0.0
0
LINE
8
0
6
CONTINUOUS
10
-0.066965
20
0.028544
30
0.0
11
-0.067071
21
0.028801
31
0.0
0
LINE
8
0
6
CONTINUOUS
10
-0.067521
20
0.027944
30
0.0
11
-0.066965
21
0.028544
31
0.0
0
LINE
8
0
6
CONTINUOUS
10
-0.067071
20
0.028801
30
0.0
11
-0.067799
21
0.028590
31
0.0
0
LINE
8
0
6
CONTINUOUS
10
-0.067799
20
0.028590
30
0.0
11
-0.067521
21
0.027944
31
0.0
0
LINE
8
0
6
CONTINUOUS
10
-0.067521
20
0.027944
30
0.0
11
-0.067071
21
0.028801
31
0.0
0
LINE
8
0
6
CONTINUOUS
10
-0.067799
20
0.028590
30
0.0
11
-0.067521
21
0.027944
31
0.0
0
LINE
8
0
6
CONTINUOUS
10
-0.067071
20
0.028801
30
0.0
11
-0.067968
21
0.028801
31
0.0
0
LINE
8
0
6
CONTINUOUS
10
-0.067968
20
0.028801
30
0.0
11
-0.067799
21
0.028590
31
0.0
0
LINE
8
0
6
CONTINUOUS
10
-0.058480
20
0.028801
30
0.0
11
-0.058373
21
0.028544
31
0.0
0
LINE
8
0
6
CONTINUOUS
10
-0.058373
20
0.028544
30
0.0
11
-0.057587
21
0.027944
31
0.0
0
LINE
8
0
6
CONTINUOUS
10
-0.057587
20
0.027944
30
0.0
11
-0.057865
21
0.028590
31
0.0
0
LINE
8
0
6
CONTINUOUS
10
-0.058034
20
0.028801
30
0.0
11
-0.058480
21
0.028801
31
0.0
0
LINE
8
0
6
CONTINUOUS
10
-0.057865
20
0.028590
30
0.0
11
-0.058034
21
0.028801
31
0.0
0
LINE
8
0
6
CONTINUOUS
10
-0.057532
20
0.027906
30
0.0
11
-0.057865
21
0.028590
31
0.0
0
LINE
8
0
6
CONTINUOUS
10
-0.057587
20
0.027944
30
0.0
11
-0.057532
21
0.027906
31
0.0
0
LINE
8
0
6
CONTINUOUS
10
-0.057865
20
0.028590
30
0.0
11
-0.057587
21
0.027944
31
0.0
0
LINE
8
0
6
CONTINUOUS
10
-0.057865
20
0.028590
30
0.0
11
-0.057587
21
0.027944
31
0.0
0
LINE
8
0
6
CONTINUOUS
10
-0.058480
20
0.028801
30
0.0
11
-0.067071
21
0.028801
31
0.0
0
LINE
8
0
6
CONTINUOUS
10
-0.058373
20
0.028544
30
0.0
11
-0.058480
21
0.028801
31
0.0
0
LINE
8
0
6
CONTINUOUS
10
-0.066965
20
0.028544
30
0.0
11
-0.058373
21
0.028544
31
0.0
0
LINE
8
0
6
CONTINUOUS
10
-0.067071
20
0.028801
30
0.0
11
-0.066965
21
0.028544
31
0.0
0
LINE
8
0
6
CONTINUOUS
10
-0.068405
20
0.027906
30
0.0
11
-0.067799
21
0.028590
31
0.0
0
LINE
8
0
6
CONTINUOUS
10
-0.067799
20
0.028590
30
0.0
11
-0.067627
21
0.026275
31
0.0
0
LINE
8
0
6
CONTINUOUS
10
-0.068405
20
0.027906
30
0.0
11
-0.067799
21
0.028590
31
0.0
0
LINE
8
0
6
CONTINUOUS
10
-0.067627
20
0.026275
30
0.0
11
-0.068405
21
0.027906
31
0.0
0
LINE
8
0
6
CONTINUOUS
10
-0.067521
20
0.027944
30
0.0
11
-0.067627
21
0.026275
31
0.0
0
LINE
8
0
6
CONTINUOUS
10
-0.067799
20
0.028590
30
0.0
11
-0.067521
21
0.027944
31
0.0
0
LINE
8
0
6
CONTINUOUS
10
-0.056839
20
0.026275
30
0.0
11
-0.057532
21
0.027906
31
0.0
0
LINE
8
0
6
CONTINUOUS
10
-0.057587
20
0.027944
30
0.0
11
-0.056839
21
0.026275
31
0.0
0
LINE
8
0
6
CONTINUOUS
10
-0.066678
20
0.021521
30
0.0
11
-0.067256
21
0.021327
31
0.0
0
LINE
8
0
6
CONTINUOUS
10
-0.067564
20
0.023643
30
0.0
11
-0.066678
21
0.021521
31
0.0
0
LINE
8
0
6
CONTINUOUS
10
-0.067256
20
0.021327
30
0.0
11
-0.067564
21
0.023643
31
0.0
0
LINE
8
0
6
CONTINUOUS
10
-0.066678
20
0.021521
30
0.0
11
-0.067256
21
0.021327
31
0.0
0
LINE
8
0
6
CONTINUOUS
10
-0.067256
20
0.021327
30
0.0
11
-0.067564
21
0.023643
31
0.0
0
LINE
8
0
6
CONTINUOUS
10
-0.067278
20
0.023891
30
0.0
11
-0.066678
21
0.021521
31
0.0
0
LINE
8
0
6
CONTINUOUS
10
-0.056273
20
0.023891
30
0.0
11
-0.055963
21
0.021521
31
0.0
0
LINE
8
0
6
CONTINUOUS
10
-0.056273
20
0.023891
30
0.0
11
-0.055963
21
0.021521
31
0.0
0
LINE
8
0
6
CONTINUOUS
10
-0.067627
20
0.026275
30
0.0
11
-0.067278
21
0.023891
31
0.0
0
LINE
8
0
6
CONTINUOUS
10
-0.067564
20
0.023643
30
0.0
11
-0.068060
21
0.025696
31
0.0
0
LINE
8
0
6
CONTINUOUS
10
-0.067278
20
0.023891
30
0.0
11
-0.067564
21
0.023643
31
0.0
0
LINE
8
0
6
CONTINUOUS
10
-0.068060
20
0.025696
30
0.0
11
-0.067278
21
0.023891
31
0.0
0
LINE
8
0
6
CONTINUOUS
10
-0.056839
20
0.026275
30
0.0
11
-0.056273
21
0.023891
31
0.0
0
LINE
8
0
6
CONTINUOUS
10
-0.067564
20
0.023643
30
0.0
11
-0.067256
21
0.021327
31
0.0
0
LINE
8
0
6
CONTINUOUS
10
-0.067968
20
0.028801
30
0.0
11
-0.069277
21
0.028801
31
0.0
0
LINE
8
0
6
CONTINUOUS
10
-0.067799
20
0.028590
30
0.0
11
-0.067968
21
0.028801
31
0.0
0
LINE
8
0
6
CONTINUOUS
10
-0.068405
20
0.027906
30
0.0
11
-0.067799
21
0.028590
31
0.0
0
LINE
8
0
6
CONTINUOUS
10
-0.069277
20
0.028801
30
0.0
11
-0.068405
21
0.027906
31
0.0
0
LINE
8
0
6
CONTINUOUS
10
-0.068726
20
0.027222
30
0.0
11
-0.069479
21
0.028169
31
0.0
0
LINE
8
0
6
CONTINUOUS
10
-0.069277
20
0.028801
30
0.0
11
-0.068726
21
0.027222
31
0.0
0
LINE
8
0
6
CONTINUOUS
10
-0.069479
20
0.028169
30
0.0
11
-0.069277
21
0.028801
31
0.0
0
LINE
8
0
6
CONTINUOUS
10
-0.069277
20
0.028801
30
0.0
11
-0.068405
21
0.027906
31
0.0
0
LINE
8
0
6
CONTINUOUS
10
-0.058323
20
0.028801
30
0.0
11
-0.058034
21
0.028801
31
0.0
0
LINE
8
0
6
CONTINUOUS
10
-0.057865
20
0.028590
30
0.0
11
-0.057532
21
0.027906
31
0.0
0
LINE
8
0
6
CONTINUOUS
10
-0.058034
20
0.028801
30
0.0
11
-0.057865
21
0.028590
31
0.0
0
LINE
8
0
6
CONTINUOUS
10
-0.058480
20
0.028801
30
0.0
11
-0.058034
21
0.028801
31
0.0
0
LINE
8
0
6
CONTINUOUS
10
-0.067071
20
0.028801
30
0.0
11
-0.058480
21
0.028801
31
0.0
0
LINE
8
0
6
CONTINUOUS
10
-0.067968
20
0.028801
30
0.0
11
-0.067071
21
0.028801
31
0.0
0
LINE
8
0
6
CONTINUOUS
10
-0.058034
20
0.028801
30
0.0
11
-0.058323
21
0.028801
31
0.0
0
LINE
8
0
6
CONTINUOUS
10
-0.069277
20
0.028801
30
0.0
11
-0.067968
21
0.028801
31
0.0
0
LINE
8
0
6
CONTINUOUS
10
-0.058323
20
0.028801
30
0.0
11
-0.059091
21
0.028801
31
0.0
0
LINE
8
0
6
CONTINUOUS
10
-0.070233
20
0.028801
30
0.0
11
-0.069277
21
0.028801
31
0.0
0
LINE
8
0
6
CONTINUOUS
10
-0.070843
20
0.028801
30
0.0
11
-0.071289
21
0.028801
31
0.0
0
LINE
8
0
6
CONTINUOUS
10
-0.062252
20
0.028801
30
0.0
11
-0.070843
21
0.028801
31
0.0
0
LINE
8
0
6
CONTINUOUS
10
-0.061355
20
0.028801
30
0.0
11
-0.062252
21
0.028801
31
0.0
0
LINE
8
0
6
CONTINUOUS
10
-0.071289
20
0.028801
30
0.0
11
-0.071001
21
0.028801
31
0.0
0
LINE
8
0
6
CONTINUOUS
10
-0.060046
20
0.028801
30
0.0
11
-0.061355
21
0.028801
31
0.0
0
LINE
8
0
6
CONTINUOUS
10
-0.071001
20
0.028801
30
0.0
11
-0.070233
21
0.028801
31
0.0
0
LINE
8
0
6
CONTINUOUS
10
-0.059091
20
0.028801
30
0.0
11
-0.060046
21
0.028801
31
0.0
0
LINE
8
0
6
CONTINUOUS
10
-0.061355
20
0.028801
30
0.0
11
-0.060046
21
0.028801
31
0.0
0
LINE
8
0
6
CONTINUOUS
10
-0.071640
20
0.028077
30
0.0
11
-0.071001
21
0.028801
31
0.0
0
LINE
8
0
6
CONTINUOUS
10
-0.071001
20
0.028801
30
0.0
11
-0.071289
21
0.028801
31
0.0
0
LINE
8
0
6
CONTINUOUS
10
-0.071640
20
0.028077
30
0.0
11
-0.071001
21
0.028801
31
0.0
0
LINE
8
0
6
CONTINUOUS
10
-0.071458
20
0.028590
30
0.0
11
-0.071640
21
0.028217
31
0.0
0
LINE
8
0
6
CONTINUOUS
10
-0.071289
20
0.028801
30
0.0
11
-0.071458
21
0.028590
31
0.0
0
LINE
8
0
6
CONTINUOUS
10
-0.067256
20
0.021327
30
0.0
11
-0.067137
21
0.018815
31
0.0
0
LINE
8
0
6
CONTINUOUS
10
-0.066678
20
0.021521
30
0.0
11
-0.067256
21
0.021327
31
0.0
0
LINE
8
0
6
CONTINUOUS
10
-0.066010
20
0.020037
30
0.0
11
-0.065952
21
0.018806
31
0.0
0
LINE
8
0
6
CONTINUOUS
10
-0.065221
20
0.019379
30
0.0
11
-0.066010
21
0.020037
31
0.0
0
LINE
8
0
6
CONTINUOUS
10
-0.065195
20
0.018801
30
0.0
11
-0.065221
21
0.019379
31
0.0
0
LINE
8
0
6
CONTINUOUS
10
-0.065952
20
0.018801
30
0.0
11
-0.066678
21
0.021521
31
0.0
0
LINE
8
0
6
CONTINUOUS
10
-0.066678
20
0.021521
30
0.0
11
-0.066678
21
0.018812
31
0.0
0
LINE
8
0
6
CONTINUOUS
10
-0.066010
20
0.020037
30
0.0
11
-0.066678
21
0.021521
31
0.0
0
LINE
8
0
6
CONTINUOUS
10
-0.065952
20
0.018801
30
0.0
11
-0.066010
21
0.020037
31
0.0
0
LINE
8
0
6
CONTINUOUS
10
-0.056630
20
0.019379
30
0.0
11
-0.056604
21
0.018801
31
0.0
0
LINE
8
0
6
CONTINUOUS
10
-0.056076
20
0.020037
30
0.0
11
-0.056630
21
0.019379
31
0.0
0
LINE
8
0
6
CONTINUOUS
10
-0.056018
20
0.018801
30
0.0
11
-0.056076
21
0.020037
31
0.0
0
LINE
8
0
6
CONTINUOUS
10
-0.056076
20
0.020037
30
0.0
11
-0.056018
21
0.018801
31
0.0
0
LINE
8
0
6
CONTINUOUS
10
-0.055805
20
0.018801
30
0.0
11
-0.056076
21
0.020037
31
0.0
0
LINE
8
0
6
CONTINUOUS
10
-0.056076
20
0.020037
30
0.0
11
-0.056018
21
0.018801
31
0.0
0
LINE
8
0
6
CONTINUOUS
10
-0.055963
20
0.021521
30
0.0
11
-0.056076
21
0.020037
31
0.0
0
LINE
8
0
6
CONTINUOUS
10
-0.055805
20
0.018801
30
0.0
11
-0.055963
21
0.021521
31
0.0
0
LINE
8
0
6
CONTINUOUS
10
-0.056630
20
0.019379
30
0.0
11
-0.056076
21
0.020037
31
0.0
0
LINE
8
0
6
CONTINUOUS
10
-0.065221
20
0.019379
30
0.0
11
-0.056630
21
0.019379
31
0.0
0
LINE
8
0
6
CONTINUOUS
10
-0.066010
20
0.020037
30
0.0
11
-0.065221
21
0.019379
31
0.0
0
LINE
8
0
6
CONTINUOUS
10
-0.056076
20
0.020037
30
0.0
11
-0.055963
21
0.021521
31
0.0
0
LINE
8
0
6
CONTINUOUS
10
-0.066678
20
0.021521
30
0.0
11
-0.066010
21
0.020037
31
0.0
0
LINE
8
0
6
CONTINUOUS
10
-0.055963
20
0.021521
30
0.0
11
-0.056273
21
0.023891
31
0.0
0
LINE
8
0
6
CONTINUOUS
10
-0.067278
20
0.023891
30
0.0
11
-0.066678
21
0.021521
31
0.0
0
LINE
8
0
6
CONTINUOUS
10
-0.056273
20
0.023891
30
0.0
11
-0.056839
21
0.026275
31
0.0
0
LINE
8
0
6
CONTINUOUS
10
-0.067627
20
0.026275
30
0.0
11
-0.067278
21
0.023891
31
0.0
0
LINE
8
0
6
CONTINUOUS
10
-0.056839
20
0.026275
30
0.0
11
-0.057587
21
0.027944
31
0.0
0
LINE
8
0
6
CONTINUOUS
10
-0.067521
20
0.027944
30
0.0
11
-0.067627
21
0.026275
31
0.0
0
LINE
8
0
6
CONTINUOUS
10
-0.058373
20
0.028544
30
0.0
11
-0.066965
21
0.028544
31
0.0
0
LINE
8
0
6
CONTINUOUS
10
-0.057587
20
0.027944
30
0.0
11
-0.058373
21
0.028544
31
0.0
0
LINE
8
0
6
CONTINUOUS
10
-0.066965
20
0.028544
30
0.0
11
-0.067521
21
0.027944
31
0.0
0
LINE
8
0
6
CONTINUOUS
10
-0.067136
20
0.018801
30
0.0
11
-0.067256
21
0.021327
31
0.0
0
LINE
8
0
6
CONTINUOUS
10
-0.071001
20
0.008801
30
0.0
11
-0.070233
21
0.008801
31
0.0
0
LINE
8
0
6
CONTINUOUS
10
-0.071289
20
0.008801
30
0.0
11
-0.071458
21
0.009011
31
0.0
0
LINE
8
0
6
CONTINUOUS
10
-0.071458
20
0.009011
30
0.0
11
-0.071640
21
0.009385
31
0.0
0
LINE
8
0
6
CONTINUOUS
10
-0.071289
20
0.008801
30
0.0
11
-0.071001
21
0.008801
31
0.0
0
LINE
8
0
6
CONTINUOUS
10
-0.071458
20
0.009011
30
0.0
11
-0.071289
21
0.008801
31
0.0
0
LINE
8
0
6
CONTINUOUS
10
-0.071640
20
0.009385
30
0.0
11
-0.071458
21
0.009011
31
0.0
0
LINE
8
0
6
CONTINUOUS
10
-0.071553
20
0.009801
30
0.0
11
-0.071001
21
0.008801
31
0.0
0
LINE
8
0
6
CONTINUOUS
10
-0.071121
20
0.009433
30
0.0
11
-0.071413
21
0.009801
31
0.0
0
LINE
8
0
6
CONTINUOUS
10
-0.071001
20
0.008801
30
0.0
11
-0.071121
21
0.009433
31
0.0
0
LINE
8
0
6
CONTINUOUS
10
-0.071001
20
0.008801
30
0.0
11
-0.071289
21
0.008801
31
0.0
0
LINE
8
0
6
CONTINUOUS
10
-0.070233
20
0.008801
30
0.0
11
-0.071001
21
0.008801
31
0.0
0
LINE
8
0
6
CONTINUOUS
10
-0.065221
20
0.018223
30
0.0
11
-0.065195
21
0.018801
31
0.0
0
LINE
8
0
6
CONTINUOUS
10
-0.066010
20
0.017565
30
0.0
11
-0.065221
21
0.018223
31
0.0
0
LINE
8
0
6
CONTINUOUS
10
-0.065952
20
0.018801
30
0.0
11
-0.066010
21
0.017565
31
0.0
0
LINE
8
0
6
CONTINUOUS
10
-0.067136
20
0.018801
30
0.0
11
-0.067256
21
0.016275
31
0.0
0
LINE
8
0
6
CONTINUOUS
10
-0.066010
20
0.017565
30
0.0
11
-0.065952
21
0.018801
31
0.0
0
LINE
8
0
6
CONTINUOUS
10
-0.066678
20
0.016081
30
0.0
11
-0.066010
21
0.017565
31
0.0
0
LINE
8
0
6
CONTINUOUS
10
-0.066678
20
0.016081
30
0.0
11
-0.065952
21
0.018801
31
0.0
0
LINE
8
0
6
CONTINUOUS
10
-0.066678
20
0.018801
30
0.0
11
-0.066678
21
0.016081
31
0.0
0
LINE
8
0
6
CONTINUOUS
10
-0.067256
20
0.016275
30
0.0
11
-0.067136
21
0.018801
31
0.0
0
LINE
8
0
6
CONTINUOUS
10
-0.056076
20
0.017565
30
0.0
11
-0.056018
21
0.018801
31
0.0
0
LINE
8
0
6
CONTINUOUS
10
-0.056630
20
0.018223
30
0.0
11
-0.056076
21
0.017565
31
0.0
0
LINE
8
0
6
CONTINUOUS
10
-0.056604
20
0.018801
30
0.0
11
-0.056630
21
0.018223
31
0.0
0
LINE
8
0
6
CONTINUOUS
10
-0.055963
20
0.016081
30
0.0
11
-0.055805
21
0.018801
31
0.0
0
LINE
8
0
6
CONTINUOUS
10
-0.056076
20
0.017565
30
0.0
11
-0.055963
21
0.016081
31
0.0
0
LINE
8
0
6
CONTINUOUS
10
-0.056018
20
0.018801
30
0.0
11
-0.056076
21
0.017565
31
0.0
0
LINE
8
0
6
CONTINUOUS
10
-0.056076
20
0.017565
30
0.0
11
-0.055805
21
0.018801
31
0.0
0
LINE
8
0
6
CONTINUOUS
10
-0.056018
20
0.018801
30
0.0
11
-0.056076
21
0.017565
31
0.0
0
LINE
8
0
6
CONTINUOUS
10
-0.056630
20
0.018223
30
0.0
11
-0.056604
21
0.018801
31
0.0
0
LINE
8
0
6
CONTINUOUS
10
-0.065221
20
0.018223
30
0.0
11
-0.056630
21
0.018223
31
0.0
0
LINE
8
0
6
CONTINUOUS
10
-0.065195
20
0.018801
30
0.0
11
-0.065221
21
0.018223
31
0.0
0
LINE
8
0
6
CONTINUOUS
10
-0.066965
20
0.009058
30
0.0
11
-0.067521
21
0.009658
31
0.0
0
LINE
8
0
6
CONTINUOUS
10
-0.067071
20
0.008801
30
0.0
11
-0.066965
21
0.009058
31
0.0
0
LINE
8
0
6
CONTINUOUS
10
-0.067799
20
0.009011
30
0.0
11
-0.067071
21
0.008801
31
0.0
0
LINE
8
0
6
CONTINUOUS
10
-0.067521
20
0.009658
30
0.0
11
-0.067799
21
0.009011
31
0.0
0
LINE
8
0
6
CONTINUOUS
10
-0.067521
20
0.009658
30
0.0
11
-0.067799
21
0.009011
31
0.0
0
LINE
8
0
6
CONTINUOUS
10
-0.067071
20
0.008801
30
0.0
11
-0.067521
21
0.009658
31
0.0
0
LINE
8
0
6
CONTINUOUS
10
-0.067968
20
0.008801
30
0.0
11
-0.067071
21
0.008801
31
0.0
0
LINE
8
0
6
CONTINUOUS
10
-0.067799
20
0.009011
30
0.0
11
-0.067968
21
0.008801
31
0.0
0
LINE
8
0
6
CONTINUOUS
10
-0.069277
20
0.008801
30
0.0
11
-0.067968
21
0.008801
31
0.0
0
LINE
8
0
6
CONTINUOUS
10
-0.067968
20
0.008801
30
0.0
11
-0.067799
21
0.009011
31
0.0
0
LINE
8
0
6
CONTINUOUS
10
-0.069479
20
0.009433
30
0.0
11
-0.069277
21
0.008801
31
0.0
0
LINE
8
0
6
CONTINUOUS
10
-0.068726
20
0.010380
30
0.0
11
-0.069479
21
0.009433
31
0.0
0
LINE
8
0
6
CONTINUOUS
10
-0.069277
20
0.008801
30
0.0
11
-0.068726
21
0.010380
31
0.0
0
LINE
8
0
6
CONTINUOUS
10
-0.067278
20
0.013711
30
0.0
11
-0.067564
21
0.013959
31
0.0
0
LINE
8
0
6
CONTINUOUS
10
-0.068060
20
0.011906
30
0.0
11
-0.067278
21
0.013711
31
0.0
0
LINE
8
0
6
CONTINUOUS
10
-0.067564
20
0.013959
30
0.0
11
-0.068060
21
0.011906
31
0.0
0
LINE
8
0
6
CONTINUOUS
10
-0.067627
20
0.011327
30
0.0
11
-0.067278
21
0.013711
31
0.0
0
LINE
8
0
6
CONTINUOUS
10
-0.067521
20
0.009658
30
0.0
11
-0.067627
21
0.011327
31
0.0
0
LINE
8
0
6
CONTINUOUS
10
-0.067799
20
0.009011
30
0.0
11
-0.067521
21
0.009658
31
0.0
0
LINE
8
0
6
CONTINUOUS
10
-0.067627
20
0.011327
30
0.0
11
-0.068405
21
0.009696
31
0.0
0
LINE
8
0
6
CONTINUOUS
10
-0.068405
20
0.009696
30
0.0
11
-0.067799
21
0.009011
31
0.0
0
LINE
8
0
6
CONTINUOUS
10
-0.067799
20
0.009011
30
0.0
11
-0.067627
21
0.011327
31
0.0
0
LINE
8
0
6
CONTINUOUS
10
-0.057865
20
0.009011
30
0.0
11
-0.057587
21
0.009658
31
0.0
0
LINE
8
0
6
CONTINUOUS
10
-0.058373
20
0.009058
30
0.0
11
-0.058480
21
0.008801
31
0.0
0
LINE
8
0
6
CONTINUOUS
10
-0.057587
20
0.009658
30
0.0
11
-0.058373
21
0.009058
31
0.0
0
LINE
8
0
6
CONTINUOUS
10
-0.058480
20
0.008801
30
0.0
11
-0.058034
21
0.008801
31
0.0
0
LINE
8
0
6
CONTINUOUS
10
-0.058034
20
0.008801
30
0.0
11
-0.057865
21
0.009011
31
0.0
0
LINE
8
0
6
CONTINUOUS
10
-0.057865
20
0.009011
30
0.0
11
-0.057532
21
0.009696
31
0.0
0
LINE
8
0
6
CONTINUOUS
10
-0.057587
20
0.009658
30
0.0
11
-0.057865
21
0.009011
31
0.0
0
LINE
8
0
6
CONTINUOUS
10
-0.057532
20
0.009696
30
0.0
11
-0.057587
21
0.009658
31
0.0
0
LINE
8
0
6
CONTINUOUS
10
-0.057587
20
0.009658
30
0.0
11
-0.057865
21
0.009011
31
0.0
0
LINE
8
0
6
CONTINUOUS
10
-0.057865
20
0.009011
30
0.0
11
-0.058034
21
0.008801
31
0.0
0
LINE
8
0
6
CONTINUOUS
10
-0.057532
20
0.009696
30
0.0
11
-0.057865
21
0.009011
31
0.0
0
LINE
8
0
6
CONTINUOUS
10
-0.056273
20
0.013711
30
0.0
11
-0.056839
21
0.011327
31
0.0
0
LINE
8
0
6
CONTINUOUS
10
-0.056839
20
0.011327
30
0.0
11
-0.057587
21
0.009658
31
0.0
0
LINE
8
0
6
CONTINUOUS
10
-0.056839
20
0.011327
30
0.0
11
-0.057532
21
0.009696
31
0.0
0
LINE
8
0
6
CONTINUOUS
10
-0.067071
20
0.008801
30
0.0
11
-0.058480
21
0.008801
31
0.0
0
LINE
8
0
6
CONTINUOUS
10
-0.066965
20
0.009058
30
0.0
11
-0.067071
21
0.008801
31
0.0
0
LINE
8
0
6
CONTINUOUS
10
-0.058373
20
0.009058
30
0.0
11
-0.066965
21
0.009058
31
0.0
0
LINE
8
0
6
CONTINUOUS
10
-0.058480
20
0.008801
30
0.0
11
-0.058373
21
0.009058
31
0.0
0
LINE
8
0
6
CONTINUOUS
10
-0.065221
20
0.018223
30
0.0
11
-0.066010
21
0.017565
31
0.0
0
LINE
8
0
6
CONTINUOUS
10
-0.056630
20
0.018223
30
0.0
11
-0.065221
21
0.018223
31
0.0
0
LINE
8
0
6
CONTINUOUS
10
-0.056076
20
0.017565
30
0.0
11
-0.056630
21
0.018223
31
0.0
0
LINE
8
0
6
CONTINUOUS
10
-0.066010
20
0.017565
30
0.0
11
-0.066678
21
0.016081
31
0.0
0
LINE
8
0
6
CONTINUOUS
10
-0.055963
20
0.016081
30
0.0
11
-0.056076
21
0.017565
31
0.0
0
LINE
8
0
6
CONTINUOUS
10
-0.066678
20
0.016081
30
0.0
11
-0.067278
21
0.013711
31
0.0
0
LINE
8
0
6
CONTINUOUS
10
-0.056273
20
0.013711
30
0.0
11
-0.055963
21
0.016081
31
0.0
0
LINE
8
0
6
CONTINUOUS
10
-0.067278
20
0.013711
30
0.0
11
-0.067627
21
0.011327
31
0.0
0
LINE
8
0
6
CONTINUOUS
10
-0.056839
20
0.011327
30
0.0
11
-0.056273
21
0.013711
31
0.0
0
LINE
8
0
6
CONTINUOUS
10
-0.067627
20
0.011327
30
0.0
11
-0.067521
21
0.009658
31
0.0
0
LINE
8
0
6
CONTINUOUS
10
-0.057587
20
0.009658
30
0.0
11
-0.056839
21
0.011327
31
0.0
0
LINE
8
0
6
CONTINUOUS
10
-0.066965
20
0.009058
30
0.0
11
-0.058373
21
0.009058
31
0.0
0
LINE
8
0
6
CONTINUOUS
10
-0.067521
20
0.009658
30
0.0
11
-0.066965
21
0.009058
31
0.0
0
LINE
8
0
6
CONTINUOUS
10
-0.058373
20
0.009058
30
0.0
11
-0.057587
21
0.009658
31
0.0
0
LINE
8
0
6
CONTINUOUS
10
-0.055963
20
0.016081
30
0.0
11
-0.056273
21
0.013711
31
0.0
0
LINE
8
0
6
CONTINUOUS
10
-0.055963
20
0.016081
30
0.0
11
-0.056273
21
0.013711
31
0.0
0
LINE
8
0
6
CONTINUOUS
10
-0.067564
20
0.013959
30
0.0
11
-0.067256
21
0.016275
31
0.0
0
LINE
8
0
6
CONTINUOUS
10
-0.067278
20
0.013711
30
0.0
11
-0.066678
21
0.016081
31
0.0
0
LINE
8
0
6
CONTINUOUS
10
-0.067256
20
0.016275
30
0.0
11
-0.067564
21
0.013959
31
0.0
0
LINE
8
0
6
CONTINUOUS
10
-0.066678
20
0.016081
30
0.0
11
-0.067256
21
0.016275
31
0.0
0
LINE
8
0
6
CONTINUOUS
10
-0.067564
20
0.013959
30
0.0
11
-0.066678
21
0.016081
31
0.0
0
LINE
8
0
6
CONTINUOUS
10
-0.067256
20
0.016275
30
0.0
11
-0.067564
21
0.013959
31
0.0
0
LINE
8
0
6
CONTINUOUS
10
-0.070233
20
0.008801
30
0.0
11
-0.069277
21
0.008801
31
0.0
0
LINE
8
0
6
CONTINUOUS
10
-0.067071
20
0.008801
30
0.0
11
-0.067968
21
0.008801
31
0.0
0
LINE
8
0
6
CONTINUOUS
10
-0.058480
20
0.008801
30
0.0
11
-0.067071
21
0.008801
31
0.0
0
LINE
8
0
6
CONTINUOUS
10
-0.058034
20
0.008801
30
0.0
11
-0.058480
21
0.008801
31
0.0
0
LINE
8
0
6
CONTINUOUS
10
-0.067968
20
0.008801
30
0.0
11
-0.069277
21
0.008801
31
0.0
0
LINE
8
0
6
CONTINUOUS
10
-0.069277
20
0.008801
30
0.0
11
-0.070233
21
0.008801
31
0.0
0
LINE
8
0
6
CONTINUOUS
10
-0.069512
20
0.010125
30
0.0
11
-0.070300
21
0.009801
31
0.0
0
LINE
8
0
6
CONTINUOUS
10
-0.070300
20
0.009801
30
0.0
11
-0.071640
21
0.009801
31
0.0
0
LINE
8
0
6
CONTINUOUS
10
-0.068773
20
0.010989
30
0.0
11
-0.069512
21
0.010125
31
0.0
0
LINE
8
0
6
CONTINUOUS
10
-0.068120
20
0.012429
30
0.0
11
-0.068773
21
0.010989
31
0.0
0
LINE
8
0
6
CONTINUOUS
10
-0.067628
20
0.014337
30
0.0
11
-0.068120
21
0.012429
31
0.0
0
LINE
8
0
6
CONTINUOUS
10
-0.067332
20
0.016497
30
0.0
11
-0.067628
21
0.014337
31
0.0
0
LINE
8
0
6
CONTINUOUS
10
-0.067222
20
0.018801
30
0.0
11
-0.067332
21
0.016497
31
0.0
0
LINE
8
0
6
CONTINUOUS
10
-0.070300
20
0.027801
30
0.0
11
-0.069512
21
0.027477
31
0.0
0
LINE
8
0
6
CONTINUOUS
10
-0.069512
20
0.027477
30
0.0
11
-0.068773
21
0.026613
31
0.0
0
LINE
8
0
6
CONTINUOUS
10
-0.068773
20
0.026613
30
0.0
11
-0.068120
21
0.025173
31
0.0
0
LINE
8
0
6
CONTINUOUS
10
-0.068120
20
0.025173
30
0.0
11
-0.067628
21
0.023265
31
0.0
0
LINE
8
0
6
CONTINUOUS
10
-0.067628
20
0.023265
30
0.0
11
-0.067332
21
0.021105
31
0.0
0
LINE
8
0
6
CONTINUOUS
10
-0.067332
20
0.021105
30
0.0
11
-0.067222
21
0.018816
31
0.0
0
LINE
8
0
6
CONTINUOUS
10
-0.070300
20
0.027801
30
0.0
11
-0.071640
21
0.027801
31
0.0
0
LINE
8
0
6
CONTINUOUS
10
-0.097972
20
-0.034199
30
0.0
11
-0.097821
21
-0.034199
31
0.0
0
LINE
8
0
6
CONTINUOUS
10
-0.097972
20
-0.014199
30
0.0
11
-0.097972
21
-0.034199
31
0.0
0
LINE
8
0
6
CONTINUOUS
10
-0.097821
20
-0.034199
30
0.0
11
-0.096933
21
-0.034199
31
0.0
0
LINE
8
0
6
CONTINUOUS
10
-0.096933
20
-0.034199
30
0.0
11
-0.095426
21
-0.034199
31
0.0
0
LINE
8
0
6
CONTINUOUS
10
-0.097821
20
-0.034199
30
0.0
11
-0.097972
21
-0.034199
31
0.0
0
LINE
8
0
6
CONTINUOUS
10
-0.096933
20
-0.034199
30
0.0
11
-0.097821
21
-0.034199
31
0.0
0
LINE
8
0
6
CONTINUOUS
10
-0.095426
20
-0.034199
30
0.0
11
-0.096933
21
-0.034199
31
0.0
0
LINE
8
0
6
CONTINUOUS
10
-0.079929
20
-0.034199
30
0.0
11
-0.078027
21
-0.034199
31
0.0
0
LINE
8
0
6
CONTINUOUS
10
-0.078027
20
-0.034199
30
0.0
11
-0.076683
21
-0.034199
31
0.0
0
LINE
8
0
6
CONTINUOUS
10
-0.076683
20
-0.034199
30
0.0
11
-0.076028
21
-0.034199
31
0.0
0
LINE
8
0
6
CONTINUOUS
10
-0.076028
20
-0.014199
30
0.0
11
-0.076028
21
-0.034199
31
0.0
0
LINE
8
0
6
CONTINUOUS
10
-0.078027
20
-0.034199
30
0.0
11
-0.079929
21
-0.034199
31
0.0
0
LINE
8
0
6
CONTINUOUS
10
-0.076683
20
-0.034199
30
0.0
11
-0.078027
21
-0.034199
31
0.0
0
LINE
8
0
6
CONTINUOUS
10
-0.076028
20
-0.034199
30
0.0
11
-0.076683
21
-0.034199
31
0.0
0
LINE
8
0
6
CONTINUOUS
10
-0.079929
20
-0.034199
30
0.0
11
-0.082341
21
-0.034199
31
0.0
0
LINE
8
0
6
CONTINUOUS
10
-0.082341
20
-0.034199
30
0.0
11
-0.085042
21
-0.034199
31
0.0
0
LINE
8
0
6
CONTINUOUS
10
-0.085042
20
-0.034199
30
0.0
11
-0.087960
21
-0.034199
31
0.0
0
LINE
8
0
6
CONTINUOUS
10
-0.087960
20
-0.034199
30
0.0
11
-0.090807
21
-0.034199
31
0.0
0
LINE
8
0
6
CONTINUOUS
10
-0.090807
20
-0.034199
30
0.0
11
-0.093313
21
-0.034199
31
0.0
0
LINE
8
0
6
CONTINUOUS
10
-0.093313
20
-0.034199
30
0.0
11
-0.095426
21
-0.034199
31
0.0
0
LINE
8
0
6
CONTINUOUS
10
-0.082341
20
-0.034199
30
0.0
11
-0.079929
21
-0.034199
31
0.0
0
LINE
8
0
6
CONTINUOUS
10
-0.085042
20
-0.034199
30
0.0
11
-0.082341
21
-0.034199
31
0.0
0
LINE
8
0
6
CONTINUOUS
10
-0.087960
20
-0.034199
30
0.0
11
-0.085042
21
-0.034199
31
0.0
0
LINE
8
0
6
CONTINUOUS
10
-0.090807
20
-0.034199
30
0.0
11
-0.087960
21
-0.034199
31
0.0
0
LINE
8
0
6
CONTINUOUS
10
-0.093313
20
-0.034199
30
0.0
11
-0.090807
21
-0.034199
31
0.0
0
LINE
8
0
6
CONTINUOUS
10
-0.095426
20
-0.034199
30
0.0
11
-0.093313
21
-0.034199
31
0.0
0
LINE
8
0
6
CONTINUOUS
10
-0.120953
20
-0.034199
30
0.0
11
-0.120802
21
-0.034199
31
0.0
0
LINE
8
0
6
CONTINUOUS
10
-0.120953
20
-0.014199
30
0.0
11
-0.120953
21
-0.034199
31
0.0
0
LINE
8
0
6
CONTINUOUS
10
-0.120802
20
-0.034199
30
0.0
11
-0.119914
21
-0.034199
31
0.0
0
LINE
8
0
6
CONTINUOUS
10
-0.119914
20
-0.034199
30
0.0
11
-0.118408
21
-0.034199
31
0.0
0
LINE
8
0
6
CONTINUOUS
10
-0.120802
20
-0.034199
30
0.0
11
-0.120953
21
-0.034199
31
0.0
0
LINE
8
0
6
CONTINUOUS
10
-0.119914
20
-0.034199
30
0.0
11
-0.120802
21
-0.034199
31
0.0
0
LINE
8
0
6
CONTINUOUS
10
-0.118408
20
-0.034199
30
0.0
11
-0.119914
21
-0.034199
31
0.0
0
LINE
8
0
6
CONTINUOUS
10
-0.102911
20
-0.034199
30
0.0
11
-0.101008
21
-0.034199
31
0.0
0
LINE
8
0
6
CONTINUOUS
10
-0.101008
20
-0.034199
30
0.0
11
-0.099664
21
-0.034199
31
0.0
0
LINE
8
0
6
CONTINUOUS
10
-0.099664
20
-0.034199
30
0.0
11
-0.099009
21
-0.034199
31
0.0
0
LINE
8
0
6
CONTINUOUS
10
-0.099009
20
-0.014199
30
0.0
11
-0.099009
21
-0.034199
31
0.0
0
LINE
8
0
6
CONTINUOUS
10
-0.101008
20
-0.034199
30
0.0
11
-0.102911
21
-0.034199
31
0.0
0
LINE
8
0
6
CONTINUOUS
10
-0.099664
20
-0.034199
30
0.0
11
-0.101008
21
-0.034199
31
0.0
0
LINE
8
0
6
CONTINUOUS
10
-0.099009
20
-0.034199
30
0.0
11
-0.099664
21
-0.034199
31
0.0
0
LINE
8
0
6
CONTINUOUS
10
-0.102911
20
-0.034199
30
0.0
11
-0.105322
21
-0.034199
31
0.0
0
LINE
8
0
6
CONTINUOUS
10
-0.105322
20
-0.034199
30
0.0
11
-0.108023
21
-0.034199
31
0.0
0
LINE
8
0
6
CONTINUOUS
10
-0.108023
20
-0.034199
30
0.0
11
-0.110941
21
-0.034199
31
0.0
0
LINE
8
0
6
CONTINUOUS
10
-0.110941
20
-0.034199
30
0.0
11
-0.113788
21
-0.034199
31
0.0
0
LINE
8
0
6
CONTINUOUS
10
-0.113788
20
-0.034199
30
0.0
11
-0.116294
21
-0.034199
31
0.0
0
LINE
8
0
6
CONTINUOUS
10
-0.116294
20
-0.034199
30
0.0
11
-0.118408
21
-0.034199
31
0.0
0
LINE
8
0
6
CONTINUOUS
10
-0.105322
20
-0.034199
30
0.0
11
-0.102911
21
-0.034199
31
0.0
0
LINE
8
0
6
CONTINUOUS
10
-0.108023
20
-0.034199
30
0.0
11
-0.105322
21
-0.034199
31
0.0
0
LINE
8
0
6
CONTINUOUS
10
-0.110941
20
-0.034199
30
0.0
11
-0.108023
21
-0.034199
31
0.0
0
LINE
8
0
6
CONTINUOUS
10
-0.113788
20
-0.034199
30
0.0
11
-0.110941
21
-0.034199
31
0.0
0
LINE
8
0
6
CONTINUOUS
10
-0.116294
20
-0.034199
30
0.0
11
-0.113788
21
-0.034199
31
0.0
0
LINE
8
0
6
CONTINUOUS
10
-0.118408
20
-0.034199
30
0.0
11
-0.116294
21
-0.034199
31
0.0
0
LINE
8
0
6
CONTINUOUS
10
-0.100742
20
-0.014199
30
0.0
11
-0.107315
21
-0.014199
31
0.0
0
LINE
8
0
6
CONTINUOUS
10
-0.107315
20
-0.014199
30
0.0
11
-0.113243
21
-0.014199
31
0.0
0
LINE
8
0
6
CONTINUOUS
10
-0.100810
20
-0.013310
30
0.0
11
-0.107608
21
-0.013310
31
0.0
0
LINE
8
0
6
CONTINUOUS
10
-0.107315
20
-0.014199
30
0.0
11
-0.100742
21
-0.014199
31
0.0
0
LINE
8
0
6
CONTINUOUS
10
-0.107608
20
-0.013310
30
0.0
11
-0.113750
21
-0.013310
31
0.0
0
LINE
8
0
6
CONTINUOUS
10
-0.113243
20
-0.014199
30
0.0
11
-0.107315
21
-0.014199
31
0.0
0
LINE
8
0
6
CONTINUOUS
10
-0.113750
20
-0.013310
30
0.0
11
-0.118870
21
-0.013310
31
0.0
0
LINE
8
0
6
CONTINUOUS
10
-0.107608
20
-0.013310
30
0.0
11
-0.100810
21
-0.013310
31
0.0
0
LINE
8
0
6
CONTINUOUS
10
-0.113750
20
-0.013310
30
0.0
11
-0.107608
21
-0.013310
31
0.0
0
LINE
8
0
6
CONTINUOUS
10
-0.118870
20
-0.013310
30
0.0
11
-0.113750
21
-0.013310
31
0.0
0
LINE
8
0
6
CONTINUOUS
10
-0.094002
20
-0.014199
30
0.0
11
-0.100742
21
-0.014199
31
0.0
0
LINE
8
0
6
CONTINUOUS
10
-0.087623
20
-0.014199
30
0.0
11
-0.094002
21
-0.014199
31
0.0
0
LINE
8
0
6
CONTINUOUS
10
-0.081901
20
-0.014199
30
0.0
11
-0.087623
21
-0.014199
31
0.0
0
LINE
8
0
6
CONTINUOUS
10
-0.100742
20
-0.014199
30
0.0
11
-0.094002
21
-0.014199
31
0.0
0
LINE
8
0
6
CONTINUOUS
10
-0.093847
20
-0.013310
30
0.0
11
-0.100810
21
-0.013310
31
0.0
0
LINE
8
0
6
CONTINUOUS
10
-0.094002
20
-0.014199
30
0.0
11
-0.087623
21
-0.014199
31
0.0
0
LINE
8
0
6
CONTINUOUS
10
-0.087235
20
-0.013310
30
0.0
11
-0.093847
21
-0.013310
31
0.0
0
LINE
8
0
6
CONTINUOUS
10
-0.087623
20
-0.014199
30
0.0
11
-0.081901
21
-0.014199
31
0.0
0
LINE
8
0
6
CONTINUOUS
10
-0.081391
20
-0.013310
30
0.0
11
-0.087235
21
-0.013310
31
0.0
0
LINE
8
0
6
CONTINUOUS
10
-0.100810
20
-0.013310
30
0.0
11
-0.093847
21
-0.013310
31
0.0
0
LINE
8
0
6
CONTINUOUS
10
-0.093847
20
-0.013310
30
0.0
11
-0.087235
21
-0.013310
31
0.0
0
LINE
8
0
6
CONTINUOUS
10
-0.087235
20
-0.013310
30
0.0
11
-0.081391
21
-0.013310
31
0.0
0
LINE
8
0
6
CONTINUOUS
10
-0.072759
20
-0.014199
30
0.0
11
-0.074292
21
-0.014199
31
0.0
0
LINE
8
0
6
CONTINUOUS
10
-0.076028
20
-0.014199
30
0.0
11
-0.077404
21
-0.014199
31
0.0
0
LINE
8
0
6
CONTINUOUS
10
-0.077595
20
-0.014199
30
0.0
11
-0.081901
21
-0.014199
31
0.0
0
LINE
8
0
6
CONTINUOUS
10
-0.071975
20
-0.013310
30
0.0
11
-0.073528
21
-0.013310
31
0.0
0
LINE
8
0
6
CONTINUOUS
10
-0.072759
20
-0.014199
30
0.0
11
-0.071975
21
-0.013310
31
0.0
0
LINE
8
0
6
CONTINUOUS
10
-0.074292
20
-0.014199
30
0.0
11
-0.072759
21
-0.014199
31
0.0
0
LINE
8
0
6
CONTINUOUS
10
-0.073528
20
-0.013310
30
0.0
11
-0.076771
21
-0.013310
31
0.0
0
LINE
8
0
6
CONTINUOUS
10
-0.077404
20
-0.014199
30
0.0
11
-0.074292
21
-0.014199
31
0.0
0
LINE
8
0
6
CONTINUOUS
10
-0.076771
20
-0.013310
30
0.0
11
-0.081391
21
-0.013310
31
0.0
0
LINE
8
0
6
CONTINUOUS
10
-0.081901
20
-0.014199
30
0.0
11
-0.077404
21
-0.014199
31
0.0
0
LINE
8
0
6
CONTINUOUS
10
-0.071975
20
-0.013310
30
0.0
11
-0.071640
21
-0.011531
31
0.0
0
LINE
8
0
6
CONTINUOUS
10
-0.073528
20
-0.013310
30
0.0
11
-0.071975
21
-0.013310
31
0.0
0
LINE
8
0
6
CONTINUOUS
10
-0.076771
20
-0.013310
30
0.0
11
-0.073528
21
-0.013310
31
0.0
0
LINE
8
0
6
CONTINUOUS
10
-0.081391
20
-0.013310
30
0.0
11
-0.076771
21
-0.013310
31
0.0
0
LINE
8
0
6
CONTINUOUS
10
-0.071640
20
-0.011531
30
0.0
11
-0.071640
21
0.045801
31
0.0
0
LINE
8
0
6
CONTINUOUS
10
-0.071640
20
0.051801
30
0.0
11
-0.071640
21
0.068801
31
0.0
0
LINE
8
0
6
CONTINUOUS
10
-0.082978
20
0.068801
30
0.0
11
-0.077807
21
0.068801
31
0.0
0
LINE
8
0
6
CONTINUOUS
10
-0.123854
20
-0.014199
30
0.0
11
-0.124222
21
-0.014199
31
0.0
0
LINE
8
0
6
CONTINUOUS
10
-0.121819
20
-0.014199
30
0.0
11
-0.123854
21
-0.014199
31
0.0
0
LINE
8
0
6
CONTINUOUS
10
-0.119386
20
-0.014199
30
0.0
11
-0.121819
21
-0.014199
31
0.0
0
LINE
8
0
6
CONTINUOUS
10
-0.124222
20
-0.014199
30
0.0
11
-0.123854
21
-0.014199
31
0.0
0
LINE
8
0
6
CONTINUOUS
10
-0.125006
20
-0.013310
30
0.0
11
-0.124222
21
-0.014199
31
0.0
0
LINE
8
0
6
CONTINUOUS
10
-0.123854
20
-0.014199
30
0.0
11
-0.121819
21
-0.014199
31
0.0
0
LINE
8
0
6
CONTINUOUS
10
-0.122529
20
-0.013310
30
0.0
11
-0.124657
21
-0.013310
31
0.0
0
LINE
8
0
6
CONTINUOUS
10
-0.121819
20
-0.014199
30
0.0
11
-0.119386
21
-0.014199
31
0.0
0
LINE
8
0
6
CONTINUOUS
10
-0.118870
20
-0.013310
30
0.0
11
-0.122529
21
-0.013310
31
0.0
0
LINE
8
0
6
CONTINUOUS
10
-0.125006
20
-0.013310
30
0.0
11
-0.124657
21
-0.013310
31
0.0
0
LINE
8
0
6
CONTINUOUS
10
-0.125341
20
-0.011531
30
0.0
11
-0.125006
21
-0.013310
31
0.0
0
LINE
8
0
6
CONTINUOUS
10
-0.124657
20
-0.013310
30
0.0
11
-0.122529
21
-0.013310
31
0.0
0
LINE
8
0
6
CONTINUOUS
10
-0.122529
20
-0.013310
30
0.0
11
-0.118870
21
-0.013310
31
0.0
0
LINE
8
0
6
CONTINUOUS
10
-0.125341
20
0.068801
30
0.0
11
-0.125341
21
0.062801
31
0.0
0
LINE
8
0
6
CONTINUOUS
10
-0.125341
20
0.040801
30
0.0
11
-0.125341
21
-0.011531
31
0.0
0
LINE
8
0
6
CONTINUOUS
10
-0.013789
20
-0.024030
30
0.0
11
-0.010664
21
-0.024695
31
0.0
0
LINE
8
0
6
CONTINUOUS
10
-0.016705
20
-0.023612
30
0.0
11
-0.013789
21
-0.024030
31
0.0
0
LINE
8
0
6
CONTINUOUS
10
-0.019279
20
-0.023456
30
0.0
11
-0.016705
21
-0.023612
31
0.0
0
LINE
8
0
6
CONTINUOUS
10
-0.010664
20
-0.024695
30
0.0
11
-0.013789
21
-0.024030
31
0.0
0
LINE
8
0
6
CONTINUOUS
10
-0.013790
20
-0.023558
30
0.0
11
-0.010561
21
-0.024250
31
0.0
0
LINE
8
0
6
CONTINUOUS
10
-0.013789
20
-0.024030
30
0.0
11
-0.016705
21
-0.023612
31
0.0
0
LINE
8
0
6
CONTINUOUS
10
-0.016812
20
-0.023128
30
0.0
11
-0.013790
21
-0.023558
31
0.0
0
LINE
8
0
6
CONTINUOUS
10
-0.016705
20
-0.023612
30
0.0
11
-0.019279
21
-0.023456
31
0.0
0
LINE
8
0
6
CONTINUOUS
10
-0.019440
20
-0.022971
30
0.0
11
-0.016812
21
-0.023128
31
0.0
0
LINE
8
0
6
CONTINUOUS
10
-0.010561
20
-0.024250
30
0.0
11
-0.013790
21
-0.023558
31
0.0
0
LINE
8
0
6
CONTINUOUS
10
-0.013790
20
-0.023558
30
0.0
11
-0.016812
21
-0.023128
31
0.0
0
LINE
8
0
6
CONTINUOUS
10
-0.016812
20
-0.023128
30
0.0
11
-0.019440
21
-0.022971
31
0.0
0
LINE
8
0
6
CONTINUOUS
10
-0.000442
20
0.028801
30
0.0
11
0.003020
21
0.028801
31
0.0
0
LINE
8
0
6
CONTINUOUS
10
-0.006325
20
0.028801
30
0.0
11
-0.003630
21
0.028801
31
0.0
0
LINE
8
0
6
CONTINUOUS
10
0.000937
20
-0.030697
30
0.0
11
0.000385
21
-0.031362
31
0.0
0
LINE
8
0
6
CONTINUOUS
10
0.000385
20
-0.031362
30
0.0
11
-0.000793
21
-0.031740
31
0.0
0
LINE
8
0
6
CONTINUOUS
10
0.001393
20
-0.030434
30
0.0
11
0.000838
21
-0.031125
31
0.0
0
LINE
8
0
6
CONTINUOUS
10
0.000385
20
-0.031362
30
0.0
11
0.000937
21
-0.030697
31
0.0
0
LINE
8
0
6
CONTINUOUS
10
0.000385
20
-0.031362
30
0.0
11
0.000838
21
-0.031125
31
0.0
0
LINE
8
0
6
CONTINUOUS
10
-0.000793
20
-0.031740
30
0.0
11
0.000385
21
-0.031362
31
0.0
0
LINE
8
0
6
CONTINUOUS
10
0.000838
20
-0.031125
30
0.0
11
0.001393
21
-0.030434
31
0.0
0
LINE
8
0
6
CONTINUOUS
10
0.000601
20
-0.029810
30
0.0
11
0.000937
21
-0.030697
31
0.0
0
LINE
8
0
6
CONTINUOUS
10
-0.000501
20
-0.028792
30
0.0
11
0.000601
21
-0.029810
31
0.0
0
LINE
8
0
6
CONTINUOUS
10
-0.002295
20
-0.027696
30
0.0
11
-0.000501
21
-0.028792
31
0.0
0
LINE
8
0
6
CONTINUOUS
10
0.000937
20
-0.030697
30
0.0
11
0.000601
21
-0.029810
31
0.0
0
LINE
8
0
6
CONTINUOUS
10
0.001061
20
-0.029520
30
0.0
11
0.001393
21
-0.030434
31
0.0
0
LINE
8
0
6
CONTINUOUS
10
0.000601
20
-0.029810
30
0.0
11
-0.000501
21
-0.028792
31
0.0
0
LINE
8
0
6
CONTINUOUS
10
-0.000090
20
-0.028464
30
0.0
11
0.001061
21
-0.029520
31
0.0
0
LINE
8
0
6
CONTINUOUS
10
-0.000501
20
-0.028792
30
0.0
11
-0.002295
21
-0.027696
31
0.0
0
LINE
8
0
6
CONTINUOUS
10
-0.001934
20
-0.027342
30
0.0
11
-0.000090
21
-0.028464
31
0.0
0
LINE
8
0
6
CONTINUOUS
10
0.001393
20
-0.030434
30
0.0
11
0.001061
21
-0.029520
31
0.0
0
LINE
8
0
6
CONTINUOUS
10
0.001732
20
-0.029764
30
0.0
11
0.001393
21
-0.030434
31
0.0
0
LINE
8
0
6
CONTINUOUS
10
0.001061
20
-0.029520
30
0.0
11
-0.000090
21
-0.028464
31
0.0
0
LINE
8
0
6
CONTINUOUS
10
-0.000090
20
-0.028464
30
0.0
11
-0.001934
21
-0.027342
31
0.0
0
LINE
8
0
6
CONTINUOUS
10
0.003670
20
-0.022199
30
0.0
11
0.001732
21
-0.029764
31
0.0
0
LINE
8
0
6
CONTINUOUS
10
-0.010664
20
-0.024695
30
0.0
11
-0.007571
21
-0.025582
31
0.0
0
LINE
8
0
6
CONTINUOUS
10
-0.007571
20
-0.025582
30
0.0
11
-0.004738
21
-0.026600
31
0.0
0
LINE
8
0
6
CONTINUOUS
10
-0.004738
20
-0.026600
30
0.0
11
-0.002295
21
-0.027696
31
0.0
0
LINE
8
0
6
CONTINUOUS
10
-0.010561
20
-0.024250
30
0.0
11
-0.007363
21
-0.025163
31
0.0
0
LINE
8
0
6
CONTINUOUS
10
-0.007571
20
-0.025582
30
0.0
11
-0.010664
21
-0.024695
31
0.0
0
LINE
8
0
6
CONTINUOUS
10
-0.007363
20
-0.025163
30
0.0
11
-0.004427
21
-0.026220
31
0.0
0
LINE
8
0
6
CONTINUOUS
10
-0.004738
20
-0.026600
30
0.0
11
-0.007571
21
-0.025582
31
0.0
0
LINE
8
0
6
CONTINUOUS
10
-0.004427
20
-0.026220
30
0.0
11
-0.001934
21
-0.027342
31
0.0
0
LINE
8
0
6
CONTINUOUS
10
-0.002295
20
-0.027696
30
0.0
11
-0.004738
21
-0.026600
31
0.0
0
LINE
8
0
6
CONTINUOUS
10
-0.007363
20
-0.025163
30
0.0
11
-0.010561
21
-0.024250
31
0.0
0
LINE
8
0
6
CONTINUOUS
10
-0.004427
20
-0.026220
30
0.0
11
-0.007363
21
-0.025163
31
0.0
0
LINE
8
0
6
CONTINUOUS
10
-0.001934
20
-0.027342
30
0.0
11
-0.004427
21
-0.026220
31
0.0
0
LINE
8
0
6
CONTINUOUS
10
-0.023101
20
-0.024695
30
0.0
11
-0.022549
21
-0.024030
31
0.0
0
LINE
8
0
6
CONTINUOUS
10
-0.022549
20
-0.024030
30
0.0
11
-0.021247
21
-0.023612
31
0.0
0
LINE
8
0
6
CONTINUOUS
10
-0.021247
20
-0.023612
30
0.0
11
-0.019279
21
-0.023456
31
0.0
0
LINE
8
0
6
CONTINUOUS
10
-0.023376
20
-0.024250
30
0.0
11
-0.022820
21
-0.023558
31
0.0
0
LINE
8
0
6
CONTINUOUS
10
-0.022549
20
-0.024030
30
0.0
11
-0.023101
21
-0.024695
31
0.0
0
LINE
8
0
6
CONTINUOUS
10
-0.022820
20
-0.023558
30
0.0
11
-0.021463
21
-0.023128
31
0.0
0
LINE
8
0
6
CONTINUOUS
10
-0.021247
20
-0.023612
30
0.0
11
-0.022549
21
-0.024030
31
0.0
0
LINE
8
0
6
CONTINUOUS
10
-0.021463
20
-0.023128
30
0.0
11
-0.019440
21
-0.022971
31
0.0
0
LINE
8
0
6
CONTINUOUS
10
-0.019279
20
-0.023456
30
0.0
11
-0.021247
21
-0.023612
31
0.0
0
LINE
8
0
6
CONTINUOUS
10
-0.022820
20
-0.023558
30
0.0
11
-0.023376
21
-0.024250
31
0.0
0
LINE
8
0
6
CONTINUOUS
10
-0.021463
20
-0.023128
30
0.0
11
-0.022820
21
-0.023558
31
0.0
0
LINE
8
0
6
CONTINUOUS
10
-0.019440
20
-0.022971
30
0.0
11
-0.021463
21
-0.023128
31
0.0
0
LINE
8
0
6
CONTINUOUS
10
-0.022765
20
-0.025582
30
0.0
11
-0.023101
21
-0.024695
31
0.0
0
LINE
8
0
6
CONTINUOUS
10
-0.022037
20
-0.026254
30
0.0
11
-0.022765
21
-0.025582
31
0.0
0
LINE
8
0
6
CONTINUOUS
10
-0.023101
20
-0.024695
30
0.0
11
-0.022765
21
-0.025582
31
0.0
0
LINE
8
0
6
CONTINUOUS
10
-0.023044
20
-0.025163
30
0.0
11
-0.023376
21
-0.024250
31
0.0
0
LINE
8
0
6
CONTINUOUS
10
-0.022765
20
-0.025582
30
0.0
11
-0.022037
21
-0.026254
31
0.0
0
LINE
8
0
6
CONTINUOUS
10
-0.023044
20
-0.025163
30
0.0
11
-0.022765
21
-0.025582
31
0.0
0
LINE
8
0
6
CONTINUOUS
10
-0.023351
20
-0.023501
30
0.0
11
-0.023376
21
-0.024250
31
0.0
0
LINE
8
0
6
CONTINUOUS
10
-0.009957
20
0.028801
30
0.0
11
-0.023351
21
-0.023501
31
0.0
0
LINE
8
0
6
CONTINUOUS
10
0.003752
20
0.028801
30
0.0
11
0.000264
21
0.028801
31
0.0
0
LINE
8
0
6
CONTINUOUS
10
-0.002997
20
0.028801
30
0.0
11
-0.005806
21
0.028801
31
0.0
0
LINE
8
0
6
CONTINUOUS
10
-0.020718
20
-0.047269
30
0.0
11
-0.022551
21
-0.046446
31
0.0
0
LINE
8
0
6
CONTINUOUS
10
-0.018586
20
-0.048041
30
0.0
11
-0.020718
21
-0.047269
31
0.0
0
LINE
8
0
6
CONTINUOUS
10
-0.016201
20
-0.048723
30
0.0
11
-0.018586
21
-0.048041
31
0.0
0
LINE
8
0
6
CONTINUOUS
10
-0.013792
20
-0.049238
30
0.0
11
-0.016201
21
-0.048723
31
0.0
0
LINE
8
0
6
CONTINUOUS
10
-0.011595
20
-0.049547
30
0.0
11
-0.013792
21
-0.049238
31
0.0
0
LINE
8
0
6
CONTINUOUS
10
-0.009664
20
-0.049663
30
0.0
11
-0.011595
21
-0.049547
31
0.0
0
LINE
8
0
6
CONTINUOUS
10
-0.023662
20
-0.046446
30
0.0
11
-0.021524
21
-0.047407
31
0.0
0
LINE
8
0
6
CONTINUOUS
10
-0.021524
20
-0.047407
30
0.0
11
-0.019036
21
-0.048307
31
0.0
0
LINE
8
0
6
CONTINUOUS
10
-0.019036
20
-0.048307
30
0.0
11
-0.016254
21
-0.049103
31
0.0
0
LINE
8
0
6
CONTINUOUS
10
-0.016254
20
-0.049103
30
0.0
11
-0.013444
21
-0.049704
31
0.0
0
LINE
8
0
6
CONTINUOUS
10
-0.013444
20
-0.049704
30
0.0
11
-0.010880
21
-0.050064
31
0.0
0
LINE
8
0
6
CONTINUOUS
10
-0.010880
20
-0.050064
30
0.0
11
-0.008628
21
-0.050199
31
0.0
0
LINE
8
0
6
CONTINUOUS
10
-0.022551
20
-0.046446
30
0.0
11
-0.020718
21
-0.047269
31
0.0
0
LINE
8
0
6
CONTINUOUS
10
-0.021524
20
-0.047407
30
0.0
11
-0.023662
21
-0.046446
31
0.0
0
LINE
8
0
6
CONTINUOUS
10
-0.020718
20
-0.047269
30
0.0
11
-0.018586
21
-0.048041
31
0.0
0
LINE
8
0
6
CONTINUOUS
10
-0.019036
20
-0.048307
30
0.0
11
-0.021524
21
-0.047407
31
0.0
0
LINE
8
0
6
CONTINUOUS
10
-0.018586
20
-0.048041
30
0.0
11
-0.016201
21
-0.048723
31
0.0
0
LINE
8
0
6
CONTINUOUS
10
-0.016254
20
-0.049103
30
0.0
11
-0.019036
21
-0.048307
31
0.0
0
LINE
8
0
6
CONTINUOUS
10
-0.016201
20
-0.048723
30
0.0
11
-0.013792
21
-0.049238
31
0.0
0
LINE
8
0
6
CONTINUOUS
10
-0.013444
20
-0.049704
30
0.0
11
-0.016254
21
-0.049103
31
0.0
0
LINE
8
0
6
CONTINUOUS
10
-0.013792
20
-0.049238
30
0.0
11
-0.011595
21
-0.049547
31
0.0
0
LINE
8
0
6
CONTINUOUS
10
-0.010880
20
-0.050064
30
0.0
11
-0.013444
21
-0.049704
31
0.0
0
LINE
8
0
6
CONTINUOUS
10
-0.011595
20
-0.049547
30
0.0
11
-0.009664
21
-0.049663
31
0.0
0
LINE
8
0
6
CONTINUOUS
10
-0.008628
20
-0.050199
30
0.0
11
-0.010880
21
-0.050064
31
0.0
0
LINE
8
0
6
CONTINUOUS
10
-0.023662
20
-0.046446
30
0.0
11
-0.025239
21
-0.045485
31
0.0
0
LINE
8
0
6
CONTINUOUS
10
-0.023903
20
-0.045622
30
0.0
11
-0.022551
21
-0.046446
31
0.0
0
LINE
8
0
6
CONTINUOUS
10
-0.025239
20
-0.045485
30
0.0
11
-0.026234
21
-0.044584
31
0.0
0
LINE
8
0
6
CONTINUOUS
10
-0.024755
20
-0.044850
30
0.0
11
-0.023903
21
-0.045622
31
0.0
0
LINE
8
0
6
CONTINUOUS
10
-0.026234
20
-0.044584
30
0.0
11
-0.026528
21
-0.043788
31
0.0
0
LINE
8
0
6
CONTINUOUS
10
-0.025007
20
-0.044168
30
0.0
11
-0.024755
21
-0.044850
31
0.0
0
LINE
8
0
6
CONTINUOUS
10
-0.026528
20
-0.043788
30
0.0
11
-0.026039
21
-0.043188
31
0.0
0
LINE
8
0
6
CONTINUOUS
10
-0.024589
20
-0.043653
30
0.0
11
-0.025007
21
-0.044168
31
0.0
0
LINE
8
0
6
CONTINUOUS
10
-0.026039
20
-0.043188
30
0.0
11
-0.024869
21
-0.042827
31
0.0
0
LINE
8
0
6
CONTINUOUS
10
-0.023586
20
-0.043344
30
0.0
11
-0.024589
21
-0.043653
31
0.0
0
LINE
8
0
6
CONTINUOUS
10
-0.024869
20
-0.042827
30
0.0
11
-0.023139
21
-0.042692
31
0.0
0
LINE
8
0
6
CONTINUOUS
10
-0.022103
20
-0.043228
30
0.0
11
-0.023586
21
-0.043344
31
0.0
0
LINE
8
0
6
CONTINUOUS
10
-0.021238
20
-0.024438
30
0.0
11
-0.021726
21
-0.025039
31
0.0
0
LINE
8
0
6
CONTINUOUS
10
-0.020068
20
-0.024078
30
0.0
11
-0.021238
21
-0.024438
31
0.0
0
LINE
8
0
6
CONTINUOUS
10
-0.018338
20
-0.023943
30
0.0
11
-0.020068
21
-0.024078
31
0.0
0
LINE
8
0
6
CONTINUOUS
10
-0.022551
20
-0.046446
30
0.0
11
-0.023903
21
-0.045622
31
0.0
0
LINE
8
0
6
CONTINUOUS
10
-0.023903
20
-0.045622
30
0.0
11
-0.024755
21
-0.044850
31
0.0
0
LINE
8
0
6
CONTINUOUS
10
-0.024755
20
-0.044850
30
0.0
11
-0.025007
21
-0.044168
31
0.0
0
LINE
8
0
6
CONTINUOUS
10
-0.025007
20
-0.044168
30
0.0
11
-0.024589
21
-0.043653
31
0.0
0
LINE
8
0
6
CONTINUOUS
10
-0.024589
20
-0.043653
30
0.0
11
-0.023586
21
-0.043344
31
0.0
0
LINE
8
0
6
CONTINUOUS
10
-0.023586
20
-0.043344
30
0.0
11
-0.022103
21
-0.043228
31
0.0
0
LINE
8
0
6
CONTINUOUS
10
-0.025239
20
-0.045485
30
0.0
11
-0.023662
21
-0.046446
31
0.0
0
LINE
8
0
6
CONTINUOUS
10
-0.026234
20
-0.044584
30
0.0
11
-0.025239
21
-0.045485
31
0.0
0
LINE
8
0
6
CONTINUOUS
10
-0.026528
20
-0.043788
30
0.0
11
-0.026234
21
-0.044584
31
0.0
0
LINE
8
0
6
CONTINUOUS
10
-0.021726
20
-0.025039
30
0.0
11
-0.021238
21
-0.024438
31
0.0
0
LINE
8
0
6
CONTINUOUS
10
-0.026528
20
-0.043788
30
0.0
11
-0.021726
21
-0.025039
31
0.0
0
LINE
8
0
6
CONTINUOUS
10
-0.026039
20
-0.043188
30
0.0
11
-0.026528
21
-0.043788
31
0.0
0
LINE
8
0
6
CONTINUOUS
10
-0.021238
20
-0.024438
30
0.0
11
-0.020068
21
-0.024078
31
0.0
0
LINE
8
0
6
CONTINUOUS
10
-0.024869
20
-0.042827
30
0.0
11
-0.026039
21
-0.043188
31
0.0
0
LINE
8
0
6
CONTINUOUS
10
-0.020068
20
-0.024078
30
0.0
11
-0.018338
21
-0.023943
31
0.0
0
LINE
8
0
6
CONTINUOUS
10
-0.023139
20
-0.042692
30
0.0
11
-0.024869
21
-0.042827
31
0.0
0
LINE
8
0
6
CONTINUOUS
10
-0.011049
20
-0.045622
30
0.0
11
-0.009217
21
-0.046446
31
0.0
0
LINE
8
0
6
CONTINUOUS
10
-0.013181
20
-0.044850
30
0.0
11
-0.011049
21
-0.045622
31
0.0
0
LINE
8
0
6
CONTINUOUS
10
-0.015567
20
-0.044168
30
0.0
11
-0.013181
21
-0.044850
31
0.0
0
LINE
8
0
6
CONTINUOUS
10
-0.017975
20
-0.043653
30
0.0
11
-0.015567
21
-0.044168
31
0.0
0
LINE
8
0
6
CONTINUOUS
10
-0.020172
20
-0.043344
30
0.0
11
-0.017975
21
-0.043653
31
0.0
0
LINE
8
0
6
CONTINUOUS
10
-0.022103
20
-0.043228
30
0.0
11
-0.020172
21
-0.043344
31
0.0
0
LINE
8
0
6
CONTINUOUS
10
-0.005441
20
-0.026735
30
0.0
11
-0.003304
21
-0.027696
31
0.0
0
LINE
8
0
6
CONTINUOUS
10
-0.008105
20
-0.046446
30
0.0
11
-0.010243
21
-0.045485
31
0.0
0
LINE
8
0
6
CONTINUOUS
10
-0.007929
20
-0.025834
30
0.0
11
-0.005441
21
-0.026735
31
0.0
0
LINE
8
0
6
CONTINUOUS
10
-0.010243
20
-0.045485
30
0.0
11
-0.012731
21
-0.044584
31
0.0
0
LINE
8
0
6
CONTINUOUS
10
-0.010712
20
-0.025039
30
0.0
11
-0.007929
21
-0.025834
31
0.0
0
LINE
8
0
6
CONTINUOUS
10
-0.012731
20
-0.044584
30
0.0
11
-0.015514
21
-0.043788
31
0.0
0
LINE
8
0
6
CONTINUOUS
10
-0.013522
20
-0.024438
30
0.0
11
-0.010712
21
-0.025039
31
0.0
0
LINE
8
0
6
CONTINUOUS
10
-0.015514
20
-0.043788
30
0.0
11
-0.018323
21
-0.043188
31
0.0
0
LINE
8
0
6
CONTINUOUS
10
-0.016085
20
-0.024078
30
0.0
11
-0.013522
21
-0.024438
31
0.0
0
LINE
8
0
6
CONTINUOUS
10
-0.018323
20
-0.043188
30
0.0
11
-0.020887
21
-0.042827
31
0.0
0
LINE
8
0
6
CONTINUOUS
10
-0.018338
20
-0.023943
30
0.0
11
-0.016085
21
-0.024078
31
0.0
0
LINE
8
0
6
CONTINUOUS
10
-0.020887
20
-0.042827
30
0.0
11
-0.023139
21
-0.042692
31
0.0
0
LINE
8
0
6
CONTINUOUS
10
-0.003304
20
-0.027696
30
0.0
11
-0.005441
21
-0.026735
31
0.0
0
LINE
8
0
6
CONTINUOUS
10
-0.005441
20
-0.026735
30
0.0
11
-0.007929
21
-0.025834
31
0.0
0
LINE
8
0
6
CONTINUOUS
10
-0.007929
20
-0.025834
30
0.0
11
-0.010712
21
-0.025039
31
0.0
0
LINE
8
0
6
CONTINUOUS
10
-0.010712
20
-0.025039
30
0.0
11
-0.013522
21
-0.024438
31
0.0
0
LINE
8
0
6
CONTINUOUS
10
-0.013522
20
-0.024438
30
0.0
11
-0.016085
21
-0.024078
31
0.0
0
LINE
8
0
6
CONTINUOUS
10
-0.016085
20
-0.024078
30
0.0
11
-0.018338
21
-0.023943
31
0.0
0
LINE
8
0
6
CONTINUOUS
10
-0.009217
20
-0.046446
30
0.0
11
-0.011049
21
-0.045622
31
0.0
0
LINE
8
0
6
CONTINUOUS
10
-0.010243
20
-0.045485
30
0.0
11
-0.008105
21
-0.046446
31
0.0
0
LINE
8
0
6
CONTINUOUS
10
-0.011049
20
-0.045622
30
0.0
11
-0.013181
21
-0.044850
31
0.0
0
LINE
8
0
6
CONTINUOUS
10
-0.012731
20
-0.044584
30
0.0
11
-0.010243
21
-0.045485
31
0.0
0
LINE
8
0
6
CONTINUOUS
10
-0.013181
20
-0.044850
30
0.0
11
-0.015567
21
-0.044168
31
0.0
0
LINE
8
0
6
CONTINUOUS
10
-0.015514
20
-0.043788
30
0.0
11
-0.012731
21
-0.044584
31
0.0
0
LINE
8
0
6
CONTINUOUS
10
-0.015567
20
-0.044168
30
0.0
11
-0.017975
21
-0.043653
31
0.0
0
LINE
8
0
6
CONTINUOUS
10
-0.018323
20
-0.043188
30
0.0
11
-0.015514
21
-0.043788
31
0.0
0
LINE
8
0
6
CONTINUOUS
10
-0.017975
20
-0.043653
30
0.0
11
-0.020172
21
-0.043344
31
0.0
0
LINE
8
0
6
CONTINUOUS
10
-0.020887
20
-0.042827
30
0.0
11
-0.018323
21
-0.043188
31
0.0
0
LINE
8
0
6
CONTINUOUS
10
-0.020172
20
-0.043344
30
0.0
11
-0.022103
21
-0.043228
31
0.0
0
LINE
8
0
6
CONTINUOUS
10
-0.023139
20
-0.042692
30
0.0
11
-0.020887
21
-0.042827
31
0.0
0
LINE
8
0
6
CONTINUOUS
10
-0.008105
20
-0.046446
30
0.0
11
-0.006528
21
-0.047407
31
0.0
0
LINE
8
0
6
CONTINUOUS
10
-0.007865
20
-0.047269
30
0.0
11
-0.009217
21
-0.046446
31
0.0
0
LINE
8
0
6
CONTINUOUS
10
-0.006528
20
-0.047407
30
0.0
11
-0.005533
21
-0.048307
31
0.0
0
LINE
8
0
6
CONTINUOUS
10
-0.007012
20
-0.048041
30
0.0
11
-0.007865
21
-0.047269
31
0.0
0
LINE
8
0
6
CONTINUOUS
10
-0.005533
20
-0.048307
30
0.0
11
-0.005240
21
-0.049103
31
0.0
0
LINE
8
0
6
CONTINUOUS
10
-0.006760
20
-0.048723
30
0.0
11
-0.007012
21
-0.048041
31
0.0
0
LINE
8
0
6
CONTINUOUS
10
-0.005240
20
-0.049103
30
0.0
11
-0.005728
21
-0.049704
31
0.0
0
LINE
8
0
6
CONTINUOUS
10
-0.007179
20
-0.049238
30
0.0
11
-0.006760
21
-0.048723
31
0.0
0
LINE
8
0
6
CONTINUOUS
10
-0.005728
20
-0.049704
30
0.0
11
-0.006898
21
-0.050064
31
0.0
0
LINE
8
0
6
CONTINUOUS
10
-0.008182
20
-0.049547
30
0.0
11
-0.007179
21
-0.049238
31
0.0
0
LINE
8
0
6
CONTINUOUS
10
-0.006898
20
-0.050064
30
0.0
11
-0.008628
21
-0.050199
31
0.0
0
LINE
8
0
6
CONTINUOUS
10
-0.009664
20
-0.049663
30
0.0
11
-0.008182
21
-0.049547
31
0.0
0
LINE
8
0
6
CONTINUOUS
10
-0.001726
20
-0.028657
30
0.0
11
-0.003304
21
-0.027696
31
0.0
0
LINE
8
0
6
CONTINUOUS
10
-0.000732
20
-0.029558
30
0.0
11
-0.001726
21
-0.028657
31
0.0
0
LINE
8
0
6
CONTINUOUS
10
-0.000438
20
-0.030353
30
0.0
11
-0.000732
21
-0.029558
31
0.0
0
LINE
8
0
6
CONTINUOUS
10
-0.009217
20
-0.046446
30
0.0
11
-0.007865
21
-0.047269
31
0.0
0
LINE
8
0
6
CONTINUOUS
10
-0.007865
20
-0.047269
30
0.0
11
-0.007012
21
-0.048041
31
0.0
0
LINE
8
0
6
CONTINUOUS
10
-0.007012
20
-0.048041
30
0.0
11
-0.006760
21
-0.048723
31
0.0
0
LINE
8
0
6
CONTINUOUS
10
-0.006760
20
-0.048723
30
0.0
11
-0.007179
21
-0.049238
31
0.0
0
LINE
8
0
6
CONTINUOUS
10
-0.007179
20
-0.049238
30
0.0
11
-0.008182
21
-0.049547
31
0.0
0
LINE
8
0
6
CONTINUOUS
10
-0.008182
20
-0.049547
30
0.0
11
-0.009664
21
-0.049663
31
0.0
0
LINE
8
0
6
CONTINUOUS
10
-0.006528
20
-0.047407
30
0.0
11
-0.008105
21
-0.046446
31
0.0
0
LINE
8
0
6
CONTINUOUS
10
-0.003304
20
-0.027696
30
0.0
11
-0.001726
21
-0.028657
31
0.0
0
LINE
8
0
6
CONTINUOUS
10
-0.001726
20
-0.028657
30
0.0
11
-0.000732
21
-0.029558
31
0.0
0
LINE
8
0
6
CONTINUOUS
10
-0.005533
20
-0.048307
30
0.0
11
-0.006528
21
-0.047407
31
0.0
0
LINE
8
0
6
CONTINUOUS
10
-0.000732
20
-0.029558
30
0.0
11
-0.000438
21
-0.030353
31
0.0
0
LINE
8
0
6
CONTINUOUS
10
-0.005240
20
-0.049103
30
0.0
11
-0.005533
21
-0.048307
31
0.0
0
LINE
8
0
6
CONTINUOUS
10
-0.005240
20
-0.049103
30
0.0
11
-0.000438
21
-0.030353
31
0.0
0
LINE
8
0
6
CONTINUOUS
10
-0.005728
20
-0.049704
30
0.0
11
-0.005240
21
-0.049103
31
0.0
0
LINE
8
0
6
CONTINUOUS
10
-0.006898
20
-0.050064
30
0.0
11
-0.005728
21
-0.049704
31
0.0
0
LINE
8
0
6
CONTINUOUS
10
-0.008628
20
-0.050199
30
0.0
11
-0.006898
21
-0.050064
31
0.0
0
LINE
8
0
6
CONTINUOUS
10
0.029343
20
0.028801
30
0.0
11
0.031352
21
0.028801
31
0.0
0
LINE
8
0
6
CONTINUOUS
10
0.034518
20
-0.030697
30
0.0
11
0.031393
21
-0.031362
31
0.0
0
LINE
8
0
6
CONTINUOUS
10
0.031393
20
-0.031362
30
0.0
11
0.028477
21
-0.031780
31
0.0
0
LINE
8
0
6
CONTINUOUS
10
0.028477
20
-0.031780
30
0.0
11
0.025904
21
-0.031936
31
0.0
0
LINE
8
0
6
CONTINUOUS
10
0.034440
20
-0.030434
30
0.0
11
0.031211
21
-0.031125
31
0.0
0
LINE
8
0
6
CONTINUOUS
10
0.031393
20
-0.031362
30
0.0
11
0.034518
21
-0.030697
31
0.0
0
LINE
8
0
6
CONTINUOUS
10
0.031211
20
-0.031125
30
0.0
11
0.028188
21
-0.031556
31
0.0
0
LINE
8
0
6
CONTINUOUS
10
0.028477
20
-0.031780
30
0.0
11
0.031393
21
-0.031362
31
0.0
0
LINE
8
0
6
CONTINUOUS
10
0.028188
20
-0.031556
30
0.0
11
0.025561
21
-0.031712
31
0.0
0
LINE
8
0
6
CONTINUOUS
10
0.025904
20
-0.031936
30
0.0
11
0.028477
21
-0.031780
31
0.0
0
LINE
8
0
6
CONTINUOUS
10
0.031211
20
-0.031125
30
0.0
11
0.034440
21
-0.030434
31
0.0
0
LINE
8
0
6
CONTINUOUS
10
0.028188
20
-0.031556
30
0.0
11
0.031211
21
-0.031125
31
0.0
0
LINE
8
0
6
CONTINUOUS
10
0.025561
20
-0.031712
30
0.0
11
0.028188
21
-0.031556
31
0.0
0
LINE
8
0
6
CONTINUOUS
10
0.037612
20
-0.029810
30
0.0
11
0.034518
21
-0.030697
31
0.0
0
LINE
8
0
6
CONTINUOUS
10
0.040444
20
-0.028792
30
0.0
11
0.037612
21
-0.029810
31
0.0
0
LINE
8
0
6
CONTINUOUS
10
0.042887
20
-0.027696
30
0.0
11
0.040444
21
-0.028792
31
0.0
0
LINE
8
0
6
CONTINUOUS
10
0.034518
20
-0.030697
30
0.0
11
0.037612
21
-0.029810
31
0.0
0
LINE
8
0
6
CONTINUOUS
10
0.037638
20
-0.029520
30
0.0
11
0.034440
21
-0.030434
31
0.0
0
LINE
8
0
6
CONTINUOUS
10
0.037612
20
-0.029810
30
0.0
11
0.040444
21
-0.028792
31
0.0
0
LINE
8
0
6
CONTINUOUS
10
0.040573
20
-0.028464
30
0.0
11
0.037638
21
-0.029520
31
0.0
0
LINE
8
0
6
CONTINUOUS
10
0.040444
20
-0.028792
30
0.0
11
0.042887
21
-0.027696
31
0.0
0
LINE
8
0
6
CONTINUOUS
10
0.043066
20
-0.027342
30
0.0
11
0.040573
21
-0.028464
31
0.0
0
LINE
8
0
6
CONTINUOUS
10
0.034440
20
-0.030434
30
0.0
11
0.037638
21
-0.029520
31
0.0
0
LINE
8
0
6
CONTINUOUS
10
0.037638
20
-0.029520
30
0.0
11
0.040573
21
-0.028464
31
0.0
0
LINE
8
0
6
CONTINUOUS
10
0.040573
20
-0.028464
30
0.0
11
0.043066
21
-0.027342
31
0.0
0
LINE
8
0
6
CONTINUOUS
10
0.045056
20
-0.026254
30
0.0
11
0.044681
21
-0.026600
31
0.0
0
LINE
8
0
6
CONTINUOUS
10
0.043682
20
-0.027210
30
0.0
11
0.042887
21
-0.027696
31
0.0
0
LINE
8
0
6
CONTINUOUS
10
0.046394
20
-0.024250
30
0.0
11
0.046062
21
-0.025163
31
0.0
0
LINE
8
0
6
CONTINUOUS
10
0.046062
20
-0.025163
30
0.0
11
0.044911
21
-0.026220
31
0.0
0
LINE
8
0
6
CONTINUOUS
10
0.045783
20
-0.025582
30
0.0
11
0.046062
21
-0.025163
31
0.0
0
LINE
8
0
6
CONTINUOUS
10
0.044681
20
-0.026600
30
0.0
11
0.045783
21
-0.025582
31
0.0
0
LINE
8
0
6
CONTINUOUS
10
0.044911
20
-0.026220
30
0.0
11
0.043066
21
-0.027342
31
0.0
0
LINE
8
0
6
CONTINUOUS
10
0.042887
20
-0.027696
30
0.0
11
0.044681
21
-0.026600
31
0.0
0
LINE
8
0
6
CONTINUOUS
10
0.046394
20
-0.024250
30
0.0
11
0.046369
21
-0.023501
31
0.0
0
LINE
8
0
6
CONTINUOUS
10
0.046062
20
-0.025163
30
0.0
11
0.046394
21
-0.024250
31
0.0
0
LINE
8
0
6
CONTINUOUS
10
0.044911
20
-0.026220
30
0.0
11
0.046062
21
-0.025163
31
0.0
0
LINE
8
0
6
CONTINUOUS
10
0.043066
20
-0.027342
30
0.0
11
0.044911
21
-0.026220
31
0.0
0
LINE
8
0
6
CONTINUOUS
10
0.046369
20
-0.023501
30
0.0
11
0.034469
21
0.022967
31
0.0
0
LINE
8
0
6
CONTINUOUS
10
0.030985
20
0.028801
30
0.0
11
0.028824
21
0.028801
31
0.0
0
LINE
8
0
6
CONTINUOUS
10
0.023935
20
-0.031780
30
0.0
11
0.022633
21
-0.031362
31
0.0
0
LINE
8
0
6
CONTINUOUS
10
0.025904
20
-0.031936
30
0.0
11
0.023935
21
-0.031780
31
0.0
0
LINE
8
0
6
CONTINUOUS
10
0.022633
20
-0.031362
30
0.0
11
0.023935
21
-0.031780
31
0.0
0
LINE
8
0
6
CONTINUOUS
10
0.022180
20
-0.031125
30
0.0
11
0.022633
21
-0.031362
31
0.0
0
LINE
8
0
6
CONTINUOUS
10
0.023538
20
-0.031556
30
0.0
11
0.022180
21
-0.031125
31
0.0
0
LINE
8
0
6
CONTINUOUS
10
0.023935
20
-0.031780
30
0.0
11
0.025904
21
-0.031936
31
0.0
0
LINE
8
0
6
CONTINUOUS
10
0.025561
20
-0.031712
30
0.0
11
0.023538
21
-0.031556
31
0.0
0
LINE
8
0
6
CONTINUOUS
10
0.021625
20
-0.030434
30
0.0
11
0.022180
21
-0.031125
31
0.0
0
LINE
8
0
6
CONTINUOUS
10
0.022180
20
-0.031125
30
0.0
11
0.023538
21
-0.031556
31
0.0
0
LINE
8
0
6
CONTINUOUS
10
0.023538
20
-0.031556
30
0.0
11
0.025561
21
-0.031712
31
0.0
0
LINE
8
0
6
CONTINUOUS
10
0.028258
20
-0.049103
30
0.0
11
0.028746
21
-0.049704
31
0.0
0
LINE
8
0
6
CONTINUOUS
10
0.023812
20
-0.031740
30
0.0
11
0.028258
21
-0.049103
31
0.0
0
LINE
8
0
6
CONTINUOUS
10
0.028746
20
-0.049704
30
0.0
11
0.029916
21
-0.050064
31
0.0
0
LINE
8
0
6
CONTINUOUS
10
0.029916
20
-0.050064
30
0.0
11
0.031646
21
-0.050199
31
0.0
0
LINE
8
0
6
CONTINUOUS
10
0.028746
20
-0.049704
30
0.0
11
0.028258
21
-0.049103
31
0.0
0
LINE
8
0
6
CONTINUOUS
10
0.029916
20
-0.050064
30
0.0
11
0.028746
21
-0.049704
31
0.0
0
LINE
8
0
6
CONTINUOUS
10
0.031646
20
-0.050199
30
0.0
11
0.029916
21
-0.050064
31
0.0
0
LINE
8
0
6
CONTINUOUS
10
0.046680
20
-0.046446
30
0.0
11
0.048257
21
-0.045485
31
0.0
0
LINE
8
0
6
CONTINUOUS
10
0.048257
20
-0.045485
30
0.0
11
0.049252
21
-0.044584
31
0.0
0
LINE
8
0
6
CONTINUOUS
10
0.049252
20
-0.044584
30
0.0
11
0.049546
21
-0.043788
31
0.0
0
LINE
8
0
6
CONTINUOUS
10
0.045056
20
-0.026254
30
0.0
11
0.049546
21
-0.043788
31
0.0
0
LINE
8
0
6
CONTINUOUS
10
0.048257
20
-0.045485
30
0.0
11
0.046680
21
-0.046446
31
0.0
0
LINE
8
0
6
CONTINUOUS
10
0.049252
20
-0.044584
30
0.0
11
0.048257
21
-0.045485
31
0.0
0
LINE
8
0
6
CONTINUOUS
10
0.049546
20
-0.043788
30
0.0
11
0.049252
21
-0.044584
31
0.0
0
LINE
8
0
6
CONTINUOUS
10
0.046680
20
-0.046446
30
0.0
11
0.044542
21
-0.047407
31
0.0
0
LINE
8
0
6
CONTINUOUS
10
0.044542
20
-0.047407
30
0.0
11
0.042054
21
-0.048307
31
0.0
0
LINE
8
0
6
CONTINUOUS
10
0.042054
20
-0.048307
30
0.0
11
0.039272
21
-0.049103
31
0.0
0
LINE
8
0
6
CONTINUOUS
10
0.039272
20
-0.049103
30
0.0
11
0.036462
21
-0.049704
31
0.0
0
LINE
8
0
6
CONTINUOUS
10
0.036462
20
-0.049704
30
0.0
11
0.033898
21
-0.050064
31
0.0
0
LINE
8
0
6
CONTINUOUS
10
0.033898
20
-0.050064
30
0.0
11
0.031646
21
-0.050199
31
0.0
0
LINE
8
0
6
CONTINUOUS
10
0.044542
20
-0.047407
30
0.0
11
0.046680
21
-0.046446
31
0.0
0
LINE
8
0
6
CONTINUOUS
10
0.042054
20
-0.048307
30
0.0
11
0.044542
21
-0.047407
31
0.0
0
LINE
8
0
6
CONTINUOUS
10
0.039272
20
-0.049103
30
0.0
11
0.042054
21
-0.048307
31
0.0
0
LINE
8
0
6
CONTINUOUS
10
0.036462
20
-0.049704
30
0.0
11
0.039272
21
-0.049103
31
0.0
0
LINE
8
0
6
CONTINUOUS
10
0.033898
20
-0.050064
30
0.0
11
0.036462
21
-0.049704
31
0.0
0
LINE
8
0
6
CONTINUOUS
10
0.031646
20
-0.050199
30
0.0
11
0.033898
21
-0.050064
31
0.0
0
LINE
8
0
6
CONTINUOUS
10
0.034812
20
0.068801
30
0.0
11
0.030601
21
0.068801
31
0.0
0
LINE
8
0
6
CONTINUOUS
10
0.030601
20
0.068801
30
0.0
11
0.034812
21
0.068801
31
0.0
0
LINE
8
0
6
CONTINUOUS
10
0.004827
20
0.028801
30
0.0
11
0.011509
21
0.028801
31
0.0
0
LINE
8
0
6
CONTINUOUS
10
-0.001350
20
0.028801
30
0.0
11
0.004827
21
0.028801
31
0.0
0
LINE
8
0
6
CONTINUOUS
10
-0.006741
20
0.028801
30
0.0
11
-0.001350
21
0.028801
31
0.0
0
LINE
8
0
6
CONTINUOUS
10
0.011509
20
0.028801
30
0.0
11
0.004827
21
0.028801
31
0.0
0
LINE
8
0
6
CONTINUOUS
10
0.004602
20
0.029570
30
0.0
11
0.011509
21
0.029570
31
0.0
0
LINE
8
0
6
CONTINUOUS
10
0.004827
20
0.028801
30
0.0
11
-0.001350
21
0.028801
31
0.0
0
LINE
8
0
6
CONTINUOUS
10
-0.001799
20
0.029570
30
0.0
11
0.004602
21
0.029570
31
0.0
0
LINE
8
0
6
CONTINUOUS
10
-0.001350
20
0.028801
30
0.0
11
-0.006741
21
0.028801
31
0.0
0
LINE
8
0
6
CONTINUOUS
10
-0.007302
20
0.029570
30
0.0
11
-0.001799
21
0.029570
31
0.0
0
LINE
8
0
6
CONTINUOUS
10
0.011509
20
0.029570
30
0.0
11
0.004602
21
0.029570
31
0.0
0
LINE
8
0
6
CONTINUOUS
10
0.004602
20
0.029570
30
0.0
11
-0.001799
21
0.029570
31
0.0
0
LINE
8
0
6
CONTINUOUS
10
-0.001799
20
0.029570
30
0.0
11
-0.007302
21
0.029570
31
0.0
0
LINE
8
0
6
CONTINUOUS
10
0.011509
20
0.028801
30
0.0
11
0.018191
21
0.028801
31
0.0
0
LINE
8
0
6
CONTINUOUS
10
0.018191
20
0.028801
30
0.0
11
0.024368
21
0.028801
31
0.0
0
LINE
8
0
6
CONTINUOUS
10
0.024368
20
0.028801
30
0.0
11
0.029759
21
0.028801
31
0.0
0
LINE
8
0
6
CONTINUOUS
10
0.011509
20
0.029570
30
0.0
11
0.018416
21
0.029570
31
0.0
0
LINE
8
0
6
CONTINUOUS
10
0.018191
20
0.028801
30
0.0
11
0.011509
21
0.028801
31
0.0
0
LINE
8
0
6
CONTINUOUS
10
0.018416
20
0.029570
30
0.0
11
0.024817
21
0.029570
31
0.0
0
LINE
8
0
6
CONTINUOUS
10
0.024368
20
0.028801
30
0.0
11
0.018191
21
0.028801
31
0.0
0
LINE
8
0
6
CONTINUOUS
10
0.024817
20
0.029570
30
0.0
11
0.030320
21
0.029570
31
0.0
0
LINE
8
0
6
CONTINUOUS
10
0.029759
20
0.028801
30
0.0
11
0.024368
21
0.028801
31
0.0
0
LINE
8
0
6
CONTINUOUS
10
0.018416
20
0.029570
30
0.0
11
0.011509
21
0.029570
31
0.0
0
LINE
8
0
6
CONTINUOUS
10
0.024817
20
0.029570
30
0.0
11
0.018416
21
0.029570
31
0.0
0
LINE
8
0
6
CONTINUOUS
10
0.030320
20
0.029570
30
0.0
11
0.024817
21
0.029570
31
0.0
0
LINE
8
0
6
CONTINUOUS
10
0.036385
20
0.028801
30
0.0
11
0.037339
21
0.028801
31
0.0
0
LINE
8
0
6
CONTINUOUS
10
0.033802
20
0.028801
30
0.0
11
0.036385
21
0.028801
31
0.0
0
LINE
8
0
6
CONTINUOUS
10
0.029759
20
0.028801
30
0.0
11
0.033802
21
0.028801
31
0.0
0
LINE
8
0
6
CONTINUOUS
10
0.037339
20
0.028801
30
0.0
11
0.036385
21
0.028801
31
0.0
0
LINE
8
0
6
CONTINUOUS
10
0.038125
20
0.029570
30
0.0
11
0.037339
21
0.028801
31
0.0
0
LINE
8
0
6
CONTINUOUS
10
0.036385
20
0.028801
30
0.0
11
0.033802
21
0.028801
31
0.0
0
LINE
8
0
6
CONTINUOUS
10
0.034475
20
0.029570
30
0.0
11
0.037171
21
0.029570
31
0.0
0
LINE
8
0
6
CONTINUOUS
10
0.033802
20
0.028801
30
0.0
11
0.029759
21
0.028801
31
0.0
0
LINE
8
0
6
CONTINUOUS
10
0.030320
20
0.029570
30
0.0
11
0.034475
21
0.029570
31
0.0
0
LINE
8
0
6
CONTINUOUS
10
0.038125
20
0.029570
30
0.0
11
0.037171
21
0.029570
31
0.0
0
LINE
8
0
6
CONTINUOUS
10
0.038462
20
0.031109
30
0.0
11
0.038125
21
0.029570
31
0.0
0
LINE
8
0
6
CONTINUOUS
10
0.037171
20
0.029570
30
0.0
11
0.034475
21
0.029570
31
0.0
0
LINE
8
0
6
CONTINUOUS
10
0.034475
20
0.029570
30
0.0
11
0.030320
21
0.029570
31
0.0
0
LINE
8
0
6
CONTINUOUS
10
0.038462
20
0.068801
30
0.0
11
0.038462
21
0.051801
31
0.0
0
LINE
8
0
6
CONTINUOUS
10
0.038462
20
0.045801
30
0.0
11
0.038462
21
0.031109
31
0.0
0
LINE
8
0
6
CONTINUOUS
10
0.030601
20
0.068801
30
0.0
11
0.034812
21
0.068801
31
0.0
0
LINE
8
0
6
CONTINUOUS
10
0.034812
20
0.068801
30
0.0
11
0.030601
21
0.068801
31
0.0
0
LINE
8
0
6
CONTINUOUS
10
0.004827
20
0.028801
30
0.0
11
-0.001350
21
0.028801
31
0.0
0
LINE
8
0
6
CONTINUOUS
10
-0.001350
20
0.028801
30
0.0
11
0.004827
21
0.028801
31
0.0
0
LINE
8
0
6
CONTINUOUS
10
-0.014321
20
0.028801
30
0.0
11
-0.013367
21
0.028801
31
0.0
0
LINE
8
0
6
CONTINUOUS
10
-0.009957
20
0.028801
30
0.0
11
-0.006741
21
0.028801
31
0.0
0
LINE
8
0
6
CONTINUOUS
10
-0.015107
20
0.029570
30
0.0
11
-0.014153
21
0.029570
31
0.0
0
LINE
8
0
6
CONTINUOUS
10
-0.014321
20
0.028801
30
0.0
11
-0.015107
21
0.029570
31
0.0
0
LINE
8
0
6
CONTINUOUS
10
-0.013367
20
0.028801
30
0.0
11
-0.014321
21
0.028801
31
0.0
0
LINE
8
0
6
CONTINUOUS
10
-0.014153
20
0.029570
30
0.0
11
-0.011457
21
0.029570
31
0.0
0
LINE
8
0
6
CONTINUOUS
10
-0.010784
20
0.028801
30
0.0
11
-0.013367
21
0.028801
31
0.0
0
LINE
8
0
6
CONTINUOUS
10
-0.011457
20
0.029570
30
0.0
11
-0.007302
21
0.029570
31
0.0
0
LINE
8
0
6
CONTINUOUS
10
-0.006741
20
0.028801
30
0.0
11
-0.010784
21
0.028801
31
0.0
0
LINE
8
0
6
CONTINUOUS
10
-0.015107
20
0.029570
30
0.0
11
-0.015444
21
0.031109
31
0.0
0
LINE
8
0
6
CONTINUOUS
10
-0.014153
20
0.029570
30
0.0
11
-0.015107
21
0.029570
31
0.0
0
LINE
8
0
6
CONTINUOUS
10
-0.011457
20
0.029570
30
0.0
11
-0.014153
21
0.029570
31
0.0
0
LINE
8
0
6
CONTINUOUS
10
-0.007302
20
0.029570
30
0.0
11
-0.011457
21
0.029570
31
0.0
0
LINE
8
0
6
CONTINUOUS
10
-0.015444
20
0.031109
30
0.0
11
-0.015444
21
0.040801
31
0.0
0
LINE
8
0
6
CONTINUOUS
10
-0.015444
20
0.051801
30
0.0
11
-0.015444
21
0.057801
31
0.0
0
LINE
8
0
6
CONTINUOUS
10
-0.015444
20
0.062801
30
0.0
11
-0.015444
21
0.068801
31
0.0
0
LINE
8
0
6
CONTINUOUS
10
0.011509
20
-0.030199
30
0.0
11
0.005817
21
-0.030199
31
0.0
0
LINE
8
0
6
CONTINUOUS
10
0.005817
20
-0.030199
30
0.0
11
0.002474
21
-0.030199
31
0.0
0
LINE
8
0
6
CONTINUOUS
10
0.011509
20
-0.029430
30
0.0
11
0.005625
21
-0.029430
31
0.0
0
LINE
8
0
6
CONTINUOUS
10
0.005817
20
-0.030199
30
0.0
11
0.011509
21
-0.030199
31
0.0
0
LINE
8
0
6
CONTINUOUS
10
0.005625
20
-0.029430
30
0.0
11
0.001818
21
-0.029430
31
0.0
0
LINE
8
0
6
CONTINUOUS
10
0.002474
20
-0.030199
30
0.0
11
0.005817
21
-0.030199
31
0.0
0
LINE
8
0
6
CONTINUOUS
10
0.005625
20
-0.029430
30
0.0
11
0.011509
21
-0.029430
31
0.0
0
LINE
8
0
6
CONTINUOUS
10
0.001818
20
-0.029430
30
0.0
11
0.005625
21
-0.029430
31
0.0
0
LINE
8
0
6
CONTINUOUS
10
0.017201
20
-0.030199
30
0.0
11
0.011509
21
-0.030199
31
0.0
0
LINE
8
0
6
CONTINUOUS
10
0.022463
20
-0.030199
30
0.0
11
0.017201
21
-0.030199
31
0.0
0
LINE
8
0
6
CONTINUOUS
10
0.027055
20
-0.030199
30
0.0
11
0.022463
21
-0.030199
31
0.0
0
LINE
8
0
6
CONTINUOUS
10
0.011509
20
-0.030199
30
0.0
11
0.017201
21
-0.030199
31
0.0
0
LINE
8
0
6
CONTINUOUS
10
0.017392
20
-0.029430
30
0.0
11
0.011509
21
-0.029430
31
0.0
0
LINE
8
0
6
CONTINUOUS
10
0.017201
20
-0.030199
30
0.0
11
0.022463
21
-0.030199
31
0.0
0
LINE
8
0
6
CONTINUOUS
10
0.022846
20
-0.029430
30
0.0
11
0.017392
21
-0.029430
31
0.0
0
LINE
8
0
6
CONTINUOUS
10
0.022463
20
-0.030199
30
0.0
11
0.027055
21
-0.030199
31
0.0
0
LINE
8
0
6
CONTINUOUS
10
0.027533
20
-0.029430
30
0.0
11
0.022846
21
-0.029430
31
0.0
0
LINE
8
0
6
CONTINUOUS
10
0.011509
20
-0.029430
30
0.0
11
0.017392
21
-0.029430
31
0.0
0
LINE
8
0
6
CONTINUOUS
10
0.017392
20
-0.029430
30
0.0
11
0.022846
21
-0.029430
31
0.0
0
LINE
8
0
6
CONTINUOUS
10
0.022846
20
-0.029430
30
0.0
11
0.027533
21
-0.029430
31
0.0
0
LINE
8
0
6
CONTINUOUS
10
0.033512
20
-0.030199
30
0.0
11
0.032699
21
-0.030199
31
0.0
0
LINE
8
0
6
CONTINUOUS
10
0.032699
20
-0.030199
30
0.0
11
0.030499
21
-0.030199
31
0.0
0
LINE
8
0
6
CONTINUOUS
10
0.030499
20
-0.030199
30
0.0
11
0.027055
21
-0.030199
31
0.0
0
LINE
8
0
6
CONTINUOUS
10
0.034182
20
-0.029430
30
0.0
11
0.033369
21
-0.029430
31
0.0
0
LINE
8
0
6
CONTINUOUS
10
0.033512
20
-0.030199
30
0.0
11
0.034182
21
-0.029430
31
0.0
0
LINE
8
0
6
CONTINUOUS
10
0.032699
20
-0.030199
30
0.0
11
0.033512
21
-0.030199
31
0.0
0
LINE
8
0
6
CONTINUOUS
10
0.033369
20
-0.029430
30
0.0
11
0.031073
21
-0.029430
31
0.0
0
LINE
8
0
6
CONTINUOUS
10
0.030499
20
-0.030199
30
0.0
11
0.032699
21
-0.030199
31
0.0
0
LINE
8
0
6
CONTINUOUS
10
0.031073
20
-0.029430
30
0.0
11
0.027533
21
-0.029430
31
0.0
0
LINE
8
0
6
CONTINUOUS
10
0.027055
20
-0.030199
30
0.0
11
0.030499
21
-0.030199
31
0.0
0
LINE
8
0
6
CONTINUOUS
10
0.034182
20
-0.029430
30
0.0
11
0.034469
21
-0.027891
31
0.0
0
LINE
8
0
6
CONTINUOUS
10
0.033369
20
-0.029430
30
0.0
11
0.034182
21
-0.029430
31
0.0
0
LINE
8
0
6
CONTINUOUS
10
0.031073
20
-0.029430
30
0.0
11
0.033369
21
-0.029430
31
0.0
0
LINE
8
0
6
CONTINUOUS
10
0.027533
20
-0.029430
30
0.0
11
0.031073
21
-0.029430
31
0.0
0
LINE
8
0
6
CONTINUOUS
10
0.034469
20
-0.027891
30
0.0
11
0.034469
21
0.028801
31
0.0
0
LINE
8
0
6
CONTINUOUS
10
-0.008342
20
0.028801
30
0.0
11
-0.004754
21
0.028801
31
0.0
0
LINE
8
0
6
CONTINUOUS
10
-0.011451
20
0.028801
30
0.0
11
-0.011451
21
0.022967
31
0.0
0
LINE
8
0
6
CONTINUOUS
10
-0.004754
20
0.028801
30
0.0
11
-0.008342
21
0.028801
31
0.0
0
LINE
8
0
6
CONTINUOUS
10
-0.018597
20
0.051801
30
0.0
11
-0.018192
21
0.051801
31
0.0
0
LINE
8
0
6
CONTINUOUS
10
-0.018192
20
0.051801
30
0.0
11
-0.017072
21
0.051801
31
0.0
0
LINE
8
0
6
CONTINUOUS
10
-0.017072
20
0.051801
30
0.0
11
-0.015361
21
0.051801
31
0.0
0
LINE
8
0
6
CONTINUOUS
10
-0.018597
20
0.045801
30
0.0
11
-0.018192
21
0.045801
31
0.0
0
LINE
8
0
6
CONTINUOUS
10
-0.018597
20
0.051801
30
0.0
11
-0.018597
21
0.045801
31
0.0
0
LINE
8
0
6
CONTINUOUS
10
-0.018192
20
0.051801
30
0.0
11
-0.018597
21
0.051801
31
0.0
0
LINE
8
0
6
CONTINUOUS
10
-0.018192
20
0.045801
30
0.0
11
-0.017072
21
0.045801
31
0.0
0
LINE
8
0
6
CONTINUOUS
10
-0.017072
20
0.051801
30
0.0
11
-0.018192
21
0.051801
31
0.0
0
LINE
8
0
6
CONTINUOUS
10
-0.017072
20
0.045801
30
0.0
11
-0.015361
21
0.045801
31
0.0
0
LINE
8
0
6
CONTINUOUS
10
-0.015361
20
0.051801
30
0.0
11
-0.017072
21
0.051801
31
0.0
0
LINE
8
0
6
CONTINUOUS
10
-0.018192
20
0.045801
30
0.0
11
-0.018597
21
0.045801
31
0.0
0
LINE
8
0
6
CONTINUOUS
10
-0.017072
20
0.045801
30
0.0
11
-0.018192
21
0.045801
31
0.0
0
LINE
8
0
6
CONTINUOUS
10
-0.015361
20
0.045801
30
0.0
11
-0.017072
21
0.045801
31
0.0
0
LINE
8
0
6
CONTINUOUS
10
0.026027
20
0.051801
30
0.0
11
0.032015
21
0.051801
31
0.0
0
LINE
8
0
6
CONTINUOUS
10
0.019137
20
0.051801
30
0.0
11
0.026027
21
0.051801
31
0.0
0
LINE
8
0
6
CONTINUOUS
10
0.011509
20
0.051801
30
0.0
11
0.019137
21
0.051801
31
0.0
0
LINE
8
0
6
CONTINUOUS
10
0.003881
20
0.051801
30
0.0
11
0.011509
21
0.051801
31
0.0
0
LINE
8
0
6
CONTINUOUS
10
0.000853
20
0.051801
30
0.0
11
0.003881
21
0.051801
31
0.0
0
LINE
8
0
6
CONTINUOUS
10
0.032015
20
0.051801
30
0.0
11
0.026027
21
0.051801
31
0.0
0
LINE
8
0
6
CONTINUOUS
10
0.026027
20
0.045801
30
0.0
11
0.032015
21
0.045801
31
0.0
0
LINE
8
0
6
CONTINUOUS
10
0.026027
20
0.051801
30
0.0
11
0.019137
21
0.051801
31
0.0
0
LINE
8
0
6
CONTINUOUS
10
0.019137
20
0.045801
30
0.0
11
0.026027
21
0.045801
31
0.0
0
LINE
8
0
6
CONTINUOUS
10
0.019137
20
0.051801
30
0.0
11
0.011509
21
0.051801
31
0.0
0
LINE
8
0
6
CONTINUOUS
10
0.011509
20
0.045801
30
0.0
11
0.019137
21
0.045801
31
0.0
0
LINE
8
0
6
CONTINUOUS
10
0.011509
20
0.051801
30
0.0
11
0.003881
21
0.051801
31
0.0
0
LINE
8
0
6
CONTINUOUS
10
0.003881
20
0.045801
30
0.0
11
0.011509
21
0.045801
31
0.0
0
LINE
8
0
6
CONTINUOUS
10
0.000853
20
0.051801
30
0.0
11
0.001000
21
0.045801
31
0.0
0
LINE
8
0
6
CONTINUOUS
10
0.003881
20
0.051801
30
0.0
11
0.000853
21
0.051801
31
0.0
0
LINE
8
0
6
CONTINUOUS
10
0.001000
20
0.045801
30
0.0
11
0.003881
21
0.045801
31
0.0
0
LINE
8
0
6
CONTINUOUS
10
0.032015
20
0.045801
30
0.0
11
0.026027
21
0.045801
31
0.0
0
LINE
8
0
6
CONTINUOUS
10
0.026027
20
0.045801
30
0.0
11
0.019137
21
0.045801
31
0.0
0
LINE
8
0
6
CONTINUOUS
10
0.019137
20
0.045801
30
0.0
11
0.011509
21
0.045801
31
0.0
0
LINE
8
0
6
CONTINUOUS
10
0.011509
20
0.045801
30
0.0
11
0.003881
21
0.045801
31
0.0
0
LINE
8
0
6
CONTINUOUS
10
0.003881
20
0.045801
30
0.0
11
0.001000
21
0.045801
31
0.0
0
LINE
8
0
6
CONTINUOUS
10
-0.002076
20
0.051801
30
0.0
11
0.000853
21
0.051801
31
0.0
0
LINE
8
0
6
CONTINUOUS
10
-0.004689
20
0.051801
30
0.0
11
-0.002076
21
0.051801
31
0.0
0
LINE
8
0
6
CONTINUOUS
10
-0.007583
20
0.051801
30
0.0
11
-0.004689
21
0.051801
31
0.0
0
LINE
8
0
6
CONTINUOUS
10
-0.010476
20
0.051801
30
0.0
11
-0.007583
21
0.051801
31
0.0
0
LINE
8
0
6
CONTINUOUS
10
-0.013090
20
0.051801
30
0.0
11
-0.010476
21
0.051801
31
0.0
0
LINE
8
0
6
CONTINUOUS
10
-0.015361
20
0.051801
30
0.0
11
-0.013090
21
0.051801
31
0.0
0
LINE
8
0
6
CONTINUOUS
10
0.000853
20
0.051801
30
0.0
11
-0.002076
21
0.051801
31
0.0
0
LINE
8
0
6
CONTINUOUS
10
0.001000
20
0.045801
30
0.0
11
0.000853
21
0.051801
31
0.0
0
LINE
8
0
6
CONTINUOUS
10
-0.002076
20
0.045801
30
0.0
11
0.001000
21
0.045801
31
0.0
0
LINE
8
0
6
CONTINUOUS
10
-0.002076
20
0.051801
30
0.0
11
-0.004689
21
0.051801
31
0.0
0
LINE
8
0
6
CONTINUOUS
10
-0.004689
20
0.045801
30
0.0
11
-0.002076
21
0.045801
31
0.0
0
LINE
8
0
6
CONTINUOUS
10
-0.004689
20
0.051801
30
0.0
11
-0.007583
21
0.051801
31
0.0
0
LINE
8
0
6
CONTINUOUS
10
-0.007583
20
0.045801
30
0.0
11
-0.004689
21
0.045801
31
0.0
0
LINE
8
0
6
CONTINUOUS
10
-0.007583
20
0.051801
30
0.0
11
-0.010476
21
0.051801
31
0.0
0
LINE
8
0
6
CONTINUOUS
10
-0.010476
20
0.045801
30
0.0
11
-0.007583
21
0.045801
31
0.0
0
LINE
8
0
6
CONTINUOUS
10
-0.010476
20
0.051801
30
0.0
11
-0.013090
21
0.051801
31
0.0
0
LINE
8
0
6
CONTINUOUS
10
-0.013090
20
0.045801
30
0.0
11
-0.010476
21
0.045801
31
0.0
0
LINE
8
0
6
CONTINUOUS
10
-0.013090
20
0.051801
30
0.0
11
-0.015361
21
0.051801
31
0.0
0
LINE
8
0
6
CONTINUOUS
10
-0.015361
20
0.045801
30
0.0
11
-0.013090
21
0.045801
31
0.0
0
LINE
8
0
6
CONTINUOUS
10
0.001000
20
0.045801
30
0.0
11
-0.002076
21
0.045801
31
0.0
0
LINE
8
0
6
CONTINUOUS
10
-0.002076
20
0.045801
30
0.0
11
-0.004689
21
0.045801
31
0.0
0
LINE
8
0
6
CONTINUOUS
10
-0.004689
20
0.045801
30
0.0
11
-0.007583
21
0.045801
31
0.0
0
LINE
8
0
6
CONTINUOUS
10
-0.007583
20
0.045801
30
0.0
11
-0.010476
21
0.045801
31
0.0
0
LINE
8
0
6
CONTINUOUS
10
-0.010476
20
0.045801
30
0.0
11
-0.013090
21
0.045801
31
0.0
0
LINE
8
0
6
CONTINUOUS
10
-0.013090
20
0.045801
30
0.0
11
-0.015361
21
0.045801
31
0.0
0
LINE
8
0
6
CONTINUOUS
10
-0.015978
20
0.062801
30
0.0
11
-0.015812
21
0.062801
31
0.0
0
LINE
8
0
6
CONTINUOUS
10
-0.015812
20
0.062801
30
0.0
11
-0.015354
21
0.062801
31
0.0
0
LINE
8
0
6
CONTINUOUS
10
-0.015354
20
0.062801
30
0.0
11
-0.014654
21
0.062801
31
0.0
0
LINE
8
0
6
CONTINUOUS
10
-0.015978
20
0.057801
30
0.0
11
-0.015812
21
0.057801
31
0.0
0
LINE
8
0
6
CONTINUOUS
10
-0.015978
20
0.062801
30
0.0
11
-0.015978
21
0.057801
31
0.0
0
LINE
8
0
6
CONTINUOUS
10
-0.015812
20
0.062801
30
0.0
11
-0.015978
21
0.062801
31
0.0
0
LINE
8
0
6
CONTINUOUS
10
-0.015812
20
0.057801
30
0.0
11
-0.015354
21
0.057801
31
0.0
0
LINE
8
0
6
CONTINUOUS
10
-0.015354
20
0.062801
30
0.0
11
-0.015812
21
0.062801
31
0.0
0
LINE
8
0
6
CONTINUOUS
10
-0.015354
20
0.057801
30
0.0
11
-0.014654
21
0.057801
31
0.0
0
LINE
8
0
6
CONTINUOUS
10
-0.014654
20
0.062801
30
0.0
11
-0.015354
21
0.062801
31
0.0
0
LINE
8
0
6
CONTINUOUS
10
-0.015812
20
0.057801
30
0.0
11
-0.015978
21
0.057801
31
0.0
0
LINE
8
0
6
CONTINUOUS
10
-0.015354
20
0.057801
30
0.0
11
-0.015812
21
0.057801
31
0.0
0
LINE
8
0
6
CONTINUOUS
10
-0.014654
20
0.057801
30
0.0
11
-0.015354
21
0.057801
31
0.0
0
LINE
8
0
6
CONTINUOUS
10
-0.008290
20
0.062801
30
0.0
11
-0.007590
21
0.062801
31
0.0
0
LINE
8
0
6
CONTINUOUS
10
-0.007590
20
0.062801
30
0.0
11
-0.007132
21
0.062801
31
0.0
0
LINE
8
0
6
CONTINUOUS
10
-0.007132
20
0.062801
30
0.0
11
-0.006966
21
0.062801
31
0.0
0
LINE
8
0
6
CONTINUOUS
10
-0.008290
20
0.057801
30
0.0
11
-0.007590
21
0.057801
31
0.0
0
LINE
8
0
6
CONTINUOUS
10
-0.007590
20
0.062801
30
0.0
11
-0.008290
21
0.062801
31
0.0
0
LINE
8
0
6
CONTINUOUS
10
-0.007590
20
0.057801
30
0.0
11
-0.007132
21
0.057801
31
0.0
0
LINE
8
0
6
CONTINUOUS
10
-0.007132
20
0.062801
30
0.0
11
-0.007590
21
0.062801
31
0.0
0
LINE
8
0
6
CONTINUOUS
10
-0.007132
20
0.057801
30
0.0
11
-0.006966
21
0.057801
31
0.0
0
LINE
8
0
6
CONTINUOUS
10
-0.006966
20
0.062801
30
0.0
11
-0.007132
21
0.062801
31
0.0
0
LINE
8
0
6
CONTINUOUS
10
-0.006966
20
0.062801
30
0.0
11
-0.006966
21
0.057801
31
0.0
0
LINE
8
0
6
CONTINUOUS
10
-0.007590
20
0.057801
30
0.0
11
-0.008290
21
0.057801
31
0.0
0
LINE
8
0
6
CONTINUOUS
10
-0.007132
20
0.057801
30
0.0
11
-0.007590
21
0.057801
31
0.0
0
LINE
8
0
6
CONTINUOUS
10
-0.006966
20
0.057801
30
0.0
11
-0.007132
21
0.057801
31
0.0
0
LINE
8
0
6
CONTINUOUS
10
-0.009219
20
0.062801
30
0.0
11
-0.008290
21
0.062801
31
0.0
0
LINE
8
0
6
CONTINUOUS
10
-0.010288
20
0.062801
30
0.0
11
-0.009219
21
0.062801
31
0.0
0
LINE
8
0
6
CONTINUOUS
10
-0.011472
20
0.062801
30
0.0
11
-0.010288
21
0.062801
31
0.0
0
LINE
8
0
6
CONTINUOUS
10
-0.012656
20
0.062801
30
0.0
11
-0.011472
21
0.062801
31
0.0
0
LINE
8
0
6
CONTINUOUS
10
-0.013725
20
0.062801
30
0.0
11
-0.012656
21
0.062801
31
0.0
0
LINE
8
0
6
CONTINUOUS
10
-0.014654
20
0.062801
30
0.0
11
-0.013725
21
0.062801
31
0.0
0
LINE
8
0
6
CONTINUOUS
10
-0.008290
20
0.062801
30
0.0
11
-0.009219
21
0.062801
31
0.0
0
LINE
8
0
6
CONTINUOUS
10
-0.009219
20
0.057801
30
0.0
11
-0.008290
21
0.057801
31
0.0
0
LINE
8
0
6
CONTINUOUS
10
-0.009219
20
0.062801
30
0.0
11
-0.010288
21
0.062801
31
0.0
0
LINE
8
0
6
CONTINUOUS
10
-0.010288
20
0.057801
30
0.0
11
-0.009219
21
0.057801
31
0.0
0
LINE
8
0
6
CONTINUOUS
10
-0.010288
20
0.062801
30
0.0
11
-0.011472
21
0.062801
31
0.0
0
LINE
8
0
6
CONTINUOUS
10
-0.011472
20
0.057801
30
0.0
11
-0.010288
21
0.057801
31
0.0
0
LINE
8
0
6
CONTINUOUS
10
-0.011472
20
0.062801
30
0.0
11
-0.012656
21
0.062801
31
0.0
0
LINE
8
0
6
CONTINUOUS
10
-0.012656
20
0.057801
30
0.0
11
-0.011472
21
0.057801
31
0.0
0
LINE
8
0
6
CONTINUOUS
10
-0.012656
20
0.062801
30
0.0
11
-0.013725
21
0.062801
31
0.0
0
LINE
8
0
6
CONTINUOUS
10
-0.013725
20
0.057801
30
0.0
11
-0.012656
21
0.057801
31
0.0
0
LINE
8
0
6
CONTINUOUS
10
-0.013725
20
0.062801
30
0.0
11
-0.014654
21
0.062801
31
0.0
0
LINE
8
0
6
CONTINUOUS
10
-0.014654
20
0.057801
30
0.0
11
-0.013725
21
0.057801
31
0.0
0
LINE
8
0
6
CONTINUOUS
10
-0.008290
20
0.057801
30
0.0
11
-0.009219
21
0.057801
31
0.0
0
LINE
8
0
6
CONTINUOUS
10
-0.009219
20
0.057801
30
0.0
11
-0.010288
21
0.057801
31
0.0
0
LINE
8
0
6
CONTINUOUS
10
-0.010288
20
0.057801
30
0.0
11
-0.011472
21
0.057801
31
0.0
0
LINE
8
0
6
CONTINUOUS
10
-0.011472
20
0.057801
30
0.0
11
-0.012656
21
0.057801
31
0.0
0
LINE
8
0
6
CONTINUOUS
10
-0.012656
20
0.057801
30
0.0
11
-0.013725
21
0.057801
31
0.0
0
LINE
8
0
6
CONTINUOUS
10
-0.013725
20
0.057801
30
0.0
11
-0.014654
21
0.057801
31
0.0
0
LINE
8
0
6
CONTINUOUS
10
-0.014476
20
0.057801
30
0.0
11
-0.014476
21
0.051801
31
0.0
0
LINE
8
0
6
CONTINUOUS
10
-0.008468
20
0.057801
30
0.0
11
-0.008468
21
0.051801
31
0.0
0
LINE
8
0
6
CONTINUOUS
10
-0.015978
20
0.040801
30
0.0
11
-0.015812
21
0.040801
31
0.0
0
LINE
8
0
6
CONTINUOUS
10
-0.015978
20
0.045801
30
0.0
11
-0.015978
21
0.040801
31
0.0
0
LINE
8
0
6
CONTINUOUS
10
-0.015812
20
0.040801
30
0.0
11
-0.015354
21
0.040801
31
0.0
0
LINE
8
0
6
CONTINUOUS
10
-0.015354
20
0.040801
30
0.0
11
-0.014654
21
0.040801
31
0.0
0
LINE
8
0
6
CONTINUOUS
10
-0.015812
20
0.040801
30
0.0
11
-0.015978
21
0.040801
31
0.0
0
LINE
8
0
6
CONTINUOUS
10
-0.015354
20
0.040801
30
0.0
11
-0.015812
21
0.040801
31
0.0
0
LINE
8
0
6
CONTINUOUS
10
-0.014654
20
0.040801
30
0.0
11
-0.015354
21
0.040801
31
0.0
0
LINE
8
0
6
CONTINUOUS
10
-0.008290
20
0.040801
30
0.0
11
-0.007590
21
0.040801
31
0.0
0
LINE
8
0
6
CONTINUOUS
10
-0.007590
20
0.040801
30
0.0
11
-0.007132
21
0.040801
31
0.0
0
LINE
8
0
6
CONTINUOUS
10
-0.007132
20
0.040801
30
0.0
11
-0.006966
21
0.040801
31
0.0
0
LINE
8
0
6
CONTINUOUS
10
-0.006966
20
0.045801
30
0.0
11
-0.006966
21
0.040801
31
0.0
0
LINE
8
0
6
CONTINUOUS
10
-0.007590
20
0.040801
30
0.0
11
-0.008290
21
0.040801
31
0.0
0
LINE
8
0
6
CONTINUOUS
10
-0.007132
20
0.040801
30
0.0
11
-0.007590
21
0.040801
31
0.0
0
LINE
8
0
6
CONTINUOUS
10
-0.006966
20
0.040801
30
0.0
11
-0.007132
21
0.040801
31
0.0
0
LINE
8
0
6
CONTINUOUS
10
-0.009219
20
0.040801
30
0.0
11
-0.008290
21
0.040801
31
0.0
0
LINE
8
0
6
CONTINUOUS
10
-0.010288
20
0.040801
30
0.0
11
-0.009219
21
0.040801
31
0.0
0
LINE
8
0
6
CONTINUOUS
10
-0.011472
20
0.040801
30
0.0
11
-0.010288
21
0.040801
31
0.0
0
LINE
8
0
6
CONTINUOUS
10
-0.012656
20
0.040801
30
0.0
11
-0.011472
21
0.040801
31
0.0
0
LINE
8
0
6
CONTINUOUS
10
-0.013725
20
0.040801
30
0.0
11
-0.012656
21
0.040801
31
0.0
0
LINE
8
0
6
CONTINUOUS
10
-0.014654
20
0.040801
30
0.0
11
-0.013725
21
0.040801
31
0.0
0
LINE
8
0
6
CONTINUOUS
10
-0.008290
20
0.040801
30
0.0
11
-0.009219
21
0.040801
31
0.0
0
LINE
8
0
6
CONTINUOUS
10
-0.009219
20
0.040801
30
0.0
11
-0.010288
21
0.040801
31
0.0
0
LINE
8
0
6
CONTINUOUS
10
-0.010288
20
0.040801
30
0.0
11
-0.011472
21
0.040801
31
0.0
0
LINE
8
0
6
CONTINUOUS
10
-0.011472
20
0.040801
30
0.0
11
-0.012656
21
0.040801
31
0.0
0
LINE
8
0
6
CONTINUOUS
10
-0.012656
20
0.040801
30
0.0
11
-0.013725
21
0.040801
31
0.0
0
LINE
8
0
6
CONTINUOUS
10
-0.013725
20
0.040801
30
0.0
11
-0.014654
21
0.040801
31
0.0
0
LINE
8
0
6
CONTINUOUS
10
0.032015
20
0.051801
30
0.0
11
0.036526
21
0.051801
31
0.0
0
LINE
8
0
6
CONTINUOUS
10
0.036526
20
0.051801
30
0.0
11
0.039479
21
0.051801
31
0.0
0
LINE
8
0
6
CONTINUOUS
10
0.039479
20
0.051801
30
0.0
11
0.040546
21
0.051801
31
0.0
0
LINE
8
0
6
CONTINUOUS
10
0.032015
20
0.045801
30
0.0
11
0.036526
21
0.045801
31
0.0
0
LINE
8
0
6
CONTINUOUS
10
0.036526
20
0.051801
30
0.0
11
0.032015
21
0.051801
31
0.0
0
LINE
8
0
6
CONTINUOUS
10
0.036526
20
0.045801
30
0.0
11
0.039479
21
0.045801
31
0.0
0
LINE
8
0
6
CONTINUOUS
10
0.039479
20
0.051801
30
0.0
11
0.036526
21
0.051801
31
0.0
0
LINE
8
0
6
CONTINUOUS
10
0.039479
20
0.045801
30
0.0
11
0.040546
21
0.045801
31
0.0
0
LINE
8
0
6
CONTINUOUS
10
0.040546
20
0.051801
30
0.0
11
0.039479
21
0.051801
31
0.0
0
LINE
8
0
6
CONTINUOUS
10
0.040546
20
0.051801
30
0.0
11
0.040546
21
0.045801
31
0.0
0
LINE
8
0
6
CONTINUOUS
10
0.036526
20
0.045801
30
0.0
11
0.032015
21
0.045801
31
0.0
0
LINE
8
0
6
CONTINUOUS
10
0.039479
20
0.045801
30
0.0
11
0.036526
21
0.045801
31
0.0
0
LINE
8
0
6
CONTINUOUS
10
0.040546
20
0.045801
30
0.0
11
0.039479
21
0.045801
31
0.0
0
LINE
8
0
6
CONTINUOUS
10
0.040090
20
0.051801
30
0.0
11
0.041210
21
0.051801
31
0.0
0
LINE
8
0
6
CONTINUOUS
10
0.041210
20
0.051801
30
0.0
11
0.041615
21
0.051801
31
0.0
0
LINE
8
0
6
CONTINUOUS
10
0.040090
20
0.045801
30
0.0
11
0.041210
21
0.045801
31
0.0
0
LINE
8
0
6
CONTINUOUS
10
0.041210
20
0.051801
30
0.0
11
0.040090
21
0.051801
31
0.0
0
LINE
8
0
6
CONTINUOUS
10
0.041210
20
0.045801
30
0.0
11
0.041615
21
0.045801
31
0.0
0
LINE
8
0
6
CONTINUOUS
10
0.041615
20
0.051801
30
0.0
11
0.041210
21
0.051801
31
0.0
0
LINE
8
0
6
CONTINUOUS
10
0.041615
20
0.051801
30
0.0
11
0.041615
21
0.045801
31
0.0
0
LINE
8
0
6
CONTINUOUS
10
0.041210
20
0.045801
30
0.0
11
0.040090
21
0.045801
31
0.0
0
LINE
8
0
6
CONTINUOUS
10
0.041615
20
0.045801
30
0.0
11
0.041210
21
0.045801
31
0.0
0
LINE
8
0
6
CONTINUOUS
10
0.038830
20
0.062801
30
0.0
11
0.038462
21
0.062801
31
0.0
0
LINE
8
0
6
CONTINUOUS
10
0.038996
20
0.062801
30
0.0
11
0.038830
21
0.062801
31
0.0
0
LINE
8
0
6
CONTINUOUS
10
0.038462
20
0.062801
30
0.0
11
0.038830
21
0.062801
31
0.0
0
LINE
8
0
6
CONTINUOUS
10
0.038830
20
0.057801
30
0.0
11
0.038462
21
0.057801
31
0.0
0
LINE
8
0
6
CONTINUOUS
10
0.038830
20
0.062801
30
0.0
11
0.038996
21
0.062801
31
0.0
0
LINE
8
0
6
CONTINUOUS
10
0.038996
20
0.057801
30
0.0
11
0.038830
21
0.057801
31
0.0
0
LINE
8
0
6
CONTINUOUS
10
0.038996
20
0.057801
30
0.0
11
0.038996
21
0.062801
31
0.0
0
LINE
8
0
6
CONTINUOUS
10
0.038462
20
0.057801
30
0.0
11
0.038830
21
0.057801
31
0.0
0
LINE
8
0
6
CONTINUOUS
10
0.038830
20
0.057801
30
0.0
11
0.038996
21
0.057801
31
0.0
0
LINE
8
0
6
CONTINUOUS
10
0.038830
20
0.040801
30
0.0
11
0.038462
21
0.040801
31
0.0
0
LINE
8
0
6
CONTINUOUS
10
0.038996
20
0.040801
30
0.0
11
0.038830
21
0.040801
31
0.0
0
LINE
8
0
6
CONTINUOUS
10
0.038996
20
0.040801
30
0.0
11
0.038996
21
0.045801
31
0.0
0
LINE
8
0
6
CONTINUOUS
10
0.038462
20
0.040801
30
0.0
11
0.038830
21
0.040801
31
0.0
0
LINE
8
0
6
CONTINUOUS
10
0.038830
20
0.040801
30
0.0
11
0.038996
21
0.040801
31
0.0
0
LINE
8
0
6
CONTINUOUS
10
-0.070702
20
0.040801
30
0.0
11
-0.071640
21
0.040801
31
0.0
0
LINE
8
0
6
CONTINUOUS
10
-0.071640
20
0.040801
30
0.0
11
-0.070702
21
0.040801
31
0.0
0
LINE
8
0
6
CONTINUOUS
10
-0.069923
20
0.040801
30
0.0
11
-0.070702
21
0.040801
31
0.0
0
LINE
8
0
6
CONTINUOUS
10
-0.069374
20
0.040801
30
0.0
11
-0.069923
21
0.040801
31
0.0
0
LINE
8
0
6
CONTINUOUS
10
-0.069106
20
0.040801
30
0.0
11
-0.069374
21
0.040801
31
0.0
0
LINE
8
0
6
CONTINUOUS
10
-0.069106
20
0.040801
30
0.0
11
-0.069106
21
0.045801
31
0.0
0
LINE
8
0
6
CONTINUOUS
10
-0.070702
20
0.040801
30
0.0
11
-0.069923
21
0.040801
31
0.0
0
LINE
8
0
6
CONTINUOUS
10
-0.069923
20
0.040801
30
0.0
11
-0.069374
21
0.040801
31
0.0
0
LINE
8
0
6
CONTINUOUS
10
-0.069374
20
0.040801
30
0.0
11
-0.069106
21
0.040801
31
0.0
0
LINE
8
0
6
CONTINUOUS
10
-0.070702
20
0.062801
30
0.0
11
-0.071640
21
0.062801
31
0.0
0
LINE
8
0
6
CONTINUOUS
10
-0.070702
20
0.057801
30
0.0
11
-0.071640
21
0.057801
31
0.0
0
LINE
8
0
6
CONTINUOUS
10
-0.071640
20
0.062801
30
0.0
11
-0.070702
21
0.062801
31
0.0
0
LINE
8
0
6
CONTINUOUS
10
-0.071640
20
0.057801
30
0.0
11
-0.070702
21
0.057801
31
0.0
0
LINE
8
0
6
CONTINUOUS
10
-0.069923
20
0.062801
30
0.0
11
-0.070702
21
0.062801
31
0.0
0
LINE
8
0
6
CONTINUOUS
10
-0.069374
20
0.062801
30
0.0
11
-0.069923
21
0.062801
31
0.0
0
LINE
8
0
6
CONTINUOUS
10
-0.069106
20
0.062801
30
0.0
11
-0.069374
21
0.062801
31
0.0
0
LINE
8
0
6
CONTINUOUS
10
-0.070702
20
0.062801
30
0.0
11
-0.069923
21
0.062801
31
0.0
0
LINE
8
0
6
CONTINUOUS
10
-0.069923
20
0.057801
30
0.0
11
-0.070702
21
0.057801
31
0.0
0
LINE
8
0
6
CONTINUOUS
10
-0.069923
20
0.062801
30
0.0
11
-0.069374
21
0.062801
31
0.0
0
LINE
8
0
6
CONTINUOUS
10
-0.069374
20
0.057801
30
0.0
11
-0.069923
21
0.057801
31
0.0
0
LINE
8
0
6
CONTINUOUS
10
-0.069374
20
0.062801
30
0.0
11
-0.069106
21
0.062801
31
0.0
0
LINE
8
0
6
CONTINUOUS
10
-0.069106
20
0.057801
30
0.0
11
-0.069374
21
0.057801
31
0.0
0
LINE
8
0
6
CONTINUOUS
10
-0.069106
20
0.057801
30
0.0
11
-0.069106
21
0.062801
31
0.0
0
LINE
8
0
6
CONTINUOUS
10
-0.070702
20
0.057801
30
0.0
11
-0.069923
21
0.057801
31
0.0
0
LINE
8
0
6
CONTINUOUS
10
-0.069923
20
0.057801
30
0.0
11
-0.069374
21
0.057801
31
0.0
0
LINE
8
0
6
CONTINUOUS
10
-0.069374
20
0.057801
30
0.0
11
-0.069106
21
0.057801
31
0.0
0
LINE
8
0
6
CONTINUOUS
10
-0.070602
20
0.051801
30
0.0
11
-0.070602
21
0.057801
31
0.0
0
LINE
8
0
6
CONTINUOUS
10
-0.129995
20
0.051801
30
0.0
11
-0.130146
21
0.051801
31
0.0
0
LINE
8
0
6
CONTINUOUS
10
-0.129107
20
0.051801
30
0.0
11
-0.129995
21
0.051801
31
0.0
0
LINE
8
0
6
CONTINUOUS
10
-0.127600
20
0.051801
30
0.0
11
-0.129107
21
0.051801
31
0.0
0
LINE
8
0
6
CONTINUOUS
10
-0.130146
20
0.051801
30
0.0
11
-0.129995
21
0.051801
31
0.0
0
LINE
8
0
6
CONTINUOUS
10
-0.130146
20
0.045801
30
0.0
11
-0.130146
21
0.051801
31
0.0
0
LINE
8
0
6
CONTINUOUS
10
-0.129995
20
0.045801
30
0.0
11
-0.130146
21
0.045801
31
0.0
0
LINE
8
0
6
CONTINUOUS
10
-0.129995
20
0.051801
30
0.0
11
-0.129107
21
0.051801
31
0.0
0
LINE
8
0
6
CONTINUOUS
10
-0.129107
20
0.045801
30
0.0
11
-0.129995
21
0.045801
31
0.0
0
LINE
8
0
6
CONTINUOUS
10
-0.129107
20
0.051801
30
0.0
11
-0.127600
21
0.051801
31
0.0
0
LINE
8
0
6
CONTINUOUS
10
-0.127600
20
0.045801
30
0.0
11
-0.129107
21
0.045801
31
0.0
0
LINE
8
0
6
CONTINUOUS
10
-0.130146
20
0.045801
30
0.0
11
-0.129995
21
0.045801
31
0.0
0
LINE
8
0
6
CONTINUOUS
10
-0.129995
20
0.045801
30
0.0
11
-0.129107
21
0.045801
31
0.0
0
LINE
8
0
6
CONTINUOUS
10
-0.129107
20
0.045801
30
0.0
11
-0.127600
21
0.045801
31
0.0
0
LINE
8
0
6
CONTINUOUS
10
-0.074834
20
0.051801
30
0.0
11
-0.079850
21
0.051801
31
0.0
0
LINE
8
0
6
CONTINUOUS
10
-0.071292
20
0.051801
30
0.0
11
-0.074834
21
0.051801
31
0.0
0
LINE
8
0
6
CONTINUOUS
10
-0.069564
20
0.051801
30
0.0
11
-0.071292
21
0.051801
31
0.0
0
LINE
8
0
6
CONTINUOUS
10
-0.079850
20
0.051801
30
0.0
11
-0.074834
21
0.051801
31
0.0
0
LINE
8
0
6
CONTINUOUS
10
-0.074834
20
0.045801
30
0.0
11
-0.079850
21
0.045801
31
0.0
0
LINE
8
0
6
CONTINUOUS
10
-0.074834
20
0.051801
30
0.0
11
-0.071292
21
0.051801
31
0.0
0
LINE
8
0
6
CONTINUOUS
10
-0.071292
20
0.045801
30
0.0
11
-0.074834
21
0.045801
31
0.0
0
LINE
8
0
6
CONTINUOUS
10
-0.071292
20
0.051801
30
0.0
11
-0.069564
21
0.051801
31
0.0
0
LINE
8
0
6
CONTINUOUS
10
-0.069564
20
0.045801
30
0.0
11
-0.071292
21
0.045801
31
0.0
0
LINE
8
0
6
CONTINUOUS
10
-0.069564
20
0.045801
30
0.0
11
-0.069564
21
0.051801
31
0.0
0
LINE
8
0
6
CONTINUOUS
10
-0.079850
20
0.045801
30
0.0
11
-0.074834
21
0.045801
31
0.0
0
LINE
8
0
6
CONTINUOUS
10
-0.074834
20
0.045801
30
0.0
11
-0.071292
21
0.045801
31
0.0
0
LINE
8
0
6
CONTINUOUS
10
-0.071292
20
0.045801
30
0.0
11
-0.069564
21
0.045801
31
0.0
0
LINE
8
0
6
CONTINUOUS
10
-0.068834
20
0.051801
30
0.0
11
-0.069855
21
0.051801
31
0.0
0
LINE
8
0
6
CONTINUOUS
10
-0.067490
20
0.051801
30
0.0
11
-0.068834
21
0.051801
31
0.0
0
LINE
8
0
6
CONTINUOUS
10
-0.066835
20
0.051801
30
0.0
11
-0.067490
21
0.051801
31
0.0
0
LINE
8
0
6
CONTINUOUS
10
-0.069855
20
0.051801
30
0.0
11
-0.068834
21
0.051801
31
0.0
0
LINE
8
0
6
CONTINUOUS
10
-0.068834
20
0.045801
30
0.0
11
-0.069966
21
0.045801
31
0.0
0
LINE
8
0
6
CONTINUOUS
10
-0.068834
20
0.051801
30
0.0
11
-0.067490
21
0.051801
31
0.0
0
LINE
8
0
6
CONTINUOUS
10
-0.067490
20
0.045801
30
0.0
11
-0.068834
21
0.045801
31
0.0
0
LINE
8
0
6
CONTINUOUS
10
-0.067490
20
0.051801
30
0.0
11
-0.066835
21
0.051801
31
0.0
0
LINE
8
0
6
CONTINUOUS
10
-0.066835
20
0.045801
30
0.0
11
-0.067490
21
0.045801
31
0.0
0
LINE
8
0
6
CONTINUOUS
10
-0.066835
20
0.045801
30
0.0
11
-0.066835
21
0.051801
31
0.0
0
LINE
8
0
6
CONTINUOUS
10
-0.069966
20
0.045801
30
0.0
11
-0.068834
21
0.045801
31
0.0
0
LINE
8
0
6
CONTINUOUS
10
-0.068834
20
0.045801
30
0.0
11
-0.067490
21
0.045801
31
0.0
0
LINE
8
0
6
CONTINUOUS
10
-0.067490
20
0.045801
30
0.0
11
-0.066835
21
0.045801
31
0.0
0
LINE
8
0
6
CONTINUOUS
10
-0.127875
20
0.062801
30
0.0
11
-0.127814
21
0.062801
31
0.0
0
LINE
8
0
6
CONTINUOUS
10
-0.127814
20
0.062801
30
0.0
11
-0.127451
21
0.062801
31
0.0
0
LINE
8
0
6
CONTINUOUS
10
-0.127451
20
0.062801
30
0.0
11
-0.126834
21
0.062801
31
0.0
0
LINE
8
0
6
CONTINUOUS
10
-0.127875
20
0.057801
30
0.0
11
-0.127814
21
0.057801
31
0.0
0
LINE
8
0
6
CONTINUOUS
10
-0.127875
20
0.062801
30
0.0
11
-0.127875
21
0.057801
31
0.0
0
LINE
8
0
6
CONTINUOUS
10
-0.127814
20
0.062801
30
0.0
11
-0.127875
21
0.062801
31
0.0
0
LINE
8
0
6
CONTINUOUS
10
-0.127814
20
0.057801
30
0.0
11
-0.127451
21
0.057801
31
0.0
0
LINE
8
0
6
CONTINUOUS
10
-0.127451
20
0.062801
30
0.0
11
-0.127814
21
0.062801
31
0.0
0
LINE
8
0
6
CONTINUOUS
10
-0.127451
20
0.057801
30
0.0
11
-0.126834
21
0.057801
31
0.0
0
LINE
8
0
6
CONTINUOUS
10
-0.126834
20
0.062801
30
0.0
11
-0.127451
21
0.062801
31
0.0
0
LINE
8
0
6
CONTINUOUS
10
-0.127814
20
0.057801
30
0.0
11
-0.127875
21
0.057801
31
0.0
0
LINE
8
0
6
CONTINUOUS
10
-0.127451
20
0.057801
30
0.0
11
-0.127814
21
0.057801
31
0.0
0
LINE
8
0
6
CONTINUOUS
10
-0.126834
20
0.057801
30
0.0
11
-0.127451
21
0.057801
31
0.0
0
LINE
8
0
6
CONTINUOUS
10
-0.120494
20
0.062801
30
0.0
11
-0.119716
21
0.062801
31
0.0
0
LINE
8
0
6
CONTINUOUS
10
-0.119716
20
0.062801
30
0.0
11
-0.119166
21
0.062801
31
0.0
0
LINE
8
0
6
CONTINUOUS
10
-0.119166
20
0.062801
30
0.0
11
-0.118898
21
0.062801
31
0.0
0
LINE
8
0
6
CONTINUOUS
10
-0.120494
20
0.057801
30
0.0
11
-0.119716
21
0.057801
31
0.0
0
LINE
8
0
6
CONTINUOUS
10
-0.119716
20
0.062801
30
0.0
11
-0.120494
21
0.062801
31
0.0
0
LINE
8
0
6
CONTINUOUS
10
-0.119716
20
0.057801
30
0.0
11
-0.119166
21
0.057801
31
0.0
0
LINE
8
0
6
CONTINUOUS
10
-0.119166
20
0.062801
30
0.0
11
-0.119716
21
0.062801
31
0.0
0
LINE
8
0
6
CONTINUOUS
10
-0.119166
20
0.057801
30
0.0
11
-0.118898
21
0.057801
31
0.0
0
LINE
8
0
6
CONTINUOUS
10
-0.118898
20
0.062801
30
0.0
11
-0.119166
21
0.062801
31
0.0
0
LINE
8
0
6
CONTINUOUS
10
-0.118898
20
0.062801
30
0.0
11
-0.118898
21
0.057801
31
0.0
0
LINE
8
0
6
CONTINUOUS
10
-0.119716
20
0.057801
30
0.0
11
-0.120494
21
0.057801
31
0.0
0
LINE
8
0
6
CONTINUOUS
10
-0.119166
20
0.057801
30
0.0
11
-0.119716
21
0.057801
31
0.0
0
LINE
8
0
6
CONTINUOUS
10
-0.118898
20
0.057801
30
0.0
11
-0.119166
21
0.057801
31
0.0
0
LINE
8
0
6
CONTINUOUS
10
-0.121481
20
0.062801
30
0.0
11
-0.120494
21
0.062801
31
0.0
0
LINE
8
0
6
CONTINUOUS
10
-0.122586
20
0.062801
30
0.0
11
-0.121481
21
0.062801
31
0.0
0
LINE
8
0
6
CONTINUOUS
10
-0.123780
20
0.062801
30
0.0
11
-0.122586
21
0.062801
31
0.0
0
LINE
8
0
6
CONTINUOUS
10
-0.124944
20
0.062801
30
0.0
11
-0.123780
21
0.062801
31
0.0
0
LINE
8
0
6
CONTINUOUS
10
-0.125970
20
0.062801
30
0.0
11
-0.124944
21
0.062801
31
0.0
0
LINE
8
0
6
CONTINUOUS
10
-0.126834
20
0.062801
30
0.0
11
-0.125970
21
0.062801
31
0.0
0
LINE
8
0
6
CONTINUOUS
10
-0.120494
20
0.062801
30
0.0
11
-0.121481
21
0.062801
31
0.0
0
LINE
8
0
6
CONTINUOUS
10
-0.121481
20
0.057801
30
0.0
11
-0.120494
21
0.057801
31
0.0
0
LINE
8
0
6
CONTINUOUS
10
-0.121481
20
0.062801
30
0.0
11
-0.122586
21
0.062801
31
0.0
0
LINE
8
0
6
CONTINUOUS
10
-0.122586
20
0.057801
30
0.0
11
-0.121481
21
0.057801
31
0.0
0
LINE
8
0
6
CONTINUOUS
10
-0.122586
20
0.062801
30
0.0
11
-0.123780
21
0.062801
31
0.0
0
LINE
8
0
6
CONTINUOUS
10
-0.123780
20
0.057801
30
0.0
11
-0.122586
21
0.057801
31
0.0
0
LINE
8
0
6
CONTINUOUS
10
-0.123780
20
0.062801
30
0.0
11
-0.124944
21
0.062801
31
0.0
0
LINE
8
0
6
CONTINUOUS
10
-0.124944
20
0.057801
30
0.0
11
-0.123780
21
0.057801
31
0.0
0
LINE
8
0
6
CONTINUOUS
10
-0.124944
20
0.062801
30
0.0
11
-0.125970
21
0.062801
31
0.0
0
LINE
8
0
6
CONTINUOUS
10
-0.125970
20
0.057801
30
0.0
11
-0.124944
21
0.057801
31
0.0
0
LINE
8
0
6
CONTINUOUS
10
-0.125970
20
0.062801
30
0.0
11
-0.126834
21
0.062801
31
0.0
0
LINE
8
0
6
CONTINUOUS
10
-0.126834
20
0.057801
30
0.0
11
-0.125970
21
0.057801
31
0.0
0
LINE
8
0
6
CONTINUOUS
10
-0.120494
20
0.057801
30
0.0
11
-0.121481
21
0.057801
31
0.0
0
LINE
8
0
6
CONTINUOUS
10
-0.121481
20
0.057801
30
0.0
11
-0.122586
21
0.057801
31
0.0
0
LINE
8
0
6
CONTINUOUS
10
-0.122586
20
0.057801
30
0.0
11
-0.123780
21
0.057801
31
0.0
0
LINE
8
0
6
CONTINUOUS
10
-0.123780
20
0.057801
30
0.0
11
-0.124944
21
0.057801
31
0.0
0
LINE
8
0
6
CONTINUOUS
10
-0.124944
20
0.057801
30
0.0
11
-0.125970
21
0.057801
31
0.0
0
LINE
8
0
6
CONTINUOUS
10
-0.125970
20
0.057801
30
0.0
11
-0.126834
21
0.057801
31
0.0
0
LINE
8
0
6
CONTINUOUS
10
-0.079850
20
0.051801
30
0.0
11
-0.086208
21
0.051801
31
0.0
0
LINE
8
0
6
CONTINUOUS
10
-0.086208
20
0.051801
30
0.0
11
-0.093329
21
0.051801
31
0.0
0
LINE
8
0
6
CONTINUOUS
10
-0.093329
20
0.051801
30
0.0
11
-0.101021
21
0.051801
31
0.0
0
LINE
8
0
6
CONTINUOUS
10
-0.101021
20
0.051801
30
0.0
11
-0.108528
21
0.051801
31
0.0
0
LINE
8
0
6
CONTINUOUS
10
-0.108528
20
0.051801
30
0.0
11
-0.111531
21
0.051801
31
0.0
0
LINE
8
0
6
CONTINUOUS
10
-0.079850
20
0.045801
30
0.0
11
-0.086208
21
0.045801
31
0.0
0
LINE
8
0
6
CONTINUOUS
10
-0.086208
20
0.051801
30
0.0
11
-0.079850
21
0.051801
31
0.0
0
LINE
8
0
6
CONTINUOUS
10
-0.086208
20
0.045801
30
0.0
11
-0.093329
21
0.045801
31
0.0
0
LINE
8
0
6
CONTINUOUS
10
-0.093329
20
0.051801
30
0.0
11
-0.086208
21
0.051801
31
0.0
0
LINE
8
0
6
CONTINUOUS
10
-0.093329
20
0.045801
30
0.0
11
-0.101021
21
0.045801
31
0.0
0
LINE
8
0
6
CONTINUOUS
10
-0.101021
20
0.051801
30
0.0
11
-0.093329
21
0.051801
31
0.0
0
LINE
8
0
6
CONTINUOUS
10
-0.101021
20
0.045801
30
0.0
11
-0.108528
21
0.045801
31
0.0
0
LINE
8
0
6
CONTINUOUS
10
-0.108528
20
0.051801
30
0.0
11
-0.101021
21
0.051801
31
0.0
0
LINE
8
0
6
CONTINUOUS
10
-0.111375
20
0.045801
30
0.0
11
-0.111531
21
0.051801
31
0.0
0
LINE
8
0
6
CONTINUOUS
10
-0.108528
20
0.045801
30
0.0
11
-0.111375
21
0.045801
31
0.0
0
LINE
8
0
6
CONTINUOUS
10
-0.111531
20
0.051801
30
0.0
11
-0.108528
21
0.051801
31
0.0
0
LINE
8
0
6
CONTINUOUS
10
-0.086208
20
0.045801
30
0.0
11
-0.079850
21
0.045801
31
0.0
0
LINE
8
0
6
CONTINUOUS
10
-0.093329
20
0.045801
30
0.0
11
-0.086208
21
0.045801
31
0.0
0
LINE
8
0
6
CONTINUOUS
10
-0.101021
20
0.045801
30
0.0
11
-0.093329
21
0.045801
31
0.0
0
LINE
8
0
6
CONTINUOUS
10
-0.108528
20
0.045801
30
0.0
11
-0.101021
21
0.045801
31
0.0
0
LINE
8
0
6
CONTINUOUS
10
-0.111375
20
0.045801
30
0.0
11
-0.108528
21
0.045801
31
0.0
0
LINE
8
0
6
CONTINUOUS
10
-0.111531
20
0.051801
30
0.0
11
-0.114515
21
0.051801
31
0.0
0
LINE
8
0
6
CONTINUOUS
10
-0.114515
20
0.051801
30
0.0
11
-0.117216
21
0.051801
31
0.0
0
LINE
8
0
6
CONTINUOUS
10
-0.117216
20
0.051801
30
0.0
11
-0.120134
21
0.051801
31
0.0
0
LINE
8
0
6
CONTINUOUS
10
-0.120134
20
0.051801
30
0.0
11
-0.122981
21
0.051801
31
0.0
0
LINE
8
0
6
CONTINUOUS
10
-0.122981
20
0.051801
30
0.0
11
-0.125487
21
0.051801
31
0.0
0
LINE
8
0
6
CONTINUOUS
10
-0.125487
20
0.051801
30
0.0
11
-0.127600
21
0.051801
31
0.0
0
LINE
8
0
6
CONTINUOUS
10
-0.111375
20
0.045801
30
0.0
11
-0.114515
21
0.045801
31
0.0
0
LINE
8
0
6
CONTINUOUS
10
-0.111531
20
0.051801
30
0.0
11
-0.111375
21
0.045801
31
0.0
0
LINE
8
0
6
CONTINUOUS
10
-0.114515
20
0.051801
30
0.0
11
-0.111531
21
0.051801
31
0.0
0
LINE
8
0
6
CONTINUOUS
10
-0.114515
20
0.045801
30
0.0
11
-0.117216
21
0.045801
31
0.0
0
LINE
8
0
6
CONTINUOUS
10
-0.117216
20
0.051801
30
0.0
11
-0.114515
21
0.051801
31
0.0
0
LINE
8
0
6
CONTINUOUS
10
-0.117216
20
0.045801
30
0.0
11
-0.120134
21
0.045801
31
0.0
0
LINE
8
0
6
CONTINUOUS
10
-0.120134
20
0.051801
30
0.0
11
-0.117216
21
0.051801
31
0.0
0
LINE
8
0
6
CONTINUOUS
10
-0.120134
20
0.045801
30
0.0
11
-0.122981
21
0.045801
31
0.0
0
LINE
8
0
6
CONTINUOUS
10
-0.122981
20
0.051801
30
0.0
11
-0.120134
21
0.051801
31
0.0
0
LINE
8
0
6
CONTINUOUS
10
-0.122981
20
0.045801
30
0.0
11
-0.125487
21
0.045801
31
0.0
0
LINE
8
0
6
CONTINUOUS
10
-0.125487
20
0.051801
30
0.0
11
-0.122981
21
0.051801
31
0.0
0
LINE
8
0
6
CONTINUOUS
10
-0.125487
20
0.045801
30
0.0
11
-0.127600
21
0.045801
31
0.0
0
LINE
8
0
6
CONTINUOUS
10
-0.127600
20
0.051801
30
0.0
11
-0.125487
21
0.051801
31
0.0
0
LINE
8
0
6
CONTINUOUS
10
-0.114515
20
0.045801
30
0.0
11
-0.111375
21
0.045801
31
0.0
0
LINE
8
0
6
CONTINUOUS
10
-0.117216
20
0.045801
30
0.0
11
-0.114515
21
0.045801
31
0.0
0
LINE
8
0
6
CONTINUOUS
10
-0.120134
20
0.045801
30
0.0
11
-0.117216
21
0.045801
31
0.0
0
LINE
8
0
6
CONTINUOUS
10
-0.122981
20
0.045801
30
0.0
11
-0.120134
21
0.045801
31
0.0
0
LINE
8
0
6
CONTINUOUS
10
-0.125487
20
0.045801
30
0.0
11
-0.122981
21
0.045801
31
0.0
0
LINE
8
0
6
CONTINUOUS
10
-0.127600
20
0.045801
30
0.0
11
-0.125487
21
0.045801
31
0.0
0
LINE
8
0
6
CONTINUOUS
10
-0.126379
20
0.057801
30
0.0
11
-0.126379
21
0.051801
31
0.0
0
LINE
8
0
6
CONTINUOUS
10
-0.120395
20
0.057801
30
0.0
11
-0.120395
21
0.051801
31
0.0
0
LINE
8
0
6
CONTINUOUS
10
-0.127875
20
0.040801
30
0.0
11
-0.127814
21
0.040801
31
0.0
0
LINE
8
0
6
CONTINUOUS
10
-0.127875
20
0.045801
30
0.0
11
-0.127875
21
0.040801
31
0.0
0
LINE
8
0
6
CONTINUOUS
10
-0.127814
20
0.040801
30
0.0
11
-0.127451
21
0.040801
31
0.0
0
LINE
8
0
6
CONTINUOUS
10
-0.127451
20
0.040801
30
0.0
11
-0.126834
21
0.040801
31
0.0
0
LINE
8
0
6
CONTINUOUS
10
-0.127814
20
0.040801
30
0.0
11
-0.127875
21
0.040801
31
0.0
0
LINE
8
0
6
CONTINUOUS
10
-0.127451
20
0.040801
30
0.0
11
-0.127814
21
0.040801
31
0.0
0
LINE
8
0
6
CONTINUOUS
10
-0.126834
20
0.040801
30
0.0
11
-0.127451
21
0.040801
31
0.0
0
LINE
8
0
6
CONTINUOUS
10
-0.120494
20
0.040801
30
0.0
11
-0.119716
21
0.040801
31
0.0
0
LINE
8
0
6
CONTINUOUS
10
-0.119716
20
0.040801
30
0.0
11
-0.119166
21
0.040801
31
0.0
0
LINE
8
0
6
CONTINUOUS
10
-0.119166
20
0.040801
30
0.0
11
-0.118898
21
0.040801
31
0.0
0
LINE
8
0
6
CONTINUOUS
10
-0.118898
20
0.045801
30
0.0
11
-0.118898
21
0.040801
31
0.0
0
LINE
8
0
6
CONTINUOUS
10
-0.119716
20
0.040801
30
0.0
11
-0.120494
21
0.040801
31
0.0
0
LINE
8
0
6
CONTINUOUS
10
-0.119166
20
0.040801
30
0.0
11
-0.119716
21
0.040801
31
0.0
0
LINE
8
0
6
CONTINUOUS
10
-0.118898
20
0.040801
30
0.0
11
-0.119166
21
0.040801
31
0.0
0
LINE
8
0
6
CONTINUOUS
10
-0.121481
20
0.040801
30
0.0
11
-0.120494
21
0.040801
31
0.0
0
LINE
8
0
6
CONTINUOUS
10
-0.122586
20
0.040801
30
0.0
11
-0.121481
21
0.040801
31
0.0
0
LINE
8
0
6
CONTINUOUS
10
-0.123780
20
0.040801
30
0.0
11
-0.122586
21
0.040801
31
0.0
0
LINE
8
0
6
CONTINUOUS
10
-0.124944
20
0.040801
30
0.0
11
-0.123780
21
0.040801
31
0.0
0
LINE
8
0
6
CONTINUOUS
10
-0.125970
20
0.040801
30
0.0
11
-0.124944
21
0.040801
31
0.0
0
LINE
8
0
6
CONTINUOUS
10
-0.126834
20
0.040801
30
0.0
11
-0.125970
21
0.040801
31
0.0
0
LINE
8
0
6
CONTINUOUS
10
-0.120494
20
0.040801
30
0.0
11
-0.121481
21
0.040801
31
0.0
0
LINE
8
0
6
CONTINUOUS
10
-0.121481
20
0.040801
30
0.0
11
-0.122586
21
0.040801
31
0.0
0
LINE
8
0
6
CONTINUOUS
10
-0.122586
20
0.040801
30
0.0
11
-0.123780
21
0.040801
31
0.0
0
LINE
8
0
6
CONTINUOUS
10
-0.123780
20
0.040801
30
0.0
11
-0.124944
21
0.040801
31
0.0
0
LINE
8
0
6
CONTINUOUS
10
-0.124944
20
0.040801
30
0.0
11
-0.125970
21
0.040801
31
0.0
0
LINE
8
0
6
CONTINUOUS
10
-0.125970
20
0.040801
30
0.0
11
-0.126834
21
0.040801
31
0.0
0
LINE
8
0
6
CONTINUOUS
10
-0.010411
20
0.074339
30
0.0
11
-0.004011
21
0.074339
31
0.0
0
LINE
8
0
6
CONTINUOUS
10
-0.004011
20
0.074339
30
0.0
11
0.003355
21
0.074339
31
0.0
0
LINE
8
0
6
CONTINUOUS
10
0.003355
20
0.074339
30
0.0
11
0.011509
21
0.074339
31
0.0
0
LINE
8
0
6
CONTINUOUS
10
0.011509
20
0.074339
30
0.0
11
0.019663
21
0.074339
31
0.0
0
LINE
8
0
6
CONTINUOUS
10
0.019663
20
0.074339
30
0.0
11
0.027029
21
0.074339
31
0.0
0
LINE
8
0
6
CONTINUOUS
10
0.027029
20
0.074339
30
0.0
11
0.033429
21
0.074339
31
0.0
0
LINE
8
0
6
CONTINUOUS
10
0.042548
20
0.074339
30
0.0
11
0.041671
21
0.074801
31
0.0
0
LINE
8
0
6
CONTINUOUS
10
0.041408
20
0.074339
30
0.0
11
0.042548
21
0.074339
31
0.0
0
LINE
8
0
6
CONTINUOUS
10
0.038252
20
0.074339
30
0.0
11
0.041408
21
0.074339
31
0.0
0
LINE
8
0
6
CONTINUOUS
10
0.033429
20
0.074339
30
0.0
11
0.038252
21
0.074339
31
0.0
0
LINE
8
0
6
CONTINUOUS
10
-0.009885
20
0.072801
30
0.0
11
-0.003572
21
0.072801
31
0.0
0
LINE
8
0
6
CONTINUOUS
10
-0.003572
20
0.072801
30
0.0
11
0.003618
21
0.072801
31
0.0
0
LINE
8
0
6
CONTINUOUS
10
0.003618
20
0.072801
30
0.0
11
0.011509
21
0.072801
31
0.0
0
LINE
8
0
6
CONTINUOUS
10
0.011509
20
0.072801
30
0.0
11
0.019400
21
0.072801
31
0.0
0
LINE
8
0
6
CONTINUOUS
10
0.019400
20
0.072801
30
0.0
11
0.026590
21
0.072801
31
0.0
0
LINE
8
0
6
CONTINUOUS
10
0.026590
20
0.072801
30
0.0
11
0.032903
21
0.072801
31
0.0
0
LINE
8
0
6
CONTINUOUS
10
-0.009885
20
0.072801
30
0.0
11
-0.003572
21
0.072801
31
0.0
0
LINE
8
0
6
CONTINUOUS
10
-0.004011
20
0.073263
30
0.0
11
-0.010411
21
0.073263
31
0.0
0
LINE
8
0
6
CONTINUOUS
10
-0.003572
20
0.072801
30
0.0
11
0.003618
21
0.072801
31
0.0
0
LINE
8
0
6
CONTINUOUS
10
0.003355
20
0.073263
30
0.0
11
-0.004011
21
0.073263
31
0.0
0
LINE
8
0
6
CONTINUOUS
10
0.003618
20
0.072801
30
0.0
11
0.011509
21
0.072801
31
0.0
0
LINE
8
0
6
CONTINUOUS
10
0.011509
20
0.073263
30
0.0
11
0.003355
21
0.073263
31
0.0
0
LINE
8
0
6
CONTINUOUS
10
0.011509
20
0.072801
30
0.0
11
0.019400
21
0.072801
31
0.0
0
LINE
8
0
6
CONTINUOUS
10
0.019663
20
0.073263
30
0.0
11
0.011509
21
0.073263
31
0.0
0
LINE
8
0
6
CONTINUOUS
10
0.019400
20
0.072801
30
0.0
11
0.026590
21
0.072801
31
0.0
0
LINE
8
0
6
CONTINUOUS
10
0.027029
20
0.073263
30
0.0
11
0.019663
21
0.073263
31
0.0
0
LINE
8
0
6
CONTINUOUS
10
0.026590
20
0.072801
30
0.0
11
0.032903
21
0.072801
31
0.0
0
LINE
8
0
6
CONTINUOUS
10
0.033429
20
0.073263
30
0.0
11
0.027029
21
0.073263
31
0.0
0
LINE
8
0
6
CONTINUOUS
10
-0.010411
20
0.073263
30
0.0
11
-0.004011
21
0.073263
31
0.0
0
LINE
8
0
6
CONTINUOUS
10
-0.004011
20
0.074339
30
0.0
11
-0.010411
21
0.074339
31
0.0
0
LINE
8
0
6
CONTINUOUS
10
-0.004011
20
0.073263
30
0.0
11
0.003355
21
0.073263
31
0.0
0
LINE
8
0
6
CONTINUOUS
10
0.003355
20
0.074339
30
0.0
11
-0.004011
21
0.074339
31
0.0
0
LINE
8
0
6
CONTINUOUS
10
0.003355
20
0.073263
30
0.0
11
0.011509
21
0.073263
31
0.0
0
LINE
8
0
6
CONTINUOUS
10
0.011509
20
0.074339
30
0.0
11
0.003355
21
0.074339
31
0.0
0
LINE
8
0
6
CONTINUOUS
10
0.011509
20
0.073263
30
0.0
11
0.019663
21
0.073263
31
0.0
0
LINE
8
0
6
CONTINUOUS
10
0.019663
20
0.074339
30
0.0
11
0.011509
21
0.074339
31
0.0
0
LINE
8
0
6
CONTINUOUS
10
0.019663
20
0.073263
30
0.0
11
0.027029
21
0.073263
31
0.0
0
LINE
8
0
6
CONTINUOUS
10
0.027029
20
0.074339
30
0.0
11
0.019663
21
0.074339
31
0.0
0
LINE
8
0
6
CONTINUOUS
10
0.027029
20
0.073263
30
0.0
11
0.033429
21
0.073263
31
0.0
0
LINE
8
0
6
CONTINUOUS
10
0.033429
20
0.074339
30
0.0
11
0.027029
21
0.074339
31
0.0
0
LINE
8
0
6
CONTINUOUS
10
0.040619
20
0.072801
30
0.0
11
0.041671
21
0.072801
31
0.0
0
LINE
8
0
6
CONTINUOUS
10
0.037638
20
0.072801
30
0.0
11
0.040619
21
0.072801
31
0.0
0
LINE
8
0
6
CONTINUOUS
10
0.032903
20
0.072801
30
0.0
11
0.037638
21
0.072801
31
0.0
0
LINE
8
0
6
CONTINUOUS
10
0.042548
20
0.073263
30
0.0
11
0.041408
21
0.073263
31
0.0
0
LINE
8
0
6
CONTINUOUS
10
0.041671
20
0.072801
30
0.0
11
0.042548
21
0.073263
31
0.0
0
LINE
8
0
6
CONTINUOUS
10
0.040619
20
0.072801
30
0.0
11
0.041671
21
0.072801
31
0.0
0
LINE
8
0
6
CONTINUOUS
10
0.041408
20
0.073263
30
0.0
11
0.038252
21
0.073263
31
0.0
0
LINE
8
0
6
CONTINUOUS
10
0.037638
20
0.072801
30
0.0
11
0.040619
21
0.072801
31
0.0
0
LINE
8
0
6
CONTINUOUS
10
0.038252
20
0.073263
30
0.0
11
0.033429
21
0.073263
31
0.0
0
LINE
8
0
6
CONTINUOUS
10
0.032903
20
0.072801
30
0.0
11
0.037638
21
0.072801
31
0.0
0
LINE
8
0
6
CONTINUOUS
10
0.042548
20
0.074339
30
0.0
11
0.041408
21
0.074339
31
0.0
0
LINE
8
0
6
CONTINUOUS
10
0.042548
20
0.073263
30
0.0
11
0.042548
21
0.074339
31
0.0
0
LINE
8
0
6
CONTINUOUS
10
0.041408
20
0.073263
30
0.0
11
0.042548
21
0.073263
31
0.0
0
LINE
8
0
6
CONTINUOUS
10
0.041408
20
0.074339
30
0.0
11
0.038252
21
0.074339
31
0.0
0
LINE
8
0
6
CONTINUOUS
10
0.038252
20
0.073263
30
0.0
11
0.041408
21
0.073263
31
0.0
0
LINE
8
0
6
CONTINUOUS
10
0.038252
20
0.074339
30
0.0
11
0.033429
21
0.074339
31
0.0
0
LINE
8
0
6
CONTINUOUS
10
0.033429
20
0.073263
30
0.0
11
0.038252
21
0.073263
31
0.0
0
LINE
8
0
6
CONTINUOUS
10
-0.014620
20
0.072801
30
0.0
11
-0.009885
21
0.072801
31
0.0
0
LINE
8
0
6
CONTINUOUS
10
-0.017601
20
0.072801
30
0.0
11
-0.014620
21
0.072801
31
0.0
0
LINE
8
0
6
CONTINUOUS
10
-0.018653
20
0.072801
30
0.0
11
-0.017601
21
0.072801
31
0.0
0
LINE
8
0
6
CONTINUOUS
10
-0.010411
20
0.073263
30
0.0
11
-0.015234
21
0.073263
31
0.0
0
LINE
8
0
6
CONTINUOUS
10
-0.014620
20
0.072801
30
0.0
11
-0.009885
21
0.072801
31
0.0
0
LINE
8
0
6
CONTINUOUS
10
-0.015234
20
0.073263
30
0.0
11
-0.018390
21
0.073263
31
0.0
0
LINE
8
0
6
CONTINUOUS
10
-0.017601
20
0.072801
30
0.0
11
-0.014620
21
0.072801
31
0.0
0
LINE
8
0
6
CONTINUOUS
10
-0.018390
20
0.073263
30
0.0
11
-0.019530
21
0.073263
31
0.0
0
LINE
8
0
6
CONTINUOUS
10
-0.018653
20
0.072801
30
0.0
11
-0.017601
21
0.072801
31
0.0
0
LINE
8
0
6
CONTINUOUS
10
-0.018653
20
0.072801
30
0.0
11
-0.019530
21
0.073263
31
0.0
0
LINE
8
0
6
CONTINUOUS
10
-0.010411
20
0.074339
30
0.0
11
-0.015234
21
0.074339
31
0.0
0
LINE
8
0
6
CONTINUOUS
10
-0.015234
20
0.073263
30
0.0
11
-0.010411
21
0.073263
31
0.0
0
LINE
8
0
6
CONTINUOUS
10
-0.015234
20
0.074339
30
0.0
11
-0.018390
21
0.074339
31
0.0
0
LINE
8
0
6
CONTINUOUS
10
-0.018390
20
0.073263
30
0.0
11
-0.015234
21
0.073263
31
0.0
0
LINE
8
0
6
CONTINUOUS
10
-0.018390
20
0.074339
30
0.0
11
-0.019530
21
0.074339
31
0.0
0
LINE
8
0
6
CONTINUOUS
10
-0.019530
20
0.073263
30
0.0
11
-0.018390
21
0.073263
31
0.0
0
LINE
8
0
6
CONTINUOUS
10
-0.019530
20
0.073263
30
0.0
11
-0.019530
21
0.074339
31
0.0
0
LINE
8
0
6
CONTINUOUS
10
-0.015234
20
0.074339
30
0.0
11
-0.010411
21
0.074339
31
0.0
0
LINE
8
0
6
CONTINUOUS
10
-0.018390
20
0.074339
30
0.0
11
-0.015234
21
0.074339
31
0.0
0
LINE
8
0
6
CONTINUOUS
10
-0.019530
20
0.074339
30
0.0
11
-0.018390
21
0.074339
31
0.0
0
LINE
8
0
6
CONTINUOUS
10
-0.019530
20
0.074339
30
0.0
11
-0.018653
21
0.074801
31
0.0
0
LINE
8
0
6
CONTINUOUS
10
-0.003572
20
0.070801
30
0.0
11
-0.009885
21
0.070801
31
0.0
0
LINE
8
0
6
CONTINUOUS
10
0.003618
20
0.070801
30
0.0
11
-0.003572
21
0.070801
31
0.0
0
LINE
8
0
6
CONTINUOUS
10
0.011509
20
0.070801
30
0.0
11
0.003618
21
0.070801
31
0.0
0
LINE
8
0
6
CONTINUOUS
10
0.019400
20
0.070801
30
0.0
11
0.011509
21
0.070801
31
0.0
0
LINE
8
0
6
CONTINUOUS
10
0.026590
20
0.070801
30
0.0
11
0.019400
21
0.070801
31
0.0
0
LINE
8
0
6
CONTINUOUS
10
0.032903
20
0.070801
30
0.0
11
0.026590
21
0.070801
31
0.0
0
LINE
8
0
6
CONTINUOUS
10
-0.010411
20
0.070339
30
0.0
11
-0.004011
21
0.070339
31
0.0
0
LINE
8
0
6
CONTINUOUS
10
-0.003572
20
0.070801
30
0.0
11
-0.009885
21
0.070801
31
0.0
0
LINE
8
0
6
CONTINUOUS
10
-0.004011
20
0.070339
30
0.0
11
0.003355
21
0.070339
31
0.0
0
LINE
8
0
6
CONTINUOUS
10
0.003618
20
0.070801
30
0.0
11
-0.003572
21
0.070801
31
0.0
0
LINE
8
0
6
CONTINUOUS
10
0.003355
20
0.070339
30
0.0
11
0.011509
21
0.070339
31
0.0
0
LINE
8
0
6
CONTINUOUS
10
0.011509
20
0.070801
30
0.0
11
0.003618
21
0.070801
31
0.0
0
LINE
8
0
6
CONTINUOUS
10
0.011509
20
0.070339
30
0.0
11
0.019663
21
0.070339
31
0.0
0
LINE
8
0
6
CONTINUOUS
10
0.019400
20
0.070801
30
0.0
11
0.011509
21
0.070801
31
0.0
0
LINE
8
0
6
CONTINUOUS
10
0.019663
20
0.070339
30
0.0
11
0.027029
21
0.070339
31
0.0
0
LINE
8
0
6
CONTINUOUS
10
0.026590
20
0.070801
30
0.0
11
0.019400
21
0.070801
31
0.0
0
LINE
8
0
6
CONTINUOUS
10
0.027029
20
0.070339
30
0.0
11
0.033429
21
0.070339
31
0.0
0
LINE
8
0
6
CONTINUOUS
10
0.032903
20
0.070801
30
0.0
11
0.026590
21
0.070801
31
0.0
0
LINE
8
0
6
CONTINUOUS
10
0.041671
20
0.070801
30
0.0
11
0.040619
21
0.070801
31
0.0
0
LINE
8
0
6
CONTINUOUS
10
0.040619
20
0.070801
30
0.0
11
0.037638
21
0.070801
31
0.0
0
LINE
8
0
6
CONTINUOUS
10
0.037638
20
0.070801
30
0.0
11
0.032903
21
0.070801
31
0.0
0
LINE
8
0
6
CONTINUOUS
10
0.041671
20
0.070801
30
0.0
11
0.040619
21
0.070801
31
0.0
0
LINE
8
0
6
CONTINUOUS
10
0.042548
20
0.070339
30
0.0
11
0.041671
21
0.070801
31
0.0
0
LINE
8
0
6
CONTINUOUS
10
0.041408
20
0.070339
30
0.0
11
0.042548
21
0.070339
31
0.0
0
LINE
8
0
6
CONTINUOUS
10
0.040619
20
0.070801
30
0.0
11
0.037638
21
0.070801
31
0.0
0
LINE
8
0
6
CONTINUOUS
10
0.038252
20
0.070339
30
0.0
11
0.041408
21
0.070339
31
0.0
0
LINE
8
0
6
CONTINUOUS
10
0.037638
20
0.070801
30
0.0
11
0.032903
21
0.070801
31
0.0
0
LINE
8
0
6
CONTINUOUS
10
0.033429
20
0.070339
30
0.0
11
0.038252
21
0.070339
31
0.0
0
LINE
8
0
6
CONTINUOUS
10
-0.003572
20
0.068801
30
0.0
11
-0.009885
21
0.068801
31
0.0
0
LINE
8
0
6
CONTINUOUS
10
0.003618
20
0.068801
30
0.0
11
-0.003572
21
0.068801
31
0.0
0
LINE
8
0
6
CONTINUOUS
10
0.011509
20
0.068801
30
0.0
11
0.003618
21
0.068801
31
0.0
0
LINE
8
0
6
CONTINUOUS
10
0.019400
20
0.068801
30
0.0
11
0.011509
21
0.068801
31
0.0
0
LINE
8
0
6
CONTINUOUS
10
0.026590
20
0.068801
30
0.0
11
0.019400
21
0.068801
31
0.0
0
LINE
8
0
6
CONTINUOUS
10
0.032903
20
0.068801
30
0.0
11
0.026590
21
0.068801
31
0.0
0
LINE
8
0
6
CONTINUOUS
10
-0.009885
20
0.068801
30
0.0
11
-0.003572
21
0.068801
31
0.0
0
LINE
8
0
6
CONTINUOUS
10
-0.004011
20
0.069263
30
0.0
11
-0.010411
21
0.069263
31
0.0
0
LINE
8
0
6
CONTINUOUS
10
-0.003572
20
0.068801
30
0.0
11
0.003618
21
0.068801
31
0.0
0
LINE
8
0
6
CONTINUOUS
10
0.003355
20
0.069263
30
0.0
11
-0.004011
21
0.069263
31
0.0
0
LINE
8
0
6
CONTINUOUS
10
0.003618
20
0.068801
30
0.0
11
0.011509
21
0.068801
31
0.0
0
LINE
8
0
6
CONTINUOUS
10
0.011509
20
0.069263
30
0.0
11
0.003355
21
0.069263
31
0.0
0
LINE
8
0
6
CONTINUOUS
10
0.011509
20
0.068801
30
0.0
11
0.019400
21
0.068801
31
0.0
0
LINE
8
0
6
CONTINUOUS
10
0.019663
20
0.069263
30
0.0
11
0.011509
21
0.069263
31
0.0
0
LINE
8
0
6
CONTINUOUS
10
0.019400
20
0.068801
30
0.0
11
0.026590
21
0.068801
31
0.0
0
LINE
8
0
6
CONTINUOUS
10
0.027029
20
0.069263
30
0.0
11
0.019663
21
0.069263
31
0.0
0
LINE
8
0
6
CONTINUOUS
10
0.026590
20
0.068801
30
0.0
11
0.032903
21
0.068801
31
0.0
0
LINE
8
0
6
CONTINUOUS
10
0.033429
20
0.069263
30
0.0
11
0.027029
21
0.069263
31
0.0
0
LINE
8
0
6
CONTINUOUS
10
-0.010411
20
0.069263
30
0.0
11
-0.004011
21
0.069263
31
0.0
0
LINE
8
0
6
CONTINUOUS
10
-0.004011
20
0.070339
30
0.0
11
-0.010411
21
0.070339
31
0.0
0
LINE
8
0
6
CONTINUOUS
10
-0.004011
20
0.069263
30
0.0
11
0.003355
21
0.069263
31
0.0
0
LINE
8
0
6
CONTINUOUS
10
0.003355
20
0.070339
30
0.0
11
-0.004011
21
0.070339
31
0.0
0
LINE
8
0
6
CONTINUOUS
10
0.003355
20
0.069263
30
0.0
11
0.011509
21
0.069263
31
0.0
0
LINE
8
0
6
CONTINUOUS
10
0.011509
20
0.070339
30
0.0
11
0.003355
21
0.070339
31
0.0
0
LINE
8
0
6
CONTINUOUS
10
0.011509
20
0.069263
30
0.0
11
0.019663
21
0.069263
31
0.0
0
LINE
8
0
6
CONTINUOUS
10
0.019663
20
0.070339
30
0.0
11
0.011509
21
0.070339
31
0.0
0
LINE
8
0
6
CONTINUOUS
10
0.019663
20
0.069263
30
0.0
11
0.027029
21
0.069263
31
0.0
0
LINE
8
0
6
CONTINUOUS
10
0.027029
20
0.070339
30
0.0
11
0.019663
21
0.070339
31
0.0
0
LINE
8
0
6
CONTINUOUS
10
0.027029
20
0.069263
30
0.0
11
0.033429
21
0.069263
31
0.0
0
LINE
8
0
6
CONTINUOUS
10
0.033429
20
0.070339
30
0.0
11
0.027029
21
0.070339
31
0.0
0
LINE
8
0
6
CONTINUOUS
10
0.041671
20
0.068801
30
0.0
11
0.040619
21
0.068801
31
0.0
0
LINE
8
0
6
CONTINUOUS
10
0.040619
20
0.068801
30
0.0
11
0.037638
21
0.068801
31
0.0
0
LINE
8
0
6
CONTINUOUS
10
0.037638
20
0.068801
30
0.0
11
0.032903
21
0.068801
31
0.0
0
LINE
8
0
6
CONTINUOUS
10
0.042548
20
0.069263
30
0.0
11
0.041408
21
0.069263
31
0.0
0
LINE
8
0
6
CONTINUOUS
10
0.041671
20
0.068801
30
0.0
11
0.042548
21
0.069263
31
0.0
0
LINE
8
0
6
CONTINUOUS
10
0.040619
20
0.068801
30
0.0
11
0.041671
21
0.068801
31
0.0
0
LINE
8
0
6
CONTINUOUS
10
0.041408
20
0.069263
30
0.0
11
0.038252
21
0.069263
31
0.0
0
LINE
8
0
6
CONTINUOUS
10
0.037638
20
0.068801
30
0.0
11
0.040619
21
0.068801
31
0.0
0
LINE
8
0
6
CONTINUOUS
10
0.038252
20
0.069263
30
0.0
11
0.033429
21
0.069263
31
0.0
0
LINE
8
0
6
CONTINUOUS
10
0.032903
20
0.068801
30
0.0
11
0.037638
21
0.068801
31
0.0
0
LINE
8
0
6
CONTINUOUS
10
0.042548
20
0.070339
30
0.0
11
0.041408
21
0.070339
31
0.0
0
LINE
8
0
6
CONTINUOUS
10
0.042548
20
0.069263
30
0.0
11
0.042548
21
0.070339
31
0.0
0
LINE
8
0
6
CONTINUOUS
10
0.041408
20
0.069263
30
0.0
11
0.042548
21
0.069263
31
0.0
0
LINE
8
0
6
CONTINUOUS
10
0.041408
20
0.070339
30
0.0
11
0.038252
21
0.070339
31
0.0
0
LINE
8
0
6
CONTINUOUS
10
0.038252
20
0.069263
30
0.0
11
0.041408
21
0.069263
31
0.0
0
LINE
8
0
6
CONTINUOUS
10
0.038252
20
0.070339
30
0.0
11
0.033429
21
0.070339
31
0.0
0
LINE
8
0
6
CONTINUOUS
10
0.033429
20
0.069263
30
0.0
11
0.038252
21
0.069263
31
0.0
0
LINE
8
0
6
CONTINUOUS
10
-0.009885
20
0.068801
30
0.0
11
-0.014620
21
0.068801
31
0.0
0
LINE
8
0
6
CONTINUOUS
10
-0.014620
20
0.068801
30
0.0
11
-0.017601
21
0.068801
31
0.0
0
LINE
8
0
6
CONTINUOUS
10
-0.017601
20
0.068801
30
0.0
11
-0.018653
21
0.068801
31
0.0
0
LINE
8
0
6
CONTINUOUS
10
-0.010411
20
0.069263
30
0.0
11
-0.015234
21
0.069263
31
0.0
0
LINE
8
0
6
CONTINUOUS
10
-0.014620
20
0.068801
30
0.0
11
-0.009885
21
0.068801
31
0.0
0
LINE
8
0
6
CONTINUOUS
10
-0.015234
20
0.069263
30
0.0
11
-0.018390
21
0.069263
31
0.0
0
LINE
8
0
6
CONTINUOUS
10
-0.017601
20
0.068801
30
0.0
11
-0.014620
21
0.068801
31
0.0
0
LINE
8
0
6
CONTINUOUS
10
-0.018390
20
0.069263
30
0.0
11
-0.019530
21
0.069263
31
0.0
0
LINE
8
0
6
CONTINUOUS
10
-0.018653
20
0.068801
30
0.0
11
-0.017601
21
0.068801
31
0.0
0
LINE
8
0
6
CONTINUOUS
10
-0.018653
20
0.068801
30
0.0
11
-0.019530
21
0.069263
31
0.0
0
LINE
8
0
6
CONTINUOUS
10
-0.010411
20
0.070339
30
0.0
11
-0.015234
21
0.070339
31
0.0
0
LINE
8
0
6
CONTINUOUS
10
-0.015234
20
0.069263
30
0.0
11
-0.010411
21
0.069263
31
0.0
0
LINE
8
0
6
CONTINUOUS
10
-0.015234
20
0.070339
30
0.0
11
-0.018390
21
0.070339
31
0.0
0
LINE
8
0
6
CONTINUOUS
10
-0.018390
20
0.069263
30
0.0
11
-0.015234
21
0.069263
31
0.0
0
LINE
8
0
6
CONTINUOUS
10
-0.018390
20
0.070339
30
0.0
11
-0.019530
21
0.070339
31
0.0
0
LINE
8
0
6
CONTINUOUS
10
-0.019530
20
0.069263
30
0.0
11
-0.018390
21
0.069263
31
0.0
0
LINE
8
0
6
CONTINUOUS
10
-0.019530
20
0.069263
30
0.0
11
-0.019530
21
0.070339
31
0.0
0
LINE
8
0
6
CONTINUOUS
10
-0.009885
20
0.070801
30
0.0
11
-0.014620
21
0.070801
31
0.0
0
LINE
8
0
6
CONTINUOUS
10
-0.014620
20
0.070801
30
0.0
11
-0.017601
21
0.070801
31
0.0
0
LINE
8
0
6
CONTINUOUS
10
-0.017601
20
0.070801
30
0.0
11
-0.018653
21
0.070801
31
0.0
0
LINE
8
0
6
CONTINUOUS
10
-0.009885
20
0.070801
30
0.0
11
-0.014620
21
0.070801
31
0.0
0
LINE
8
0
6
CONTINUOUS
10
-0.015234
20
0.070339
30
0.0
11
-0.010411
21
0.070339
31
0.0
0
LINE
8
0
6
CONTINUOUS
10
-0.014620
20
0.070801
30
0.0
11
-0.017601
21
0.070801
31
0.0
0
LINE
8
0
6
CONTINUOUS
10
-0.018390
20
0.070339
30
0.0
11
-0.015234
21
0.070339
31
0.0
0
LINE
8
0
6
CONTINUOUS
10
-0.017601
20
0.070801
30
0.0
11
-0.018653
21
0.070801
31
0.0
0
LINE
8
0
6
CONTINUOUS
10
-0.019530
20
0.070339
30
0.0
11
-0.018390
21
0.070339
31
0.0
0
LINE
8
0
6
CONTINUOUS
10
-0.019530
20
0.070339
30
0.0
11
-0.018653
21
0.070801
31
0.0
0
LINE
8
0
6
CONTINUOUS
10
-0.009885
20
0.072801
30
0.0
11
-0.003572
21
0.072801
31
0.0
0
LINE
8
0
6
CONTINUOUS
10
-0.003572
20
0.072801
30
0.0
11
0.003618
21
0.072801
31
0.0
0
LINE
8
0
6
CONTINUOUS
10
0.003618
20
0.072801
30
0.0
11
0.011509
21
0.072801
31
0.0
0
LINE
8
0
6
CONTINUOUS
10
0.011509
20
0.072801
30
0.0
11
0.019400
21
0.072801
31
0.0
0
LINE
8
0
6
CONTINUOUS
10
0.019400
20
0.072801
30
0.0
11
0.026590
21
0.072801
31
0.0
0
LINE
8
0
6
CONTINUOUS
10
0.026590
20
0.072801
30
0.0
11
0.032903
21
0.072801
31
0.0
0
LINE
8
0
6
CONTINUOUS
10
-0.010411
20
0.072339
30
0.0
11
-0.004011
21
0.072339
31
0.0
0
LINE
8
0
6
CONTINUOUS
10
-0.003572
20
0.072801
30
0.0
11
-0.009885
21
0.072801
31
0.0
0
LINE
8
0
6
CONTINUOUS
10
-0.004011
20
0.072339
30
0.0
11
0.003355
21
0.072339
31
0.0
0
LINE
8
0
6
CONTINUOUS
10
0.003618
20
0.072801
30
0.0
11
-0.003572
21
0.072801
31
0.0
0
LINE
8
0
6
CONTINUOUS
10
0.003355
20
0.072339
30
0.0
11
0.011509
21
0.072339
31
0.0
0
LINE
8
0
6
CONTINUOUS
10
0.011509
20
0.072801
30
0.0
11
0.003618
21
0.072801
31
0.0
0
LINE
8
0
6
CONTINUOUS
10
0.011509
20
0.072339
30
0.0
11
0.019663
21
0.072339
31
0.0
0
LINE
8
0
6
CONTINUOUS
10
0.019400
20
0.072801
30
0.0
11
0.011509
21
0.072801
31
0.0
0
LINE
8
0
6
CONTINUOUS
10
0.019663
20
0.072339
30
0.0
11
0.027029
21
0.072339
31
0.0
0
LINE
8
0
6
CONTINUOUS
10
0.026590
20
0.072801
30
0.0
11
0.019400
21
0.072801
31
0.0
0
LINE
8
0
6
CONTINUOUS
10
0.027029
20
0.072339
30
0.0
11
0.033429
21
0.072339
31
0.0
0
LINE
8
0
6
CONTINUOUS
10
0.032903
20
0.072801
30
0.0
11
0.026590
21
0.072801
31
0.0
0
LINE
8
0
6
CONTINUOUS
10
0.040619
20
0.072801
30
0.0
11
0.041671
21
0.072801
31
0.0
0
LINE
8
0
6
CONTINUOUS
10
0.037638
20
0.072801
30
0.0
11
0.040619
21
0.072801
31
0.0
0
LINE
8
0
6
CONTINUOUS
10
0.032903
20
0.072801
30
0.0
11
0.037638
21
0.072801
31
0.0
0
LINE
8
0
6
CONTINUOUS
10
0.041671
20
0.072801
30
0.0
11
0.040619
21
0.072801
31
0.0
0
LINE
8
0
6
CONTINUOUS
10
0.042548
20
0.072339
30
0.0
11
0.041671
21
0.072801
31
0.0
0
LINE
8
0
6
CONTINUOUS
10
0.041408
20
0.072339
30
0.0
11
0.042548
21
0.072339
31
0.0
0
LINE
8
0
6
CONTINUOUS
10
0.040619
20
0.072801
30
0.0
11
0.037638
21
0.072801
31
0.0
0
LINE
8
0
6
CONTINUOUS
10
0.038252
20
0.072339
30
0.0
11
0.041408
21
0.072339
31
0.0
0
LINE
8
0
6
CONTINUOUS
10
0.037638
20
0.072801
30
0.0
11
0.032903
21
0.072801
31
0.0
0
LINE
8
0
6
CONTINUOUS
10
0.033429
20
0.072339
30
0.0
11
0.038252
21
0.072339
31
0.0
0
LINE
8
0
6
CONTINUOUS
10
-0.003572
20
0.070801
30
0.0
11
-0.009885
21
0.070801
31
0.0
0
LINE
8
0
6
CONTINUOUS
10
0.003618
20
0.070801
30
0.0
11
-0.003572
21
0.070801
31
0.0
0
LINE
8
0
6
CONTINUOUS
10
0.011509
20
0.070801
30
0.0
11
0.003618
21
0.070801
31
0.0
0
LINE
8
0
6
CONTINUOUS
10
0.019400
20
0.070801
30
0.0
11
0.011509
21
0.070801
31
0.0
0
LINE
8
0
6
CONTINUOUS
10
0.026590
20
0.070801
30
0.0
11
0.019400
21
0.070801
31
0.0
0
LINE
8
0
6
CONTINUOUS
10
0.032903
20
0.070801
30
0.0
11
0.026590
21
0.070801
31
0.0
0
LINE
8
0
6
CONTINUOUS
10
-0.009885
20
0.070801
30
0.0
11
-0.003572
21
0.070801
31
0.0
0
LINE
8
0
6
CONTINUOUS
10
-0.004011
20
0.071263
30
0.0
11
-0.010411
21
0.071263
31
0.0
0
LINE
8
0
6
CONTINUOUS
10
-0.003572
20
0.070801
30
0.0
11
0.003618
21
0.070801
31
0.0
0
LINE
8
0
6
CONTINUOUS
10
0.003355
20
0.071263
30
0.0
11
-0.004011
21
0.071263
31
0.0
0
LINE
8
0
6
CONTINUOUS
10
0.003618
20
0.070801
30
0.0
11
0.011509
21
0.070801
31
0.0
0
LINE
8
0
6
CONTINUOUS
10
0.011509
20
0.071263
30
0.0
11
0.003355
21
0.071263
31
0.0
0
LINE
8
0
6
CONTINUOUS
10
0.011509
20
0.070801
30
0.0
11
0.019400
21
0.070801
31
0.0
0
LINE
8
0
6
CONTINUOUS
10
0.019663
20
0.071263
30
0.0
11
0.011509
21
0.071263
31
0.0
0
LINE
8
0
6
CONTINUOUS
10
0.019400
20
0.070801
30
0.0
11
0.026590
21
0.070801
31
0.0
0
LINE
8
0
6
CONTINUOUS
10
0.027029
20
0.071263
30
0.0
11
0.019663
21
0.071263
31
0.0
0
LINE
8
0
6
CONTINUOUS
10
0.026590
20
0.070801
30
0.0
11
0.032903
21
0.070801
31
0.0
0
LINE
8
0
6
CONTINUOUS
10
0.033429
20
0.071263
30
0.0
11
0.027029
21
0.071263
31
0.0
0
LINE
8
0
6
CONTINUOUS
10
-0.010411
20
0.071263
30
0.0
11
-0.004011
21
0.071263
31
0.0
0
LINE
8
0
6
CONTINUOUS
10
-0.004011
20
0.072339
30
0.0
11
-0.010411
21
0.072339
31
0.0
0
LINE
8
0
6
CONTINUOUS
10
-0.004011
20
0.071263
30
0.0
11
0.003355
21
0.071263
31
0.0
0
LINE
8
0
6
CONTINUOUS
10
0.003355
20
0.072339
30
0.0
11
-0.004011
21
0.072339
31
0.0
0
LINE
8
0
6
CONTINUOUS
10
0.003355
20
0.071263
30
0.0
11
0.011509
21
0.071263
31
0.0
0
LINE
8
0
6
CONTINUOUS
10
0.011509
20
0.072339
30
0.0
11
0.003355
21
0.072339
31
0.0
0
LINE
8
0
6
CONTINUOUS
10
0.011509
20
0.071263
30
0.0
11
0.019663
21
0.071263
31
0.0
0
LINE
8
0
6
CONTINUOUS
10
0.019663
20
0.072339
30
0.0
11
0.011509
21
0.072339
31
0.0
0
LINE
8
0
6
CONTINUOUS
10
0.019663
20
0.071263
30
0.0
11
0.027029
21
0.071263
31
0.0
0
LINE
8
0
6
CONTINUOUS
10
0.027029
20
0.072339
30
0.0
11
0.019663
21
0.072339
31
0.0
0
LINE
8
0
6
CONTINUOUS
10
0.027029
20
0.071263
30
0.0
11
0.033429
21
0.071263
31
0.0
0
LINE
8
0
6
CONTINUOUS
10
0.033429
20
0.072339
30
0.0
11
0.027029
21
0.072339
31
0.0
0
LINE
8
0
6
CONTINUOUS
10
0.041671
20
0.070801
30
0.0
11
0.040619
21
0.070801
31
0.0
0
LINE
8
0
6
CONTINUOUS
10
0.040619
20
0.070801
30
0.0
11
0.037638
21
0.070801
31
0.0
0
LINE
8
0
6
CONTINUOUS
10
0.037638
20
0.070801
30
0.0
11
0.032903
21
0.070801
31
0.0
0
LINE
8
0
6
CONTINUOUS
10
0.042548
20
0.071263
30
0.0
11
0.041408
21
0.071263
31
0.0
0
LINE
8
0
6
CONTINUOUS
10
0.041671
20
0.070801
30
0.0
11
0.042548
21
0.071263
31
0.0
0
LINE
8
0
6
CONTINUOUS
10
0.040619
20
0.070801
30
0.0
11
0.041671
21
0.070801
31
0.0
0
LINE
8
0
6
CONTINUOUS
10
0.041408
20
0.071263
30
0.0
11
0.038252
21
0.071263
31
0.0
0
LINE
8
0
6
CONTINUOUS
10
0.037638
20
0.070801
30
0.0
11
0.040619
21
0.070801
31
0.0
0
LINE
8
0
6
CONTINUOUS
10
0.038252
20
0.071263
30
0.0
11
0.033429
21
0.071263
31
0.0
0
LINE
8
0
6
CONTINUOUS
10
0.032903
20
0.070801
30
0.0
11
0.037638
21
0.070801
31
0.0
0
LINE
8
0
6
CONTINUOUS
10
0.042548
20
0.072339
30
0.0
11
0.041408
21
0.072339
31
0.0
0
LINE
8
0
6
CONTINUOUS
10
0.042548
20
0.071263
30
0.0
11
0.042548
21
0.072339
31
0.0
0
LINE
8
0
6
CONTINUOUS
10
0.041408
20
0.071263
30
0.0
11
0.042548
21
0.071263
31
0.0
0
LINE
8
0
6
CONTINUOUS
10
0.041408
20
0.072339
30
0.0
11
0.038252
21
0.072339
31
0.0
0
LINE
8
0
6
CONTINUOUS
10
0.038252
20
0.071263
30
0.0
11
0.041408
21
0.071263
31
0.0
0
LINE
8
0
6
CONTINUOUS
10
0.038252
20
0.072339
30
0.0
11
0.033429
21
0.072339
31
0.0
0
LINE
8
0
6
CONTINUOUS
10
0.033429
20
0.071263
30
0.0
11
0.038252
21
0.071263
31
0.0
0
LINE
8
0
6
CONTINUOUS
10
-0.009885
20
0.070801
30
0.0
11
-0.014620
21
0.070801
31
0.0
0
LINE
8
0
6
CONTINUOUS
10
-0.014620
20
0.070801
30
0.0
11
-0.017601
21
0.070801
31
0.0
0
LINE
8
0
6
CONTINUOUS
10
-0.017601
20
0.070801
30
0.0
11
-0.018653
21
0.070801
31
0.0
0
LINE
8
0
6
CONTINUOUS
10
-0.010411
20
0.071263
30
0.0
11
-0.015234
21
0.071263
31
0.0
0
LINE
8
0
6
CONTINUOUS
10
-0.014620
20
0.070801
30
0.0
11
-0.009885
21
0.070801
31
0.0
0
LINE
8
0
6
CONTINUOUS
10
-0.015234
20
0.071263
30
0.0
11
-0.018390
21
0.071263
31
0.0
0
LINE
8
0
6
CONTINUOUS
10
-0.017601
20
0.070801
30
0.0
11
-0.014620
21
0.070801
31
0.0
0
LINE
8
0
6
CONTINUOUS
10
-0.018390
20
0.071263
30
0.0
11
-0.019530
21
0.071263
31
0.0
0
LINE
8
0
6
CONTINUOUS
10
-0.018653
20
0.070801
30
0.0
11
-0.017601
21
0.070801
31
0.0
0
LINE
8
0
6
CONTINUOUS
10
-0.018653
20
0.070801
30
0.0
11
-0.019530
21
0.071263
31
0.0
0
LINE
8
0
6
CONTINUOUS
10
-0.010411
20
0.072339
30
0.0
11
-0.015234
21
0.072339
31
0.0
0
LINE
8
0
6
CONTINUOUS
10
-0.015234
20
0.071263
30
0.0
11
-0.010411
21
0.071263
31
0.0
0
LINE
8
0
6
CONTINUOUS
10
-0.015234
20
0.072339
30
0.0
11
-0.018390
21
0.072339
31
0.0
0
LINE
8
0
6
CONTINUOUS
10
-0.018390
20
0.071263
30
0.0
11
-0.015234
21
0.071263
31
0.0
0
LINE
8
0
6
CONTINUOUS
10
-0.018390
20
0.072339
30
0.0
11
-0.019530
21
0.072339
31
0.0
0
LINE
8
0
6
CONTINUOUS
10
-0.019530
20
0.071263
30
0.0
11
-0.018390
21
0.071263
31
0.0
0
LINE
8
0
6
CONTINUOUS
10
-0.019530
20
0.071263
30
0.0
11
-0.019530
21
0.072339
31
0.0
0
LINE
8
0
6
CONTINUOUS
10
-0.014620
20
0.072801
30
0.0
11
-0.009885
21
0.072801
31
0.0
0
LINE
8
0
6
CONTINUOUS
10
-0.017601
20
0.072801
30
0.0
11
-0.014620
21
0.072801
31
0.0
0
LINE
8
0
6
CONTINUOUS
10
-0.018653
20
0.072801
30
0.0
11
-0.017601
21
0.072801
31
0.0
0
LINE
8
0
6
CONTINUOUS
10
-0.009885
20
0.072801
30
0.0
11
-0.014620
21
0.072801
31
0.0
0
LINE
8
0
6
CONTINUOUS
10
-0.015234
20
0.072339
30
0.0
11
-0.010411
21
0.072339
31
0.0
0
LINE
8
0
6
CONTINUOUS
10
-0.014620
20
0.072801
30
0.0
11
-0.017601
21
0.072801
31
0.0
0
LINE
8
0
6
CONTINUOUS
10
-0.018390
20
0.072339
30
0.0
11
-0.015234
21
0.072339
31
0.0
0
LINE
8
0
6
CONTINUOUS
10
-0.017601
20
0.072801
30
0.0
11
-0.018653
21
0.072801
31
0.0
0
LINE
8
0
6
CONTINUOUS
10
-0.019530
20
0.072339
30
0.0
11
-0.018390
21
0.072339
31
0.0
0
LINE
8
0
6
CONTINUOUS
10
-0.019530
20
0.072339
30
0.0
11
-0.018653
21
0.072801
31
0.0
0
LINE
8
0
6
CONTINUOUS
10
-0.122238
20
0.074339
30
0.0
11
-0.116282
21
0.074339
31
0.0
0
LINE
8
0
6
CONTINUOUS
10
-0.116282
20
0.074339
30
0.0
11
-0.109220
21
0.074339
31
0.0
0
LINE
8
0
6
CONTINUOUS
10
-0.109220
20
0.074339
30
0.0
11
-0.101196
21
0.074339
31
0.0
0
LINE
8
0
6
CONTINUOUS
10
-0.101196
20
0.074339
30
0.0
11
-0.092973
21
0.074339
31
0.0
0
LINE
8
0
6
CONTINUOUS
10
-0.092973
20
0.074339
30
0.0
11
-0.085361
21
0.074339
31
0.0
0
LINE
8
0
6
CONTINUOUS
10
-0.085361
20
0.074339
30
0.0
11
-0.078564
21
0.074339
31
0.0
0
LINE
8
0
6
CONTINUOUS
10
-0.067570
20
0.074339
30
0.0
11
-0.068443
21
0.074801
31
0.0
0
LINE
8
0
6
CONTINUOUS
10
-0.069416
20
0.074339
30
0.0
11
-0.067570
21
0.074339
31
0.0
0
LINE
8
0
6
CONTINUOUS
10
-0.073202
20
0.074339
30
0.0
11
-0.069416
21
0.074339
31
0.0
0
LINE
8
0
6
CONTINUOUS
10
-0.078564
20
0.074339
30
0.0
11
-0.073202
21
0.074339
31
0.0
0
LINE
8
0
6
CONTINUOUS
10
-0.121668
20
0.072801
30
0.0
11
-0.115792
21
0.072801
31
0.0
0
LINE
8
0
6
CONTINUOUS
10
-0.115792
20
0.072801
30
0.0
11
-0.108889
21
0.072801
31
0.0
0
LINE
8
0
6
CONTINUOUS
10
-0.108889
20
0.072801
30
0.0
11
-0.101119
21
0.072801
31
0.0
0
LINE
8
0
6
CONTINUOUS
10
-0.101119
20
0.072801
30
0.0
11
-0.093166
21
0.072801
31
0.0
0
LINE
8
0
6
CONTINUOUS
10
-0.093166
20
0.072801
30
0.0
11
-0.085744
21
0.072801
31
0.0
0
LINE
8
0
6
CONTINUOUS
10
-0.085744
20
0.072801
30
0.0
11
-0.079042
21
0.072801
31
0.0
0
LINE
8
0
6
CONTINUOUS
10
-0.121668
20
0.072801
30
0.0
11
-0.115792
21
0.072801
31
0.0
0
LINE
8
0
6
CONTINUOUS
10
-0.116282
20
0.073263
30
0.0
11
-0.122238
21
0.073263
31
0.0
0
LINE
8
0
6
CONTINUOUS
10
-0.115792
20
0.072801
30
0.0
11
-0.108889
21
0.072801
31
0.0
0
LINE
8
0
6
CONTINUOUS
10
-0.109220
20
0.073263
30
0.0
11
-0.116282
21
0.073263
31
0.0
0
LINE
8
0
6
CONTINUOUS
10
-0.108889
20
0.072801
30
0.0
11
-0.101119
21
0.072801
31
0.0
0
LINE
8
0
6
CONTINUOUS
10
-0.101196
20
0.073263
30
0.0
11
-0.109220
21
0.073263
31
0.0
0
LINE
8
0
6
CONTINUOUS
10
-0.101119
20
0.072801
30
0.0
11
-0.093166
21
0.072801
31
0.0
0
LINE
8
0
6
CONTINUOUS
10
-0.092973
20
0.073263
30
0.0
11
-0.101196
21
0.073263
31
0.0
0
LINE
8
0
6
CONTINUOUS
10
-0.093166
20
0.072801
30
0.0
11
-0.085744
21
0.072801
31
0.0
0
LINE
8
0
6
CONTINUOUS
10
-0.085361
20
0.073263
30
0.0
11
-0.092973
21
0.073263
31
0.0
0
LINE
8
0
6
CONTINUOUS
10
-0.085744
20
0.072801
30
0.0
11
-0.079042
21
0.072801
31
0.0
0
LINE
8
0
6
CONTINUOUS
10
-0.078564
20
0.073263
30
0.0
11
-0.085361
21
0.073263
31
0.0
0
LINE
8
0
6
CONTINUOUS
10
-0.122238
20
0.073263
30
0.0
11
-0.116282
21
0.073263
31
0.0
0
LINE
8
0
6
CONTINUOUS
10
-0.116282
20
0.074339
30
0.0
11
-0.122238
21
0.074339
31
0.0
0
LINE
8
0
6
CONTINUOUS
10
-0.116282
20
0.073263
30
0.0
11
-0.109220
21
0.073263
31
0.0
0
LINE
8
0
6
CONTINUOUS
10
-0.109220
20
0.074339
30
0.0
11
-0.116282
21
0.074339
31
0.0
0
LINE
8
0
6
CONTINUOUS
10
-0.109220
20
0.073263
30
0.0
11
-0.101196
21
0.073263
31
0.0
0
LINE
8
0
6
CONTINUOUS
10
-0.101196
20
0.074339
30
0.0
11
-0.109220
21
0.074339
31
0.0
0
LINE
8
0
6
CONTINUOUS
10
-0.101196
20
0.073263
30
0.0
11
-0.092973
21
0.073263
31
0.0
0
LINE
8
0
6
CONTINUOUS
10
-0.092973
20
0.074339
30
0.0
11
-0.101196
21
0.074339
31
0.0
0
LINE
8
0
6
CONTINUOUS
10
-0.092973
20
0.073263
30
0.0
11
-0.085361
21
0.073263
31
0.0
0
LINE
8
0
6
CONTINUOUS
10
-0.085361
20
0.074339
30
0.0
11
-0.092973
21
0.074339
31
0.0
0
LINE
8
0
6
CONTINUOUS
10
-0.085361
20
0.073263
30
0.0
11
-0.078564
21
0.073263
31
0.0
0
LINE
8
0
6
CONTINUOUS
10
-0.078564
20
0.074339
30
0.0
11
-0.085361
21
0.074339
31
0.0
0
LINE
8
0
6
CONTINUOUS
10
-0.070179
20
0.072801
30
0.0
11
-0.068443
21
0.072801
31
0.0
0
LINE
8
0
6
CONTINUOUS
10
-0.073775
20
0.072801
30
0.0
11
-0.070179
21
0.072801
31
0.0
0
LINE
8
0
6
CONTINUOUS
10
-0.079042
20
0.072801
30
0.0
11
-0.073775
21
0.072801
31
0.0
0
LINE
8
0
6
CONTINUOUS
10
-0.067570
20
0.073263
30
0.0
11
-0.069416
21
0.073263
31
0.0
0
LINE
8
0
6
CONTINUOUS
10
-0.068443
20
0.072801
30
0.0
11
-0.067570
21
0.073263
31
0.0
0
LINE
8
0
6
CONTINUOUS
10
-0.070179
20
0.072801
30
0.0
11
-0.068443
21
0.072801
31
0.0
0
LINE
8
0
6
CONTINUOUS
10
-0.069416
20
0.073263
30
0.0
11
-0.073202
21
0.073263
31
0.0
0
LINE
8
0
6
CONTINUOUS
10
-0.073775
20
0.072801
30
0.0
11
-0.070179
21
0.072801
31
0.0
0
LINE
8
0
6
CONTINUOUS
10
-0.073202
20
0.073263
30
0.0
11
-0.078564
21
0.073263
31
0.0
0
LINE
8
0
6
CONTINUOUS
10
-0.079042
20
0.072801
30
0.0
11
-0.073775
21
0.072801
31
0.0
0
LINE
8
0
6
CONTINUOUS
10
-0.067570
20
0.074339
30
0.0
11
-0.069416
21
0.074339
31
0.0
0
LINE
8
0
6
CONTINUOUS
10
-0.067570
20
0.073263
30
0.0
11
-0.067570
21
0.074339
31
0.0
0
LINE
8
0
6
CONTINUOUS
10
-0.069416
20
0.073263
30
0.0
11
-0.067570
21
0.073263
31
0.0
0
LINE
8
0
6
CONTINUOUS
10
-0.069416
20
0.074339
30
0.0
11
-0.073202
21
0.074339
31
0.0
0
LINE
8
0
6
CONTINUOUS
10
-0.073202
20
0.073263
30
0.0
11
-0.069416
21
0.073263
31
0.0
0
LINE
8
0
6
CONTINUOUS
10
-0.073202
20
0.074339
30
0.0
11
-0.078564
21
0.074339
31
0.0
0
LINE
8
0
6
CONTINUOUS
10
-0.078564
20
0.073263
30
0.0
11
-0.073202
21
0.073263
31
0.0
0
LINE
8
0
6
CONTINUOUS
10
-0.125835
20
0.072801
30
0.0
11
-0.121668
21
0.072801
31
0.0
0
LINE
8
0
6
CONTINUOUS
10
-0.128178
20
0.072801
30
0.0
11
-0.125835
21
0.072801
31
0.0
0
LINE
8
0
6
CONTINUOUS
10
-0.128538
20
0.072801
30
0.0
11
-0.128178
21
0.072801
31
0.0
0
LINE
8
0
6
CONTINUOUS
10
-0.122238
20
0.073263
30
0.0
11
-0.126484
21
0.073263
31
0.0
0
LINE
8
0
6
CONTINUOUS
10
-0.125835
20
0.072801
30
0.0
11
-0.121668
21
0.072801
31
0.0
0
LINE
8
0
6
CONTINUOUS
10
-0.126484
20
0.073263
30
0.0
11
-0.128987
21
0.073263
31
0.0
0
LINE
8
0
6
CONTINUOUS
10
-0.128178
20
0.072801
30
0.0
11
-0.125835
21
0.072801
31
0.0
0
LINE
8
0
6
CONTINUOUS
10
-0.128987
20
0.073263
30
0.0
11
-0.129412
21
0.073263
31
0.0
0
LINE
8
0
6
CONTINUOUS
10
-0.128538
20
0.072801
30
0.0
11
-0.128178
21
0.072801
31
0.0
0
LINE
8
0
6
CONTINUOUS
10
-0.128538
20
0.072801
30
0.0
11
-0.129412
21
0.073263
31
0.0
0
LINE
8
0
6
CONTINUOUS
10
-0.122238
20
0.074339
30
0.0
11
-0.126484
21
0.074339
31
0.0
0
LINE
8
0
6
CONTINUOUS
10
-0.126484
20
0.073263
30
0.0
11
-0.122238
21
0.073263
31
0.0
0
LINE
8
0
6
CONTINUOUS
10
-0.126484
20
0.074339
30
0.0
11
-0.128987
21
0.074339
31
0.0
0
LINE
8
0
6
CONTINUOUS
10
-0.128987
20
0.073263
30
0.0
11
-0.126484
21
0.073263
31
0.0
0
LINE
8
0
6
CONTINUOUS
10
-0.128987
20
0.074339
30
0.0
11
-0.129412
21
0.074339
31
0.0
0
LINE
8
0
6
CONTINUOUS
10
-0.129412
20
0.073263
30
0.0
11
-0.128987
21
0.073263
31
0.0
0
LINE
8
0
6
CONTINUOUS
10
-0.129412
20
0.073263
30
0.0
11
-0.129412
21
0.074339
31
0.0
0
LINE
8
0
6
CONTINUOUS
10
-0.126484
20
0.074339
30
0.0
11
-0.122238
21
0.074339
31
0.0
0
LINE
8
0
6
CONTINUOUS
10
-0.128987
20
0.074339
30
0.0
11
-0.126484
21
0.074339
31
0.0
0
LINE
8
0
6
CONTINUOUS
10
-0.129412
20
0.074339
30
0.0
11
-0.128987
21
0.074339
31
0.0
0
LINE
8
0
6
CONTINUOUS
10
-0.129412
20
0.074339
30
0.0
11
-0.128538
21
0.074801
31
0.0
0
LINE
8
0
6
CONTINUOUS
10
-0.115792
20
0.070801
30
0.0
11
-0.121668
21
0.070801
31
0.0
0
LINE
8
0
6
CONTINUOUS
10
-0.108889
20
0.070801
30
0.0
11
-0.115792
21
0.070801
31
0.0
0
LINE
8
0
6
CONTINUOUS
10
-0.101119
20
0.070801
30
0.0
11
-0.108889
21
0.070801
31
0.0
0
LINE
8
0
6
CONTINUOUS
10
-0.093166
20
0.070801
30
0.0
11
-0.101119
21
0.070801
31
0.0
0
LINE
8
0
6
CONTINUOUS
10
-0.085744
20
0.070801
30
0.0
11
-0.093166
21
0.070801
31
0.0
0
LINE
8
0
6
CONTINUOUS
10
-0.079042
20
0.070801
30
0.0
11
-0.085744
21
0.070801
31
0.0
0
LINE
8
0
6
CONTINUOUS
10
-0.122238
20
0.070339
30
0.0
11
-0.116282
21
0.070339
31
0.0
0
LINE
8
0
6
CONTINUOUS
10
-0.115792
20
0.070801
30
0.0
11
-0.121668
21
0.070801
31
0.0
0
LINE
8
0
6
CONTINUOUS
10
-0.116282
20
0.070339
30
0.0
11
-0.109220
21
0.070339
31
0.0
0
LINE
8
0
6
CONTINUOUS
10
-0.108889
20
0.070801
30
0.0
11
-0.115792
21
0.070801
31
0.0
0
LINE
8
0
6
CONTINUOUS
10
-0.109220
20
0.070339
30
0.0
11
-0.101196
21
0.070339
31
0.0
0
LINE
8
0
6
CONTINUOUS
10
-0.101119
20
0.070801
30
0.0
11
-0.108889
21
0.070801
31
0.0
0
LINE
8
0
6
CONTINUOUS
10
-0.101196
20
0.070339
30
0.0
11
-0.092973
21
0.070339
31
0.0
0
LINE
8
0
6
CONTINUOUS
10
-0.093166
20
0.070801
30
0.0
11
-0.101119
21
0.070801
31
0.0
0
LINE
8
0
6
CONTINUOUS
10
-0.092973
20
0.070339
30
0.0
11
-0.085361
21
0.070339
31
0.0
0
LINE
8
0
6
CONTINUOUS
10
-0.085744
20
0.070801
30
0.0
11
-0.093166
21
0.070801
31
0.0
0
LINE
8
0
6
CONTINUOUS
10
-0.085361
20
0.070339
30
0.0
11
-0.078564
21
0.070339
31
0.0
0
LINE
8
0
6
CONTINUOUS
10
-0.079042
20
0.070801
30
0.0
11
-0.085744
21
0.070801
31
0.0
0
LINE
8
0
6
CONTINUOUS
10
-0.068443
20
0.070801
30
0.0
11
-0.070179
21
0.070801
31
0.0
0
LINE
8
0
6
CONTINUOUS
10
-0.070179
20
0.070801
30
0.0
11
-0.073775
21
0.070801
31
0.0
0
LINE
8
0
6
CONTINUOUS
10
-0.073775
20
0.070801
30
0.0
11
-0.079042
21
0.070801
31
0.0
0
LINE
8
0
6
CONTINUOUS
10
-0.068443
20
0.070801
30
0.0
11
-0.070179
21
0.070801
31
0.0
0
LINE
8
0
6
CONTINUOUS
10
-0.067570
20
0.070339
30
0.0
11
-0.068443
21
0.070801
31
0.0
0
LINE
8
0
6
CONTINUOUS
10
-0.069416
20
0.070339
30
0.0
11
-0.067570
21
0.070339
31
0.0
0
LINE
8
0
6
CONTINUOUS
10
-0.070179
20
0.070801
30
0.0
11
-0.073775
21
0.070801
31
0.0
0
LINE
8
0
6
CONTINUOUS
10
-0.073202
20
0.070339
30
0.0
11
-0.069416
21
0.070339
31
0.0
0
LINE
8
0
6
CONTINUOUS
10
-0.073775
20
0.070801
30
0.0
11
-0.079042
21
0.070801
31
0.0
0
LINE
8
0
6
CONTINUOUS
10
-0.078564
20
0.070339
30
0.0
11
-0.073202
21
0.070339
31
0.0
0
LINE
8
0
6
CONTINUOUS
10
-0.115792
20
0.068801
30
0.0
11
-0.121668
21
0.068801
31
0.0
0
LINE
8
0
6
CONTINUOUS
10
-0.108889
20
0.068801
30
0.0
11
-0.115792
21
0.068801
31
0.0
0
LINE
8
0
6
CONTINUOUS
10
-0.101119
20
0.068801
30
0.0
11
-0.108889
21
0.068801
31
0.0
0
LINE
8
0
6
CONTINUOUS
10
-0.093166
20
0.068801
30
0.0
11
-0.101119
21
0.068801
31
0.0
0
LINE
8
0
6
CONTINUOUS
10
-0.085744
20
0.068801
30
0.0
11
-0.093166
21
0.068801
31
0.0
0
LINE
8
0
6
CONTINUOUS
10
-0.079042
20
0.068801
30
0.0
11
-0.085744
21
0.068801
31
0.0
0
LINE
8
0
6
CONTINUOUS
10
-0.121668
20
0.068801
30
0.0
11
-0.115792
21
0.068801
31
0.0
0
LINE
8
0
6
CONTINUOUS
10
-0.116282
20
0.069263
30
0.0
11
-0.122238
21
0.069263
31
0.0
0
LINE
8
0
6
CONTINUOUS
10
-0.115792
20
0.068801
30
0.0
11
-0.108889
21
0.068801
31
0.0
0
LINE
8
0
6
CONTINUOUS
10
-0.109220
20
0.069263
30
0.0
11
-0.116282
21
0.069263
31
0.0
0
LINE
8
0
6
CONTINUOUS
10
-0.108889
20
0.068801
30
0.0
11
-0.101119
21
0.068801
31
0.0
0
LINE
8
0
6
CONTINUOUS
10
-0.101196
20
0.069263
30
0.0
11
-0.109220
21
0.069263
31
0.0
0
LINE
8
0
6
CONTINUOUS
10
-0.101119
20
0.068801
30
0.0
11
-0.093166
21
0.068801
31
0.0
0
LINE
8
0
6
CONTINUOUS
10
-0.092973
20
0.069263
30
0.0
11
-0.101196
21
0.069263
31
0.0
0
LINE
8
0
6
CONTINUOUS
10
-0.093166
20
0.068801
30
0.0
11
-0.085744
21
0.068801
31
0.0
0
LINE
8
0
6
CONTINUOUS
10
-0.085361
20
0.069263
30
0.0
11
-0.092973
21
0.069263
31
0.0
0
LINE
8
0
6
CONTINUOUS
10
-0.085744
20
0.068801
30
0.0
11
-0.079042
21
0.068801
31
0.0
0
LINE
8
0
6
CONTINUOUS
10
-0.078564
20
0.069263
30
0.0
11
-0.085361
21
0.069263
31
0.0
0
LINE
8
0
6
CONTINUOUS
10
-0.122238
20
0.069263
30
0.0
11
-0.116282
21
0.069263
31
0.0
0
LINE
8
0
6
CONTINUOUS
10
-0.116282
20
0.070339
30
0.0
11
-0.122238
21
0.070339
31
0.0
0
LINE
8
0
6
CONTINUOUS
10
-0.116282
20
0.069263
30
0.0
11
-0.109220
21
0.069263
31
0.0
0
LINE
8
0
6
CONTINUOUS
10
-0.109220
20
0.070339
30
0.0
11
-0.116282
21
0.070339
31
0.0
0
LINE
8
0
6
CONTINUOUS
10
-0.109220
20
0.069263
30
0.0
11
-0.101196
21
0.069263
31
0.0
0
LINE
8
0
6
CONTINUOUS
10
-0.101196
20
0.070339
30
0.0
11
-0.109220
21
0.070339
31
0.0
0
LINE
8
0
6
CONTINUOUS
10
-0.101196
20
0.069263
30
0.0
11
-0.092973
21
0.069263
31
0.0
0
LINE
8
0
6
CONTINUOUS
10
-0.092973
20
0.070339
30
0.0
11
-0.101196
21
0.070339
31
0.0
0
LINE
8
0
6
CONTINUOUS
10
-0.092973
20
0.069263
30
0.0
11
-0.085361
21
0.069263
31
0.0
0
LINE
8
0
6
CONTINUOUS
10
-0.085361
20
0.070339
30
0.0
11
-0.092973
21
0.070339
31
0.0
0
LINE
8
0
6
CONTINUOUS
10
-0.085361
20
0.069263
30
0.0
11
-0.078564
21
0.069263
31
0.0
0
LINE
8
0
6
CONTINUOUS
10
-0.078564
20
0.070339
30
0.0
11
-0.085361
21
0.070339
31
0.0
0
LINE
8
0
6
CONTINUOUS
10
-0.068443
20
0.068801
30
0.0
11
-0.070179
21
0.068801
31
0.0
0
LINE
8
0
6
CONTINUOUS
10
-0.070179
20
0.068801
30
0.0
11
-0.073775
21
0.068801
31
0.0
0
LINE
8
0
6
CONTINUOUS
10
-0.073775
20
0.068801
30
0.0
11
-0.079042
21
0.068801
31
0.0
0
LINE
8
0
6
CONTINUOUS
10
-0.067570
20
0.069263
30
0.0
11
-0.069416
21
0.069263
31
0.0
0
LINE
8
0
6
CONTINUOUS
10
-0.068443
20
0.068801
30
0.0
11
-0.067570
21
0.069263
31
0.0
0
LINE
8
0
6
CONTINUOUS
10
-0.070179
20
0.068801
30
0.0
11
-0.068443
21
0.068801
31
0.0
0
LINE
8
0
6
CONTINUOUS
10
-0.069416
20
0.069263
30
0.0
11
-0.073202
21
0.069263
31
0.0
0
LINE
8
0
6
CONTINUOUS
10
-0.073775
20
0.068801
30
0.0
11
-0.070179
21
0.068801
31
0.0
0
LINE
8
0
6
CONTINUOUS
10
-0.073202
20
0.069263
30
0.0
11
-0.078564
21
0.069263
31
0.0
0
LINE
8
0
6
CONTINUOUS
10
-0.079042
20
0.068801
30
0.0
11
-0.073775
21
0.068801
31
0.0
0
LINE
8
0
6
CONTINUOUS
10
-0.067570
20
0.070339
30
0.0
11
-0.069416
21
0.070339
31
0.0
0
LINE
8
0
6
CONTINUOUS
10
-0.067570
20
0.069263
30
0.0
11
-0.067570
21
0.070339
31
0.0
0
LINE
8
0
6
CONTINUOUS
10
-0.069416
20
0.069263
30
0.0
11
-0.067570
21
0.069263
31
0.0
0
LINE
8
0
6
CONTINUOUS
10
-0.069416
20
0.070339
30
0.0
11
-0.073202
21
0.070339
31
0.0
0
LINE
8
0
6
CONTINUOUS
10
-0.073202
20
0.069263
30
0.0
11
-0.069416
21
0.069263
31
0.0
0
LINE
8
0
6
CONTINUOUS
10
-0.073202
20
0.070339
30
0.0
11
-0.078564
21
0.070339
31
0.0
0
LINE
8
0
6
CONTINUOUS
10
-0.078564
20
0.069263
30
0.0
11
-0.073202
21
0.069263
31
0.0
0
LINE
8
0
6
CONTINUOUS
10
-0.121668
20
0.068801
30
0.0
11
-0.125835
21
0.068801
31
0.0
0
LINE
8
0
6
CONTINUOUS
10
-0.125835
20
0.068801
30
0.0
11
-0.128178
21
0.068801
31
0.0
0
LINE
8
0
6
CONTINUOUS
10
-0.128178
20
0.068801
30
0.0
11
-0.128538
21
0.068801
31
0.0
0
LINE
8
0
6
CONTINUOUS
10
-0.122238
20
0.069263
30
0.0
11
-0.126484
21
0.069263
31
0.0
0
LINE
8
0
6
CONTINUOUS
10
-0.125835
20
0.068801
30
0.0
11
-0.121668
21
0.068801
31
0.0
0
LINE
8
0
6
CONTINUOUS
10
-0.126484
20
0.069263
30
0.0
11
-0.128987
21
0.069263
31
0.0
0
LINE
8
0
6
CONTINUOUS
10
-0.128178
20
0.068801
30
0.0
11
-0.125835
21
0.068801
31
0.0
0
LINE
8
0
6
CONTINUOUS
10
-0.128987
20
0.069263
30
0.0
11
-0.129412
21
0.069263
31
0.0
0
LINE
8
0
6
CONTINUOUS
10
-0.128538
20
0.068801
30
0.0
11
-0.128178
21
0.068801
31
0.0
0
LINE
8
0
6
CONTINUOUS
10
-0.128538
20
0.068801
30
0.0
11
-0.129412
21
0.069263
31
0.0
0
LINE
8
0
6
CONTINUOUS
10
-0.122238
20
0.070339
30
0.0
11
-0.126484
21
0.070339
31
0.0
0
LINE
8
0
6
CONTINUOUS
10
-0.126484
20
0.069263
30
0.0
11
-0.122238
21
0.069263
31
0.0
0
LINE
8
0
6
CONTINUOUS
10
-0.126484
20
0.070339
30
0.0
11
-0.128987
21
0.070339
31
0.0
0
LINE
8
0
6
CONTINUOUS
10
-0.128987
20
0.069263
30
0.0
11
-0.126484
21
0.069263
31
0.0
0
LINE
8
0
6
CONTINUOUS
10
-0.128987
20
0.070339
30
0.0
11
-0.129412
21
0.070339
31
0.0
0
LINE
8
0
6
CONTINUOUS
10
-0.129412
20
0.069263
30
0.0
11
-0.128987
21
0.069263
31
0.0
0
LINE
8
0
6
CONTINUOUS
10
-0.129412
20
0.069263
30
0.0
11
-0.129412
21
0.070339
31
0.0
0
LINE
8
0
6
CONTINUOUS
10
-0.121668
20
0.070801
30
0.0
11
-0.125835
21
0.070801
31
0.0
0
LINE
8
0
6
CONTINUOUS
10
-0.125835
20
0.070801
30
0.0
11
-0.128178
21
0.070801
31
0.0
0
LINE
8
0
6
CONTINUOUS
10
-0.128178
20
0.070801
30
0.0
11
-0.128538
21
0.070801
31
0.0
0
LINE
8
0
6
CONTINUOUS
10
-0.121668
20
0.070801
30
0.0
11
-0.125835
21
0.070801
31
0.0
0
LINE
8
0
6
CONTINUOUS
10
-0.126484
20
0.070339
30
0.0
11
-0.122238
21
0.070339
31
0.0
0
LINE
8
0
6
CONTINUOUS
10
-0.125835
20
0.070801
30
0.0
11
-0.128178
21
0.070801
31
0.0
0
LINE
8
0
6
CONTINUOUS
10
-0.128987
20
0.070339
30
0.0
11
-0.126484
21
0.070339
31
0.0
0
LINE
8
0
6
CONTINUOUS
10
-0.128178
20
0.070801
30
0.0
11
-0.128538
21
0.070801
31
0.0
0
LINE
8
0
6
CONTINUOUS
10
-0.129412
20
0.070339
30
0.0
11
-0.128987
21
0.070339
31
0.0
0
LINE
8
0
6
CONTINUOUS
10
-0.129412
20
0.070339
30
0.0
11
-0.128538
21
0.070801
31
0.0
0
LINE
8
0
6
CONTINUOUS
10
-0.121668
20
0.072801
30
0.0
11
-0.115792
21
0.072801
31
0.0
0
LINE
8
0
6
CONTINUOUS
10
-0.115792
20
0.072801
30
0.0
11
-0.108889
21
0.072801
31
0.0
0
LINE
8
0
6
CONTINUOUS
10
-0.108889
20
0.072801
30
0.0
11
-0.101119
21
0.072801
31
0.0
0
LINE
8
0
6
CONTINUOUS
10
-0.101119
20
0.072801
30
0.0
11
-0.093166
21
0.072801
31
0.0
0
LINE
8
0
6
CONTINUOUS
10
-0.093166
20
0.072801
30
0.0
11
-0.085744
21
0.072801
31
0.0
0
LINE
8
0
6
CONTINUOUS
10
-0.085744
20
0.072801
30
0.0
11
-0.079042
21
0.072801
31
0.0
0
LINE
8
0
6
CONTINUOUS
10
-0.122238
20
0.072339
30
0.0
11
-0.116282
21
0.072339
31
0.0
0
LINE
8
0
6
CONTINUOUS
10
-0.115792
20
0.072801
30
0.0
11
-0.121668
21
0.072801
31
0.0
0
LINE
8
0
6
CONTINUOUS
10
-0.116282
20
0.072339
30
0.0
11
-0.109220
21
0.072339
31
0.0
0
LINE
8
0
6
CONTINUOUS
10
-0.108889
20
0.072801
30
0.0
11
-0.115792
21
0.072801
31
0.0
0
LINE
8
0
6
CONTINUOUS
10
-0.109220
20
0.072339
30
0.0
11
-0.101196
21
0.072339
31
0.0
0
LINE
8
0
6
CONTINUOUS
10
-0.101119
20
0.072801
30
0.0
11
-0.108889
21
0.072801
31
0.0
0
LINE
8
0
6
CONTINUOUS
10
-0.101196
20
0.072339
30
0.0
11
-0.092973
21
0.072339
31
0.0
0
LINE
8
0
6
CONTINUOUS
10
-0.093166
20
0.072801
30
0.0
11
-0.101119
21
0.072801
31
0.0
0
LINE
8
0
6
CONTINUOUS
10
-0.092973
20
0.072339
30
0.0
11
-0.085361
21
0.072339
31
0.0
0
LINE
8
0
6
CONTINUOUS
10
-0.085744
20
0.072801
30
0.0
11
-0.093166
21
0.072801
31
0.0
0
LINE
8
0
6
CONTINUOUS
10
-0.085361
20
0.072339
30
0.0
11
-0.078564
21
0.072339
31
0.0
0
LINE
8
0
6
CONTINUOUS
10
-0.079042
20
0.072801
30
0.0
11
-0.085744
21
0.072801
31
0.0
0
LINE
8
0
6
CONTINUOUS
10
-0.070179
20
0.072801
30
0.0
11
-0.068443
21
0.072801
31
0.0
0
LINE
8
0
6
CONTINUOUS
10
-0.073775
20
0.072801
30
0.0
11
-0.070179
21
0.072801
31
0.0
0
LINE
8
0
6
CONTINUOUS
10
-0.079042
20
0.072801
30
0.0
11
-0.073775
21
0.072801
31
0.0
0
LINE
8
0
6
CONTINUOUS
10
-0.068443
20
0.072801
30
0.0
11
-0.070179
21
0.072801
31
0.0
0
LINE
8
0
6
CONTINUOUS
10
-0.067570
20
0.072339
30
0.0
11
-0.068443
21
0.072801
31
0.0
0
LINE
8
0
6
CONTINUOUS
10
-0.069416
20
0.072339
30
0.0
11
-0.067570
21
0.072339
31
0.0
0
LINE
8
0
6
CONTINUOUS
10
-0.070179
20
0.072801
30
0.0
11
-0.073775
21
0.072801
31
0.0
0
LINE
8
0
6
CONTINUOUS
10
-0.073202
20
0.072339
30
0.0
11
-0.069416
21
0.072339
31
0.0
0
LINE
8
0
6
CONTINUOUS
10
-0.073775
20
0.072801
30
0.0
11
-0.079042
21
0.072801
31
0.0
0
LINE
8
0
6
CONTINUOUS
10
-0.078564
20
0.072339
30
0.0
11
-0.073202
21
0.072339
31
0.0
0
LINE
8
0
6
CONTINUOUS
10
-0.115792
20
0.070801
30
0.0
11
-0.121668
21
0.070801
31
0.0
0
LINE
8
0
6
CONTINUOUS
10
-0.108889
20
0.070801
30
0.0
11
-0.115792
21
0.070801
31
0.0
0
LINE
8
0
6
CONTINUOUS
10
-0.101119
20
0.070801
30
0.0
11
-0.108889
21
0.070801
31
0.0
0
LINE
8
0
6
CONTINUOUS
10
-0.093166
20
0.070801
30
0.0
11
-0.101119
21
0.070801
31
0.0
0
LINE
8
0
6
CONTINUOUS
10
-0.085744
20
0.070801
30
0.0
11
-0.093166
21
0.070801
31
0.0
0
LINE
8
0
6
CONTINUOUS
10
-0.079042
20
0.070801
30
0.0
11
-0.085744
21
0.070801
31
0.0
0
LINE
8
0
6
CONTINUOUS
10
-0.121668
20
0.070801
30
0.0
11
-0.115792
21
0.070801
31
0.0
0
LINE
8
0
6
CONTINUOUS
10
-0.116282
20
0.071263
30
0.0
11
-0.122238
21
0.071263
31
0.0
0
LINE
8
0
6
CONTINUOUS
10
-0.115792
20
0.070801
30
0.0
11
-0.108889
21
0.070801
31
0.0
0
LINE
8
0
6
CONTINUOUS
10
-0.109220
20
0.071263
30
0.0
11
-0.116282
21
0.071263
31
0.0
0
LINE
8
0
6
CONTINUOUS
10
-0.108889
20
0.070801
30
0.0
11
-0.101119
21
0.070801
31
0.0
0
LINE
8
0
6
CONTINUOUS
10
-0.101196
20
0.071263
30
0.0
11
-0.109220
21
0.071263
31
0.0
0
LINE
8
0
6
CONTINUOUS
10
-0.101119
20
0.070801
30
0.0
11
-0.093166
21
0.070801
31
0.0
0
LINE
8
0
6
CONTINUOUS
10
-0.092973
20
0.071263
30
0.0
11
-0.101196
21
0.071263
31
0.0
0
LINE
8
0
6
CONTINUOUS
10
-0.093166
20
0.070801
30
0.0
11
-0.085744
21
0.070801
31
0.0
0
LINE
8
0
6
CONTINUOUS
10
-0.085361
20
0.071263
30
0.0
11
-0.092973
21
0.071263
31
0.0
0
LINE
8
0
6
CONTINUOUS
10
-0.085744
20
0.070801
30
0.0
11
-0.079042
21
0.070801
31
0.0
0
LINE
8
0
6
CONTINUOUS
10
-0.078564
20
0.071263
30
0.0
11
-0.085361
21
0.071263
31
0.0
0
LINE
8
0
6
CONTINUOUS
10
-0.122238
20
0.071263
30
0.0
11
-0.116282
21
0.071263
31
0.0
0
LINE
8
0
6
CONTINUOUS
10
-0.116282
20
0.072339
30
0.0
11
-0.122238
21
0.072339
31
0.0
0
LINE
8
0
6
CONTINUOUS
10
-0.116282
20
0.071263
30
0.0
11
-0.109220
21
0.071263
31
0.0
0
LINE
8
0
6
CONTINUOUS
10
-0.109220
20
0.072339
30
0.0
11
-0.116282
21
0.072339
31
0.0
0
LINE
8
0
6
CONTINUOUS
10
-0.109220
20
0.071263
30
0.0
11
-0.101196
21
0.071263
31
0.0
0
LINE
8
0
6
CONTINUOUS
10
-0.101196
20
0.072339
30
0.0
11
-0.109220
21
0.072339
31
0.0
0
LINE
8
0
6
CONTINUOUS
10
-0.101196
20
0.071263
30
0.0
11
-0.092973
21
0.071263
31
0.0
0
LINE
8
0
6
CONTINUOUS
10
-0.092973
20
0.072339
30
0.0
11
-0.101196
21
0.072339
31
0.0
0
LINE
8
0
6
CONTINUOUS
10
-0.092973
20
0.071263
30
0.0
11
-0.085361
21
0.071263
31
0.0
0
LINE
8
0
6
CONTINUOUS
10
-0.085361
20
0.072339
30
0.0
11
-0.092973
21
0.072339
31
0.0
0
LINE
8
0
6
CONTINUOUS
10
-0.085361
20
0.071263
30
0.0
11
-0.078564
21
0.071263
31
0.0
0
LINE
8
0
6
CONTINUOUS
10
-0.078564
20
0.072339
30
0.0
11
-0.085361
21
0.072339
31
0.0
0
LINE
8
0
6
CONTINUOUS
10
-0.068443
20
0.070801
30
0.0
11
-0.070179
21
0.070801
31
0.0
0
LINE
8
0
6
CONTINUOUS
10
-0.070179
20
0.070801
30
0.0
11
-0.073775
21
0.070801
31
0.0
0
LINE
8
0
6
CONTINUOUS
10
-0.073775
20
0.070801
30
0.0
11
-0.079042
21
0.070801
31
0.0
0
LINE
8
0
6
CONTINUOUS
10
-0.067570
20
0.071263
30
0.0
11
-0.069416
21
0.071263
31
0.0
0
LINE
8
0
6
CONTINUOUS
10
-0.068443
20
0.070801
30
0.0
11
-0.067570
21
0.071263
31
0.0
0
LINE
8
0
6
CONTINUOUS
10
-0.070179
20
0.070801
30
0.0
11
-0.068443
21
0.070801
31
0.0
0
LINE
8
0
6
CONTINUOUS
10
-0.069416
20
0.071263
30
0.0
11
-0.073202
21
0.071263
31
0.0
0
LINE
8
0
6
CONTINUOUS
10
-0.073775
20
0.070801
30
0.0
11
-0.070179
21
0.070801
31
0.0
0
LINE
8
0
6
CONTINUOUS
10
-0.073202
20
0.071263
30
0.0
11
-0.078564
21
0.071263
31
0.0
0
LINE
8
0
6
CONTINUOUS
10
-0.079042
20
0.070801
30
0.0
11
-0.073775
21
0.070801
31
0.0
0
LINE
8
0
6
CONTINUOUS
10
-0.067570
20
0.072339
30
0.0
11
-0.069416
21
0.072339
31
0.0
0
LINE
8
0
6
CONTINUOUS
10
-0.067570
20
0.071263
30
0.0
11
-0.067570
21
0.072339
31
0.0
0
LINE
8
0
6
CONTINUOUS
10
-0.069416
20
0.071263
30
0.0
11
-0.067570
21
0.071263
31
0.0
0
LINE
8
0
6
CONTINUOUS
10
-0.069416
20
0.072339
30
0.0
11
-0.073202
21
0.072339
31
0.0
0
LINE
8
0
6
CONTINUOUS
10
-0.073202
20
0.071263
30
0.0
11
-0.069416
21
0.071263
31
0.0
0
LINE
8
0
6
CONTINUOUS
10
-0.073202
20
0.072339
30
0.0
11
-0.078564
21
0.072339
31
0.0
0
LINE
8
0
6
CONTINUOUS
10
-0.078564
20
0.071263
30
0.0
11
-0.073202
21
0.071263
31
0.0
0
LINE
8
0
6
CONTINUOUS
10
-0.121668
20
0.070801
30
0.0
11
-0.125835
21
0.070801
31
0.0
0
LINE
8
0
6
CONTINUOUS
10
-0.125835
20
0.070801
30
0.0
11
-0.128178
21
0.070801
31
0.0
0
LINE
8
0
6
CONTINUOUS
10
-0.128178
20
0.070801
30
0.0
11
-0.128538
21
0.070801
31
0.0
0
LINE
8
0
6
CONTINUOUS
10
-0.122238
20
0.071263
30
0.0
11
-0.126484
21
0.071263
31
0.0
0
LINE
8
0
6
CONTINUOUS
10
-0.125835
20
0.070801
30
0.0
11
-0.121668
21
0.070801
31
0.0
0
LINE
8
0
6
CONTINUOUS
10
-0.126484
20
0.071263
30
0.0
11
-0.128987
21
0.071263
31
0.0
0
LINE
8
0
6
CONTINUOUS
10
-0.128178
20
0.070801
30
0.0
11
-0.125835
21
0.070801
31
0.0
0
LINE
8
0
6
CONTINUOUS
10
-0.128987
20
0.071263
30
0.0
11
-0.129412
21
0.071263
31
0.0
0
LINE
8
0
6
CONTINUOUS
10
-0.128538
20
0.070801
30
0.0
11
-0.128178
21
0.070801
31
0.0
0
LINE
8
0
6
CONTINUOUS
10
-0.128538
20
0.070801
30
0.0
11
-0.129412
21
0.071263
31
0.0
0
LINE
8
0
6
CONTINUOUS
10
-0.122238
20
0.072339
30
0.0
11
-0.126484
21
0.072339
31
0.0
0
LINE
8
0
6
CONTINUOUS
10
-0.126484
20
0.071263
30
0.0
11
-0.122238
21
0.071263
31
0.0
0
LINE
8
0
6
CONTINUOUS
10
-0.126484
20
0.072339
30
0.0
11
-0.128987
21
0.072339
31
0.0
0
LINE
8
0
6
CONTINUOUS
10
-0.128987
20
0.071263
30
0.0
11
-0.126484
21
0.071263
31
0.0
0
LINE
8
0
6
CONTINUOUS
10
-0.128987
20
0.072339
30
0.0
11
-0.129412
21
0.072339
31
0.0
0
LINE
8
0
6
CONTINUOUS
10
-0.129412
20
0.071263
30
0.0
11
-0.128987
21
0.071263
31
0.0
0
LINE
8
0
6
CONTINUOUS
10
-0.129412
20
0.071263
30
0.0
11
-0.129412
21
0.072339
31
0.0
0
LINE
8
0
6
CONTINUOUS
10
-0.125835
20
0.072801
30
0.0
11
-0.121668
21
0.072801
31
0.0
0
LINE
8
0
6
CONTINUOUS
10
-0.128178
20
0.072801
30
0.0
11
-0.125835
21
0.072801
31
0.0
0
LINE
8
0
6
CONTINUOUS
10
-0.128538
20
0.072801
30
0.0
11
-0.128178
21
0.072801
31
0.0
0
LINE
8
0
6
CONTINUOUS
10
-0.121668
20
0.072801
30
0.0
11
-0.125835
21
0.072801
31
0.0
0
LINE
8
0
6
CONTINUOUS
10
-0.126484
20
0.072339
30
0.0
11
-0.122238
21
0.072339
31
0.0
0
LINE
8
0
6
CONTINUOUS
10
-0.125835
20
0.072801
30
0.0
11
-0.128178
21
0.072801
31
0.0
0
LINE
8
0
6
CONTINUOUS
10
-0.128987
20
0.072339
30
0.0
11
-0.126484
21
0.072339
31
0.0
0
LINE
8
0
6
CONTINUOUS
10
-0.128178
20
0.072801
30
0.0
11
-0.128538
21
0.072801
31
0.0
0
LINE
8
0
6
CONTINUOUS
10
-0.129412
20
0.072339
30
0.0
11
-0.128987
21
0.072339
31
0.0
0
LINE
8
0
6
CONTINUOUS
10
-0.129412
20
0.072339
30
0.0
11
-0.128538
21
0.072801
31
0.0
0
ENDSEC
0
EOF
