999
unknown String-ID: 20550
0
SECTION
2
HEADER
9
$ACADVER
1
AC1009
9
$DWGCODEPAGE
3
unknown String-ID: 20561
0
ENDSEC
0
SECTION
2
TABLES
0
TABLE
2
LAYER
70
1
0
LAYER
2
0
70
0
62
7
6
CONTINUOUS
0
ENDTAB
0
ENDSEC
0
SECTION
2
ENTITIES
0
LINE
8
0
6
CONTINUOUS
10
-0.038321
20
0.027425
30
0.0
11
-0.038322
21
0.016282
31
0.0
0
LINE
8
0
6
CONTINUOUS
10
-0.028083
20
0.016082
30
0.0
11
-0.027581
21
0.017144
31
0.0
0
LINE
8
0
6
CONTINUOUS
10
-0.036161
20
0.015022
30
0.0
11
-0.029720
21
0.015123
31
0.0
0
LINE
8
0
6
CONTINUOUS
10
-0.029720
20
0.015123
30
0.0
11
-0.028834
21
0.015372
31
0.0
0
LINE
8
0
6
CONTINUOUS
10
-0.028834
20
0.015372
30
0.0
11
-0.028083
21
0.016082
31
0.0
0
LINE
8
0
6
CONTINUOUS
10
-0.027581
20
0.017144
30
0.0
11
-0.027405
21
0.018396
31
0.0
0
LINE
8
0
6
CONTINUOUS
10
-0.038322
20
0.016030
30
0.0
11
-0.038225
21
0.015531
31
0.0
0
LINE
8
0
6
CONTINUOUS
10
-0.038396
20
0.028140
30
0.0
11
-0.038321
21
0.027677
31
0.0
0
LINE
8
0
6
CONTINUOUS
10
-0.038631
20
0.028498
30
0.0
11
-0.038396
21
0.028140
31
0.0
0
LINE
8
0
6
CONTINUOUS
10
-0.073839
20
0.028677
30
0.0
11
-0.080280
21
0.027880
31
0.0
0
LINE
8
0
6
CONTINUOUS
10
-0.080280
20
0.015123
30
0.0
11
-0.073853
21
0.015024
31
0.0
0
LINE
8
0
6
CONTINUOUS
10
-0.071679
20
0.016284
30
0.0
11
-0.071680
21
0.027425
31
0.0
0
LINE
8
0
6
CONTINUOUS
10
-0.071605
20
0.028140
30
0.0
11
-0.071370
21
0.028498
31
0.0
0
LINE
8
0
6
CONTINUOUS
10
-0.071680
20
0.027677
30
0.0
11
-0.071605
21
0.028140
31
0.0
0
LINE
8
0
6
CONTINUOUS
10
-0.071776
20
0.015533
30
0.0
11
-0.071679
21
0.016033
31
0.0
0
LINE
8
0
6
CONTINUOUS
10
-0.071038
20
0.028703
30
0.0
11
-0.071257
21
0.028703
31
0.0
0
LINE
8
0
6
CONTINUOUS
10
-0.039216
20
0.027677
30
0.0
11
-0.038318
21
0.027677
31
0.0
0
LINE
8
0
6
CONTINUOUS
10
-0.039862
20
0.028703
30
0.0
11
-0.043730
21
0.028703
31
0.0
0
LINE
8
0
6
CONTINUOUS
10
-0.039530
20
0.028498
30
0.0
11
-0.039862
21
0.028703
31
0.0
0
LINE
8
0
6
CONTINUOUS
10
-0.060973
20
0.027677
30
0.0
11
-0.055000
21
0.027677
31
0.0
0
LINE
8
0
6
CONTINUOUS
10
-0.066646
20
0.027677
30
0.0
11
-0.060973
21
0.027677
31
0.0
0
LINE
8
0
6
CONTINUOUS
10
-0.055000
20
0.027677
30
0.0
11
-0.049027
21
0.027677
31
0.0
0
LINE
8
0
6
CONTINUOUS
10
-0.070785
20
0.027677
30
0.0
11
-0.066646
21
0.027677
31
0.0
0
LINE
8
0
6
CONTINUOUS
10
-0.070706
20
0.028140
30
0.0
11
-0.070785
21
0.027677
31
0.0
0
LINE
8
0
6
CONTINUOUS
10
-0.055000
20
0.028703
30
0.0
11
-0.060780
21
0.028703
31
0.0
0
LINE
8
0
6
CONTINUOUS
10
-0.049027
20
0.027677
30
0.0
11
-0.043354
21
0.027677
31
0.0
0
LINE
8
0
6
CONTINUOUS
10
-0.070471
20
0.028498
30
0.0
11
-0.070706
21
0.028140
31
0.0
0
LINE
8
0
6
CONTINUOUS
10
-0.060780
20
0.028703
30
0.0
11
-0.066270
21
0.028703
31
0.0
0
LINE
8
0
6
CONTINUOUS
10
-0.049220
20
0.028703
30
0.0
11
-0.055000
21
0.028703
31
0.0
0
LINE
8
0
6
CONTINUOUS
10
-0.039216
20
0.027677
30
0.0
11
-0.039295
21
0.028140
31
0.0
0
LINE
8
0
6
CONTINUOUS
10
-0.043354
20
0.027677
30
0.0
11
-0.039216
21
0.027677
31
0.0
0
LINE
8
0
6
CONTINUOUS
10
-0.043730
20
0.028703
30
0.0
11
-0.049220
21
0.028703
31
0.0
0
LINE
8
0
6
CONTINUOUS
10
-0.039295
20
0.028140
30
0.0
11
-0.039530
21
0.028498
31
0.0
0
LINE
8
0
6
CONTINUOUS
10
-0.066270
20
0.028703
30
0.0
11
-0.070140
21
0.028703
31
0.0
0
LINE
8
0
6
CONTINUOUS
10
-0.070140
20
0.028703
30
0.0
11
-0.070471
21
0.028498
31
0.0
0
LINE
8
0
6
CONTINUOUS
10
-0.060973
20
0.027677
30
0.0
11
-0.066646
21
0.027677
31
0.0
0
LINE
8
0
6
CONTINUOUS
10
-0.049027
20
0.027677
30
0.0
11
-0.055000
21
0.027677
31
0.0
0
LINE
8
0
6
CONTINUOUS
10
-0.043354
20
0.027677
30
0.0
11
-0.049027
21
0.027677
31
0.0
0
LINE
8
0
6
CONTINUOUS
10
-0.060973
20
-0.017770
30
0.0
11
-0.055000
21
-0.017770
31
0.0
0
LINE
8
0
6
CONTINUOUS
10
-0.066646
20
-0.017770
30
0.0
11
-0.060973
21
-0.017770
31
0.0
0
LINE
8
0
6
CONTINUOUS
10
-0.055000
20
-0.017770
30
0.0
11
-0.049027
21
-0.017770
31
0.0
0
LINE
8
0
6
CONTINUOUS
10
-0.076905
20
-0.020809
30
0.0
11
-0.077247
21
-0.021135
31
0.0
0
LINE
8
0
6
CONTINUOUS
10
-0.049027
20
-0.017770
30
0.0
11
-0.043354
21
-0.017770
31
0.0
0
LINE
8
0
6
CONTINUOUS
10
-0.077247
20
-0.021135
30
0.0
11
-0.077475
21
-0.021621
31
0.0
0
LINE
8
0
6
CONTINUOUS
10
-0.076501
20
-0.020695
30
0.0
11
-0.076905
21
-0.020809
31
0.0
0
LINE
8
0
6
CONTINUOUS
10
-0.074079
20
-0.020695
30
0.0
11
-0.076501
21
-0.020695
31
0.0
0
LINE
8
0
6
CONTINUOUS
10
-0.072192
20
-0.017770
30
0.0
11
-0.072192
21
-0.020469
31
0.0
0
LINE
8
0
6
CONTINUOUS
10
-0.072192
20
-0.020695
30
0.0
11
-0.070255
21
-0.020695
31
0.0
0
LINE
8
0
6
CONTINUOUS
10
-0.072192
20
-0.020469
30
0.0
11
-0.072192
21
-0.020695
31
0.0
0
LINE
8
0
6
CONTINUOUS
10
-0.073860
20
-0.017472
30
0.0
11
-0.073860
21
-0.017770
31
0.0
0
LINE
8
0
6
CONTINUOUS
10
-0.073860
20
-0.017770
30
0.0
11
-0.071735
21
-0.017770
31
0.0
0
LINE
8
0
6
CONTINUOUS
10
-0.036140
20
-0.017472
30
0.0
11
-0.036147
21
0.015022
31
0.0
0
LINE
8
0
6
CONTINUOUS
10
-0.077475
20
-0.021621
30
0.0
11
-0.077555
21
-0.022195
31
0.0
0
LINE
8
0
6
CONTINUOUS
10
-0.060444
20
-0.020695
30
0.0
11
-0.055000
21
-0.020695
31
0.0
0
LINE
8
0
6
CONTINUOUS
10
-0.072386
20
-0.020695
30
0.0
11
-0.076424
21
-0.020695
31
0.0
0
LINE
8
0
6
CONTINUOUS
10
-0.070427
20
-0.020695
30
0.0
11
-0.072386
21
-0.020695
31
0.0
0
LINE
8
0
6
CONTINUOUS
10
-0.055000
20
-0.020695
30
0.0
11
-0.049556
21
-0.020695
31
0.0
0
LINE
8
0
6
CONTINUOUS
10
-0.065616
20
-0.020695
30
0.0
11
-0.060444
21
-0.020695
31
0.0
0
LINE
8
0
6
CONTINUOUS
10
-0.070255
20
-0.020695
30
0.0
11
-0.065616
21
-0.020695
31
0.0
0
LINE
8
0
6
CONTINUOUS
10
-0.073853
20
0.015024
30
0.0
11
-0.073860
21
-0.017472
31
0.0
0
LINE
8
0
6
CONTINUOUS
10
-0.044384
20
-0.020695
30
0.0
11
-0.039745
21
-0.020695
31
0.0
0
LINE
8
0
6
CONTINUOUS
10
-0.049556
20
-0.020695
30
0.0
11
-0.044384
21
-0.020695
31
0.0
0
LINE
8
0
6
CONTINUOUS
10
-0.055000
20
-0.020695
30
0.0
11
-0.060506
21
-0.020695
31
0.0
0
LINE
8
0
6
CONTINUOUS
10
-0.066646
20
0.027677
30
0.0
11
-0.071683
21
0.027677
31
0.0
0
LINE
8
0
6
CONTINUOUS
10
-0.037808
20
-0.020469
30
0.0
11
-0.037808
21
-0.017770
31
0.0
0
LINE
8
0
6
CONTINUOUS
10
-0.060506
20
-0.020695
30
0.0
11
-0.065736
21
-0.020695
31
0.0
0
LINE
8
0
6
CONTINUOUS
10
-0.065736
20
-0.020695
30
0.0
11
-0.070427
21
-0.020695
31
0.0
0
LINE
8
0
6
CONTINUOUS
10
-0.037808
20
-0.020695
30
0.0
11
-0.037808
21
-0.020469
31
0.0
0
LINE
8
0
6
CONTINUOUS
10
-0.039745
20
-0.020695
30
0.0
11
-0.037808
21
-0.020695
31
0.0
0
LINE
8
0
6
CONTINUOUS
10
-0.055000
20
-0.020695
30
0.0
11
-0.061809
21
-0.020695
31
0.0
0
LINE
8
0
6
CONTINUOUS
10
-0.048191
20
-0.020695
30
0.0
11
-0.055000
21
-0.020695
31
0.0
0
LINE
8
0
6
CONTINUOUS
10
-0.061809
20
-0.020695
30
0.0
11
-0.068277
21
-0.020695
31
0.0
0
LINE
8
0
6
CONTINUOUS
10
-0.068277
20
-0.020695
30
0.0
11
-0.074079
21
-0.020695
31
0.0
0
LINE
8
0
6
CONTINUOUS
10
-0.035921
20
-0.020695
30
0.0
11
-0.041723
21
-0.020695
31
0.0
0
LINE
8
0
6
CONTINUOUS
10
-0.041723
20
-0.020695
30
0.0
11
-0.048191
21
-0.020695
31
0.0
0
LINE
8
0
6
CONTINUOUS
10
-0.033095
20
-0.020809
30
0.0
11
-0.033499
21
-0.020695
31
0.0
0
LINE
8
0
6
CONTINUOUS
10
-0.033499
20
-0.020695
30
0.0
11
-0.035921
21
-0.020695
31
0.0
0
LINE
8
0
6
CONTINUOUS
10
-0.032753
20
-0.021135
30
0.0
11
-0.033095
21
-0.020809
31
0.0
0
LINE
8
0
6
CONTINUOUS
10
-0.032525
20
-0.021621
30
0.0
11
-0.032753
21
-0.021135
31
0.0
0
LINE
8
0
6
CONTINUOUS
10
-0.062143
20
-0.028695
30
0.0
11
-0.055000
21
-0.028695
31
0.0
0
LINE
8
0
6
CONTINUOUS
10
-0.032445
20
-0.022195
30
0.0
11
-0.032525
21
-0.021621
31
0.0
0
LINE
8
0
6
CONTINUOUS
10
-0.055000
20
-0.028695
30
0.0
11
-0.047857
21
-0.028695
31
0.0
0
LINE
8
0
6
CONTINUOUS
10
-0.068928
20
-0.028695
30
0.0
11
-0.062143
21
-0.028695
31
0.0
0
LINE
8
0
6
CONTINUOUS
10
-0.075014
20
-0.028695
30
0.0
11
-0.068928
21
-0.028695
31
0.0
0
LINE
8
0
6
CONTINUOUS
10
-0.032445
20
-0.022329
30
0.0
11
-0.032445
21
-0.022195
31
0.0
0
LINE
8
0
6
CONTINUOUS
10
-0.041072
20
-0.028695
30
0.0
11
-0.034986
21
-0.028695
31
0.0
0
LINE
8
0
6
CONTINUOUS
10
-0.047857
20
-0.028695
30
0.0
11
-0.041072
21
-0.028695
31
0.0
0
LINE
8
0
6
CONTINUOUS
10
-0.032445
20
-0.028484
30
0.0
11
-0.032445
21
-0.022329
31
0.0
0
LINE
8
0
6
CONTINUOUS
10
-0.038318
20
0.027677
30
0.0
11
-0.043354
21
0.027677
31
0.0
0
LINE
8
0
6
CONTINUOUS
10
-0.032445
20
-0.028695
30
0.0
11
-0.032445
21
-0.028484
31
0.0
0
LINE
8
0
6
CONTINUOUS
10
-0.034986
20
-0.028695
30
0.0
11
-0.032445
21
-0.028695
31
0.0
0
LINE
8
0
6
CONTINUOUS
10
-0.036140
20
-0.017770
30
0.0
11
-0.036140
21
-0.017472
31
0.0
0
LINE
8
0
6
CONTINUOUS
10
-0.038265
20
-0.017770
30
0.0
11
-0.036140
21
-0.017770
31
0.0
0
LINE
8
0
6
CONTINUOUS
10
-0.077555
20
-0.028695
30
0.0
11
-0.075014
21
-0.028695
31
0.0
0
LINE
8
0
6
CONTINUOUS
10
-0.077555
20
-0.028484
30
0.0
11
-0.077555
21
-0.028695
31
0.0
0
LINE
8
0
6
CONTINUOUS
10
-0.077555
20
-0.022329
30
0.0
11
-0.077555
21
-0.028484
31
0.0
0
LINE
8
0
6
CONTINUOUS
10
-0.077555
20
-0.022195
30
0.0
11
-0.077555
21
-0.022329
31
0.0
0
LINE
8
0
6
CONTINUOUS
10
-0.029720
20
0.027880
30
0.0
11
-0.036161
21
0.028677
31
0.0
0
LINE
8
0
6
CONTINUOUS
10
-0.071605
20
0.028140
30
0.0
11
-0.071683
21
0.027677
31
0.0
0
LINE
8
0
6
CONTINUOUS
10
-0.071370
20
0.028498
30
0.0
11
-0.071605
21
0.028140
31
0.0
0
LINE
8
0
6
CONTINUOUS
10
-0.071038
20
0.028703
30
0.0
11
-0.071370
21
0.028498
31
0.0
0
LINE
8
0
6
CONTINUOUS
10
-0.038631
20
0.028498
30
0.0
11
-0.038963
21
0.028703
31
0.0
0
LINE
8
0
6
CONTINUOUS
10
-0.038396
20
0.028140
30
0.0
11
-0.038631
21
0.028498
31
0.0
0
LINE
8
0
6
CONTINUOUS
10
-0.038318
20
0.027677
30
0.0
11
-0.038396
21
0.028140
31
0.0
0
LINE
8
0
6
CONTINUOUS
10
-0.055000
20
0.027677
30
0.0
11
-0.060973
21
0.027677
31
0.0
0
LINE
8
0
6
CONTINUOUS
10
-0.043354
20
-0.017770
30
0.0
11
-0.038265
21
-0.017770
31
0.0
0
LINE
8
0
6
CONTINUOUS
10
-0.071735
20
-0.017770
30
0.0
11
-0.066646
21
-0.017770
31
0.0
0
LINE
8
0
6
CONTINUOUS
10
-0.036778
20
0.028703
30
0.0
11
-0.038744
21
0.028703
31
0.0
0
LINE
8
0
6
CONTINUOUS
10
-0.036161
20
0.028677
30
0.0
11
-0.036778
21
0.028703
31
0.0
0
LINE
8
0
6
CONTINUOUS
10
-0.038963
20
0.028703
30
0.0
11
-0.038631
21
0.028498
31
0.0
0
LINE
8
0
6
CONTINUOUS
10
-0.071370
20
0.028498
30
0.0
11
-0.071038
21
0.028703
31
0.0
0
LINE
8
0
6
CONTINUOUS
10
-0.071680
20
0.027425
30
0.0
11
-0.071680
21
0.027677
31
0.0
0
LINE
8
0
6
CONTINUOUS
10
-0.071679
20
0.016033
30
0.0
11
-0.071679
21
0.016284
31
0.0
0
LINE
8
0
6
CONTINUOUS
10
-0.038322
20
0.016282
30
0.0
11
-0.038322
21
0.016030
31
0.0
0
LINE
8
0
6
CONTINUOUS
10
-0.038321
20
0.027677
30
0.0
11
-0.038321
21
0.027425
31
0.0
0
LINE
8
0
6
CONTINUOUS
10
-0.082418
20
0.025859
30
0.0
11
-0.082595
21
0.024606
31
0.0
0
LINE
8
0
6
CONTINUOUS
10
-0.081917
20
0.016082
30
0.0
11
-0.081166
21
0.015372
31
0.0
0
LINE
8
0
6
CONTINUOUS
10
-0.082595
20
0.024606
30
0.0
11
-0.082595
21
0.018396
31
0.0
0
LINE
8
0
6
CONTINUOUS
10
-0.080280
20
0.027880
30
0.0
11
-0.081166
21
0.027631
31
0.0
0
LINE
8
0
6
CONTINUOUS
10
-0.081917
20
0.026921
30
0.0
11
-0.082418
21
0.025859
31
0.0
0
LINE
8
0
6
CONTINUOUS
10
-0.082418
20
0.017144
30
0.0
11
-0.081917
21
0.016082
31
0.0
0
LINE
8
0
6
CONTINUOUS
10
-0.082595
20
0.018396
30
0.0
11
-0.082418
21
0.017144
31
0.0
0
LINE
8
0
6
CONTINUOUS
10
-0.081166
20
0.027631
30
0.0
11
-0.081917
21
0.026921
31
0.0
0
LINE
8
0
6
CONTINUOUS
10
-0.073223
20
0.028703
30
0.0
11
-0.073839
21
0.028677
31
0.0
0
LINE
8
0
6
CONTINUOUS
10
-0.071257
20
0.028703
30
0.0
11
-0.073223
21
0.028703
31
0.0
0
LINE
8
0
6
CONTINUOUS
10
-0.081166
20
0.015372
30
0.0
11
-0.080280
21
0.015123
31
0.0
0
LINE
8
0
6
CONTINUOUS
10
-0.027405
20
0.024606
30
0.0
11
-0.027581
21
0.025859
31
0.0
0
LINE
8
0
6
CONTINUOUS
10
-0.027405
20
0.018396
30
0.0
11
-0.027405
21
0.024606
31
0.0
0
LINE
8
0
6
CONTINUOUS
10
-0.028083
20
0.026921
30
0.0
11
-0.028834
21
0.027631
31
0.0
0
LINE
8
0
6
CONTINUOUS
10
-0.028834
20
0.027631
30
0.0
11
-0.029720
21
0.027880
31
0.0
0
LINE
8
0
6
CONTINUOUS
10
-0.027581
20
0.025859
30
0.0
11
-0.028083
21
0.026921
31
0.0
0
LINE
8
0
6
CONTINUOUS
10
-0.038744
20
0.028703
30
0.0
11
-0.038963
21
0.028703
31
0.0
0
LINE
8
0
6
CONTINUOUS
10
-0.036161
20
0.028677
30
0.0
11
-0.029720
21
0.027880
31
0.0
0
LINE
8
0
6
CONTINUOUS
10
-0.027558
20
0.027631
30
0.0
11
-0.028447
21
0.027880
31
0.0
0
LINE
8
0
6
CONTINUOUS
10
-0.026043
20
0.017196
30
0.0
11
-0.025872
21
0.018410
31
0.0
0
LINE
8
0
6
CONTINUOUS
10
-0.026523
20
0.016178
30
0.0
11
-0.026043
21
0.017196
31
0.0
0
LINE
8
0
6
CONTINUOUS
10
-0.027241
20
0.015498
30
0.0
11
-0.026523
21
0.016178
31
0.0
0
LINE
8
0
6
CONTINUOUS
10
-0.027558
20
0.015372
30
0.0
11
-0.027241
21
0.015498
31
0.0
0
LINE
8
0
6
CONTINUOUS
10
-0.027241
20
0.027504
30
0.0
11
-0.027558
21
0.027631
31
0.0
0
LINE
8
0
6
CONTINUOUS
10
-0.026523
20
0.026824
30
0.0
11
-0.027241
21
0.027504
31
0.0
0
LINE
8
0
6
CONTINUOUS
10
-0.026043
20
0.025806
30
0.0
11
-0.026523
21
0.026824
31
0.0
0
LINE
8
0
6
CONTINUOUS
10
-0.025872
20
0.024593
30
0.0
11
-0.026043
21
0.025806
31
0.0
0
LINE
8
0
6
CONTINUOUS
10
-0.034593
20
0.028703
30
0.0
11
-0.034811
21
0.028703
31
0.0
0
LINE
8
0
6
CONTINUOUS
10
-0.028159
20
0.027677
30
0.0
11
-0.028264
21
0.028140
31
0.0
0
LINE
8
0
6
CONTINUOUS
10
-0.028264
20
0.028140
30
0.0
11
-0.028579
21
0.028498
31
0.0
0
LINE
8
0
6
CONTINUOUS
10
-0.028579
20
0.028498
30
0.0
11
-0.029024
21
0.028703
31
0.0
0
LINE
8
0
6
CONTINUOUS
10
-0.029024
20
0.028703
30
0.0
11
-0.029676
21
0.028703
31
0.0
0
LINE
8
0
6
CONTINUOUS
10
-0.029676
20
0.028703
30
0.0
11
-0.031597
21
0.028703
31
0.0
0
LINE
8
0
6
CONTINUOUS
10
-0.031597
20
0.028703
30
0.0
11
-0.034028
21
0.028703
31
0.0
0
LINE
8
0
6
CONTINUOUS
10
-0.034028
20
0.028703
30
0.0
11
-0.033714
21
0.028498
31
0.0
0
LINE
8
0
6
CONTINUOUS
10
-0.028159
20
-0.017770
30
0.0
11
-0.028159
21
-0.017472
31
0.0
0
LINE
8
0
6
CONTINUOUS
10
-0.028832
20
-0.017770
30
0.0
11
-0.028159
21
-0.017770
31
0.0
0
LINE
8
0
6
CONTINUOUS
10
-0.030817
20
-0.017770
30
0.0
11
-0.028832
21
-0.017770
31
0.0
0
LINE
8
0
6
CONTINUOUS
10
-0.033095
20
-0.020809
30
0.0
11
-0.032753
21
-0.021135
31
0.0
0
LINE
8
0
6
CONTINUOUS
10
-0.032753
20
-0.021135
30
0.0
11
-0.032525
21
-0.021621
31
0.0
0
LINE
8
0
6
CONTINUOUS
10
-0.033499
20
-0.020695
30
0.0
11
-0.033095
21
-0.020809
31
0.0
0
LINE
8
0
6
CONTINUOUS
10
-0.031076
20
-0.020695
30
0.0
11
-0.033499
21
-0.020695
31
0.0
0
LINE
8
0
6
CONTINUOUS
10
-0.037808
20
-0.017770
30
0.0
11
-0.037808
21
-0.020469
31
0.0
0
LINE
8
0
6
CONTINUOUS
10
-0.037808
20
-0.020695
30
0.0
11
-0.035871
21
-0.020695
31
0.0
0
LINE
8
0
6
CONTINUOUS
10
-0.037808
20
-0.020469
30
0.0
11
-0.037808
21
-0.020695
31
0.0
0
LINE
8
0
6
CONTINUOUS
10
-0.030533
20
-0.020469
30
0.0
11
-0.030533
21
-0.017770
31
0.0
0
LINE
8
0
6
CONTINUOUS
10
-0.036140
20
-0.017472
30
0.0
11
-0.036140
21
-0.017770
31
0.0
0
LINE
8
0
6
CONTINUOUS
10
-0.036140
20
-0.017770
30
0.0
11
-0.034015
21
-0.017770
31
0.0
0
LINE
8
0
6
CONTINUOUS
10
-0.032525
20
-0.021621
30
0.0
11
-0.032445
21
-0.022195
31
0.0
0
LINE
8
0
6
CONTINUOUS
10
-0.030533
20
-0.020695
30
0.0
11
-0.030533
21
-0.020469
31
0.0
0
LINE
8
0
6
CONTINUOUS
10
-0.031146
20
-0.020695
30
0.0
11
-0.030533
21
-0.020695
31
0.0
0
LINE
8
0
6
CONTINUOUS
10
-0.031162
20
-0.020695
30
0.0
11
-0.035655
21
-0.020695
31
0.0
0
LINE
8
0
6
CONTINUOUS
10
-0.035655
20
-0.020695
30
0.0
11
-0.037614
21
-0.020695
31
0.0
0
LINE
8
0
6
CONTINUOUS
10
-0.032956
20
-0.020695
30
0.0
11
-0.031146
21
-0.020695
31
0.0
0
LINE
8
0
6
CONTINUOUS
10
-0.035871
20
-0.020695
30
0.0
11
-0.032956
21
-0.020695
31
0.0
0
LINE
8
0
6
CONTINUOUS
10
-0.036147
20
0.015024
30
0.0
11
-0.036140
21
-0.017472
31
0.0
0
LINE
8
0
6
CONTINUOUS
10
-0.025167
20
-0.020695
30
0.0
11
-0.025274
21
-0.020695
31
0.0
0
LINE
8
0
6
CONTINUOUS
10
-0.024400
20
-0.020695
30
0.0
11
-0.025167
21
-0.020695
31
0.0
0
LINE
8
0
6
CONTINUOUS
10
-0.025274
20
-0.020695
30
0.0
11
-0.024510
21
-0.020695
31
0.0
0
LINE
8
0
6
CONTINUOUS
10
-0.023826
20
-0.020809
30
0.0
11
-0.024400
21
-0.020695
31
0.0
0
LINE
8
0
6
CONTINUOUS
10
-0.024400
20
-0.020695
30
0.0
11
-0.025167
21
-0.020695
31
0.0
0
LINE
8
0
6
CONTINUOUS
10
-0.023339
20
-0.021135
30
0.0
11
-0.023826
21
-0.020809
31
0.0
0
LINE
8
0
6
CONTINUOUS
10
-0.025167
20
-0.020695
30
0.0
11
-0.027430
21
-0.020695
31
0.0
0
LINE
8
0
6
CONTINUOUS
10
-0.027430
20
-0.020695
30
0.0
11
-0.031076
21
-0.020695
31
0.0
0
LINE
8
0
6
CONTINUOUS
10
-0.023015
20
-0.021621
30
0.0
11
-0.023339
21
-0.021135
31
0.0
0
LINE
8
0
6
CONTINUOUS
10
-0.022900
20
-0.022195
30
0.0
11
-0.023015
21
-0.021621
31
0.0
0
LINE
8
0
6
CONTINUOUS
10
-0.022900
20
-0.022329
30
0.0
11
-0.022900
21
-0.022195
31
0.0
0
LINE
8
0
6
CONTINUOUS
10
-0.022900
20
-0.028484
30
0.0
11
-0.022900
21
-0.022329
31
0.0
0
LINE
8
0
6
CONTINUOUS
10
-0.022900
20
-0.028695
30
0.0
11
-0.022900
21
-0.028484
31
0.0
0
LINE
8
0
6
CONTINUOUS
10
-0.023705
20
-0.028695
30
0.0
11
-0.022900
21
-0.028695
31
0.0
0
LINE
8
0
6
CONTINUOUS
10
-0.026079
20
-0.028695
30
0.0
11
-0.023705
21
-0.028695
31
0.0
0
LINE
8
0
6
CONTINUOUS
10
-0.029903
20
-0.028695
30
0.0
11
-0.026079
21
-0.028695
31
0.0
0
LINE
8
0
6
CONTINUOUS
10
-0.032445
20
-0.028695
30
0.0
11
-0.029903
21
-0.028695
31
0.0
0
LINE
8
0
6
CONTINUOUS
10
-0.032445
20
-0.028484
30
0.0
11
-0.032445
21
-0.028695
31
0.0
0
LINE
8
0
6
CONTINUOUS
10
-0.032445
20
-0.022329
30
0.0
11
-0.032445
21
-0.028484
31
0.0
0
LINE
8
0
6
CONTINUOUS
10
-0.032445
20
-0.022195
30
0.0
11
-0.032445
21
-0.022329
31
0.0
0
LINE
8
0
6
CONTINUOUS
10
-0.033714
20
0.028498
30
0.0
11
-0.034028
21
0.028703
31
0.0
0
LINE
8
0
6
CONTINUOUS
10
-0.028159
20
-0.017472
30
0.0
11
-0.028159
21
0.015203
31
0.0
0
LINE
8
0
6
CONTINUOUS
10
-0.034015
20
-0.017770
30
0.0
11
-0.030817
21
-0.017770
31
0.0
0
LINE
8
0
6
CONTINUOUS
10
-0.028443
20
0.015123
30
0.0
11
-0.027558
21
0.015372
31
0.0
0
LINE
8
0
6
CONTINUOUS
10
-0.028447
20
0.027880
30
0.0
11
-0.034700
21
0.028677
31
0.0
0
LINE
8
0
6
CONTINUOUS
10
-0.027581
20
0.025859
30
0.0
11
-0.027405
21
0.024606
31
0.0
0
LINE
8
0
6
CONTINUOUS
10
-0.028083
20
0.016082
30
0.0
11
-0.028834
21
0.015372
31
0.0
0
LINE
8
0
6
CONTINUOUS
10
-0.027405
20
0.024606
30
0.0
11
-0.027405
21
0.018396
31
0.0
0
LINE
8
0
6
CONTINUOUS
10
-0.034705
20
0.015033
30
0.0
11
-0.028443
21
0.015123
31
0.0
0
LINE
8
0
6
CONTINUOUS
10
-0.029720
20
0.027880
30
0.0
11
-0.028834
21
0.027631
31
0.0
0
LINE
8
0
6
CONTINUOUS
10
-0.028083
20
0.026921
30
0.0
11
-0.027581
21
0.025859
31
0.0
0
LINE
8
0
6
CONTINUOUS
10
-0.027581
20
0.017144
30
0.0
11
-0.028083
21
0.016082
31
0.0
0
LINE
8
0
6
CONTINUOUS
10
-0.027405
20
0.018396
30
0.0
11
-0.027581
21
0.017144
31
0.0
0
LINE
8
0
6
CONTINUOUS
10
-0.028834
20
0.027631
30
0.0
11
-0.028083
21
0.026921
31
0.0
0
LINE
8
0
6
CONTINUOUS
10
-0.036777
20
0.028703
30
0.0
11
-0.036161
21
0.028677
31
0.0
0
LINE
8
0
6
CONTINUOUS
10
-0.034811
20
0.028703
30
0.0
11
-0.036777
21
0.028703
31
0.0
0
LINE
8
0
6
CONTINUOUS
10
-0.028834
20
0.015372
30
0.0
11
-0.029720
21
0.015123
31
0.0
0
LINE
8
0
6
CONTINUOUS
10
-0.081917
20
0.016082
30
0.0
11
-0.082418
21
0.017144
31
0.0
0
LINE
8
0
6
CONTINUOUS
10
-0.073839
20
0.015022
30
0.0
11
-0.080280
21
0.015123
31
0.0
0
LINE
8
0
6
CONTINUOUS
10
-0.081557
20
0.027880
30
0.0
11
-0.082442
21
0.027631
31
0.0
0
LINE
8
0
6
CONTINUOUS
10
-0.080280
20
0.015123
30
0.0
11
-0.081166
21
0.015372
31
0.0
0
LINE
8
0
6
CONTINUOUS
10
-0.081166
20
0.015372
30
0.0
11
-0.081917
21
0.016082
31
0.0
0
LINE
8
0
6
CONTINUOUS
10
-0.082418
20
0.017144
30
0.0
11
-0.082595
21
0.018396
31
0.0
0
LINE
8
0
6
CONTINUOUS
10
-0.082759
20
0.015498
30
0.0
11
-0.082442
21
0.015372
31
0.0
0
LINE
8
0
6
CONTINUOUS
10
-0.083477
20
0.016178
30
0.0
11
-0.082759
21
0.015498
31
0.0
0
LINE
8
0
6
CONTINUOUS
10
-0.083957
20
0.017196
30
0.0
11
-0.083477
21
0.016178
31
0.0
0
LINE
8
0
6
CONTINUOUS
10
-0.084128
20
0.018410
30
0.0
11
-0.083957
21
0.017196
31
0.0
0
LINE
8
0
6
CONTINUOUS
10
-0.083957
20
0.025806
30
0.0
11
-0.084128
21
0.024593
31
0.0
0
LINE
8
0
6
CONTINUOUS
10
-0.083477
20
0.026824
30
0.0
11
-0.083957
21
0.025806
31
0.0
0
LINE
8
0
6
CONTINUOUS
10
-0.082758
20
0.027504
30
0.0
11
-0.083477
21
0.026824
31
0.0
0
LINE
8
0
6
CONTINUOUS
10
-0.082442
20
0.027631
30
0.0
11
-0.082758
21
0.027504
31
0.0
0
LINE
8
0
6
CONTINUOUS
10
-0.075973
20
0.028703
30
0.0
11
-0.078403
21
0.028703
31
0.0
0
LINE
8
0
6
CONTINUOUS
10
-0.076287
20
0.028498
30
0.0
11
-0.075973
21
0.028703
31
0.0
0
LINE
8
0
6
CONTINUOUS
10
-0.081736
20
0.028140
30
0.0
11
-0.081841
21
0.027677
31
0.0
0
LINE
8
0
6
CONTINUOUS
10
-0.081421
20
0.028498
30
0.0
11
-0.081736
21
0.028140
31
0.0
0
LINE
8
0
6
CONTINUOUS
10
-0.080976
20
0.028703
30
0.0
11
-0.081421
21
0.028498
31
0.0
0
LINE
8
0
6
CONTINUOUS
10
-0.080324
20
0.028703
30
0.0
11
-0.080976
21
0.028703
31
0.0
0
LINE
8
0
6
CONTINUOUS
10
-0.078403
20
0.028703
30
0.0
11
-0.080324
21
0.028703
31
0.0
0
LINE
8
0
6
CONTINUOUS
10
-0.081841
20
0.015203
30
0.0
11
-0.081841
21
-0.017472
31
0.0
0
LINE
8
0
6
CONTINUOUS
10
-0.081841
20
-0.017472
30
0.0
11
-0.081841
21
-0.017770
31
0.0
0
LINE
8
0
6
CONTINUOUS
10
-0.081841
20
-0.017770
30
0.0
11
-0.081168
21
-0.017770
31
0.0
0
LINE
8
0
6
CONTINUOUS
10
-0.081168
20
-0.017770
30
0.0
11
-0.079183
21
-0.017770
31
0.0
0
LINE
8
0
6
CONTINUOUS
10
-0.073860
20
-0.017472
30
0.0
11
-0.073853
21
0.015022
31
0.0
0
LINE
8
0
6
CONTINUOUS
10
-0.079467
20
-0.017770
30
0.0
11
-0.079467
21
-0.020469
31
0.0
0
LINE
8
0
6
CONTINUOUS
10
-0.079467
20
-0.020695
30
0.0
11
-0.078854
21
-0.020695
31
0.0
0
LINE
8
0
6
CONTINUOUS
10
-0.079467
20
-0.020469
30
0.0
11
-0.079467
21
-0.020695
31
0.0
0
LINE
8
0
6
CONTINUOUS
10
-0.077044
20
-0.020695
30
0.0
11
-0.074129
21
-0.020695
31
0.0
0
LINE
8
0
6
CONTINUOUS
10
-0.078854
20
-0.020695
30
0.0
11
-0.077044
21
-0.020695
31
0.0
0
LINE
8
0
6
CONTINUOUS
10
-0.072192
20
-0.020469
30
0.0
11
-0.072192
21
-0.017770
31
0.0
0
LINE
8
0
6
CONTINUOUS
10
-0.072192
20
-0.020695
30
0.0
11
-0.072192
21
-0.020469
31
0.0
0
LINE
8
0
6
CONTINUOUS
10
-0.074129
20
-0.020695
30
0.0
11
-0.072192
21
-0.020695
31
0.0
0
LINE
8
0
6
CONTINUOUS
10
-0.085600
20
-0.020695
30
0.0
11
-0.086174
21
-0.020809
31
0.0
0
LINE
8
0
6
CONTINUOUS
10
-0.084833
20
-0.020695
30
0.0
11
-0.085600
21
-0.020695
31
0.0
0
LINE
8
0
6
CONTINUOUS
10
-0.078924
20
-0.020695
30
0.0
11
-0.082570
21
-0.020695
31
0.0
0
LINE
8
0
6
CONTINUOUS
10
-0.082570
20
-0.020695
30
0.0
11
-0.084833
21
-0.020695
31
0.0
0
LINE
8
0
6
CONTINUOUS
10
-0.086174
20
-0.020809
30
0.0
11
-0.086661
21
-0.021135
31
0.0
0
LINE
8
0
6
CONTINUOUS
10
-0.086661
20
-0.021135
30
0.0
11
-0.086985
21
-0.021621
31
0.0
0
LINE
8
0
6
CONTINUOUS
10
-0.076905
20
-0.020809
30
0.0
11
-0.076501
21
-0.020695
31
0.0
0
LINE
8
0
6
CONTINUOUS
10
-0.076501
20
-0.020695
30
0.0
11
-0.078924
21
-0.020695
31
0.0
0
LINE
8
0
6
CONTINUOUS
10
-0.086985
20
-0.021621
30
0.0
11
-0.087100
21
-0.022195
31
0.0
0
LINE
8
0
6
CONTINUOUS
10
-0.077247
20
-0.021135
30
0.0
11
-0.076905
21
-0.020809
31
0.0
0
LINE
8
0
6
CONTINUOUS
10
-0.087100
20
-0.022195
30
0.0
11
-0.087100
21
-0.022329
31
0.0
0
LINE
8
0
6
CONTINUOUS
10
-0.077475
20
-0.021621
30
0.0
11
-0.077247
21
-0.021135
31
0.0
0
LINE
8
0
6
CONTINUOUS
10
-0.087100
20
-0.022329
30
0.0
11
-0.087100
21
-0.028484
31
0.0
0
LINE
8
0
6
CONTINUOUS
10
-0.077555
20
-0.022195
30
0.0
11
-0.077475
21
-0.021621
31
0.0
0
LINE
8
0
6
CONTINUOUS
10
-0.087100
20
-0.028695
30
0.0
11
-0.086295
21
-0.028695
31
0.0
0
LINE
8
0
6
CONTINUOUS
10
-0.087100
20
-0.028484
30
0.0
11
-0.087100
21
-0.028695
31
0.0
0
LINE
8
0
6
CONTINUOUS
10
-0.077555
20
-0.022329
30
0.0
11
-0.077555
21
-0.022195
31
0.0
0
LINE
8
0
6
CONTINUOUS
10
-0.083921
20
-0.028695
30
0.0
11
-0.080097
21
-0.028695
31
0.0
0
LINE
8
0
6
CONTINUOUS
10
-0.086295
20
-0.028695
30
0.0
11
-0.083921
21
-0.028695
31
0.0
0
LINE
8
0
6
CONTINUOUS
10
-0.077555
20
-0.028484
30
0.0
11
-0.077555
21
-0.022329
31
0.0
0
LINE
8
0
6
CONTINUOUS
10
-0.077555
20
-0.028695
30
0.0
11
-0.077555
21
-0.028484
31
0.0
0
LINE
8
0
6
CONTINUOUS
10
-0.080097
20
-0.028695
30
0.0
11
-0.077555
21
-0.028695
31
0.0
0
LINE
8
0
6
CONTINUOUS
10
-0.073860
20
-0.017770
30
0.0
11
-0.073860
21
-0.017472
31
0.0
0
LINE
8
0
6
CONTINUOUS
10
-0.075985
20
-0.017770
30
0.0
11
-0.073860
21
-0.017770
31
0.0
0
LINE
8
0
6
CONTINUOUS
10
-0.080280
20
0.027880
30
0.0
11
-0.073839
21
0.028677
31
0.0
0
LINE
8
0
6
CONTINUOUS
10
-0.075973
20
0.028703
30
0.0
11
-0.076287
21
0.028498
31
0.0
0
LINE
8
0
6
CONTINUOUS
10
-0.079183
20
-0.017770
30
0.0
11
-0.075985
21
-0.017770
31
0.0
0
LINE
8
0
6
CONTINUOUS
10
-0.073223
20
0.028703
30
0.0
11
-0.075189
21
0.028703
31
0.0
0
LINE
8
0
6
CONTINUOUS
10
-0.073839
20
0.028677
30
0.0
11
-0.073223
21
0.028703
31
0.0
0
LINE
8
0
6
CONTINUOUS
10
-0.082595
20
0.024606
30
0.0
11
-0.082418
21
0.025859
31
0.0
0
LINE
8
0
6
CONTINUOUS
10
-0.082595
20
0.018396
30
0.0
11
-0.082595
21
0.024606
31
0.0
0
LINE
8
0
6
CONTINUOUS
10
-0.081917
20
0.026921
30
0.0
11
-0.081166
21
0.027631
31
0.0
0
LINE
8
0
6
CONTINUOUS
10
-0.081166
20
0.027631
30
0.0
11
-0.080280
21
0.027880
31
0.0
0
LINE
8
0
6
CONTINUOUS
10
-0.082442
20
0.015372
30
0.0
11
-0.081553
21
0.015123
31
0.0
0
LINE
8
0
6
CONTINUOUS
10
-0.082418
20
0.025859
30
0.0
11
-0.081917
21
0.026921
31
0.0
0
LINE
8
0
6
CONTINUOUS
10
-0.075299
20
0.028677
30
0.0
11
-0.081557
21
0.027880
31
0.0
0
LINE
8
0
6
CONTINUOUS
10
-0.075189
20
0.028703
30
0.0
11
-0.075408
21
0.028703
31
0.0
0
LINE
8
0
6
CONTINUOUS
10
0.056278
20
0.005143
30
0.0
11
0.054984
21
0.005313
31
0.0
0
LINE
8
0
6
CONTINUOUS
10
0.057484
20
0.004643
30
0.0
11
0.056278
21
0.005143
31
0.0
0
LINE
8
0
6
CONTINUOUS
10
0.058520
20
0.003849
30
0.0
11
0.057484
21
0.004643
31
0.0
0
LINE
8
0
6
CONTINUOUS
10
0.059314
20
0.002813
30
0.0
11
0.058520
21
0.003849
31
0.0
0
LINE
8
0
6
CONTINUOUS
10
0.059814
20
0.001607
30
0.0
11
0.059314
21
0.002813
31
0.0
0
LINE
8
0
6
CONTINUOUS
10
0.059984
20
0.000313
30
0.0
11
0.059814
21
0.001607
31
0.0
0
LINE
8
0
6
CONTINUOUS
10
0.059814
20
-0.000981
30
0.0
11
0.059984
21
0.000313
31
0.0
0
LINE
8
0
6
CONTINUOUS
10
0.059314
20
-0.002187
30
0.0
11
0.059814
21
-0.000981
31
0.0
0
LINE
8
0
6
CONTINUOUS
10
0.058520
20
-0.003223
30
0.0
11
0.059314
21
-0.002187
31
0.0
0
LINE
8
0
6
CONTINUOUS
10
0.057484
20
-0.004017
30
0.0
11
0.058520
21
-0.003223
31
0.0
0
LINE
8
0
6
CONTINUOUS
10
0.056278
20
-0.004517
30
0.0
11
0.057484
21
-0.004017
31
0.0
0
LINE
8
0
6
CONTINUOUS
10
0.054984
20
-0.004687
30
0.0
11
0.056278
21
-0.004517
31
0.0
0
LINE
8
0
6
CONTINUOUS
10
0.053690
20
-0.004517
30
0.0
11
0.054984
21
-0.004687
31
0.0
0
LINE
8
0
6
CONTINUOUS
10
0.052484
20
-0.004017
30
0.0
11
0.053690
21
-0.004517
31
0.0
0
LINE
8
0
6
CONTINUOUS
10
0.051449
20
-0.003223
30
0.0
11
0.052484
21
-0.004017
31
0.0
0
LINE
8
0
6
CONTINUOUS
10
0.050654
20
-0.002187
30
0.0
11
0.051449
21
-0.003223
31
0.0
0
LINE
8
0
6
CONTINUOUS
10
0.050155
20
-0.000981
30
0.0
11
0.050654
21
-0.002187
31
0.0
0
LINE
8
0
6
CONTINUOUS
10
0.049984
20
0.000313
30
0.0
11
0.050155
21
-0.000981
31
0.0
0
LINE
8
0
6
CONTINUOUS
10
0.050155
20
0.001607
30
0.0
11
0.049984
21
0.000313
31
0.0
0
LINE
8
0
6
CONTINUOUS
10
0.050654
20
0.002813
30
0.0
11
0.050155
21
0.001607
31
0.0
0
LINE
8
0
6
CONTINUOUS
10
0.051449
20
0.003849
30
0.0
11
0.050654
21
0.002813
31
0.0
0
LINE
8
0
6
CONTINUOUS
10
0.052484
20
0.004643
30
0.0
11
0.051449
21
0.003849
31
0.0
0
LINE
8
0
6
CONTINUOUS
10
0.053690
20
0.005143
30
0.0
11
0.052484
21
0.004643
31
0.0
0
LINE
8
0
6
CONTINUOUS
10
0.054984
20
0.005313
30
0.0
11
0.053690
21
0.005143
31
0.0
0
LINE
8
0
6
CONTINUOUS
10
0.028159
20
0.027670
30
0.0
11
0.028159
21
0.027587
31
0.0
0
LINE
8
0
6
CONTINUOUS
10
0.038265
20
-0.017777
30
0.0
11
0.043354
21
-0.017777
31
0.0
0
LINE
8
0
6
CONTINUOUS
10
0.081841
20
0.027587
30
0.0
11
0.081841
21
0.027670
31
0.0
0
LINE
8
0
6
CONTINUOUS
10
0.066646
20
-0.017777
30
0.0
11
0.071735
21
-0.017777
31
0.0
0
LINE
8
0
6
CONTINUOUS
10
0.039745
20
-0.020703
30
0.0
11
0.044384
21
-0.020703
31
0.0
0
LINE
8
0
6
CONTINUOUS
10
0.065616
20
-0.020703
30
0.0
11
0.070255
21
-0.020703
31
0.0
0
LINE
8
0
6
CONTINUOUS
10
0.077044
20
-0.020703
30
0.0
11
0.078854
21
-0.020703
31
0.0
0
LINE
8
0
6
CONTINUOUS
10
0.043730
20
0.028695
30
0.0
11
0.038804
21
0.028695
31
0.0
0
LINE
8
0
6
CONTINUOUS
10
0.030533
20
-0.020703
30
0.0
11
0.031146
21
-0.020703
31
0.0
0
LINE
8
0
6
CONTINUOUS
10
0.030533
20
-0.020476
30
0.0
11
0.030533
21
-0.020703
31
0.0
0
LINE
8
0
6
CONTINUOUS
10
0.060444
20
-0.020703
30
0.0
11
0.065616
21
-0.020703
31
0.0
0
LINE
8
0
6
CONTINUOUS
10
0.071195
20
0.028695
30
0.0
11
0.066270
21
0.028695
31
0.0
0
LINE
8
0
6
CONTINUOUS
10
0.079467
20
-0.020703
30
0.0
11
0.079467
21
-0.020476
31
0.0
0
LINE
8
0
6
CONTINUOUS
10
0.078854
20
-0.020703
30
0.0
11
0.079467
21
-0.020703
31
0.0
0
LINE
8
0
6
CONTINUOUS
10
0.044384
20
-0.020703
30
0.0
11
0.049556
21
-0.020703
31
0.0
0
LINE
8
0
6
CONTINUOUS
10
0.031146
20
-0.020703
30
0.0
11
0.032956
21
-0.020703
31
0.0
0
LINE
8
0
6
CONTINUOUS
10
0.070255
20
-0.020703
30
0.0
11
0.074129
21
-0.020703
31
0.0
0
LINE
8
0
6
CONTINUOUS
10
0.049556
20
-0.020703
30
0.0
11
0.055000
21
-0.020703
31
0.0
0
LINE
8
0
6
CONTINUOUS
10
0.032956
20
-0.020703
30
0.0
11
0.035871
21
-0.020703
31
0.0
0
LINE
8
0
6
CONTINUOUS
10
0.074129
20
-0.020703
30
0.0
11
0.077044
21
-0.020703
31
0.0
0
LINE
8
0
6
CONTINUOUS
10
0.055000
20
-0.020703
30
0.0
11
0.060444
21
-0.020703
31
0.0
0
LINE
8
0
6
CONTINUOUS
10
0.035871
20
-0.020703
30
0.0
11
0.039745
21
-0.020703
31
0.0
0
LINE
8
0
6
CONTINUOUS
10
0.028579
20
0.028491
30
0.0
11
0.028264
21
0.028133
31
0.0
0
LINE
8
0
6
CONTINUOUS
10
0.028264
20
0.028133
30
0.0
11
0.028159
21
0.027670
31
0.0
0
LINE
8
0
6
CONTINUOUS
10
0.081736
20
0.028133
30
0.0
11
0.081421
21
0.028491
31
0.0
0
LINE
8
0
6
CONTINUOUS
10
0.081841
20
0.027670
30
0.0
11
0.081736
21
0.028133
31
0.0
0
LINE
8
0
6
CONTINUOUS
10
0.049027
20
-0.017777
30
0.0
11
0.055000
21
-0.017777
31
0.0
0
LINE
8
0
6
CONTINUOUS
10
0.075985
20
-0.017777
30
0.0
11
0.079183
21
-0.017777
31
0.0
0
LINE
8
0
6
CONTINUOUS
10
0.055000
20
-0.017777
30
0.0
11
0.060973
21
-0.017777
31
0.0
0
LINE
8
0
6
CONTINUOUS
10
0.034015
20
-0.017777
30
0.0
11
0.038265
21
-0.017777
31
0.0
0
LINE
8
0
6
CONTINUOUS
10
0.079183
20
-0.017777
30
0.0
11
0.081168
21
-0.017777
31
0.0
0
LINE
8
0
6
CONTINUOUS
10
0.028159
20
-0.017479
30
0.0
11
0.028159
21
-0.017777
31
0.0
0
LINE
8
0
6
CONTINUOUS
10
0.028159
20
-0.017777
30
0.0
11
0.028832
21
-0.017777
31
0.0
0
LINE
8
0
6
CONTINUOUS
10
0.060973
20
-0.017777
30
0.0
11
0.066646
21
-0.017777
31
0.0
0
LINE
8
0
6
CONTINUOUS
10
0.081841
20
-0.017777
30
0.0
11
0.081841
21
-0.017479
31
0.0
0
LINE
8
0
6
CONTINUOUS
10
0.081168
20
-0.017777
30
0.0
11
0.081841
21
-0.017777
31
0.0
0
LINE
8
0
6
CONTINUOUS
10
0.043354
20
-0.017777
30
0.0
11
0.049027
21
-0.017777
31
0.0
0
LINE
8
0
6
CONTINUOUS
10
0.028832
20
-0.017777
30
0.0
11
0.030817
21
-0.017777
31
0.0
0
LINE
8
0
6
CONTINUOUS
10
0.071735
20
-0.017777
30
0.0
11
0.075985
21
-0.017777
31
0.0
0
LINE
8
0
6
CONTINUOUS
10
0.030817
20
-0.017777
30
0.0
11
0.034015
21
-0.017777
31
0.0
0
LINE
8
0
6
CONTINUOUS
10
0.022900
20
-0.022336
30
0.0
11
0.022900
21
-0.028491
31
0.0
0
LINE
8
0
6
CONTINUOUS
10
0.087100
20
-0.028491
30
0.0
11
0.087100
21
-0.022336
31
0.0
0
LINE
8
0
6
CONTINUOUS
10
0.071195
20
0.028695
30
0.0
11
0.071129
21
0.028695
31
0.0
0
LINE
8
0
6
CONTINUOUS
10
0.075308
20
0.028695
30
0.0
11
0.071195
21
0.028695
31
0.0
0
LINE
8
0
6
CONTINUOUS
10
0.075225
20
0.028695
30
0.0
11
0.075308
21
0.028695
31
0.0
0
LINE
8
0
6
CONTINUOUS
10
0.071129
20
0.028695
30
0.0
11
0.075225
21
0.028695
31
0.0
0
LINE
8
0
6
CONTINUOUS
10
0.086985
20
-0.021629
30
0.0
11
0.086661
21
-0.021142
31
0.0
0
LINE
8
0
6
CONTINUOUS
10
0.023339
20
-0.021142
30
0.0
11
0.023015
21
-0.021629
31
0.0
0
LINE
8
0
6
CONTINUOUS
10
0.087100
20
-0.022203
30
0.0
11
0.086985
21
-0.021629
31
0.0
0
LINE
8
0
6
CONTINUOUS
10
0.023015
20
-0.021629
30
0.0
11
0.022900
21
-0.022203
31
0.0
0
LINE
8
0
6
CONTINUOUS
10
0.034986
20
-0.028703
30
0.0
11
0.041072
21
-0.028703
31
0.0
0
LINE
8
0
6
CONTINUOUS
10
0.087100
20
-0.028703
30
0.0
11
0.087100
21
-0.028491
31
0.0
0
LINE
8
0
6
CONTINUOUS
10
0.086295
20
-0.028703
30
0.0
11
0.087100
21
-0.028703
31
0.0
0
LINE
8
0
6
CONTINUOUS
10
0.075014
20
-0.028703
30
0.0
11
0.080097
21
-0.028703
31
0.0
0
LINE
8
0
6
CONTINUOUS
10
0.022900
20
-0.028703
30
0.0
11
0.023705
21
-0.028703
31
0.0
0
LINE
8
0
6
CONTINUOUS
10
0.022900
20
-0.028491
30
0.0
11
0.022900
21
-0.028703
31
0.0
0
LINE
8
0
6
CONTINUOUS
10
0.068928
20
-0.028703
30
0.0
11
0.075014
21
-0.028703
31
0.0
0
LINE
8
0
6
CONTINUOUS
10
0.029903
20
-0.028703
30
0.0
11
0.034986
21
-0.028703
31
0.0
0
LINE
8
0
6
CONTINUOUS
10
0.026079
20
-0.028703
30
0.0
11
0.029903
21
-0.028703
31
0.0
0
LINE
8
0
6
CONTINUOUS
10
0.062143
20
-0.028703
30
0.0
11
0.068928
21
-0.028703
31
0.0
0
LINE
8
0
6
CONTINUOUS
10
0.041072
20
-0.028703
30
0.0
11
0.047857
21
-0.028703
31
0.0
0
LINE
8
0
6
CONTINUOUS
10
0.080097
20
-0.028703
30
0.0
11
0.083921
21
-0.028703
31
0.0
0
LINE
8
0
6
CONTINUOUS
10
0.055000
20
-0.028703
30
0.0
11
0.062143
21
-0.028703
31
0.0
0
LINE
8
0
6
CONTINUOUS
10
0.083921
20
-0.028703
30
0.0
11
0.086295
21
-0.028703
31
0.0
0
LINE
8
0
6
CONTINUOUS
10
0.023705
20
-0.028703
30
0.0
11
0.026079
21
-0.028703
31
0.0
0
LINE
8
0
6
CONTINUOUS
10
0.047857
20
-0.028703
30
0.0
11
0.055000
21
-0.028703
31
0.0
0
LINE
8
0
6
CONTINUOUS
10
0.031162
20
-0.020703
30
0.0
11
0.031076
21
-0.020703
31
0.0
0
LINE
8
0
6
CONTINUOUS
10
0.028159
20
0.027587
30
0.0
11
0.028159
21
-0.017479
31
0.0
0
LINE
8
0
6
CONTINUOUS
10
0.081841
20
-0.017479
30
0.0
11
0.081841
21
0.027587
31
0.0
0
LINE
8
0
6
CONTINUOUS
10
0.030533
20
-0.017777
30
0.0
11
0.030533
21
-0.020476
31
0.0
0
LINE
8
0
6
CONTINUOUS
10
0.079467
20
-0.020476
30
0.0
11
0.079467
21
-0.017777
31
0.0
0
LINE
8
0
6
CONTINUOUS
10
0.029024
20
0.028695
30
0.0
11
0.028579
21
0.028491
31
0.0
0
LINE
8
0
6
CONTINUOUS
10
0.029676
20
0.028695
30
0.0
11
0.029024
21
0.028695
31
0.0
0
LINE
8
0
6
CONTINUOUS
10
0.031597
20
0.028695
30
0.0
11
0.029676
21
0.028695
31
0.0
0
LINE
8
0
6
CONTINUOUS
10
0.034691
20
0.028695
30
0.0
11
0.031597
21
0.028695
31
0.0
0
LINE
8
0
6
CONTINUOUS
10
0.038804
20
0.028695
30
0.0
11
0.034691
21
0.028695
31
0.0
0
LINE
8
0
6
CONTINUOUS
10
0.049220
20
0.028695
30
0.0
11
0.043730
21
0.028695
31
0.0
0
LINE
8
0
6
CONTINUOUS
10
0.055000
20
0.028695
30
0.0
11
0.049220
21
0.028695
31
0.0
0
LINE
8
0
6
CONTINUOUS
10
0.060780
20
0.028695
30
0.0
11
0.055000
21
0.028695
31
0.0
0
LINE
8
0
6
CONTINUOUS
10
0.066270
20
0.028695
30
0.0
11
0.060780
21
0.028695
31
0.0
0
LINE
8
0
6
CONTINUOUS
10
0.075309
20
0.028695
30
0.0
11
0.071195
21
0.028695
31
0.0
0
LINE
8
0
6
CONTINUOUS
10
0.078403
20
0.028695
30
0.0
11
0.075309
21
0.028695
31
0.0
0
LINE
8
0
6
CONTINUOUS
10
0.080324
20
0.028695
30
0.0
11
0.078403
21
0.028695
31
0.0
0
LINE
8
0
6
CONTINUOUS
10
0.081421
20
0.028491
30
0.0
11
0.080976
21
0.028695
31
0.0
0
LINE
8
0
6
CONTINUOUS
10
0.080976
20
0.028695
30
0.0
11
0.080324
21
0.028695
31
0.0
0
LINE
8
0
6
CONTINUOUS
10
0.086661
20
-0.021142
30
0.0
11
0.086174
21
-0.020817
31
0.0
0
LINE
8
0
6
CONTINUOUS
10
0.023826
20
-0.020817
30
0.0
11
0.023339
21
-0.021142
31
0.0
0
LINE
8
0
6
CONTINUOUS
10
0.086174
20
-0.020817
30
0.0
11
0.085600
21
-0.020703
31
0.0
0
LINE
8
0
6
CONTINUOUS
10
0.085600
20
-0.020703
30
0.0
11
0.084833
21
-0.020703
31
0.0
0
LINE
8
0
6
CONTINUOUS
10
0.084833
20
-0.020703
30
0.0
11
0.082570
21
-0.020703
31
0.0
0
LINE
8
0
6
CONTINUOUS
10
0.082570
20
-0.020703
30
0.0
11
0.078924
21
-0.020703
31
0.0
0
LINE
8
0
6
CONTINUOUS
10
0.078924
20
-0.020703
30
0.0
11
0.074079
21
-0.020703
31
0.0
0
LINE
8
0
6
CONTINUOUS
10
0.068277
20
-0.020703
30
0.0
11
0.061809
21
-0.020703
31
0.0
0
LINE
8
0
6
CONTINUOUS
10
0.061809
20
-0.020703
30
0.0
11
0.055000
21
-0.020703
31
0.0
0
LINE
8
0
6
CONTINUOUS
10
0.055000
20
-0.020703
30
0.0
11
0.048191
21
-0.020703
31
0.0
0
LINE
8
0
6
CONTINUOUS
10
0.048191
20
-0.020703
30
0.0
11
0.041723
21
-0.020703
31
0.0
0
LINE
8
0
6
CONTINUOUS
10
0.031076
20
-0.020703
30
0.0
11
0.027430
21
-0.020703
31
0.0
0
LINE
8
0
6
CONTINUOUS
10
0.027430
20
-0.020703
30
0.0
11
0.025167
21
-0.020703
31
0.0
0
LINE
8
0
6
CONTINUOUS
10
0.024400
20
-0.020703
30
0.0
11
0.023826
21
-0.020817
31
0.0
0
LINE
8
0
6
CONTINUOUS
10
0.025167
20
-0.020703
30
0.0
11
0.024400
21
-0.020703
31
0.0
0
LINE
8
0
6
CONTINUOUS
10
0.074079
20
-0.020703
30
0.0
11
0.068277
21
-0.020703
31
0.0
0
LINE
8
0
6
CONTINUOUS
10
0.041723
20
-0.020703
30
0.0
11
0.035921
21
-0.020703
31
0.0
0
LINE
8
0
6
CONTINUOUS
10
0.022900
20
-0.022203
30
0.0
11
0.022900
21
-0.022336
31
0.0
0
LINE
8
0
6
CONTINUOUS
10
0.087100
20
-0.022336
30
0.0
11
0.087100
21
-0.022203
31
0.0
0
LINE
8
0
6
CONTINUOUS
10
0.044264
20
-0.020703
30
0.0
11
0.039573
21
-0.020703
31
0.0
0
LINE
8
0
6
CONTINUOUS
10
0.055000
20
-0.020703
30
0.0
11
0.049494
21
-0.020703
31
0.0
0
LINE
8
0
6
CONTINUOUS
10
0.049494
20
-0.020703
30
0.0
11
0.044264
21
-0.020703
31
0.0
0
LINE
8
0
6
CONTINUOUS
10
0.035655
20
-0.020703
30
0.0
11
0.031162
21
-0.020703
31
0.0
0
LINE
8
0
6
CONTINUOUS
10
0.039573
20
-0.020703
30
0.0
11
0.035655
21
-0.020703
31
0.0
0
ENDSEC
0
EOF
