999
unknown String-ID: 20550
0
SECTION
2
HEADER
9
$ACADVER
1
AC1009
9
$DWGCODEPAGE
3
unknown String-ID: 20561
0
ENDSEC
0
SECTION
2
TABLES
0
TABLE
2
LAYER
70
1
0
LAYER
2
0
70
0
62
7
6
CONTINUOUS
0
ENDTAB
0
ENDSEC
0
SECTION
2
ENTITIES
0
LINE
8
0
6
CONTINUOUS
10
0.018140
20
-0.089671
30
0.0
11
0.018179
21
-0.084837
31
0.0
0
LINE
8
0
6
CONTINUOUS
10
0.018102
20
-0.092696
30
0.0
11
0.018140
21
-0.089671
31
0.0
0
LINE
8
0
6
CONTINUOUS
10
0.018350
20
-0.073384
30
0.0
11
0.018376
21
-0.062078
31
0.0
0
LINE
8
0
6
CONTINUOUS
10
0.018376
20
-0.062078
30
0.0
11
0.020271
21
0.088863
31
0.0
0
LINE
8
0
6
CONTINUOUS
10
0.018267
20
-0.079420
30
0.0
11
0.018350
21
-0.073384
31
0.0
0
LINE
8
0
6
CONTINUOUS
10
0.018179
20
-0.084837
30
0.0
11
0.018267
21
-0.079420
31
0.0
0
LINE
8
0
6
CONTINUOUS
10
0.018056
20
-0.096259
30
0.0
11
0.018102
21
-0.092696
31
0.0
0
LINE
8
0
6
CONTINUOUS
10
-0.000000
20
-0.096863
30
0.0
11
0.014167
21
-0.096855
31
0.0
0
LINE
8
0
6
CONTINUOUS
10
0.016271
20
-0.096799
30
0.0
11
0.017532
21
-0.096776
31
0.0
0
LINE
8
0
6
CONTINUOUS
10
0.017532
20
-0.096776
30
0.0
11
0.018056
21
-0.096259
31
0.0
0
LINE
8
0
6
CONTINUOUS
10
0.015011
20
-0.096855
30
0.0
11
0.016271
21
-0.096799
31
0.0
0
LINE
8
0
6
CONTINUOUS
10
0.014167
20
-0.096855
30
0.0
11
0.015011
21
-0.096855
31
0.0
0
LINE
8
0
6
CONTINUOUS
10
-0.018180
20
-0.084837
30
0.0
11
-0.018141
21
-0.089671
31
0.0
0
LINE
8
0
6
CONTINUOUS
10
-0.018141
20
-0.089671
30
0.0
11
-0.018103
21
-0.092696
31
0.0
0
LINE
8
0
6
CONTINUOUS
10
-0.018377
20
-0.062078
30
0.0
11
-0.018350
21
-0.073384
31
0.0
0
LINE
8
0
6
CONTINUOUS
10
-0.020271
20
0.088863
30
0.0
11
-0.018377
21
-0.062078
31
0.0
0
LINE
8
0
6
CONTINUOUS
10
-0.018350
20
-0.073384
30
0.0
11
-0.018267
21
-0.079420
31
0.0
0
LINE
8
0
6
CONTINUOUS
10
-0.018267
20
-0.079420
30
0.0
11
-0.018180
21
-0.084837
31
0.0
0
LINE
8
0
6
CONTINUOUS
10
-0.018103
20
-0.092696
30
0.0
11
-0.018057
21
-0.096259
31
0.0
0
LINE
8
0
6
CONTINUOUS
10
-0.014148
20
-0.096855
30
0.0
11
-0.000000
21
-0.096863
31
0.0
0
LINE
8
0
6
CONTINUOUS
10
-0.017532
20
-0.096776
30
0.0
11
-0.016272
21
-0.096799
31
0.0
0
LINE
8
0
6
CONTINUOUS
10
-0.018057
20
-0.096259
30
0.0
11
-0.017532
21
-0.096776
31
0.0
0
LINE
8
0
6
CONTINUOUS
10
-0.015011
20
-0.096855
30
0.0
11
-0.014148
21
-0.096855
31
0.0
0
LINE
8
0
6
CONTINUOUS
10
-0.016272
20
-0.096799
30
0.0
11
-0.015011
21
-0.096855
31
0.0
0
LINE
8
0
6
CONTINUOUS
10
0.034233
20
0.095974
30
0.0
11
0.034236
21
0.096124
31
0.0
0
LINE
8
0
6
CONTINUOUS
10
-0.034236
20
0.096124
30
0.0
11
-0.034233
21
0.095974
31
0.0
0
LINE
8
0
6
CONTINUOUS
10
-0.034061
20
0.089528
30
0.0
11
-0.034058
21
0.089420
31
0.0
0
LINE
8
0
6
CONTINUOUS
10
-0.034233
20
0.095974
30
0.0
11
-0.034061
21
0.089528
31
0.0
0
LINE
8
0
6
CONTINUOUS
10
0.034058
20
0.089420
30
0.0
11
0.034061
21
0.089528
31
0.0
0
LINE
8
0
6
CONTINUOUS
10
0.034061
20
0.089528
30
0.0
11
0.034233
21
0.095974
31
0.0
0
LINE
8
0
6
CONTINUOUS
10
0.033538
20
0.096863
30
0.0
11
0.033390
21
0.096863
31
0.0
0
LINE
8
0
6
CONTINUOUS
10
-0.030524
20
0.096863
30
0.0
11
-0.030419
21
0.096863
31
0.0
0
LINE
8
0
6
CONTINUOUS
10
-0.027805
20
0.096863
30
0.0
11
-0.030524
21
0.096863
31
0.0
0
LINE
8
0
6
CONTINUOUS
10
-0.027738
20
0.096863
30
0.0
11
-0.027805
21
0.096863
31
0.0
0
LINE
8
0
6
CONTINUOUS
10
-0.030419
20
0.096863
30
0.0
11
-0.027738
21
0.096863
31
0.0
0
LINE
8
0
6
CONTINUOUS
10
-0.033521
20
0.096863
30
0.0
11
-0.033670
21
0.096863
31
0.0
0
LINE
8
0
6
CONTINUOUS
10
-0.033391
20
0.096863
30
0.0
11
-0.033521
21
0.096863
31
0.0
0
LINE
8
0
6
CONTINUOUS
10
-0.000000
20
0.088863
30
0.0
11
0.022929
21
0.088863
31
0.0
0
LINE
8
0
6
CONTINUOUS
10
-0.033492
20
0.088863
30
0.0
11
-0.033363
21
0.088863
31
0.0
0
LINE
8
0
6
CONTINUOUS
10
-0.033771
20
0.088937
30
0.0
11
-0.033492
21
0.088863
31
0.0
0
LINE
8
0
6
CONTINUOUS
10
0.034166
20
0.096492
30
0.0
11
0.033958
21
0.096764
31
0.0
0
LINE
8
0
6
CONTINUOUS
10
0.022928
20
0.096863
30
0.0
11
-0.000000
21
0.096863
31
0.0
0
LINE
8
0
6
CONTINUOUS
10
0.033670
20
0.096863
30
0.0
11
0.033538
21
0.096863
31
0.0
0
LINE
8
0
6
CONTINUOUS
10
0.033958
20
0.096764
30
0.0
11
0.033670
21
0.096863
31
0.0
0
LINE
8
0
6
CONTINUOUS
10
0.030524
20
0.096863
30
0.0
11
0.027805
21
0.096863
31
0.0
0
LINE
8
0
6
CONTINUOUS
10
0.034236
20
0.096124
30
0.0
11
0.034166
21
0.096492
31
0.0
0
LINE
8
0
6
CONTINUOUS
10
-0.030524
20
0.096863
30
0.0
11
-0.032500
21
0.096863
31
0.0
0
LINE
8
0
6
CONTINUOUS
10
-0.022929
20
0.096863
30
0.0
11
-0.024609
21
0.096863
31
0.0
0
LINE
8
0
6
CONTINUOUS
10
-0.033978
20
0.089141
30
0.0
11
-0.033771
21
0.088937
31
0.0
0
LINE
8
0
6
CONTINUOUS
10
-0.032342
20
0.088863
30
0.0
11
-0.030399
21
0.088863
31
0.0
0
LINE
8
0
6
CONTINUOUS
10
-0.027805
20
0.096863
30
0.0
11
-0.030524
21
0.096863
31
0.0
0
LINE
8
0
6
CONTINUOUS
10
-0.000000
20
0.096863
30
0.0
11
-0.022929
21
0.096863
31
0.0
0
LINE
8
0
6
CONTINUOUS
10
-0.022929
20
0.088863
30
0.0
11
-0.000000
21
0.088863
31
0.0
0
LINE
8
0
6
CONTINUOUS
10
-0.024582
20
0.088863
30
0.0
11
-0.022929
21
0.088863
31
0.0
0
LINE
8
0
6
CONTINUOUS
10
0.024609
20
0.096863
30
0.0
11
0.022928
21
0.096863
31
0.0
0
LINE
8
0
6
CONTINUOUS
10
0.030399
20
0.088863
30
0.0
11
0.032341
21
0.088863
31
0.0
0
LINE
8
0
6
CONTINUOUS
10
0.033493
20
0.088863
30
0.0
11
0.033771
21
0.088937
31
0.0
0
LINE
8
0
6
CONTINUOUS
10
0.033363
20
0.088863
30
0.0
11
0.033493
21
0.088863
31
0.0
0
LINE
8
0
6
CONTINUOUS
10
0.033771
20
0.088937
30
0.0
11
0.033978
21
0.089141
31
0.0
0
LINE
8
0
6
CONTINUOUS
10
0.027725
20
0.088863
30
0.0
11
0.030399
21
0.088863
31
0.0
0
LINE
8
0
6
CONTINUOUS
10
0.033978
20
0.089141
30
0.0
11
0.034058
21
0.089420
31
0.0
0
LINE
8
0
6
CONTINUOUS
10
0.032341
20
0.088863
30
0.0
11
0.033363
21
0.088863
31
0.0
0
LINE
8
0
6
CONTINUOUS
10
-0.032500
20
0.096863
30
0.0
11
-0.033538
21
0.096863
31
0.0
0
LINE
8
0
6
CONTINUOUS
10
-0.033363
20
0.088863
30
0.0
11
-0.032342
21
0.088863
31
0.0
0
LINE
8
0
6
CONTINUOUS
10
-0.027725
20
0.088863
30
0.0
11
-0.024582
21
0.088863
31
0.0
0
LINE
8
0
6
CONTINUOUS
10
0.027805
20
0.096863
30
0.0
11
0.024609
21
0.096863
31
0.0
0
LINE
8
0
6
CONTINUOUS
10
0.032500
20
0.096863
30
0.0
11
0.030524
21
0.096863
31
0.0
0
LINE
8
0
6
CONTINUOUS
10
-0.034166
20
0.096492
30
0.0
11
-0.034236
21
0.096124
31
0.0
0
LINE
8
0
6
CONTINUOUS
10
-0.030399
20
0.088863
30
0.0
11
-0.027725
21
0.088863
31
0.0
0
LINE
8
0
6
CONTINUOUS
10
-0.034058
20
0.089420
30
0.0
11
-0.033978
21
0.089141
31
0.0
0
LINE
8
0
6
CONTINUOUS
10
-0.024609
20
0.096863
30
0.0
11
-0.027805
21
0.096863
31
0.0
0
ENDSEC
0
EOF
