  0
SECTION
  2
HEADER
  9
$ACADVER
  1
AC1015
  9
$ACADMAINTVER
 70
     6
  9
$DWGCODEPAGE
  3
ANSI_1252
  9
$INSBASE
 10
0.0
 20
0.0
 30
0.0
  9
$EXTMIN
 10
0.0
 20
0.25
 30
0.0
  9
$EXTMAX
 10
274.0
 20
265.75
 30
0.0
  9
$LIMMIN
 10
0.0
 20
0.0
  9
$LIMMAX
 10
12.0
 20
9.0
  9
$ORTHOMODE
 70
     0
  9
$REGENMODE
 70
     1
  9
$FILLMODE
 70
     1
  9
$QTEXTMODE
 70
     0
  9
$MIRRTEXT
 70
     1
  9
$LTSCALE
 40
1.0
  9
$ATTMODE
 70
     1
  9
$TEXTSIZE
 40
0.2
  9
$TRACEWID
 40
0.05
  9
$TEXTSTYLE
  7
Standard
  9
$CLAYER
  8
0
  9
$CELTYPE
  6
ByBlock
  9
$CECOLOR
 62
   256
  9
$CELTSCALE
 40
1.0
  9
$DISPSILH
 70
     0
  9
$DIMSCALE
 40
1.0
  9
$DIMASZ
 40
0.18
  9
$DIMEXO
 40
0.0625
  9
$DIMDLI
 40
0.38
  9
$DIMRND
 40
0.0
  9
$DIMDLE
 40
0.0
  9
$DIMEXE
 40
0.18
  9
$DIMTP
 40
0.0
  9
$DIMTM
 40
0.0
  9
$DIMTXT
 40
0.18
  9
$DIMCEN
 40
0.09
  9
$DIMTSZ
 40
0.0
  9
$DIMTOL
 70
     0
  9
$DIMLIM
 70
     0
  9
$DIMTIH
 70
     1
  9
$DIMTOH
 70
     1
  9
$DIMSE1
 70
     0
  9
$DIMSE2
 70
     0
  9
$DIMTAD
 70
     0
  9
$DIMZIN
 70
     0
  9
$DIMBLK
  1

  9
$DIMASO
 70
     1
  9
$DIMSHO
 70
     1
  9
$DIMPOST
  1

  9
$DIMAPOST
  1

  9
$DIMALT
 70
     0
  9
$DIMALTD
 70
     2
  9
$DIMALTF
 40
25.4
  9
$DIMLFAC
 40
1.0
  9
$DIMTOFL
 70
     0
  9
$DIMTVP
 40
0.0
  9
$DIMTIX
 70
     0
  9
$DIMSOXD
 70
     0
  9
$DIMSAH
 70
     0
  9
$DIMBLK1
  1

  9
$DIMBLK2
  1

  9
$DIMSTYLE
  2
Standard
  9
$DIMCLRD
 70
     0
  9
$DIMCLRE
 70
     0
  9
$DIMCLRT
 70
     0
  9
$DIMTFAC
 40
1.0
  9
$DIMGAP
 40
0.09
  9
$DIMJUST
 70
     0
  9
$DIMSD1
 70
     0
  9
$DIMSD2
 70
     0
  9
$DIMTOLJ
 70
     1
  9
$DIMTZIN
 70
     0
  9
$DIMALTZ
 70
     0
  9
$DIMALTTZ
 70
     0
  9
$DIMUPT
 70
     0
  9
$DIMDEC
 70
     4
  9
$DIMTDEC
 70
     4
  9
$DIMALTU
 70
     2
  9
$DIMALTTD
 70
     2
  9
$DIMTXSTY
  7
Standard
  9
$DIMAUNIT
 70
     0
  9
$DIMADEC
 70
     0
  9
$DIMALTRND
 40
0.0
  9
$DIMAZIN
 70
     0
  9
$DIMDSEP
 70
    46
  9
$DIMATFIT
 70
     3
  9
$DIMFRAC
 70
     0
  9
$DIMLDRBLK
  1

  9
$DIMLUNIT
 70
     2
  9
$DIMLWD
 70
    -2
  9
$DIMLWE
 70
    -2
  9
$DIMTMOVE
 70
     2
  9
$LUNITS
 70
     2
  9
$LUPREC
 70
     4
  9
$SKETCHINC
 40
0.1
  9
$FILLETRAD
 40
0.5
  9
$AUNITS
 70
     0
  9
$AUPREC
 70
     0
  9
$MENU
  1
.
  9
$ELEVATION
 40
0.0
  9
$PELEVATION
 40
0.0
  9
$THICKNESS
 40
0.0
  9
$LIMCHECK
 70
     0
  9
$CHAMFERA
 40
0.5
  9
$CHAMFERB
 40
0.5
  9
$CHAMFERC
 40
1.0
  9
$CHAMFERD
 40
0.0
  9
$SKPOLY
 70
     0
  9
$TDCREATE
 40
2456647.959155092
  9
$TDUCREATE
 40
2456647.917488426
  9
$TDUPDATE
 40
2456647.960288981
  9
$TDUUPDATE
 40
2456647.918622315
  9
$TDINDWG
 40
0.0011335417
  9
$TDUSRTIMER
 40
0.0011335417
  9
$USRTIMER
 70
     1
  9
$ANGBASE
 50
0.0
  9
$ANGDIR
 70
     0
  9
$PDMODE
 70
     0
  9
$PDSIZE
 40
0.0
  9
$PLINEWID
 40
0.0
  9
$SPLFRAME
 70
     0
  9
$SPLINETYPE
 70
     6
  9
$SPLINESEGS
 70
     8
  9
$HANDSEED
  5
E06
  9
$SURFTAB1
 70
     6
  9
$SURFTAB2
 70
     6
  9
$SURFTYPE
 70
     6
  9
$SURFU
 70
     6
  9
$SURFV
 70
     6
  9
$UCSBASE
  2

  9
$UCSNAME
  2

  9
$UCSORG
 10
0.0
 20
0.0
 30
0.0
  9
$UCSXDIR
 10
1.0
 20
0.0
 30
0.0
  9
$UCSYDIR
 10
0.0
 20
1.0
 30
0.0
  9
$UCSORTHOREF
  2

  9
$UCSORTHOVIEW
 70
     0
  9
$UCSORGTOP
 10
0.0
 20
0.0
 30
0.0
  9
$UCSORGBOTTOM
 10
0.0
 20
0.0
 30
0.0
  9
$UCSORGLEFT
 10
0.0
 20
0.0
 30
0.0
  9
$UCSORGRIGHT
 10
0.0
 20
0.0
 30
0.0
  9
$UCSORGFRONT
 10
0.0
 20
0.0
 30
0.0
  9
$UCSORGBACK
 10
0.0
 20
0.0
 30
0.0
  9
$PUCSBASE
  2

  9
$PUCSNAME
  2

  9
$PUCSORG
 10
0.0
 20
0.0
 30
0.0
  9
$PUCSXDIR
 10
1.0
 20
0.0
 30
0.0
  9
$PUCSYDIR
 10
0.0
 20
1.0
 30
0.0
  9
$PUCSORTHOREF
  2

  9
$PUCSORTHOVIEW
 70
     0
  9
$PUCSORGTOP
 10
0.0
 20
0.0
 30
0.0
  9
$PUCSORGBOTTOM
 10
0.0
 20
0.0
 30
0.0
  9
$PUCSORGLEFT
 10
0.0
 20
0.0
 30
0.0
  9
$PUCSORGRIGHT
 10
0.0
 20
0.0
 30
0.0
  9
$PUCSORGFRONT
 10
0.0
 20
0.0
 30
0.0
  9
$PUCSORGBACK
 10
0.0
 20
0.0
 30
0.0
  9
$USERI1
 70
     0
  9
$USERI2
 70
     0
  9
$USERI3
 70
     0
  9
$USERI4
 70
     0
  9
$USERI5
 70
     0
  9
$USERR1
 40
0.0
  9
$USERR2
 40
0.0
  9
$USERR3
 40
0.0
  9
$USERR4
 40
0.0
  9
$USERR5
 40
0.0
  9
$WORLDVIEW
 70
     1
  9
$SHADEDGE
 70
     3
  9
$SHADEDIF
 70
    70
  9
$TILEMODE
 70
     1
  9
$MAXACTVP
 70
    64
  9
$PINSBASE
 10
0.0
 20
0.0
 30
0.0
  9
$PLIMCHECK
 70
     0
  9
$PEXTMIN
 10
1.000000000000E+20
 20
1.000000000000E+20
 30
1.000000000000E+20
  9
$PEXTMAX
 10
-1.000000000000E+20
 20
-1.000000000000E+20
 30
-1.000000000000E+20
  9
$PLIMMIN
 10
0.0
 20
0.0
  9
$PLIMMAX
 10
12.0
 20
9.0
  9
$UNITMODE
 70
     0
  9
$VISRETAIN
 70
     1
  9
$PLINEGEN
 70
     0
  9
$PSLTSCALE
 70
     1
  9
$TREEDEPTH
 70
  3020
  9
$CMLSTYLE
  2
Standard
  9
$CMLJUST
 70
     0
  9
$CMLSCALE
 40
1.0
  9
$PROXYGRAPHICS
 70
     1
  9
$MEASUREMENT
 70
     0
  9
$CELWEIGHT
370
    -1
  9
$ENDCAPS
280
     0
  9
$JOINSTYLE
280
     0
  9
$LWDISPLAY
290
     0
  9
$INSUNITS
 70
     0
  9
$HYPERLINKBASE
  1

  9
$STYLESHEET
  1

  9
$XEDIT
290
     1
  9
$CEPSNTYPE
380
     0
  9
$PSTYLEMODE
290
     1
  9
$FINGERPRINTGUID
  2
{24A45E22-BAFF-49B8-BAF6-CBA32FE317A1}
  9
$VERSIONGUID
  2
{FAEB1C32-E019-11D5-929B-00C0DF256EC4}
  9
$EXTNAMES
290
     1
  9
$PSVPSCALE
 40
0.0
  9
$OLESTARTUP
290
     0
  0
ENDSEC
  0
SECTION
  2
CLASSES
  0
CLASS
  1
ACDBDICTIONARYWDFLT
  2
AcDbDictionaryWithDefault
  3
ObjectDBX Classes
 90
        0
280
     0
281
     0
  0
CLASS
  1
SCALE
  2
AcDbScale
  3
ObjectDBX Classes
 90
     1153
280
     0
281
     0
  0
CLASS
  1
DICTIONARYVAR
  2
AcDbDictionaryVar
  3
ObjectDBX Classes
 90
        0
280
     0
281
     0
  0
CLASS
  1
ACDBPLACEHOLDER
  2
AcDbPlaceHolder
  3
ObjectDBX Classes
 90
        0
280
     0
281
     0
  0
CLASS
  1
LAYOUT
  2
AcDbLayout
  3
ObjectDBX Classes
 90
        0
280
     0
281
     0
  0
ENDSEC
  0
SECTION
  2
TABLES
  0
TABLE
  2
VPORT
  5
8
330
0
100
AcDbSymbolTable
 70
     1
  0
VPORT
  5
7D2
330
8
100
AcDbSymbolTableRecord
100
AcDbViewportTableRecord
  2
*Active
 70
     0
 10
0.0
 20
0.0
 11
1.0
 21
1.0
 12
137.0
 22
132.875
 13
0.0
 23
0.0
 14
0.5
 24
0.5
 15
0.5
 25
0.5
 16
0.0
 26
0.0
 36
1.0
 17
0.0
 27
0.0
 37
0.0
 40
271.065
 41
1.729542302358
 42
50.0
 43
0.0
 44
0.0
 50
0.0
 51
0.0
 71
    16
 72
   100
 73
     1
 74
     3
 75
     0
 76
     0
 77
     0
 78
     0
281
     0
 65
     1
110
0.0
120
0.0
130
0.0
111
1.0
121
0.0
131
0.0
112
0.0
122
1.0
132
0.0
 79
     0
146
0.0
  0
ENDTAB
  0
TABLE
  2
LTYPE
  5
5
330
0
100
AcDbSymbolTable
 70
     1
  0
LTYPE
  5
14
330
5
100
AcDbSymbolTableRecord
100
AcDbLinetypeTableRecord
  2
ByBlock
 70
     0
  3

 72
    65
 73
     0
 40
0.0
  0
LTYPE
  5
15
330
5
100
AcDbSymbolTableRecord
100
AcDbLinetypeTableRecord
  2
ByLayer
 70
     0
  3

 72
    65
 73
     0
 40
0.0
  0
LTYPE
  5
16
330
5
100
AcDbSymbolTableRecord
100
AcDbLinetypeTableRecord
  2
Continuous
 70
     0
  3
Solid line
 72
    65
 73
     0
 40
0.0
  0
ENDTAB
  0
TABLE
  2
LAYER
  5
2
330
0
100
AcDbSymbolTable
 70
     1
  0
LAYER
  5
10
330
2
100
AcDbSymbolTableRecord
100
AcDbLayerTableRecord
  2
0
 70
     0
 62
     7
  6
Continuous
370
    -3
390
F
  0
ENDTAB
  0
TABLE
  2
STYLE
  5
3
330
0
100
AcDbSymbolTable
 70
     1
  0
STYLE
  5
11
330
3
100
AcDbSymbolTableRecord
100
AcDbTextStyleTableRecord
  2
Standard
 70
     0
 40
0.0
 41
1.0
 50
0.0
 71
     0
 42
0.2
  3
txt
  4

  0
ENDTAB
  0
TABLE
  2
VIEW
  5
6
330
0
100
AcDbSymbolTable
 70
     0
  0
ENDTAB
  0
TABLE
  2
UCS
  5
7
330
0
100
AcDbSymbolTable
 70
     0
  0
ENDTAB
  0
TABLE
  2
APPID
  5
9
330
0
100
AcDbSymbolTable
 70
     1
  0
APPID
  5
12
330
9
100
AcDbSymbolTableRecord
100
AcDbRegAppTableRecord
  2
ACAD
 70
     0
  0
ENDTAB
  0
TABLE
  2
DIMSTYLE
  5
A
330
0
100
AcDbSymbolTable
 70
     1
100
AcDbDimStyleTable
  0
DIMSTYLE
105
20
330
A
100
AcDbSymbolTableRecord
100
AcDbDimStyleTableRecord
  2
Standard
 70
     0
340
11
  0
ENDTAB
  0
TABLE
  2
BLOCK_RECORD
  5
1
330
0
100
AcDbSymbolTable
 70
     1
  0
BLOCK_RECORD
  5
1D
330
1
100
AcDbSymbolTableRecord
100
AcDbBlockTableRecord
  2
*Model_Space
340
1E
  0
BLOCK_RECORD
  5
1B
330
1
100
AcDbSymbolTableRecord
100
AcDbBlockTableRecord
  2
*Paper_Space
340
1C
  0
ENDTAB
  0
ENDSEC
  0
SECTION
  2
BLOCKS
  0
BLOCK
  5
7D5
330
1D
100
AcDbEntity
  8
0
100
AcDbBlockBegin
  2
*Model_Space
 70
     0
 10
0.0
 20
0.0
 30
0.0
  3
*Model_Space
  1
*Model_Space
  0
ENDBLK
  5
7D6
330
1D
100
AcDbEntity
  8
0
100
AcDbBlockEnd
  0
BLOCK
  5
7D3
330
1B
100
AcDbEntity
 67
     1
  8
0
100
AcDbBlockBegin
  2
*Paper_Space
 70
     0
 10
0.0
 20
0.0
 30
0.0
  3
*Paper_Space
  1
*Paper_Space
  0
ENDBLK
  5
7D4
330
1B
100
AcDbEntity
 67
     1
  8
0
100
AcDbBlockEnd
  0
ENDSEC
  0
SECTION
  2
ENTITIES
  0
LINE
  5
23A
330
1D
100
AcDbEntity
  8
0
100
AcDbLine
 10
94.5
 20
264.803
 30
0.0
 11
94.5004
 21
265.75
 31
0.0
  0
LINE
  5
23B
330
1D
100
AcDbEntity
  8
0
100
AcDbLine
 10
94.5
 20
264.803
 30
0.0
 11
94.51327189291
 21
263.475257713497
 31
0.0
  0
LINE
  5
23C
330
1D
100
AcDbEntity
  8
0
100
AcDbLine
 10
94.5
 20
257.587
 30
0.0
 11
94.51
 21
257.782
 31
0.0
  0
LINE
  5
23D
330
1D
100
AcDbEntity
  8
0
100
AcDbLine
 10
94.5
 20
257.587
 30
0.0
 11
94.571
 21
252.214
 31
0.0
  0
LINE
  5
23E
330
1D
100
AcDbEntity
  8
0
100
AcDbLine
 10
94.5
 20
257.587
 30
0.0
 11
94.507
 21
257.717
 31
0.0
  0
LINE
  5
23F
330
1D
100
AcDbEntity
  8
0
100
AcDbLine
 10
94.507
 20
257.717
 30
0.0
 11
94.528
 21
258.145
 31
0.0
  0
LINE
  5
242
330
1D
100
AcDbEntity
  8
0
100
AcDbLine
 10
94.51
 20
257.782
 30
0.0
 11
94.513266129032
 21
257.844709677421
 31
0.0
  0
LINE
  5
243
330
1D
100
AcDbEntity
  8
0
100
AcDbLine
 10
94.515
 20
262.533
 30
0.0
 11
94.552
 21
261.79
 31
0.0
  0
LINE
  5
244
330
1D
100
AcDbEntity
  8
0
100
AcDbLine
 10
94.502
 20
264.788
 30
0.0
 11
94.515
 21
262.533
 31
0.0
  0
LINE
  5
245
330
1D
100
AcDbEntity
  8
0
100
AcDbLine
 10
94.516387096774
 20
257.90831797235
 30
0.0
 11
94.529162105263
 21
258.187543157894
 31
0.0
  0
LINE
  5
246
330
1D
100
AcDbEntity
  8
0
100
AcDbLine
 10
94.528
 20
258.145
 30
0.0
 11
94.574
 21
259.829
 31
0.0
  0
LINE
  5
247
330
1D
100
AcDbEntity
  8
0
100
AcDbLine
 10
94.552
 20
261.79
 30
0.0
 11
94.571
 21
260.693
 31
0.0
  0
LINE
  5
248
330
1D
100
AcDbEntity
  8
0
100
AcDbLine
 10
94.555
 20
261.532
 30
0.0
 11
94.564081172492
 21
261.092471251408
 31
0.0
  0
LINE
  5
249
330
1D
100
AcDbEntity
  8
0
100
AcDbLine
 10
94.530229114339
 20
262.22718292017
 30
0.0
 11
94.555
 21
261.532
 31
0.0
  0
LINE
  5
24A
330
1D
100
AcDbEntity
  8
0
100
AcDbLine
 10
94.571
 20
252.214
 30
0.0
 11
95.109
 21
250.743
 31
0.0
  0
LINE
  5
24B
330
1D
100
AcDbEntity
  8
0
100
AcDbLine
 10
94.571
 20
260.693
 30
0.0
 11
94.574
 21
259.829
 31
0.0
  0
LINE
  5
24C
330
1D
100
AcDbEntity
  8
0
100
AcDbLine
 10
94.570392596747
 20
260.72806954571
 30
0.0
 11
94.571955307263
 21
260.417871508378
 31
0.0
  0
LINE
  5
24D
330
1D
100
AcDbEntity
  8
0
100
AcDbLine
 10
94.568231612608
 20
259.617826861581
 30
0.0
 11
94.573486435921
 21
259.97690645463
 31
0.0
  0
LINE
  5
24E
330
1D
100
AcDbEntity
  8
0
100
AcDbLine
 10
94.5247
 20
265.75
 30
0.0
 11
94.6651
 21
265.75
 31
0.0
  0
LINE
  5
24F
330
1D
100
AcDbEntity
  8
0
100
AcDbLine
 10
94.7722
 20
265.75
 30
0.0
 11
94.8571
 21
265.75
 31
0.0
  0
LINE
  5
262
330
1D
100
AcDbEntity
  8
0
100
AcDbLine
 10
96.25
 20
249.272
 30
0.0
 11
97.576
 21
248.518
 31
0.0
  0
LINE
  5
263
330
1D
100
AcDbEntity
  8
0
100
AcDbLine
 10
95.109
 20
250.743
 30
0.0
 11
96.25
 21
249.272
 31
0.0
  0
LINE
  5
286
330
1D
100
AcDbEntity
  8
0
100
AcDbLine
 10
97.576
 20
248.518
 30
0.0
 11
98.622
 21
248.199
 31
0.0
  0
LINE
  5
287
330
1D
100
AcDbEntity
  8
0
100
AcDbLine
 10
97.9278
 20
265.75
 30
0.0
 11
98.1245
 21
265.75
 31
0.0
  0
LINE
  5
288
330
1D
100
AcDbEntity
  8
0
100
AcDbLine
 10
96.5889
 20
265.75
 30
0.0
 11
97.9278
 21
265.75
 31
0.0
  0
LINE
  5
289
330
1D
100
AcDbEntity
  8
0
100
AcDbLine
 10
98.1245
 20
265.75
 30
0.0
 11
98.3714
 21
265.75
 31
0.0
  0
LINE
  5
2AA
330
1D
100
AcDbEntity
  8
0
100
AcDbLine
 10
102.265
 20
247.68
 30
0.0
 11
105.751
 21
246.812
 31
0.0
  0
LINE
  5
2AB
330
1D
100
AcDbEntity
  8
0
100
AcDbLine
 10
98.622
 20
248.199
 30
0.0
 11
102.265
 21
247.68
 31
0.0
  0
LINE
  5
2AC
330
1D
100
AcDbEntity
  8
0
100
AcDbLine
 10
102.07
 20
265.75
 30
0.0
 11
102.373
 21
265.75
 31
0.0
  0
LINE
  5
2BF
330
1D
100
AcDbEntity
  8
0
100
AcDbLine
 10
102.373
 20
265.75
 30
0.0
 11
104.699
 21
265.75
 31
0.0
  0
LINE
  5
2C0
330
1D
100
AcDbEntity
  8
0
100
AcDbLine
 10
104.699
 20
265.75
 30
0.0
 11
105.041
 21
265.75
 31
0.0
  0
LINE
  5
2D4
330
1D
100
AcDbEntity
  8
0
100
AcDbLine
 10
105.751
 20
246.812
 30
0.0
 11
108.387
 21
245.634
 31
0.0
  0
LINE
  5
2D5
330
1D
100
AcDbEntity
  8
0
100
AcDbLine
 10
105.041
 20
265.75
 30
0.0
 11
107.655
 21
265.75
 31
0.0
  0
LINE
  5
2D6
330
1D
100
AcDbEntity
  8
0
100
AcDbLine
 10
107.655
 20
265.75
 30
0.0
 11
108.04
 21
265.75
 31
0.0
  0
LINE
  5
2EF
330
1D
100
AcDbEntity
  8
0
100
AcDbLine
 10
108.387
 20
245.634
 30
0.0
 11
111.472
 21
244.064
 31
0.0
  0
LINE
  5
2F0
330
1D
100
AcDbEntity
  8
0
100
AcDbLine
 10
108.464
 20
265.75
 30
0.0
 11
111.331
 21
265.75
 31
0.0
  0
LINE
  5
2F1
330
1D
100
AcDbEntity
  8
0
100
AcDbLine
 10
108.04
 20
265.75
 30
0.0
 11
108.464
 21
265.75
 31
0.0
  0
LINE
  5
2F2
330
1D
100
AcDbEntity
  8
0
100
AcDbLine
 10
100.056
 20
265.75
 30
0.0
 11
102.07
 21
265.75
 31
0.0
  0
LINE
  5
2F3
330
1D
100
AcDbEntity
  8
0
100
AcDbLine
 10
98.3714
 20
265.75
 30
0.0
 11
100.056
 21
265.75
 31
0.0
  0
LINE
  5
2F4
330
1D
100
AcDbEntity
  8
0
100
AcDbLine
 10
95.4629
 20
265.75
 30
0.0
 11
96.4395
 21
265.75
 31
0.0
  0
LINE
  5
2F5
330
1D
100
AcDbEntity
  8
0
100
AcDbLine
 10
94.8571
 20
265.75
 30
0.0
 11
95.4629
 21
265.75
 31
0.0
  0
LINE
  5
2F6
330
1D
100
AcDbEntity
  8
0
100
AcDbLine
 10
96.4395
 20
265.75
 30
0.0
 11
96.5889
 21
265.75
 31
0.0
  0
LINE
  5
315
330
1D
100
AcDbEntity
  8
0
100
AcDbLine
 10
111.472
 20
244.064
 30
0.0
 11
114.024
 21
242.238
 31
0.0
  0
LINE
  5
316
330
1D
100
AcDbEntity
  8
0
100
AcDbLine
 10
114.024
 20
242.238
 30
0.0
 11
116.453
 21
240.059
 31
0.0
  0
LINE
  5
317
330
1D
100
AcDbEntity
  8
0
100
AcDbLine
 10
111.331
 20
265.75
 30
0.0
 11
114.429
 21
265.75
 31
0.0
  0
LINE
  5
318
330
1D
100
AcDbEntity
  8
0
100
AcDbLine
 10
114.429
 20
265.75
 30
0.0
 11
114.891
 21
265.75
 31
0.0
  0
LINE
  5
319
330
1D
100
AcDbEntity
  8
0
100
AcDbLine
 10
94.7059
 20
265.75
 30
0.0
 11
94.7722
 21
265.75
 31
0.0
  0
LINE
  5
31A
330
1D
100
AcDbEntity
  8
0
100
AcDbLine
 10
114.891
 20
265.75
 30
0.0
 11
115.38
 21
265.75
 31
0.0
  0
LINE
  5
34F
330
1D
100
AcDbEntity
  8
0
100
AcDbLine
 10
120.0
 20
200.25
 30
0.0
 11
120.102
 21
200.25
 31
0.0
  0
LINE
  5
350
330
1D
100
AcDbEntity
  8
0
100
AcDbLine
 10
120.0
 20
200.25
 30
0.0
 11
123.0
 21
203.25
 31
0.0
  0
LINE
  5
351
330
1D
100
AcDbEntity
  8
0
100
AcDbLine
 10
120.102
 20
200.25
 30
0.0
 11
120.272
 21
200.25
 31
0.0
  0
LINE
  5
352
330
1D
100
AcDbEntity
  8
0
100
AcDbLine
 10
120.272
 20
200.25
 30
0.0
 11
120.612
 21
200.25
 31
0.0
  0
LINE
  5
354
330
1D
100
AcDbEntity
  8
0
100
AcDbLine
 10
120.612
 20
200.25
 30
0.0
 11
121.054
 21
200.25
 31
0.0
  0
LINE
  5
355
330
1D
100
AcDbEntity
  8
0
100
AcDbLine
 10
121.054
 20
200.25
 30
0.0
 11
121.632
 21
200.25
 31
0.0
  0
LINE
  5
356
330
1D
100
AcDbEntity
  8
0
100
AcDbLine
 10
121.632
 20
200.25
 30
0.0
 11
122.312
 21
200.25
 31
0.0
  0
LINE
  5
35C
330
1D
100
AcDbEntity
  8
0
100
AcDbLine
 10
116.453
 20
240.059
 30
0.0
 11
118.577
 21
237.571
 31
0.0
  0
LINE
  5
35D
330
1D
100
AcDbEntity
  8
0
100
AcDbLine
 10
118.577
 20
237.571
 30
0.0
 11
120.428
 21
234.884
 31
0.0
  0
LINE
  5
35E
330
1D
100
AcDbEntity
  8
0
100
AcDbLine
 10
120.428
 20
234.884
 30
0.0
 11
121.952
 21
231.993
 31
0.0
  0
LINE
  5
35F
330
1D
100
AcDbEntity
  8
0
100
AcDbLine
 10
121.952
 20
231.993
 30
0.0
 11
123.24
 21
228.955
 31
0.0
  0
LINE
  5
367
330
1D
100
AcDbEntity
  8
0
100
AcDbLine
 10
122.312
 20
200.25
 30
0.0
 11
123.094
 21
200.25
 31
0.0
  0
LINE
  5
368
330
1D
100
AcDbEntity
  8
0
100
AcDbLine
 10
123.0
 20
203.25
 30
0.0
 11
123.084
 21
203.25
 31
0.0
  0
LINE
  5
369
330
1D
100
AcDbEntity
  8
0
100
AcDbLine
 10
123.084
 20
203.25
 30
0.0
 11
123.224
 21
203.25
 31
0.0
  0
LINE
  5
36A
330
1D
100
AcDbEntity
  8
0
100
AcDbLine
 10
123.224
 20
203.25
 30
0.0
 11
123.504
 21
203.25
 31
0.0
  0
LINE
  5
36B
330
1D
100
AcDbEntity
  8
0
100
AcDbLine
 10
123.504
 20
203.25
 30
0.0
 11
123.868
 21
203.25
 31
0.0
  0
LINE
  5
36C
330
1D
100
AcDbEntity
  8
0
100
AcDbLine
 10
123.094
 20
200.25
 30
0.0
 11
124.012
 21
200.25
 31
0.0
  0
LINE
  5
373
330
1D
100
AcDbEntity
  8
0
100
AcDbLine
 10
124.012
 20
200.25
 30
0.0
 11
124.998
 21
200.25
 31
0.0
  0
LINE
  5
378
330
1D
100
AcDbEntity
  8
0
100
AcDbLine
 10
123.868
 20
203.25
 30
0.0
 11
124.344
 21
203.25
 31
0.0
  0
LINE
  5
379
330
1D
100
AcDbEntity
  8
0
100
AcDbLine
 10
124.344
 20
203.25
 30
0.0
 11
124.904
 21
203.25
 31
0.0
  0
LINE
  5
37A
330
1D
100
AcDbEntity
  8
0
100
AcDbLine
 10
123.797268731007
 20
203.25
 30
0.0
 11
124.507179750876
 21
221.896945159147
 31
0.0
  0
LINE
  5
383
330
1D
100
AcDbEntity
  8
0
100
AcDbLine
 10
124.904
 20
203.25
 30
0.0
 11
125.548
 21
203.25
 31
0.0
  0
LINE
  5
384
330
1D
100
AcDbEntity
  8
0
100
AcDbLine
 10
124.998
 20
200.25
 30
0.0
 11
126.086
 21
200.25
 31
0.0
  0
LINE
  5
386
330
1D
100
AcDbEntity
  8
0
100
AcDbLine
 10
125.548
 20
203.25
 30
0.0
 11
126.304
 21
203.25
 31
0.0
  0
LINE
  5
387
330
1D
100
AcDbEntity
  8
0
100
AcDbLine
 10
126.086
 20
200.25
 30
0.0
 11
127.242
 21
200.25
 31
0.0
  0
LINE
  5
38B
330
1D
100
AcDbEntity
  8
0
100
AcDbLine
 10
123.24
 20
228.955
 30
0.0
 11
123.998
 21
225.8
 31
0.0
  0
LINE
  5
38C
330
1D
100
AcDbEntity
  8
0
100
AcDbLine
 10
123.998
 20
225.8
 30
0.0
 11
124.507179750876
 21
221.896945159147
 31
0.0
  0
LINE
  5
3A2
330
1D
100
AcDbEntity
  8
0
100
AcDbLine
 10
126.304
 20
203.25
 30
0.0
 11
127.116
 21
203.25
 31
0.0
  0
LINE
  5
3A4
330
1D
100
AcDbEntity
  8
0
100
AcDbLine
 10
127.116
 20
203.25
 30
0.0
 11
128.012
 21
203.25
 31
0.0
  0
LINE
  5
3A5
330
1D
100
AcDbEntity
  8
0
100
AcDbLine
 10
129.826
 20
200.25
 30
0.0
 11
131.186
 21
200.25
 31
0.0
  0
LINE
  5
3A6
330
1D
100
AcDbEntity
  8
0
100
AcDbLine
 10
130.028
 20
203.25
 30
0.0
 11
131.092
 21
203.25
 31
0.0
  0
LINE
  5
3A7
330
1D
100
AcDbEntity
  8
0
100
AcDbLine
 10
128.964
 20
203.25
 30
0.0
 11
130.028
 21
203.25
 31
0.0
  0
LINE
  5
3A8
330
1D
100
AcDbEntity
  8
0
100
AcDbLine
 10
128.012
 20
203.25
 30
0.0
 11
128.964
 21
203.25
 31
0.0
  0
LINE
  5
3A9
330
1D
100
AcDbEntity
  8
0
100
AcDbLine
 10
128.534
 20
200.25
 30
0.0
 11
129.826
 21
200.25
 31
0.0
  0
LINE
  5
3AA
330
1D
100
AcDbEntity
  8
0
100
AcDbLine
 10
127.242
 20
200.25
 30
0.0
 11
128.534
 21
200.25
 31
0.0
  0
LINE
  5
3C9
330
1D
100
AcDbEntity
  8
0
100
AcDbLine
 10
131.092
 20
203.25
 30
0.0
 11
132.212
 21
203.25
 31
0.0
  0
LINE
  5
3CA
330
1D
100
AcDbEntity
  8
0
100
AcDbLine
 10
133.36
 20
203.25
 30
0.0
 11
134.564
 21
203.25
 31
0.0
  0
LINE
  5
3CB
330
1D
100
AcDbEntity
  8
0
100
AcDbLine
 10
132.212
 20
203.25
 30
0.0
 11
133.36
 21
203.25
 31
0.0
  0
LINE
  5
3CC
330
1D
100
AcDbEntity
  8
0
100
AcDbLine
 10
132.58
 20
200.25
 30
0.0
 11
134.042
 21
200.25
 31
0.0
  0
LINE
  5
3CD
330
1D
100
AcDbEntity
  8
0
100
AcDbLine
 10
131.186
 20
200.25
 30
0.0
 11
132.58
 21
200.25
 31
0.0
  0
LINE
  5
3E0
330
1D
100
AcDbEntity
  8
0
100
AcDbLine
 10
134.042
 20
200.25
 30
0.0
 11
135.504
 21
200.25
 31
0.0
  0
LINE
  5
3E3
330
1D
100
AcDbEntity
  8
0
100
AcDbLine
 10
134.564
 20
203.25
 30
0.0
 11
135.768
 21
203.25
 31
0.0
  0
LINE
  5
3FC
330
1D
100
AcDbEntity
  8
0
100
AcDbLine
 10
135.768
 20
203.25
 30
0.0
 11
137.0
 21
203.25
 31
0.0
  0
LINE
  5
3FD
330
1D
100
AcDbEntity
  8
0
100
AcDbLine
 10
135.504
 20
200.25
 30
0.0
 11
137.0
 21
200.25
 31
0.0
  0
LINE
  5
3FF
330
1D
100
AcDbEntity
  8
0
100
AcDbLine
 10
137.0
 20
203.25
 30
0.0
 11
138.232
 21
203.25
 31
0.0
  0
LINE
  5
400
330
1D
100
AcDbEntity
  8
0
100
AcDbLine
 10
137.0
 20
200.25
 30
0.0
 11
138.496
 21
200.25
 31
0.0
  0
LINE
  5
405
330
1D
100
AcDbEntity
  8
0
100
AcDbLine
 10
138.232
 20
203.25
 30
0.0
 11
139.436
 21
203.25
 31
0.0
  0
LINE
  5
406
330
1D
100
AcDbEntity
  8
0
100
AcDbLine
 10
138.496
 20
200.25
 30
0.0
 11
139.958
 21
200.25
 31
0.0
  0
LINE
  5
42E
330
1D
100
AcDbEntity
  8
0
100
AcDbLine
 10
139.436
 20
203.25
 30
0.0
 11
140.64
 21
203.25
 31
0.0
  0
LINE
  5
42F
330
1D
100
AcDbEntity
  8
0
100
AcDbLine
 10
139.958
 20
200.25
 30
0.0
 11
141.42
 21
200.25
 31
0.0
  0
LINE
  5
438
330
1D
100
AcDbEntity
  8
0
100
AcDbLine
 10
140.64
 20
203.25
 30
0.0
 11
141.788
 21
203.25
 31
0.0
  0
LINE
  5
439
330
1D
100
AcDbEntity
  8
0
100
AcDbLine
 10
141.788
 20
203.25
 30
0.0
 11
142.908
 21
203.25
 31
0.0
  0
LINE
  5
43A
330
1D
100
AcDbEntity
  8
0
100
AcDbLine
 10
141.42
 20
200.25
 30
0.0
 11
142.814
 21
200.25
 31
0.0
  0
LINE
  5
43B
330
1D
100
AcDbEntity
  8
0
100
AcDbLine
 10
142.908
 20
203.25
 30
0.0
 11
143.972
 21
203.25
 31
0.0
  0
LINE
  5
43C
330
1D
100
AcDbEntity
  8
0
100
AcDbLine
 10
142.814
 20
200.25
 30
0.0
 11
144.174
 21
200.25
 31
0.0
  0
LINE
  5
459
330
1D
100
AcDbEntity
  8
0
100
AcDbLine
 10
144.174
 20
200.25
 30
0.0
 11
145.466
 21
200.25
 31
0.0
  0
LINE
  5
45A
330
1D
100
AcDbEntity
  8
0
100
AcDbLine
 10
145.466
 20
200.25
 30
0.0
 11
146.758
 21
200.25
 31
0.0
  0
LINE
  5
45B
330
1D
100
AcDbEntity
  8
0
100
AcDbLine
 10
143.972
 20
203.25
 30
0.0
 11
145.036
 21
203.25
 31
0.0
  0
LINE
  5
45C
330
1D
100
AcDbEntity
  8
0
100
AcDbLine
 10
145.036
 20
203.25
 30
0.0
 11
145.988
 21
203.25
 31
0.0
  0
LINE
  5
45D
330
1D
100
AcDbEntity
  8
0
100
AcDbLine
 10
145.988
 20
203.25
 30
0.0
 11
146.884
 21
203.25
 31
0.0
  0
LINE
  5
45E
330
1D
100
AcDbEntity
  8
0
100
AcDbLine
 10
146.884
 20
203.25
 30
0.0
 11
147.696
 21
203.25
 31
0.0
  0
LINE
  5
45F
330
1D
100
AcDbEntity
  8
0
100
AcDbLine
 10
146.758
 20
200.25
 30
0.0
 11
147.914
 21
200.25
 31
0.0
  0
LINE
  5
462
330
1D
100
AcDbEntity
  8
0
100
AcDbLine
 10
147.696
 20
203.25
 30
0.0
 11
148.452
 21
203.25
 31
0.0
  0
LINE
  5
463
330
1D
100
AcDbEntity
  8
0
100
AcDbLine
 10
147.914
 20
200.25
 30
0.0
 11
149.002
 21
200.25
 31
0.0
  0
LINE
  5
466
330
1D
100
AcDbEntity
  8
0
100
AcDbLine
 10
148.452
 20
203.25
 30
0.0
 11
149.096
 21
203.25
 31
0.0
  0
LINE
  5
469
330
1D
100
AcDbEntity
  8
0
100
AcDbLine
 10
148.068
 20
265.75
 30
0.0
 11
148.6
 21
265.75
 31
0.0
  0
LINE
  5
46A
330
1D
100
AcDbEntity
  8
0
100
AcDbLine
 10
147.525
 20
265.75
 30
0.0
 11
148.068
 21
265.75
 31
0.0
  0
LINE
  5
478
330
1D
100
AcDbEntity
  8
0
100
AcDbLine
 10
150.132
 20
203.25
 30
0.0
 11
150.496
 21
203.25
 31
0.0
  0
LINE
  5
479
330
1D
100
AcDbEntity
  8
0
100
AcDbLine
 10
149.656
 20
203.25
 30
0.0
 11
150.132
 21
203.25
 31
0.0
  0
LINE
  5
47A
330
1D
100
AcDbEntity
  8
0
100
AcDbLine
 10
149.096
 20
203.25
 30
0.0
 11
149.656
 21
203.25
 31
0.0
  0
LINE
  5
47B
330
1D
100
AcDbEntity
  8
0
100
AcDbLine
 10
149.988
 20
200.25
 30
0.0
 11
150.906
 21
200.25
 31
0.0
  0
LINE
  5
47C
330
1D
100
AcDbEntity
  8
0
100
AcDbLine
 10
149.002
 20
200.25
 30
0.0
 11
149.988
 21
200.25
 31
0.0
  0
LINE
  5
498
330
1D
100
AcDbEntity
  8
0
100
AcDbLine
 10
150.776
 20
203.25
 30
0.0
 11
150.916
 21
203.25
 31
0.0
  0
LINE
  5
499
330
1D
100
AcDbEntity
  8
0
100
AcDbLine
 10
150.496
 20
203.25
 30
0.0
 11
150.776
 21
203.25
 31
0.0
  0
LINE
  5
49A
330
1D
100
AcDbEntity
  8
0
100
AcDbLine
 10
153.388
 20
200.25
 30
0.0
 11
153.728
 21
200.25
 31
0.0
  0
LINE
  5
49B
330
1D
100
AcDbEntity
  8
0
100
AcDbLine
 10
152.946
 20
200.25
 30
0.0
 11
153.388
 21
200.25
 31
0.0
  0
LINE
  5
49C
330
1D
100
AcDbEntity
  8
0
100
AcDbLine
 10
152.368
 20
200.25
 30
0.0
 11
152.946
 21
200.25
 31
0.0
  0
LINE
  5
49D
330
1D
100
AcDbEntity
  8
0
100
AcDbLine
 10
151.0
 20
203.25
 30
0.0
 11
154.0
 21
200.25
 31
0.0
  0
LINE
  5
49E
330
1D
100
AcDbEntity
  8
0
100
AcDbLine
 10
150.916
 20
203.25
 30
0.0
 11
151.0
 21
203.25
 31
0.0
  0
LINE
  5
49F
330
1D
100
AcDbEntity
  8
0
100
AcDbLine
 10
151.688
 20
200.25
 30
0.0
 11
152.368
 21
200.25
 31
0.0
  0
LINE
  5
4A0
330
1D
100
AcDbEntity
  8
0
100
AcDbLine
 10
150.906
 20
200.25
 30
0.0
 11
151.688
 21
200.25
 31
0.0
  0
LINE
  5
4A4
330
1D
100
AcDbEntity
  8
0
100
AcDbLine
 10
153.898
 20
200.25
 30
0.0
 11
154.0
 21
200.25
 31
0.0
  0
LINE
  5
4A5
330
1D
100
AcDbEntity
  8
0
100
AcDbLine
 10
153.728
 20
200.25
 30
0.0
 11
153.898
 21
200.25
 31
0.0
  0
LINE
  5
4A9
330
1D
100
AcDbEntity
  8
0
100
AcDbLine
 10
149.933
 20
225.786
 30
0.0
 11
150.816
 21
228.973
 31
0.0
  0
LINE
  5
4AA
330
1D
100
AcDbEntity
  8
0
100
AcDbLine
 10
149.607
 20
222.557
 30
0.0
 11
149.933
 21
225.786
 31
0.0
  0
LINE
  5
4AB
330
1D
100
AcDbEntity
  8
0
100
AcDbLine
 10
151.941
 20
232.018
 30
0.0
 11
153.553
 21
234.907
 31
0.0
  0
LINE
  5
4AC
330
1D
100
AcDbEntity
  8
0
100
AcDbLine
 10
150.816
 20
228.973
 30
0.0
 11
151.941
 21
232.018
 31
0.0
  0
LINE
  5
4AD
330
1D
100
AcDbEntity
  8
0
100
AcDbLine
 10
155.391
 20
237.607
 30
0.0
 11
157.584
 21
240.03
 31
0.0
  0
LINE
  5
4AE
330
1D
100
AcDbEntity
  8
0
100
AcDbLine
 10
153.553
 20
234.907
 30
0.0
 11
155.391
 21
237.607
 31
0.0
  0
LINE
  5
4AF
330
1D
100
AcDbEntity
  8
0
100
AcDbLine
 10
149.489
 20
219.28
 30
0.0
 11
149.607
 21
222.557
 31
0.0
  0
LINE
  5
4B0
330
1D
100
AcDbEntity
  8
0
100
AcDbLine
 10
149.489
 20
219.28
 30
0.0
 11
150.270667372497
 21
203.25
 31
0.0
  0
LINE
  5
4D1
330
1D
100
AcDbEntity
  8
0
100
AcDbLine
 10
157.584
 20
240.03
 30
0.0
 11
159.977
 21
242.239
 31
0.0
  0
LINE
  5
4F5
330
1D
100
AcDbEntity
  8
0
100
AcDbLine
 10
159.977
 20
242.239
 30
0.0
 11
162.406
 21
244.064
 31
0.0
  0
LINE
  5
4F6
330
1D
100
AcDbEntity
  8
0
100
AcDbLine
 10
162.406
 20
244.064
 30
0.0
 11
165.354
 21
245.612
 31
0.0
  0
LINE
  5
4FB
330
1D
100
AcDbEntity
  8
0
100
AcDbLine
 10
163.328
 20
265.75
 30
0.0
 11
163.787
 21
265.75
 31
0.0
  0
LINE
  5
4FC
330
1D
100
AcDbEntity
  8
0
100
AcDbLine
 10
162.839
 20
265.75
 30
0.0
 11
163.328
 21
265.75
 31
0.0
  0
LINE
  5
526
330
1D
100
AcDbEntity
  8
0
100
AcDbLine
 10
165.354
 20
245.612
 30
0.0
 11
168.352
 21
246.839
 31
0.0
  0
LINE
  5
527
330
1D
100
AcDbEntity
  8
0
100
AcDbLine
 10
168.352
 20
246.839
 30
0.0
 11
171.357
 21
247.649
 31
0.0
  0
LINE
  5
541
330
1D
100
AcDbEntity
  8
0
100
AcDbLine
 10
171.357
 20
247.649
 30
0.0
 11
175.846
 21
248.282
 31
0.0
  0
LINE
  5
545
330
1D
100
AcDbEntity
  8
0
100
AcDbLine
 10
172.128
 20
265.75
 30
0.0
 11
172.415
 21
265.75
 31
0.0
  0
LINE
  5
546
330
1D
100
AcDbEntity
  8
0
100
AcDbLine
 10
171.788
 20
265.75
 30
0.0
 11
172.128
 21
265.75
 31
0.0
  0
LINE
  5
56C
330
1D
100
AcDbEntity
  8
0
100
AcDbLine
 10
175.846
 20
248.282
 30
0.0
 11
177.218
 21
248.921
 31
0.0
  0
LINE
  5
56D
330
1D
100
AcDbEntity
  8
0
100
AcDbLine
 10
176.225
 20
265.75
 30
0.0
 11
176.41
 21
265.75
 31
0.0
  0
LINE
  5
56E
330
1D
100
AcDbEntity
  8
0
100
AcDbLine
 10
175.981
 20
265.75
 30
0.0
 11
176.225
 21
265.75
 31
0.0
  0
LINE
  5
588
330
1D
100
AcDbEntity
  8
0
100
AcDbLine
 10
177.218
 20
248.921
 30
0.0
 11
178.594
 21
250.193
 31
0.0
  0
LINE
  5
58C
330
1D
100
AcDbEntity
  8
0
100
AcDbLine
 10
178.594
 20
250.193
 30
0.0
 11
179.344
 21
251.909
 31
0.0
  0
LINE
  5
58D
330
1D
100
AcDbEntity
  8
0
100
AcDbLine
 10
179.177
 20
265.75
 30
0.0
 11
179.235
 21
265.75
 31
0.0
  0
LINE
  5
58E
330
1D
100
AcDbEntity
  8
0
100
AcDbLine
 10
178.68
 20
265.75
 30
0.0
 11
179.177
 21
265.75
 31
0.0
  0
LINE
  5
58F
330
1D
100
AcDbEntity
  8
0
100
AcDbLine
 10
178.53
 20
265.75
 30
0.0
 11
178.68
 21
265.75
 31
0.0
  0
LINE
  5
590
330
1D
100
AcDbEntity
  8
0
100
AcDbLine
 10
177.594
 20
265.75
 30
0.0
 11
178.53
 21
265.75
 31
0.0
  0
LINE
  5
591
330
1D
100
AcDbEntity
  8
0
100
AcDbLine
 10
176.41
 20
265.75
 30
0.0
 11
177.594
 21
265.75
 31
0.0
  0
LINE
  5
592
330
1D
100
AcDbEntity
  8
0
100
AcDbLine
 10
173.904
 20
265.75
 30
0.0
 11
175.981
 21
265.75
 31
0.0
  0
LINE
  5
593
330
1D
100
AcDbEntity
  8
0
100
AcDbLine
 10
172.415
 20
265.75
 30
0.0
 11
173.904
 21
265.75
 31
0.0
  0
LINE
  5
594
330
1D
100
AcDbEntity
  8
0
100
AcDbLine
 10
169.525
 20
265.75
 30
0.0
 11
171.788
 21
265.75
 31
0.0
  0
LINE
  5
595
330
1D
100
AcDbEntity
  8
0
100
AcDbLine
 10
169.145
 20
265.75
 30
0.0
 11
169.525
 21
265.75
 31
0.0
  0
LINE
  5
596
330
1D
100
AcDbEntity
  8
0
100
AcDbLine
 10
166.53
 20
265.75
 30
0.0
 11
169.145
 21
265.75
 31
0.0
  0
LINE
  5
597
330
1D
100
AcDbEntity
  8
0
100
AcDbLine
 10
163.787
 20
265.75
 30
0.0
 11
166.53
 21
265.75
 31
0.0
  0
LINE
  5
598
330
1D
100
AcDbEntity
  8
0
100
AcDbLine
 10
159.845
 20
265.75
 30
0.0
 11
162.839
 21
265.75
 31
0.0
  0
LINE
  5
599
330
1D
100
AcDbEntity
  8
0
100
AcDbLine
 10
159.36
 20
265.75
 30
0.0
 11
159.845
 21
265.75
 31
0.0
  0
LINE
  5
59A
330
1D
100
AcDbEntity
  8
0
100
AcDbLine
 10
156.103
 20
265.75
 30
0.0
 11
159.36
 21
265.75
 31
0.0
  0
LINE
  5
59B
330
1D
100
AcDbEntity
  8
0
100
AcDbLine
 10
155.593
 20
265.75
 30
0.0
 11
156.103
 21
265.75
 31
0.0
  0
LINE
  5
59C
330
1D
100
AcDbEntity
  8
0
100
AcDbLine
 10
152.165
 20
265.75
 30
0.0
 11
155.593
 21
265.75
 31
0.0
  0
LINE
  5
59D
330
1D
100
AcDbEntity
  8
0
100
AcDbLine
 10
148.6
 20
265.75
 30
0.0
 11
152.165
 21
265.75
 31
0.0
  0
LINE
  5
59E
330
1D
100
AcDbEntity
  8
0
100
AcDbLine
 10
143.863
 20
265.75
 30
0.0
 11
147.525
 21
265.75
 31
0.0
  0
LINE
  5
59F
330
1D
100
AcDbEntity
  8
0
100
AcDbLine
 10
143.309
 20
265.75
 30
0.0
 11
143.863
 21
265.75
 31
0.0
  0
LINE
  5
5A0
330
1D
100
AcDbEntity
  8
0
100
AcDbLine
 10
139.584
 20
265.75
 30
0.0
 11
143.309
 21
265.75
 31
0.0
  0
LINE
  5
5A1
330
1D
100
AcDbEntity
  8
0
100
AcDbLine
 10
139.027
 20
265.75
 30
0.0
 11
139.584
 21
265.75
 31
0.0
  0
LINE
  5
5A2
330
1D
100
AcDbEntity
  8
0
100
AcDbLine
 10
135.28
 20
265.75
 30
0.0
 11
139.027
 21
265.75
 31
0.0
  0
LINE
  5
5A3
330
1D
100
AcDbEntity
  8
0
100
AcDbLine
 10
134.725
 20
265.75
 30
0.0
 11
135.28
 21
265.75
 31
0.0
  0
LINE
  5
5A4
330
1D
100
AcDbEntity
  8
0
100
AcDbLine
 10
130.993
 20
265.75
 30
0.0
 11
134.725
 21
265.75
 31
0.0
  0
LINE
  5
5A5
330
1D
100
AcDbEntity
  8
0
100
AcDbLine
 10
130.446
 20
265.75
 30
0.0
 11
130.993
 21
265.75
 31
0.0
  0
LINE
  5
5A6
330
1D
100
AcDbEntity
  8
0
100
AcDbLine
 10
126.767
 20
265.75
 30
0.0
 11
130.446
 21
265.75
 31
0.0
  0
LINE
  5
5A7
330
1D
100
AcDbEntity
  8
0
100
AcDbLine
 10
126.234
 20
265.75
 30
0.0
 11
126.767
 21
265.75
 31
0.0
  0
LINE
  5
5A8
330
1D
100
AcDbEntity
  8
0
100
AcDbLine
 10
122.647
 20
265.75
 30
0.0
 11
126.234
 21
265.75
 31
0.0
  0
LINE
  5
5A9
330
1D
100
AcDbEntity
  8
0
100
AcDbLine
 10
122.133
 20
265.75
 30
0.0
 11
122.647
 21
265.75
 31
0.0
  0
LINE
  5
5AA
330
1D
100
AcDbEntity
  8
0
100
AcDbLine
 10
118.674
 20
265.75
 30
0.0
 11
122.133
 21
265.75
 31
0.0
  0
LINE
  5
5AB
330
1D
100
AcDbEntity
  8
0
100
AcDbLine
 10
179.344
 20
251.909
 30
0.0
 11
179.499
 21
253.149
 31
0.0
  0
LINE
  5
7CA
330
1D
100
AcDbEntity
  8
0
100
AcDbLine
 10
179.499
 20
265.75
 30
0.0
 11
179.499
 21
253.149
 31
0.0
  0
LINE
  5
7CB
330
1D
100
AcDbEntity
  8
0
100
AcDbLine
 10
179.499
 20
253.149
 30
0.0
 11
179.499
 21
265.75
 31
0.0
  0
LINE
  5
7CF
330
1D
100
AcDbEntity
  8
0
100
AcDbLine
 10
179.418
 20
265.75
 30
0.0
 11
179.499
 21
265.75
 31
0.0
  0
LINE
  5
7D0
330
1D
100
AcDbEntity
  8
0
100
AcDbLine
 10
179.235
 20
265.75
 30
0.0
 11
179.314
 21
265.75
 31
0.0
  0
LINE
  5
7D1
330
1D
100
AcDbEntity
  8
0
100
AcDbLine
 10
115.38
 20
265.75
 30
0.0
 11
118.674
 21
265.75
 31
0.0
  0
LINE
  5
AFE
330
1D
100
AcDbEntity
  8
0
100
AcDbLine
 10
137.0
 20
2.75
 30
0.0
 11
148.679
 21
2.75
 31
0.0
  0
LINE
  5
AFF
330
1D
100
AcDbEntity
  8
0
100
AcDbLine
 10
137.0
 20
3.21326
 30
0.0
 11
148.83
 21
3.21326
 31
0.0
  0
LINE
  5
B00
330
1D
100
AcDbEntity
  8
0
100
AcDbLine
 10
137.0
 20
15.75
 30
0.0
 11
148.452
 21
15.75
 31
0.0
  0
LINE
  5
B01
330
1D
100
AcDbEntity
  8
0
100
AcDbLine
 10
137.0
 20
15.4659
 30
0.0
 11
148.504
 21
15.4659
 31
0.0
  0
LINE
  5
B02
330
1D
100
AcDbEntity
  8
0
100
AcDbLine
 10
137.0
 20
197.25
 30
0.0
 11
147.068
 21
197.25
 31
0.0
  0
LINE
  5
B03
330
1D
100
AcDbEntity
  8
0
100
AcDbLine
 10
137.0
 20
196.25
 30
0.0
 11
147.353
 21
196.25
 31
0.0
  0
LINE
  5
B04
330
1D
100
AcDbEntity
  8
0
100
AcDbLine
 10
140.534
 20
57.946930068633
 30
0.0
 11
143.427
 21
58.175
 31
0.0
  0
LINE
  5
B05
330
1D
100
AcDbEntity
  8
0
100
AcDbLine
 10
139.958
 20
200.25
 30
0.0
 11
141.42
 21
200.25
 31
0.0
  0
LINE
  5
B06
330
1D
100
AcDbEntity
  8
0
100
AcDbLine
 10
140.534
 20
139.75
 30
0.0
 11
141.918
 21
139.75
 31
0.0
  0
LINE
  5
B07
330
1D
100
AcDbEntity
  8
0
100
AcDbLine
 10
140.534
 20
138.75
 30
0.0
 11
141.659
 21
138.75
 31
0.0
  0
LINE
  5
B08
330
1D
100
AcDbEntity
  8
0
100
AcDbLine
 10
140.534
 20
188.25
 30
0.0
 11
147.353
 21
188.25
 31
0.0
  0
LINE
  5
B09
330
1D
100
AcDbEntity
  8
0
100
AcDbLine
 10
140.64
 20
203.25
 30
0.0
 11
141.788
 21
203.25
 31
0.0
  0
LINE
  5
B0A
330
1D
100
AcDbEntity
  8
0
100
AcDbLine
 10
126.647
 20
195.108
 30
0.0
 11
148.73010925
 21
195.108
 31
0.0
  0
LINE
  5
B0B
330
1D
100
AcDbEntity
  8
0
100
AcDbLine
 10
149.535
 20
189.258
 30
0.0
 11
140.534587740385
 21
189.258
 31
0.0
  0
LINE
  5
B0C
330
1D
100
AcDbEntity
  8
0
100
AcDbLine
 10
12.883
 20
0.25
 30
0.0
 11
261.857
 21
0.25
 31
0.0
  0
LINE
  5
B0D
330
1D
100
AcDbEntity
  8
0
100
AcDbLine
 10
26.3999
 20
24.9644
 30
0.0
 11
65.3884
 21
181.965
 31
0.0
  0
LINE
  5
B0E
330
1D
100
AcDbEntity
  8
0
100
AcDbLine
 10
26.3999
 20
24.9644
 30
0.0
 11
65.3884
 21
181.965
 31
0.0
  0
LINE
  5
B0F
330
1D
100
AcDbEntity
  8
0
100
AcDbLine
 10
17.7955
 20
23.5117
 30
0.0
 11
62.1304
 21
180.512
 31
0.0
  0
LINE
  5
B10
330
1D
100
AcDbEntity
  8
0
100
AcDbLine
 10
17.7955
 20
23.5117
 30
0.0
 11
62.1304
 21
180.512
 31
0.0
  0
LINE
  5
B11
330
1D
100
AcDbEntity
  8
0
100
AcDbLine
 10
11.8403
 20
25.124
 30
0.0
 11
56.1753
 21
182.124
 31
0.0
  0
LINE
  5
B12
330
1D
100
AcDbEntity
  8
0
100
AcDbLine
 10
11.8403
 20
25.124
 30
0.0
 11
56.1753
 21
182.124
 31
0.0
  0
LINE
  5
B13
330
1D
100
AcDbEntity
  8
0
100
AcDbLine
 10
12.0262
 20
25.124
 30
0.0
 11
56.3611
 21
182.124
 31
0.0
  0
LINE
  5
B14
330
1D
100
AcDbEntity
  8
0
100
AcDbLine
 10
12.0262
 20
25.124
 30
0.0
 11
56.3611
 21
182.124
 31
0.0
  0
LINE
  5
B15
330
1D
100
AcDbEntity
  8
0
100
AcDbLine
 10
26.9346
 20
24.9644
 30
0.0
 11
65.9219
 21
181.964
 31
0.0
  0
LINE
  5
B16
330
1D
100
AcDbEntity
  8
0
100
AcDbLine
 10
32.71
 20
23.6706
 30
0.0
 11
71.6973
 21
180.671
 31
0.0
  0
LINE
  5
B17
330
1D
100
AcDbEntity
  8
0
100
AcDbLine
 10
60.5431
 20
23.6706
 30
0.0
 11
89.4803
 21
180.671
 31
0.0
  0
LINE
  5
B18
330
1D
100
AcDbEntity
  8
0
100
AcDbLine
 10
60.5431
 20
23.6706
 30
0.0
 11
89.4803
 21
180.671
 31
0.0
  0
LINE
  5
B19
330
1D
100
AcDbEntity
  8
0
100
AcDbLine
 10
54.7788
 20
24.9644
 30
0.0
 11
83.716
 21
181.964
 31
0.0
  0
LINE
  5
B1A
330
1D
100
AcDbEntity
  8
0
100
AcDbLine
 10
53.9599
 20
24.9644
 30
0.0
 11
82.8982
 21
181.965
 31
0.0
  0
LINE
  5
B1B
330
1D
100
AcDbEntity
  8
0
100
AcDbLine
 10
98.037
 20
23.9596
 30
0.0
 11
113.434
 21
180.959
 31
0.0
  0
LINE
  5
B1C
330
1D
100
AcDbEntity
  8
0
100
AcDbLine
 10
98.037
 20
23.9596
 30
0.0
 11
113.434
 21
180.959
 31
0.0
  0
LINE
  5
B1D
330
1D
100
AcDbEntity
  8
0
100
AcDbLine
 10
92.101
 20
24.6767
 30
0.0
 11
107.498
 21
181.676
 31
0.0
  0
LINE
  5
B1E
330
1D
100
AcDbEntity
  8
0
100
AcDbLine
 10
92.101
 20
24.6767
 30
0.0
 11
107.498
 21
181.676
 31
0.0
  0
LINE
  5
B1F
330
1D
100
AcDbEntity
  8
0
100
AcDbLine
 10
100.146071707383
 20
116.948248436504
 30
0.0
 11
106.494
 21
181.676
 31
0.0
  0
LINE
  5
B20
330
1D
100
AcDbEntity
  8
0
100
AcDbLine
 10
118.0
 20
139.75
 30
0.0
 11
118.0
 21
180.75
 31
0.0
  0
LINE
  5
B21
330
1D
100
AcDbEntity
  8
0
100
AcDbLine
 10
100.146071707383
 20
116.948248436504
 30
0.0
 11
106.494
 21
181.676
 31
0.0
  0
LINE
  5
B22
330
1D
100
AcDbEntity
  8
0
100
AcDbLine
 10
32.71
 20
23.6706
 30
0.0
 11
71.6973
 21
180.671
 31
0.0
  0
LINE
  5
B23
330
1D
100
AcDbEntity
  8
0
100
AcDbLine
 10
26.9346
 20
24.9644
 30
0.0
 11
65.9219
 21
181.964
 31
0.0
  0
LINE
  5
B24
330
1D
100
AcDbEntity
  8
0
100
AcDbLine
 10
134.534
 20
181.318
 30
0.0
 11
134.535
 21
24.3179
 31
0.0
  0
LINE
  5
B25
330
1D
100
AcDbEntity
  8
0
100
AcDbLine
 10
134.534
 20
181.318
 30
0.0
 11
134.535
 21
24.3179
 31
0.0
  0
LINE
  5
B26
330
1D
100
AcDbEntity
  8
0
100
AcDbLine
 10
140.534
 20
24.3182
 30
0.0
 11
140.534
 21
181.318
 31
0.0
  0
LINE
  5
B27
330
1D
100
AcDbEntity
  8
0
100
AcDbLine
 10
140.534
 20
24.3182
 30
0.0
 11
140.534
 21
181.318
 31
0.0
  0
LINE
  5
B28
330
1D
100
AcDbEntity
  8
0
100
AcDbLine
 10
61.2918
 20
15.4659
 30
0.0
 11
71.0038
 21
15.4659
 31
0.0
  0
LINE
  5
B29
330
1D
100
AcDbEntity
  8
0
100
AcDbLine
 10
70.0
 20
2.75
 30
0.0
 11
80.369
 21
2.75
 31
0.0
  0
LINE
  5
B2A
330
1D
100
AcDbEntity
  8
0
100
AcDbLine
 10
69.1334
 20
3.21326
 30
0.0
 11
79.6365
 21
3.21326
 31
0.0
  0
LINE
  5
B2B
330
1D
100
AcDbEntity
  8
0
100
AcDbLine
 10
61.6323
 20
15.75
 30
0.0
 11
71.2998
 21
15.75
 31
0.0
  0
LINE
  5
B2C
330
1D
100
AcDbEntity
  8
0
100
AcDbLine
 10
34.3501
 20
2.75
 30
0.0
 11
42.2475
 21
2.75
 31
0.0
  0
LINE
  5
B2D
330
1D
100
AcDbEntity
  8
0
100
AcDbLine
 10
33.0225
 20
3.21326
 30
0.0
 11
41.022
 21
3.21326
 31
0.0
  0
LINE
  5
B2E
330
1D
100
AcDbEntity
  8
0
100
AcDbLine
 10
28.8776
 20
15.4659
 30
0.0
 11
35.8872
 21
15.4659
 31
0.0
  0
LINE
  5
B2F
330
1D
100
AcDbEntity
  8
0
100
AcDbLine
 10
29.3633
 20
15.75
 30
0.0
 11
36.3416
 21
15.75
 31
0.0
  0
LINE
  5
B30
330
1D
100
AcDbEntity
  8
0
100
AcDbLine
 10
15.5548
 20
2.75
 30
0.0
 11
20.9526
 21
2.75
 31
0.0
  0
LINE
  5
B31
330
1D
100
AcDbEntity
  8
0
100
AcDbLine
 10
13.9841
 20
3.21326
 30
0.0
 11
19.4517
 21
3.21326
 31
0.0
  0
LINE
  5
B32
330
1D
100
AcDbEntity
  8
0
100
AcDbLine
 10
17.3735
 20
15.4659
 30
0.0
 11
22.6905
 21
15.4659
 31
0.0
  0
LINE
  5
B33
330
1D
100
AcDbEntity
  8
0
100
AcDbLine
 10
17.3353
 20
15.75
 30
0.0
 11
17.9111
 21
15.75
 31
0.0
  0
LINE
  5
B34
330
1D
100
AcDbEntity
  8
0
100
AcDbLine
 10
13.5243
 20
15.75
 30
0.0
 11
17.9111
 21
15.75
 31
0.0
  0
LINE
  5
B35
330
1D
100
AcDbEntity
  8
0
100
AcDbLine
 10
17.4506
 20
21.8639
 30
0.0
 11
17.7955
 21
23.5117
 31
0.0
  0
LINE
  5
B36
330
1D
100
AcDbEntity
  8
0
100
AcDbLine
 10
11.1569
 20
15.75
 30
0.0
 11
11.1569
 21
20.1833
 31
0.0
  0
LINE
  5
B37
330
1D
100
AcDbEntity
  8
0
100
AcDbLine
 10
11.3417
 20
15.75
 30
0.0
 11
11.3417
 21
20.1833
 31
0.0
  0
LINE
  5
B38
330
1D
100
AcDbEntity
  8
0
100
AcDbLine
 10
17.3353
 20
15.75
 30
0.0
 11
17.3353
 21
20.1833
 31
0.0
  0
LINE
  5
B39
330
1D
100
AcDbEntity
  8
0
100
AcDbLine
 10
11.1569
 20
20.1833
 30
0.0
 11
11.1569
 21
15.75
 31
0.0
  0
LINE
  5
B3A
330
1D
100
AcDbEntity
  8
0
100
AcDbLine
 10
11.3417
 20
20.1833
 30
0.0
 11
11.3417
 21
15.75
 31
0.0
  0
LINE
  5
B3B
330
1D
100
AcDbEntity
  8
0
100
AcDbLine
 10
17.3353
 20
20.1833
 30
0.0
 11
17.3353
 21
15.75
 31
0.0
  0
LINE
  5
B3C
330
1D
100
AcDbEntity
  8
0
100
AcDbLine
 10
5.89187
 20
3.21326
 30
0.0
 11
9.4526
 21
3.21326
 31
0.0
  0
LINE
  5
B3D
330
1D
100
AcDbEntity
  8
0
100
AcDbLine
 10
7.56594
 20
2.75
 30
0.0
 11
11.0812
 21
2.75
 31
0.0
  0
LINE
  5
B3E
330
1D
100
AcDbEntity
  8
0
100
AcDbLine
 10
7.01212
 20
15.4659
 30
0.0
 11
9.5044
 21
15.4659
 31
0.0
  0
LINE
  5
B3F
330
1D
100
AcDbEntity
  8
0
100
AcDbLine
 10
7.59626
 20
15.75
 30
0.0
 11
10.0773
 21
15.75
 31
0.0
  0
LINE
  5
B40
330
1D
100
AcDbEntity
  8
0
100
AcDbLine
 10
0.0
 20
6.27
 30
0.0
 11
0.297253
 21
4.52852
 31
0.0
  0
LINE
  5
B41
330
1D
100
AcDbEntity
  8
0
100
AcDbLine
 10
0.0
 20
6.27
 30
0.0
 11
0.643547
 21
7.71283
 31
0.0
  0
LINE
  5
B42
330
1D
100
AcDbEntity
  8
0
100
AcDbLine
 10
3.32897
 20
3.21326
 30
0.0
 11
5.89187
 21
3.21326
 31
0.0
  0
LINE
  5
B43
330
1D
100
AcDbEntity
  8
0
100
AcDbLine
 10
3.0
 20
2.75
 30
0.0
 11
3.50991
 21
2.75
 31
0.0
  0
LINE
  5
B44
330
1D
100
AcDbEntity
  8
0
100
AcDbLine
 10
1.26688
 20
3.21326
 30
0.0
 11
1.78338
 21
3.21326
 31
0.0
  0
LINE
  5
B45
330
1D
100
AcDbEntity
  8
0
100
AcDbLine
 10
1.26688
 20
3.21326
 30
0.0
 11
3.0
 21
2.75
 31
0.0
  0
LINE
  5
B46
330
1D
100
AcDbEntity
  8
0
100
AcDbLine
 10
3.50991
 20
2.75
 30
0.0
 11
5.03576
 21
2.75
 31
0.0
  0
LINE
  5
B47
330
1D
100
AcDbEntity
  8
0
100
AcDbLine
 10
0.643547
 20
7.71283
 30
0.0
 11
2.99834
 21
9.30498
 31
0.0
  0
LINE
  5
B48
330
1D
100
AcDbEntity
  8
0
100
AcDbLine
 10
0.297253
 20
4.52852
 30
0.0
 11
1.26688
 21
3.21326
 31
0.0
  0
LINE
  5
B49
330
1D
100
AcDbEntity
  8
0
100
AcDbLine
 10
1.78338
 20
3.21326
 30
0.0
 11
3.32897
 21
3.21326
 31
0.0
  0
LINE
  5
B4A
330
1D
100
AcDbEntity
  8
0
100
AcDbLine
 10
0.0
 20
6.27
 30
0.0
 11
0.643547
 21
7.71283
 31
0.0
  0
LINE
  5
B4B
330
1D
100
AcDbEntity
  8
0
100
AcDbLine
 10
0.0
 20
6.27
 30
0.0
 11
0.297253
 21
4.52852
 31
0.0
  0
LINE
  5
B4C
330
1D
100
AcDbEntity
  8
0
100
AcDbLine
 10
3.76019
 20
11.10481
 30
0.0
 11
5.00684
 21
15.4659
 31
0.0
  0
LINE
  5
B4D
330
1D
100
AcDbEntity
  8
0
100
AcDbLine
 10
2.99834
 20
9.30498
 30
0.0
 11
3.76019
 21
11.10481
 31
0.0
  0
LINE
  5
B4E
330
1D
100
AcDbEntity
  8
0
100
AcDbLine
 10
5.03576
 20
2.75
 30
0.0
 11
7.56594
 21
2.75
 31
0.0
  0
LINE
  5
B4F
330
1D
100
AcDbEntity
  8
0
100
AcDbLine
 10
5.00684
 20
15.4659
 30
0.0
 11
5.50912
 21
15.4659
 31
0.0
  0
LINE
  5
B50
330
1D
100
AcDbEntity
  8
0
100
AcDbLine
 10
5.00684
 20
15.4659
 30
0.0
 11
5.6
 21
15.75
 31
0.0
  0
LINE
  5
B51
330
1D
100
AcDbEntity
  8
0
100
AcDbLine
 10
5.50912
 20
15.4659
 30
0.0
 11
7.01212
 21
15.4659
 31
0.0
  0
LINE
  5
B52
330
1D
100
AcDbEntity
  8
0
100
AcDbLine
 10
5.6
 20
15.75
 30
0.0
 11
6.10002
 21
15.75
 31
0.0
  0
LINE
  5
B53
330
1D
100
AcDbEntity
  8
0
100
AcDbLine
 10
6.10002
 20
15.75
 30
0.0
 11
7.59626
 21
15.75
 31
0.0
  0
LINE
  5
B54
330
1D
100
AcDbEntity
  8
0
100
AcDbLine
 10
12.883
 20
0.25
 30
0.0
 11
12.883
 21
2.75
 31
0.0
  0
LINE
  5
B55
330
1D
100
AcDbEntity
  8
0
100
AcDbLine
 10
12.883
 20
2.75
 30
0.0
 11
12.883
 21
0.25
 31
0.0
  0
LINE
  5
B56
330
1D
100
AcDbEntity
  8
0
100
AcDbLine
 10
11.0812
 20
2.75
 30
0.0
 11
15.5548
 21
2.75
 31
0.0
  0
LINE
  5
B57
330
1D
100
AcDbEntity
  8
0
100
AcDbLine
 10
9.4526
 20
3.21326
 30
0.0
 11
13.9841
 21
3.21326
 31
0.0
  0
LINE
  5
B58
330
1D
100
AcDbEntity
  8
0
100
AcDbLine
 10
12.967
 20
15.4659
 30
0.0
 11
17.3735
 21
15.4659
 31
0.0
  0
LINE
  5
B59
330
1D
100
AcDbEntity
  8
0
100
AcDbLine
 10
9.5044
 20
15.4659
 30
0.0
 11
12.967
 21
15.4659
 31
0.0
  0
LINE
  5
B5A
330
1D
100
AcDbEntity
  8
0
100
AcDbLine
 10
10.0773
 20
15.75
 30
0.0
 11
13.5243
 21
15.75
 31
0.0
  0
LINE
  5
B5B
330
1D
100
AcDbEntity
  8
0
100
AcDbLine
 10
11.1569
 20
20.1833
 30
0.0
 11
11.3288
 21
22.678
 31
0.0
  0
LINE
  5
B5C
330
1D
100
AcDbEntity
  8
0
100
AcDbLine
 10
11.3417
 20
20.1833
 30
0.0
 11
11.5137
 21
22.678
 31
0.0
  0
LINE
  5
B5D
330
1D
100
AcDbEntity
  8
0
100
AcDbLine
 10
17.3353
 20
20.1833
 30
0.0
 11
17.4506
 21
21.8639
 31
0.0
  0
LINE
  5
B5E
330
1D
100
AcDbEntity
  8
0
100
AcDbLine
 10
11.3288
 20
22.678
 30
0.0
 11
11.8403
 21
25.124
 31
0.0
  0
LINE
  5
B5F
330
1D
100
AcDbEntity
  8
0
100
AcDbLine
 10
11.5137
 20
22.678
 30
0.0
 11
12.0262
 21
25.124
 31
0.0
  0
LINE
  5
B60
330
1D
100
AcDbEntity
  8
0
100
AcDbLine
 10
19.4517
 20
3.21326
 30
0.0
 11
25.814
 21
3.21326
 31
0.0
  0
LINE
  5
B61
330
1D
100
AcDbEntity
  8
0
100
AcDbLine
 10
20.9526
 20
2.75
 30
0.0
 11
27.2337
 21
2.75
 31
0.0
  0
LINE
  5
B62
330
1D
100
AcDbEntity
  8
0
100
AcDbLine
 10
27.2337
 20
2.75
 30
0.0
 11
34.3501
 21
2.75
 31
0.0
  0
LINE
  5
B63
330
1D
100
AcDbEntity
  8
0
100
AcDbLine
 10
25.814
 20
3.21326
 30
0.0
 11
33.0225
 21
3.21326
 31
0.0
  0
LINE
  5
B64
330
1D
100
AcDbEntity
  8
0
100
AcDbLine
 10
22.6905
 20
15.4659
 30
0.0
 11
28.8776
 21
15.4659
 31
0.0
  0
LINE
  5
B65
330
1D
100
AcDbEntity
  8
0
100
AcDbLine
 10
25.8182
 20
15.75
 30
0.0
 11
25.8182
 21
20.1833
 31
0.0
  0
LINE
  5
B66
330
1D
100
AcDbEntity
  8
0
100
AcDbLine
 10
26.3522
 20
15.75
 30
0.0
 11
26.3522
 21
20.1833
 31
0.0
  0
LINE
  5
B67
330
1D
100
AcDbEntity
  8
0
100
AcDbLine
 10
23.2043
 20
15.75
 30
0.0
 11
29.3633
 21
15.75
 31
0.0
  0
LINE
  5
B68
330
1D
100
AcDbEntity
  8
0
100
AcDbLine
 10
32.2856
 20
15.75
 30
0.0
 11
32.2856
 21
20.1833
 31
0.0
  0
LINE
  5
B69
330
1D
100
AcDbEntity
  8
0
100
AcDbLine
 10
17.9111
 20
15.75
 30
0.0
 11
23.2043
 21
15.75
 31
0.0
  0
LINE
  5
B6A
330
1D
100
AcDbEntity
  8
0
100
AcDbLine
 10
25.8182
 20
20.1833
 30
0.0
 11
25.9639
 21
22.5973
 31
0.0
  0
LINE
  5
B6B
330
1D
100
AcDbEntity
  8
0
100
AcDbLine
 10
25.8182
 20
20.1833
 30
0.0
 11
25.8182
 21
15.75
 31
0.0
  0
LINE
  5
B6C
330
1D
100
AcDbEntity
  8
0
100
AcDbLine
 10
25.9639
 20
22.5973
 30
0.0
 11
26.3999
 21
24.9644
 31
0.0
  0
LINE
  5
B6D
330
1D
100
AcDbEntity
  8
0
100
AcDbLine
 10
26.3522
 20
20.1833
 30
0.0
 11
26.4988
 21
22.5973
 31
0.0
  0
LINE
  5
B6E
330
1D
100
AcDbEntity
  8
0
100
AcDbLine
 10
26.3522
 20
20.1833
 30
0.0
 11
26.3522
 21
15.75
 31
0.0
  0
LINE
  5
B6F
330
1D
100
AcDbEntity
  8
0
100
AcDbLine
 10
26.4988
 20
22.5973
 30
0.0
 11
26.9346
 21
24.9644
 31
0.0
  0
LINE
  5
B70
330
1D
100
AcDbEntity
  8
0
100
AcDbLine
 10
32.2856
 20
20.1833
 30
0.0
 11
32.3917
 21
21.9445
 31
0.0
  0
LINE
  5
B71
330
1D
100
AcDbEntity
  8
0
100
AcDbLine
 10
32.2856
 20
20.1833
 30
0.0
 11
32.2856
 21
15.75
 31
0.0
  0
LINE
  5
B72
330
1D
100
AcDbEntity
  8
0
100
AcDbLine
 10
32.3917
 20
21.9445
 30
0.0
 11
32.71
 21
23.6706
 31
0.0
  0
LINE
  5
B73
330
1D
100
AcDbEntity
  8
0
100
AcDbLine
 10
50.8663
 20
2.75
 30
0.0
 11
60.1406
 21
2.75
 31
0.0
  0
LINE
  5
B74
330
1D
100
AcDbEntity
  8
0
100
AcDbLine
 10
49.7523
 20
3.21326
 30
0.0
 11
59.1466
 21
3.21326
 31
0.0
  0
LINE
  5
B75
330
1D
100
AcDbEntity
  8
0
100
AcDbLine
 10
52.1568
 20
15.4659
 30
0.0
 11
61.2918
 21
15.4659
 31
0.0
  0
LINE
  5
B76
330
1D
100
AcDbEntity
  8
0
100
AcDbLine
 10
52.538
 20
15.75
 30
0.0
 11
61.6323
 21
15.75
 31
0.0
  0
LINE
  5
B77
330
1D
100
AcDbEntity
  8
0
100
AcDbLine
 10
42.2475
 20
2.75
 30
0.0
 11
50.8663
 21
2.75
 31
0.0
  0
LINE
  5
B78
330
1D
100
AcDbEntity
  8
0
100
AcDbLine
 10
41.022
 20
3.21326
 30
0.0
 11
49.7523
 21
3.21326
 31
0.0
  0
LINE
  5
B79
330
1D
100
AcDbEntity
  8
0
100
AcDbLine
 10
35.8872
 20
15.4659
 30
0.0
 11
43.6666
 21
15.4659
 31
0.0
  0
LINE
  5
B7A
330
1D
100
AcDbEntity
  8
0
100
AcDbLine
 10
43.6666
 20
15.4659
 30
0.0
 11
52.1568
 21
15.4659
 31
0.0
  0
LINE
  5
B7B
330
1D
100
AcDbEntity
  8
0
100
AcDbLine
 10
36.3416
 20
15.75
 30
0.0
 11
44.086
 21
15.75
 31
0.0
  0
LINE
  5
B7C
330
1D
100
AcDbEntity
  8
0
100
AcDbLine
 10
44.086
 20
15.75
 30
0.0
 11
52.538
 21
15.75
 31
0.0
  0
LINE
  5
B7D
330
1D
100
AcDbEntity
  8
0
100
AcDbLine
 10
60.1406
 20
2.75
 30
0.0
 11
70.0
 21
2.75
 31
0.0
  0
LINE
  5
B7E
330
1D
100
AcDbEntity
  8
0
100
AcDbLine
 10
59.1466
 20
3.21326
 30
0.0
 11
69.1334
 21
3.21326
 31
0.0
  0
LINE
  5
B7F
330
1D
100
AcDbEntity
  8
0
100
AcDbLine
 10
54.3465
 20
15.75
 30
0.0
 11
54.3465
 21
20.1833
 31
0.0
  0
LINE
  5
B80
330
1D
100
AcDbEntity
  8
0
100
AcDbLine
 10
60.2279
 20
15.75
 30
0.0
 11
60.2279
 21
20.1833
 31
0.0
  0
LINE
  5
B81
330
1D
100
AcDbEntity
  8
0
100
AcDbLine
 10
53.528
 20
15.75
 30
0.0
 11
53.528
 21
20.1833
 31
0.0
  0
LINE
  5
B82
330
1D
100
AcDbEntity
  8
0
100
AcDbLine
 10
54.3465
 20
20.1833
 30
0.0
 11
54.4553
 21
22.5973
 31
0.0
  0
LINE
  5
B83
330
1D
100
AcDbEntity
  8
0
100
AcDbLine
 10
54.3465
 20
20.1833
 30
0.0
 11
54.3465
 21
15.75
 31
0.0
  0
LINE
  5
B84
330
1D
100
AcDbEntity
  8
0
100
AcDbLine
 10
60.2279
 20
20.1833
 30
0.0
 11
60.3067
 21
21.9445
 31
0.0
  0
LINE
  5
B85
330
1D
100
AcDbEntity
  8
0
100
AcDbLine
 10
60.2279
 20
20.1833
 30
0.0
 11
60.2279
 21
15.75
 31
0.0
  0
LINE
  5
B86
330
1D
100
AcDbEntity
  8
0
100
AcDbLine
 10
60.3067
 20
21.9445
 30
0.0
 11
60.5431
 21
23.6706
 31
0.0
  0
LINE
  5
B87
330
1D
100
AcDbEntity
  8
0
100
AcDbLine
 10
53.528
 20
20.1833
 30
0.0
 11
53.6363
 21
22.5973
 31
0.0
  0
LINE
  5
B88
330
1D
100
AcDbEntity
  8
0
100
AcDbLine
 10
53.528
 20
20.1833
 30
0.0
 11
53.528
 21
15.75
 31
0.0
  0
LINE
  5
B89
330
1D
100
AcDbEntity
  8
0
100
AcDbLine
 10
54.4553
 20
22.5973
 30
0.0
 11
54.7788
 21
24.9644
 31
0.0
  0
LINE
  5
B8A
330
1D
100
AcDbEntity
  8
0
100
AcDbLine
 10
53.6363
 20
22.5973
 30
0.0
 11
53.9599
 21
24.9644
 31
0.0
  0
LINE
  5
B8B
330
1D
100
AcDbEntity
  8
0
100
AcDbLine
 10
91.0969
 20
24.6768
 30
0.0
 11
97.639141309184
 21
91.385897930699
 31
0.0
  0
LINE
  5
B8C
330
1D
100
AcDbEntity
  8
0
100
AcDbLine
 10
105.28
 20
74.5375
 30
0.0
 11
108.805
 21
70.2875
 31
0.0
  0
LINE
  5
B8D
330
1D
100
AcDbEntity
  8
0
100
AcDbLine
 10
102.318
 20
2.75
 30
0.0
 11
113.731
 21
2.75
 31
0.0
  0
LINE
  5
B8E
330
1D
100
AcDbEntity
  8
0
100
AcDbLine
 10
101.87
 20
3.21326
 30
0.0
 11
113.43
 21
3.21326
 31
0.0
  0
LINE
  5
B8F
330
1D
100
AcDbEntity
  8
0
100
AcDbLine
 10
102.838
 20
15.4659
 30
0.0
 11
114.08
 21
15.4659
 31
0.0
  0
LINE
  5
B90
330
1D
100
AcDbEntity
  8
0
100
AcDbLine
 10
102.991
 20
15.75
 30
0.0
 11
114.183
 21
15.75
 31
0.0
  0
LINE
  5
B91
330
1D
100
AcDbEntity
  8
0
100
AcDbLine
 10
79.6365
 20
3.21326
 30
0.0
 11
90.5765
 21
3.21326
 31
0.0
  0
LINE
  5
B92
330
1D
100
AcDbEntity
  8
0
100
AcDbLine
 10
87.0315
 20
2.75
 30
0.0
 11
90.2715
 21
2.75
 31
0.0
  0
LINE
  5
B93
330
1D
100
AcDbEntity
  8
0
100
AcDbLine
 10
80.369
 20
2.75
 30
0.0
 11
91.1692
 21
2.75
 31
0.0
  0
LINE
  5
B94
330
1D
100
AcDbEntity
  8
0
100
AcDbLine
 10
81.2176
 20
15.4659
 30
0.0
 11
91.8556
 21
15.4659
 31
0.0
  0
LINE
  5
B95
330
1D
100
AcDbEntity
  8
0
100
AcDbLine
 10
81.4683
 20
15.75
 30
0.0
 11
92.0588
 21
15.75
 31
0.0
  0
LINE
  5
B96
330
1D
100
AcDbEntity
  8
0
100
AcDbLine
 10
79.6786
 20
2.75
 30
0.0
 11
80.369
 21
2.75
 31
0.0
  0
LINE
  5
B97
330
1D
100
AcDbEntity
  8
0
100
AcDbLine
 10
71.0038
 20
15.4659
 30
0.0
 11
81.2176
 21
15.4659
 31
0.0
  0
LINE
  5
B98
330
1D
100
AcDbEntity
  8
0
100
AcDbLine
 10
86.0918
 20
2.75
 30
0.0
 11
87.0315
 21
2.75
 31
0.0
  0
LINE
  5
B99
330
1D
100
AcDbEntity
  8
0
100
AcDbLine
 10
71.2998
 20
15.75
 30
0.0
 11
81.4683
 21
15.75
 31
0.0
  0
LINE
  5
B9A
330
1D
100
AcDbEntity
  8
0
100
AcDbLine
 10
93.8665
 20
2.75
 30
0.0
 11
96.2104
 21
2.75
 31
0.0
  0
LINE
  5
B9B
330
1D
100
AcDbEntity
  8
0
100
AcDbLine
 10
99.5748
 20
2.75
 30
0.0
 11
99.733
 21
2.75
 31
0.0
  0
LINE
  5
B9C
330
1D
100
AcDbEntity
  8
0
100
AcDbLine
 10
91.1692
 20
2.75
 30
0.0
 11
102.318
 21
2.75
 31
0.0
  0
LINE
  5
B9D
330
1D
100
AcDbEntity
  8
0
100
AcDbLine
 10
90.5765
 20
3.21326
 30
0.0
 11
101.87
 21
3.21326
 31
0.0
  0
LINE
  5
B9E
330
1D
100
AcDbEntity
  8
0
100
AcDbLine
 10
91.8556
 20
15.4659
 30
0.0
 11
102.838
 21
15.4659
 31
0.0
  0
LINE
  5
B9F
330
1D
100
AcDbEntity
  8
0
100
AcDbLine
 10
91.885
 20
15.75
 30
0.0
 11
91.885
 21
20.1833
 31
0.0
  0
LINE
  5
BA0
330
1D
100
AcDbEntity
  8
0
100
AcDbLine
 10
90.8805
 20
15.75
 30
0.0
 11
90.8805
 21
20.1833
 31
0.0
  0
LINE
  5
BA1
330
1D
100
AcDbEntity
  8
0
100
AcDbLine
 10
97.855
 20
15.75
 30
0.0
 11
97.855
 21
20.1833
 31
0.0
  0
LINE
  5
BA2
330
1D
100
AcDbEntity
  8
0
100
AcDbLine
 10
92.0588
 20
15.75
 30
0.0
 11
102.991
 21
15.75
 31
0.0
  0
LINE
  5
BA3
330
1D
100
AcDbEntity
  8
0
100
AcDbLine
 10
91.885
 20
20.1833
 30
0.0
 11
91.939
 21
22.452
 31
0.0
  0
LINE
  5
BA4
330
1D
100
AcDbEntity
  8
0
100
AcDbLine
 10
91.885
 20
20.1833
 30
0.0
 11
91.885
 21
15.75
 31
0.0
  0
LINE
  5
BA5
330
1D
100
AcDbEntity
  8
0
100
AcDbLine
 10
97.855
 20
20.1833
 30
0.0
 11
97.901
 21
22.0897
 31
0.0
  0
LINE
  5
BA6
330
1D
100
AcDbEntity
  8
0
100
AcDbLine
 10
97.855
 20
20.1833
 30
0.0
 11
97.855
 21
15.75
 31
0.0
  0
LINE
  5
BA7
330
1D
100
AcDbEntity
  8
0
100
AcDbLine
 10
90.8805
 20
20.1833
 30
0.0
 11
90.935
 21
22.452
 31
0.0
  0
LINE
  5
BA8
330
1D
100
AcDbEntity
  8
0
100
AcDbLine
 10
90.8805
 20
20.1833
 30
0.0
 11
90.8805
 21
15.75
 31
0.0
  0
LINE
  5
BA9
330
1D
100
AcDbEntity
  8
0
100
AcDbLine
 10
91.939
 20
22.452
 30
0.0
 11
92.101
 21
24.6767
 31
0.0
  0
LINE
  5
BAA
330
1D
100
AcDbEntity
  8
0
100
AcDbLine
 10
97.901
 20
22.0897
 30
0.0
 11
98.037
 21
23.9596
 31
0.0
  0
LINE
  5
BAB
330
1D
100
AcDbEntity
  8
0
100
AcDbLine
 10
90.935
 20
22.452
 30
0.0
 11
91.0969
 21
24.6768
 31
0.0
  0
LINE
  5
BAC
330
1D
100
AcDbEntity
  8
0
100
AcDbLine
 10
133.466
 20
58.1103432282
 30
0.0
 11
133.466
 21
24.3182
 31
0.0
  0
LINE
  5
BAD
330
1D
100
AcDbEntity
  8
0
100
AcDbLine
 10
133.466
 20
24.3182
 30
0.0
 11
133.466
 21
58.1103432282
 31
0.0
  0
LINE
  5
BAE
330
1D
100
AcDbEntity
  8
0
100
AcDbLine
 10
113.731
 20
2.75
 30
0.0
 11
125.321
 21
2.75
 31
0.0
  0
LINE
  5
BAF
330
1D
100
AcDbEntity
  8
0
100
AcDbLine
 10
113.43
 20
3.21326
 30
0.0
 11
125.17
 21
3.21326
 31
0.0
  0
LINE
  5
BB0
330
1D
100
AcDbEntity
  8
0
100
AcDbLine
 10
114.08
 20
15.4659
 30
0.0
 11
125.496
 21
15.4659
 31
0.0
  0
LINE
  5
BB1
330
1D
100
AcDbEntity
  8
0
100
AcDbLine
 10
114.183
 20
15.75
 30
0.0
 11
125.548
 21
15.75
 31
0.0
  0
LINE
  5
BB2
330
1D
100
AcDbEntity
  8
0
100
AcDbLine
 10
134.534
 20
15.75
 30
0.0
 11
134.534
 21
20.1833
 31
0.0
  0
LINE
  5
BB3
330
1D
100
AcDbEntity
  8
0
100
AcDbLine
 10
133.466
 20
15.75
 30
0.0
 11
133.466
 21
20.1833
 31
0.0
  0
LINE
  5
BB4
330
1D
100
AcDbEntity
  8
0
100
AcDbLine
 10
140.534
 20
15.75
 30
0.0
 11
140.534
 21
20.1833
 31
0.0
  0
LINE
  5
BB5
330
1D
100
AcDbEntity
  8
0
100
AcDbLine
 10
133.466
 20
20.1833
 30
0.0
 11
133.466
 21
15.75
 31
0.0
  0
LINE
  5
BB6
330
1D
100
AcDbEntity
  8
0
100
AcDbLine
 10
134.534
 20
20.1833
 30
0.0
 11
134.534
 21
15.75
 31
0.0
  0
LINE
  5
BB7
330
1D
100
AcDbEntity
  8
0
100
AcDbLine
 10
140.534
 20
20.1833
 30
0.0
 11
140.534
 21
15.75
 31
0.0
  0
LINE
  5
BB8
330
1D
100
AcDbEntity
  8
0
100
AcDbLine
 10
132.25
 20
2.75
 30
0.0
 11
134.595
 21
2.75
 31
0.0
  0
LINE
  5
BB9
330
1D
100
AcDbEntity
  8
0
100
AcDbLine
 10
127.877
 20
2.75
 30
0.0
 11
129.25
 21
2.75
 31
0.0
  0
LINE
  5
BBA
330
1D
100
AcDbEntity
  8
0
100
AcDbLine
 10
125.321
 20
2.75
 30
0.0
 11
137.0
 21
2.75
 31
0.0
  0
LINE
  5
BBB
330
1D
100
AcDbEntity
  8
0
100
AcDbLine
 10
125.17
 20
3.21326
 30
0.0
 11
137.0
 21
3.21326
 31
0.0
  0
LINE
  5
BBC
330
1D
100
AcDbEntity
  8
0
100
AcDbLine
 10
125.496
 20
15.4659
 30
0.0
 11
137.0
 21
15.4659
 31
0.0
  0
LINE
  5
BBD
330
1D
100
AcDbEntity
  8
0
100
AcDbLine
 10
125.548
 20
15.75
 30
0.0
 11
137.0
 21
15.75
 31
0.0
  0
LINE
  5
BBE
330
1D
100
AcDbEntity
  8
0
100
AcDbLine
 10
125.548
 20
15.75
 30
0.0
 11
133.466
 21
15.75
 31
0.0
  0
LINE
  5
BBF
330
1D
100
AcDbEntity
  8
0
100
AcDbLine
 10
133.466
 20
20.1833
 30
0.0
 11
133.466
 21
22.2709
 31
0.0
  0
LINE
  5
BC0
330
1D
100
AcDbEntity
  8
0
100
AcDbLine
 10
133.466
 20
22.2709
 30
0.0
 11
133.466
 21
20.1833
 31
0.0
  0
LINE
  5
BC1
330
1D
100
AcDbEntity
  8
0
100
AcDbLine
 10
133.466
 20
22.2709
 30
0.0
 11
133.466
 21
24.3182
 31
0.0
  0
LINE
  5
BC2
330
1D
100
AcDbEntity
  8
0
100
AcDbLine
 10
133.466
 20
24.3182
 30
0.0
 11
133.466
 21
22.2709
 31
0.0
  0
LINE
  5
BC3
330
1D
100
AcDbEntity
  8
0
100
AcDbLine
 10
134.534
 20
20.1833
 30
0.0
 11
134.534
 21
22.271
 31
0.0
  0
LINE
  5
BC4
330
1D
100
AcDbEntity
  8
0
100
AcDbLine
 10
134.534
 20
22.271
 30
0.0
 11
134.535
 21
24.3179
 31
0.0
  0
LINE
  5
BC5
330
1D
100
AcDbEntity
  8
0
100
AcDbLine
 10
134.534
 20
22.271
 30
0.0
 11
134.534
 21
20.1833
 31
0.0
  0
LINE
  5
BC6
330
1D
100
AcDbEntity
  8
0
100
AcDbLine
 10
140.534
 20
20.1833
 30
0.0
 11
140.534
 21
22.2709
 31
0.0
  0
LINE
  5
BC7
330
1D
100
AcDbEntity
  8
0
100
AcDbLine
 10
140.534
 20
22.2709
 30
0.0
 11
140.534
 21
20.1833
 31
0.0
  0
LINE
  5
BC8
330
1D
100
AcDbEntity
  8
0
100
AcDbLine
 10
140.534
 20
22.2709
 30
0.0
 11
140.534
 21
24.3182
 31
0.0
  0
LINE
  5
BC9
330
1D
100
AcDbEntity
  8
0
100
AcDbLine
 10
140.534
 20
24.3182
 30
0.0
 11
140.534
 21
22.2709
 31
0.0
  0
LINE
  5
BCA
330
1D
100
AcDbEntity
  8
0
100
AcDbLine
 10
108.805
 20
70.2875
 30
0.0
 11
112.951
 21
66.675
 31
0.0
  0
LINE
  5
BCB
330
1D
100
AcDbEntity
  8
0
100
AcDbLine
 10
112.951
 20
66.675
 30
0.0
 11
117.512
 21
63.4875
 31
0.0
  0
LINE
  5
BCC
330
1D
100
AcDbEntity
  8
0
100
AcDbLine
 10
117.512
 20
63.4875
 30
0.0
 11
122.28
 21
61.15
 31
0.0
  0
LINE
  5
BCD
330
1D
100
AcDbEntity
  8
0
100
AcDbLine
 10
122.28
 20
61.15
 30
0.0
 11
127.463
 21
59.2375
 31
0.0
  0
LINE
  5
BCE
330
1D
100
AcDbEntity
  8
0
100
AcDbLine
 10
127.463
 20
59.2375
 30
0.0
 11
132.646
 21
58.175
 31
0.0
  0
LINE
  5
BCF
330
1D
100
AcDbEntity
  8
0
100
AcDbLine
 10
132.646
 20
58.175
 30
0.0
 11
134.534785298418
 21
58.026069804856
 31
0.0
  0
LINE
  5
BD0
330
1D
100
AcDbEntity
  8
0
100
AcDbLine
 10
96.5732
 20
100.25
 30
0.0
 11
96.9878
 21
105.775
 31
0.0
  0
LINE
  5
BD1
330
1D
100
AcDbEntity
  8
0
100
AcDbLine
 10
96.9878
 20
105.775
 30
0.0
 11
98.0244
 21
111.088
 31
0.0
  0
LINE
  5
BD2
330
1D
100
AcDbEntity
  8
0
100
AcDbLine
 10
96.573
 20
100.25
 30
0.0
 11
96.9876
 21
94.725
 31
0.0
  0
LINE
  5
BD3
330
1D
100
AcDbEntity
  8
0
100
AcDbLine
 10
96.9876
 20
94.725
 30
0.0
 11
98.0242
 21
89.4125
 31
0.0
  0
LINE
  5
BD4
330
1D
100
AcDbEntity
  8
0
100
AcDbLine
 10
98.0244
 20
111.088
 30
0.0
 11
99.8902
 21
116.4
 31
0.0
  0
LINE
  5
BD5
330
1D
100
AcDbEntity
  8
0
100
AcDbLine
 10
99.8902
 20
116.4
 30
0.0
 11
101.417228523497
 21
119.671917044163
 31
0.0
  0
LINE
  5
BD6
330
1D
100
AcDbEntity
  8
0
100
AcDbLine
 10
98.0242
 20
89.4125
 30
0.0
 11
98.356802532575
 21
88.465530197598
 31
0.0
  0
LINE
  5
BD7
330
1D
100
AcDbEntity
  8
0
100
AcDbLine
 10
103.29057428601
 20
77.528997334481
 30
0.0
 11
105.28
 21
74.5375
 31
0.0
  0
LINE
  5
BD8
330
1D
100
AcDbEntity
  8
0
100
AcDbLine
 10
108.410580684367
 20
129.736435961373
 30
0.0
 11
108.805
 21
130.212
 31
0.0
  0
LINE
  5
BD9
330
1D
100
AcDbEntity
  8
0
100
AcDbLine
 10
108.805
 20
130.212
 30
0.0
 11
112.951
 21
133.825
 31
0.0
  0
LINE
  5
BDA
330
1D
100
AcDbEntity
  8
0
100
AcDbLine
 10
112.951
 20
133.825
 30
0.0
 11
117.512
 21
137.012
 31
0.0
  0
LINE
  5
BDB
330
1D
100
AcDbEntity
  8
0
100
AcDbLine
 10
119.5
 20
137.946072347267
 30
0.0
 11
119.5
 21
138.75
 31
0.0
  0
LINE
  5
BDC
330
1D
100
AcDbEntity
  8
0
100
AcDbLine
 10
119.5
 20
138.75
 30
0.0
 11
119.5
 21
137.946072347267
 31
0.0
  0
LINE
  5
BDD
330
1D
100
AcDbEntity
  8
0
100
AcDbLine
 10
117.512
 20
137.012
 30
0.0
 11
119.605
 21
138.038092262529
 31
0.0
  0
LINE
  5
BDE
330
1D
100
AcDbEntity
  8
0
100
AcDbLine
 10
119.613
 20
138.75
 30
0.0
 11
121.411
 21
138.75
 31
0.0
  0
LINE
  5
BDF
330
1D
100
AcDbEntity
  8
0
100
AcDbLine
 10
121.411
 20
138.75
 30
0.0
 11
124.272
 21
138.75
 31
0.0
  0
LINE
  5
BE0
330
1D
100
AcDbEntity
  8
0
100
AcDbLine
 10
124.272
 20
138.75
 30
0.0
 11
128.0
 21
138.75
 31
0.0
  0
LINE
  5
BE1
330
1D
100
AcDbEntity
  8
0
100
AcDbLine
 10
118.647
 20
139.75
 30
0.0
 11
120.546
 21
139.75
 31
0.0
  0
LINE
  5
BE2
330
1D
100
AcDbEntity
  8
0
100
AcDbLine
 10
120.546
 20
139.75
 30
0.0
 11
123.565
 21
139.75
 31
0.0
  0
LINE
  5
BE3
330
1D
100
AcDbEntity
  8
0
100
AcDbLine
 10
123.565
 20
139.75
 30
0.0
 11
127.5
 21
139.75
 31
0.0
  0
LINE
  5
BE4
330
1D
100
AcDbEntity
  8
0
100
AcDbLine
 10
118.0
 20
139.75
 30
0.0
 11
119.0
 21
138.75
 31
0.0
  0
LINE
  5
BE5
330
1D
100
AcDbEntity
  8
0
100
AcDbLine
 10
118.0
 20
139.75
 30
0.0
 11
118.647
 21
139.75
 31
0.0
  0
LINE
  5
BE6
330
1D
100
AcDbEntity
  8
0
100
AcDbLine
 10
119.0
 20
138.75
 30
0.0
 11
119.613
 21
138.75
 31
0.0
  0
LINE
  5
BE7
330
1D
100
AcDbEntity
  8
0
100
AcDbLine
 10
119.0
 20
138.75
 30
0.0
 11
119.5
 21
138.75
 31
0.0
  0
LINE
  5
BE8
330
1D
100
AcDbEntity
  8
0
100
AcDbLine
 10
128.0
 20
138.75
 30
0.0
 11
132.341
 21
138.75
 31
0.0
  0
LINE
  5
BE9
330
1D
100
AcDbEntity
  8
0
100
AcDbLine
 10
127.5
 20
139.75
 30
0.0
 11
132.082
 21
139.75
 31
0.0
  0
LINE
  5
BEA
330
1D
100
AcDbEntity
  8
0
100
AcDbLine
 10
132.341
 20
138.75
 30
0.0
 11
134.534271133585
 21
138.75
 31
0.0
  0
LINE
  5
BEB
330
1D
100
AcDbEntity
  8
0
100
AcDbLine
 10
132.082
 20
139.75
 30
0.0
 11
134.534264764163
 21
139.75
 31
0.0
  0
LINE
  5
BEC
330
1D
100
AcDbEntity
  8
0
100
AcDbLine
 10
69.9052
 20
194.804
 30
0.0
 11
73.1446
 21
195.108
 31
0.0
  0
LINE
  5
BED
330
1D
100
AcDbEntity
  8
0
100
AcDbLine
 10
70.0914
 20
194.804
 30
0.0
 11
73.3294
 21
195.108
 31
0.0
  0
LINE
  5
BEE
330
1D
100
AcDbEntity
  8
0
100
AcDbLine
 10
70.5187
 20
190.444
 30
0.0
 11
72.8032
 21
192.432
 31
0.0
  0
LINE
  5
BEF
330
1D
100
AcDbEntity
  8
0
100
AcDbLine
 10
66.777
 20
193.902
 30
0.0
 11
69.9052
 21
194.804
 31
0.0
  0
LINE
  5
BF0
330
1D
100
AcDbEntity
  8
0
100
AcDbLine
 10
66.9628
 20
193.902
 30
0.0
 11
70.0914
 21
194.804
 31
0.0
  0
LINE
  5
BF1
330
1D
100
AcDbEntity
  8
0
100
AcDbLine
 10
61.2675
 20
190.444
 30
0.0
 11
63.8645
 21
192.432
 31
0.0
  0
LINE
  5
BF2
330
1D
100
AcDbEntity
  8
0
100
AcDbLine
 10
61.4527
 20
190.444
 30
0.0
 11
64.0506
 21
192.432
 31
0.0
  0
LINE
  5
BF3
330
1D
100
AcDbEntity
  8
0
100
AcDbLine
 10
56.1753
 20
182.124
 30
0.0
 11
57.3564
 21
185.201
 31
0.0
  0
LINE
  5
BF4
330
1D
100
AcDbEntity
  8
0
100
AcDbLine
 10
56.3611
 20
182.124
 30
0.0
 11
57.5421
 21
185.201
 31
0.0
  0
LINE
  5
BF5
330
1D
100
AcDbEntity
  8
0
100
AcDbLine
 10
57.3564
 20
185.201
 30
0.0
 11
59.073
 21
188.006
 31
0.0
  0
LINE
  5
BF6
330
1D
100
AcDbEntity
  8
0
100
AcDbLine
 10
57.5421
 20
185.201
 30
0.0
 11
59.2591
 21
188.006
 31
0.0
  0
LINE
  5
BF7
330
1D
100
AcDbEntity
  8
0
100
AcDbLine
 10
59.073
 20
188.006
 30
0.0
 11
61.2675
 21
190.444
 31
0.0
  0
LINE
  5
BF8
330
1D
100
AcDbEntity
  8
0
100
AcDbLine
 10
59.2591
 20
188.006
 30
0.0
 11
61.4527
 21
190.444
 31
0.0
  0
LINE
  5
BF9
330
1D
100
AcDbEntity
  8
0
100
AcDbLine
 10
62.1304
 20
180.512
 30
0.0
 11
62.9257
 21
182.585
 31
0.0
  0
LINE
  5
BFA
330
1D
100
AcDbEntity
  8
0
100
AcDbLine
 10
65.3884
 20
181.965
 30
0.0
 11
66.3919
 21
184.942
 31
0.0
  0
LINE
  5
BFB
330
1D
100
AcDbEntity
  8
0
100
AcDbLine
 10
62.9257
 20
182.585
 30
0.0
 11
64.0819
 21
184.474
 31
0.0
  0
LINE
  5
BFC
330
1D
100
AcDbEntity
  8
0
100
AcDbLine
 10
65.9219
 20
181.964
 30
0.0
 11
66.9266
 21
184.942
 31
0.0
  0
LINE
  5
BFD
330
1D
100
AcDbEntity
  8
0
100
AcDbLine
 10
66.3919
 20
184.942
 30
0.0
 11
67.8528
 21
187.656
 31
0.0
  0
LINE
  5
BFE
330
1D
100
AcDbEntity
  8
0
100
AcDbLine
 10
64.0819
 20
184.474
 30
0.0
 11
65.5604
 21
186.117
 31
0.0
  0
LINE
  5
BFF
330
1D
100
AcDbEntity
  8
0
100
AcDbLine
 10
67.8528
 20
187.656
 30
0.0
 11
67.912758028421
 21
187.759887673006
 31
0.0
  0
LINE
  5
C00
330
1D
100
AcDbEntity
  8
0
100
AcDbLine
 10
67.3106
 20
187.456
 30
0.0
 11
68.715511065181
 21
188.165008489845
 31
0.0
  0
LINE
  5
C01
330
1D
100
AcDbEntity
  8
0
100
AcDbLine
 10
65.5604
 20
186.117
 30
0.0
 11
67.3106
 21
187.456
 31
0.0
  0
LINE
  5
C02
330
1D
100
AcDbEntity
  8
0
100
AcDbLine
 10
63.8645
 20
192.432
 30
0.0
 11
66.777
 21
193.902
 31
0.0
  0
LINE
  5
C03
330
1D
100
AcDbEntity
  8
0
100
AcDbLine
 10
64.0506
 20
192.432
 30
0.0
 11
66.9628
 21
193.902
 31
0.0
  0
LINE
  5
C04
330
1D
100
AcDbEntity
  8
0
100
AcDbLine
 10
68.3875
 20
187.656
 30
0.0
 11
68.5897
 21
188.006
 31
0.0
  0
LINE
  5
C05
330
1D
100
AcDbEntity
  8
0
100
AcDbLine
 10
68.5897
 20
188.006
 30
0.0
 11
70.5187
 21
190.444
 31
0.0
  0
LINE
  5
C06
330
1D
100
AcDbEntity
  8
0
100
AcDbLine
 10
66.9266
 20
184.942
 30
0.0
 11
68.3875
 21
187.656
 31
0.0
  0
LINE
  5
C07
330
1D
100
AcDbEntity
  8
0
100
AcDbLine
 10
98.0968
 20
187.322
 30
0.0
 11
108.170233280569
 21
185.883383946001
 31
0.0
  0
LINE
  5
C08
330
1D
100
AcDbEntity
  8
0
100
AcDbLine
 10
98.0968
 20
187.322
 30
0.0
 11
108.17023328057
 21
185.883383946001
 31
0.0
  0
LINE
  5
C09
330
1D
100
AcDbEntity
  8
0
100
AcDbLine
 10
102.359
 20
188.25
 30
0.0
 11
108.716
 21
188.25
 31
0.0
  0
LINE
  5
C0A
330
1D
100
AcDbEntity
  8
0
100
AcDbLine
 10
96.3782
 20
195.108
 30
0.0
 11
114.77
 21
195.108
 31
0.0
  0
LINE
  5
C0B
330
1D
100
AcDbEntity
  8
0
100
AcDbLine
 10
96.3782
 20
189.258
 30
0.0
 11
109.113803097345
 21
189.258
 31
0.0
  0
LINE
  5
C0C
330
1D
100
AcDbEntity
  8
0
100
AcDbLine
 10
102.359
 20
196.25
 30
0.0
 11
108.716
 21
196.25
 31
0.0
  0
LINE
  5
C0D
330
1D
100
AcDbEntity
  8
0
100
AcDbLine
 10
100.0
 20
197.25
 30
0.0
 11
120.0
 21
200.25
 31
0.0
  0
LINE
  5
C0E
330
1D
100
AcDbEntity
  8
0
100
AcDbLine
 10
103.312
 20
197.25
 30
0.0
 11
109.493
 21
197.25
 31
0.0
  0
LINE
  5
C0F
330
1D
100
AcDbEntity
  8
0
100
AcDbLine
 10
86.9326
 20
190.016
 30
0.0
 11
88.5722
 21
191.939
 31
0.0
  0
LINE
  5
C10
330
1D
100
AcDbEntity
  8
0
100
AcDbLine
 10
81.6309
 20
195.108
 30
0.0
 11
95.3548
 21
195.108
 31
0.0
  0
LINE
  5
C11
330
1D
100
AcDbEntity
  8
0
100
AcDbLine
 10
75.364
 20
193.902
 30
0.0
 11
78.1154
 21
194.804
 31
0.0
  0
LINE
  5
C12
330
1D
100
AcDbEntity
  8
0
100
AcDbLine
 10
83.716
 20
181.964
 30
0.0
 11
84.4619
 21
184.942
 31
0.0
  0
LINE
  5
C13
330
1D
100
AcDbEntity
  8
0
100
AcDbLine
 10
82.8982
 20
181.965
 30
0.0
 11
83.6428
 21
184.942
 31
0.0
  0
LINE
  5
C14
330
1D
100
AcDbEntity
  8
0
100
AcDbLine
 10
71.6973
 20
180.671
 30
0.0
 11
72.4303
 21
182.844
 31
0.0
  0
LINE
  5
C15
330
1D
100
AcDbEntity
  8
0
100
AcDbLine
 10
72.8032
 20
192.432
 30
0.0
 11
75.364
 21
193.902
 31
0.0
  0
LINE
  5
C16
330
1D
100
AcDbEntity
  8
0
100
AcDbLine
 10
84.4619
 20
184.942
 30
0.0
 11
85.5462
 21
187.656
 31
0.0
  0
LINE
  5
C17
330
1D
100
AcDbEntity
  8
0
100
AcDbLine
 10
83.6428
 20
184.942
 30
0.0
 11
84.7274
 21
187.656
 31
0.0
  0
LINE
  5
C18
330
1D
100
AcDbEntity
  8
0
100
AcDbLine
 10
85.5462
 20
187.656
 30
0.0
 11
86.9326
 21
190.016
 31
0.0
  0
LINE
  5
C19
330
1D
100
AcDbEntity
  8
0
100
AcDbLine
 10
84.7274
 20
187.656
 30
0.0
 11
85.667964067797
 21
189.258
 31
0.0
  0
LINE
  5
C1A
330
1D
100
AcDbEntity
  8
0
100
AcDbLine
 10
77.8586
 20
188.446
 30
0.0
 11
79.712
 21
189.054
 31
0.0
  0
LINE
  5
C1B
330
1D
100
AcDbEntity
  8
0
100
AcDbLine
 10
81.6309
 20
189.258
 30
0.0
 11
86.487307118644
 21
189.258
 31
0.0
  0
LINE
  5
C1C
330
1D
100
AcDbEntity
  8
0
100
AcDbLine
 10
79.712
 20
189.054
 30
0.0
 11
81.6309
 21
189.258
 31
0.0
  0
LINE
  5
C1D
330
1D
100
AcDbEntity
  8
0
100
AcDbLine
 10
76.1336
 20
187.456
 30
0.0
 11
77.8586
 21
188.446
 31
0.0
  0
LINE
  5
C1E
330
1D
100
AcDbEntity
  8
0
100
AcDbLine
 10
74.5944
 20
186.117
 30
0.0
 11
76.1336
 21
187.456
 31
0.0
  0
LINE
  5
C1F
330
1D
100
AcDbEntity
  8
0
100
AcDbLine
 10
73.335474114889
 20
184.525911362126
 30
0.0
 11
74.5944
 21
186.117
 31
0.0
  0
LINE
  5
C20
330
1D
100
AcDbEntity
  8
0
100
AcDbLine
 10
72.4303
 20
182.844
 30
0.0
 11
73.33547411489
 21
184.525911362127
 31
0.0
  0
LINE
  5
C21
330
1D
100
AcDbEntity
  8
0
100
AcDbLine
 10
73.1446
 20
195.108
 30
0.0
 11
73.3294
 21
195.108
 31
0.0
  0
LINE
  5
C22
330
1D
100
AcDbEntity
  8
0
100
AcDbLine
 10
73.1446
 20
195.108
 30
0.0
 11
73.3294
 21
195.108
 31
0.0
  0
LINE
  5
C23
330
1D
100
AcDbEntity
  8
0
100
AcDbLine
 10
73.3294
 20
195.108
 30
0.0
 11
73.562
 21
195.108
 31
0.0
  0
LINE
  5
C24
330
1D
100
AcDbEntity
  8
0
100
AcDbLine
 10
73.562
 20
195.108
 30
0.0
 11
80.9626
 21
195.108
 31
0.0
  0
LINE
  5
C25
330
1D
100
AcDbEntity
  8
0
100
AcDbLine
 10
73.562
 20
195.108
 30
0.0
 11
80.9626
 21
195.108
 31
0.0
  0
LINE
  5
C26
330
1D
100
AcDbEntity
  8
0
100
AcDbLine
 10
80.9626
 20
195.108
 30
0.0
 11
81.6309
 21
195.108
 31
0.0
  0
LINE
  5
C27
330
1D
100
AcDbEntity
  8
0
100
AcDbLine
 10
78.1154
 20
194.804
 30
0.0
 11
80.9626
 21
195.108
 31
0.0
  0
LINE
  5
C28
330
1D
100
AcDbEntity
  8
0
100
AcDbLine
 10
91.1994
 20
193.902
 30
0.0
 11
93.2417
 21
194.804
 31
0.0
  0
LINE
  5
C29
330
1D
100
AcDbEntity
  8
0
100
AcDbLine
 10
89.4803
 20
180.671
 30
0.0
 11
90.0242
 21
182.844
 31
0.0
  0
LINE
  5
C2A
330
1D
100
AcDbEntity
  8
0
100
AcDbLine
 10
90.0242
 20
182.844
 30
0.0
 11
90.8151
 21
184.824
 31
0.0
  0
LINE
  5
C2B
330
1D
100
AcDbEntity
  8
0
100
AcDbLine
 10
90.8151
 20
184.824
 30
0.0
 11
91.8262
 21
186.545
 31
0.0
  0
LINE
  5
C2C
330
1D
100
AcDbEntity
  8
0
100
AcDbLine
 10
91.8262
 20
186.545
 30
0.0
 11
93.0233
 21
187.948
 31
0.0
  0
LINE
  5
C2D
330
1D
100
AcDbEntity
  8
0
100
AcDbLine
 10
98.363
 20
188.25
 30
0.0
 11
102.359
 21
188.25
 31
0.0
  0
LINE
  5
C2E
330
1D
100
AcDbEntity
  8
0
100
AcDbLine
 10
97.0
 20
188.25
 30
0.0
 11
98.0968
 21
187.322
 31
0.0
  0
LINE
  5
C2F
330
1D
100
AcDbEntity
  8
0
100
AcDbLine
 10
97.0
 20
188.25
 30
0.0
 11
98.363
 21
188.25
 31
0.0
  0
LINE
  5
C30
330
1D
100
AcDbEntity
  8
0
100
AcDbLine
 10
97.0
 20
188.25
 30
0.0
 11
97.0
 21
189.258
 31
0.0
  0
LINE
  5
C31
330
1D
100
AcDbEntity
  8
0
100
AcDbLine
 10
93.785865470983
 20
188.537823367273
 30
0.0
 11
94.9538
 21
189.054
 31
0.0
  0
LINE
  5
C32
330
1D
100
AcDbEntity
  8
0
100
AcDbLine
 10
94.9538
 20
189.054
 30
0.0
 11
96.3782
 21
189.258
 31
0.0
  0
LINE
  5
C33
330
1D
100
AcDbEntity
  8
0
100
AcDbLine
 10
93.0233
 20
187.948
 30
0.0
 11
93.785865470982
 21
188.537823367272
 31
0.0
  0
LINE
  5
C34
330
1D
100
AcDbEntity
  8
0
100
AcDbLine
 10
97.0
 20
189.258
 30
0.0
 11
97.0
 21
188.25
 31
0.0
  0
LINE
  5
C35
330
1D
100
AcDbEntity
  8
0
100
AcDbLine
 10
90.4122
 20
193.361
 30
0.0
 11
91.1994
 21
193.902
 31
0.0
  0
LINE
  5
C36
330
1D
100
AcDbEntity
  8
0
100
AcDbLine
 10
88.5722
 20
191.939
 30
0.0
 11
90.4122
 21
193.361
 31
0.0
  0
LINE
  5
C37
330
1D
100
AcDbEntity
  8
0
100
AcDbLine
 10
96.3782
 20
189.258
 30
0.0
 11
103.159982
 21
189.258
 31
0.0
  0
LINE
  5
C38
330
1D
100
AcDbEntity
  8
0
100
AcDbLine
 10
96.3782
 20
189.258
 30
0.0
 11
98.363
 21
189.258
 31
0.0
  0
LINE
  5
C39
330
1D
100
AcDbEntity
  8
0
100
AcDbLine
 10
96.3782
 20
189.258
 30
0.0
 11
97.0
 21
189.258
 31
0.0
  0
LINE
  5
C3A
330
1D
100
AcDbEntity
  8
0
100
AcDbLine
 10
97.0
 20
195.108
 30
0.0
 11
97.0
 21
196.25
 31
0.0
  0
LINE
  5
C3B
330
1D
100
AcDbEntity
  8
0
100
AcDbLine
 10
95.3548
 20
195.108
 30
0.0
 11
96.3782
 21
195.108
 31
0.0
  0
LINE
  5
C3C
330
1D
100
AcDbEntity
  8
0
100
AcDbLine
 10
93.2417
 20
194.804
 30
0.0
 11
95.3548
 21
195.108
 31
0.0
  0
LINE
  5
C3D
330
1D
100
AcDbEntity
  8
0
100
AcDbLine
 10
98.363
 20
196.25
 30
0.0
 11
102.359
 21
196.25
 31
0.0
  0
LINE
  5
C3E
330
1D
100
AcDbEntity
  8
0
100
AcDbLine
 10
99.4255
 20
197.25
 30
0.0
 11
103.312
 21
197.25
 31
0.0
  0
LINE
  5
C3F
330
1D
100
AcDbEntity
  8
0
100
AcDbLine
 10
98.1
 20
197.25
 30
0.0
 11
99.4255
 21
197.25
 31
0.0
  0
LINE
  5
C40
330
1D
100
AcDbEntity
  8
0
100
AcDbLine
 10
97.0
 20
196.25
 30
0.0
 11
97.0
 21
195.108
 31
0.0
  0
LINE
  5
C41
330
1D
100
AcDbEntity
  8
0
100
AcDbLine
 10
97.0
 20
196.25
 30
0.0
 11
98.363
 21
196.25
 31
0.0
  0
LINE
  5
C42
330
1D
100
AcDbEntity
  8
0
100
AcDbLine
 10
97.0
 20
196.25
 30
0.0
 11
98.1
 21
197.25
 31
0.0
  0
LINE
  5
C43
330
1D
100
AcDbEntity
  8
0
100
AcDbLine
 10
117.0
 20
188.25
 30
0.0
 11
126.647
 21
188.25
 31
0.0
  0
LINE
  5
C44
330
1D
100
AcDbEntity
  8
0
100
AcDbLine
 10
116.025
 20
189.258
 30
0.0
 11
125.431478
 21
189.258
 31
0.0
  0
LINE
  5
C45
330
1D
100
AcDbEntity
  8
0
100
AcDbLine
 10
116.025
 20
195.108
 30
0.0
 11
126.647
 21
195.108
 31
0.0
  0
LINE
  5
C46
330
1D
100
AcDbEntity
  8
0
100
AcDbLine
 10
117.55
 20
197.25
 30
0.0
 11
126.932
 21
197.25
 31
0.0
  0
LINE
  5
C47
330
1D
100
AcDbEntity
  8
0
100
AcDbLine
 10
117.0
 20
196.25
 30
0.0
 11
126.647
 21
196.25
 31
0.0
  0
LINE
  5
C48
330
1D
100
AcDbEntity
  8
0
100
AcDbLine
 10
123.094
 20
200.25
 30
0.0
 11
124.012
 21
200.25
 31
0.0
  0
LINE
  5
C49
330
1D
100
AcDbEntity
  8
0
100
AcDbLine
 10
123.504
 20
203.25
 30
0.0
 11
123.868
 21
203.25
 31
0.0
  0
LINE
  5
C4A
330
1D
100
AcDbEntity
  8
0
100
AcDbLine
 10
112.552
 20
194.234
 30
0.0
 11
113.646
 21
194.804
 31
0.0
  0
LINE
  5
C4B
330
1D
100
AcDbEntity
  8
0
100
AcDbLine
 10
114.113751866887
 20
185.034572918285
 30
0.0
 11
114.881
 21
184.925
 31
0.0
  0
LINE
  5
C4C
330
1D
100
AcDbEntity
  8
0
100
AcDbLine
 10
114.203
 20
185.454
 30
0.0
 11
114.785
 21
187.317
 31
0.0
  0
LINE
  5
C4D
330
1D
100
AcDbEntity
  8
0
100
AcDbLine
 10
107.498
 20
181.676
 30
0.0
 11
107.871
 21
184.475
 31
0.0
  0
LINE
  5
C4E
330
1D
100
AcDbEntity
  8
0
100
AcDbLine
 10
113.434
 20
180.959
 30
0.0
 11
113.747
 21
183.311
 31
0.0
  0
LINE
  5
C4F
330
1D
100
AcDbEntity
  8
0
100
AcDbLine
 10
106.494
 20
181.676
 30
0.0
 11
106.867
 21
184.475
 31
0.0
  0
LINE
  5
C50
330
1D
100
AcDbEntity
  8
0
100
AcDbLine
 10
107.871
 20
184.475
 30
0.0
 11
108.413
 21
187.026
 31
0.0
  0
LINE
  5
C51
330
1D
100
AcDbEntity
  8
0
100
AcDbLine
 10
113.747
 20
183.311
 30
0.0
 11
114.203
 21
185.454
 31
0.0
  0
LINE
  5
C52
330
1D
100
AcDbEntity
  8
0
100
AcDbLine
 10
106.867
 20
184.475
 30
0.0
 11
107.196389088078
 21
186.022461443255
 31
0.0
  0
LINE
  5
C53
330
1D
100
AcDbEntity
  8
0
100
AcDbLine
 10
108.413
 20
187.026
 30
0.0
 11
109.107
 21
189.243
 31
0.0
  0
LINE
  5
C54
330
1D
100
AcDbEntity
  8
0
100
AcDbLine
 10
108.716
 20
188.25
 30
0.0
 11
108.796155615697
 21
188.25
 31
0.0
  0
LINE
  5
C55
330
1D
100
AcDbEntity
  8
0
100
AcDbLine
 10
109.107
 20
189.243
 30
0.0
 11
109.927
 21
191.051
 31
0.0
  0
LINE
  5
C56
330
1D
100
AcDbEntity
  8
0
100
AcDbLine
 10
110.521
 20
191.939
 30
0.0
 11
111.5
 21
193.361
 31
0.0
  0
LINE
  5
C57
330
1D
100
AcDbEntity
  8
0
100
AcDbLine
 10
109.927
 20
191.051
 30
0.0
 11
110.521
 21
191.939
 31
0.0
  0
LINE
  5
C58
330
1D
100
AcDbEntity
  8
0
100
AcDbLine
 10
111.5
 20
193.361
 30
0.0
 11
112.552
 21
194.234
 31
0.0
  0
LINE
  5
C59
330
1D
100
AcDbEntity
  8
0
100
AcDbLine
 10
117.051
 20
183.327
 30
0.0
 11
118.0
 21
180.75
 31
0.0
  0
LINE
  5
C5A
330
1D
100
AcDbEntity
  8
0
100
AcDbLine
 10
114.881
 20
184.925
 30
0.0
 11
117.051
 21
183.327
 31
0.0
  0
LINE
  5
C5B
330
1D
100
AcDbEntity
  8
0
100
AcDbLine
 10
114.785
 20
187.317
 30
0.0
 11
115.475
 21
188.836
 31
0.0
  0
LINE
  5
C5C
330
1D
100
AcDbEntity
  8
0
100
AcDbLine
 10
115.208811718236
 20
188.25
 30
0.0
 11
117.0
 21
188.25
 31
0.0
  0
LINE
  5
C5D
330
1D
100
AcDbEntity
  8
0
100
AcDbLine
 10
115.444237673275
 20
188.768278298122
 30
0.0
 11
115.594
 21
188.986
 31
0.0
  0
LINE
  5
C5E
330
1D
100
AcDbEntity
  8
0
100
AcDbLine
 10
115.594
 20
188.986
 30
0.0
 11
116.361
 21
189.623
 31
0.0
  0
LINE
  5
C5F
330
1D
100
AcDbEntity
  8
0
100
AcDbLine
 10
115.871896439098
 20
189.216795347726
 30
0.0
 11
116.025
 21
189.258
 31
0.0
  0
LINE
  5
C60
330
1D
100
AcDbEntity
  8
0
100
AcDbLine
 10
114.77
 20
195.108
 30
0.0
 11
116.025
 21
195.108
 31
0.0
  0
LINE
  5
C61
330
1D
100
AcDbEntity
  8
0
100
AcDbLine
 10
113.646
 20
194.804
 30
0.0
 11
114.77
 21
195.108
 31
0.0
  0
LINE
  5
C62
330
1D
100
AcDbEntity
  8
0
100
AcDbLine
 10
109.493
 20
197.25
 30
0.0
 11
117.55
 21
197.25
 31
0.0
  0
LINE
  5
C63
330
1D
100
AcDbEntity
  8
0
100
AcDbLine
 10
108.716
 20
196.25
 30
0.0
 11
117.0
 21
196.25
 31
0.0
  0
LINE
  5
C64
330
1D
100
AcDbEntity
  8
0
100
AcDbLine
 10
120.0
 20
200.25
 30
0.0
 11
120.102
 21
200.25
 31
0.0
  0
LINE
  5
C65
330
1D
100
AcDbEntity
  8
0
100
AcDbLine
 10
120.0
 20
200.25
 30
0.0
 11
123.0
 21
203.25
 31
0.0
  0
LINE
  5
C66
330
1D
100
AcDbEntity
  8
0
100
AcDbLine
 10
120.102
 20
200.25
 30
0.0
 11
120.272
 21
200.25
 31
0.0
  0
LINE
  5
C67
330
1D
100
AcDbEntity
  8
0
100
AcDbLine
 10
120.272
 20
200.25
 30
0.0
 11
120.612
 21
200.25
 31
0.0
  0
LINE
  5
C68
330
1D
100
AcDbEntity
  8
0
100
AcDbLine
 10
120.612
 20
200.25
 30
0.0
 11
121.054
 21
200.25
 31
0.0
  0
LINE
  5
C69
330
1D
100
AcDbEntity
  8
0
100
AcDbLine
 10
121.054
 20
200.25
 30
0.0
 11
121.632
 21
200.25
 31
0.0
  0
LINE
  5
C6A
330
1D
100
AcDbEntity
  8
0
100
AcDbLine
 10
121.632
 20
200.25
 30
0.0
 11
122.312
 21
200.25
 31
0.0
  0
LINE
  5
C6B
330
1D
100
AcDbEntity
  8
0
100
AcDbLine
 10
122.312
 20
200.25
 30
0.0
 11
123.094
 21
200.25
 31
0.0
  0
LINE
  5
C6C
330
1D
100
AcDbEntity
  8
0
100
AcDbLine
 10
123.0
 20
203.25
 30
0.0
 11
123.084
 21
203.25
 31
0.0
  0
LINE
  5
C6D
330
1D
100
AcDbEntity
  8
0
100
AcDbLine
 10
123.084
 20
203.25
 30
0.0
 11
123.224
 21
203.25
 31
0.0
  0
LINE
  5
C6E
330
1D
100
AcDbEntity
  8
0
100
AcDbLine
 10
123.224
 20
203.25
 30
0.0
 11
123.504
 21
203.25
 31
0.0
  0
LINE
  5
C6F
330
1D
100
AcDbEntity
  8
0
100
AcDbLine
 10
134.832
 20
193.485
 30
0.0
 11
135.664
 21
194.529
 31
0.0
  0
LINE
  5
C70
330
1D
100
AcDbEntity
  8
0
100
AcDbLine
 10
139.405
 20
194.529
 30
0.0
 11
140.238
 21
193.485
 31
0.0
  0
LINE
  5
C71
330
1D
100
AcDbEntity
  8
0
100
AcDbLine
 10
126.647
 20
188.25
 30
0.0
 11
134.534985294118
 21
188.25
 31
0.0
  0
LINE
  5
C72
330
1D
100
AcDbEntity
  8
0
100
AcDbLine
 10
125.431478
 20
189.258
 30
0.0
 11
134.535
 21
189.258
 31
0.0
  0
LINE
  5
C73
330
1D
100
AcDbEntity
  8
0
100
AcDbLine
 10
134.534
 20
183.893
 30
0.0
 11
134.534
 21
186.24
 31
0.0
  0
LINE
  5
C74
330
1D
100
AcDbEntity
  8
0
100
AcDbLine
 10
134.534
 20
186.24
 30
0.0
 11
134.534
 21
183.893
 31
0.0
  0
LINE
  5
C75
330
1D
100
AcDbEntity
  8
0
100
AcDbLine
 10
140.534
 20
186.24
 30
0.0
 11
140.534
 21
183.893
 31
0.0
  0
LINE
  5
C76
330
1D
100
AcDbEntity
  8
0
100
AcDbLine
 10
140.534
 20
183.893
 30
0.0
 11
140.534
 21
186.24
 31
0.0
  0
LINE
  5
C77
330
1D
100
AcDbEntity
  8
0
100
AcDbLine
 10
134.534
 20
183.893
 30
0.0
 11
134.534
 21
181.318
 31
0.0
  0
LINE
  5
C78
330
1D
100
AcDbEntity
  8
0
100
AcDbLine
 10
134.534
 20
181.318
 30
0.0
 11
134.534
 21
183.893
 31
0.0
  0
LINE
  5
C79
330
1D
100
AcDbEntity
  8
0
100
AcDbLine
 10
140.534
 20
181.318
 30
0.0
 11
140.534
 21
183.893
 31
0.0
  0
LINE
  5
C7A
330
1D
100
AcDbEntity
  8
0
100
AcDbLine
 10
140.534
 20
183.893
 30
0.0
 11
140.534
 21
181.318
 31
0.0
  0
LINE
  5
C7B
330
1D
100
AcDbEntity
  8
0
100
AcDbLine
 10
134.534
 20
186.24
 30
0.0
 11
134.535
 21
188.28
 31
0.0
  0
LINE
  5
C7C
330
1D
100
AcDbEntity
  8
0
100
AcDbLine
 10
134.535
 20
189.943
 30
0.0
 11
134.535
 21
188.28
 31
0.0
  0
LINE
  5
C7D
330
1D
100
AcDbEntity
  8
0
100
AcDbLine
 10
134.535
 20
188.28
 30
0.0
 11
134.535
 21
189.943
 31
0.0
  0
LINE
  5
C7E
330
1D
100
AcDbEntity
  8
0
100
AcDbLine
 10
134.534
 20
191.929
 30
0.0
 11
134.535
 21
192.183
 31
0.0
  0
LINE
  5
C7F
330
1D
100
AcDbEntity
  8
0
100
AcDbLine
 10
134.534
 20
191.929
 30
0.0
 11
134.534
 21
191.173
 31
0.0
  0
LINE
  5
C80
330
1D
100
AcDbEntity
  8
0
100
AcDbLine
 10
134.534
 20
191.173
 30
0.0
 11
134.534
 21
191.929
 31
0.0
  0
LINE
  5
C81
330
1D
100
AcDbEntity
  8
0
100
AcDbLine
 10
134.534
 20
191.173
 30
0.0
 11
134.535
 21
189.943
 31
0.0
  0
LINE
  5
C82
330
1D
100
AcDbEntity
  8
0
100
AcDbLine
 10
140.238
 20
193.485
 30
0.0
 11
140.534
 21
192.183
 31
0.0
  0
LINE
  5
C83
330
1D
100
AcDbEntity
  8
0
100
AcDbLine
 10
140.534
 20
188.28
 30
0.0
 11
140.535
 21
189.944
 31
0.0
  0
LINE
  5
C84
330
1D
100
AcDbEntity
  8
0
100
AcDbLine
 10
140.534
 20
188.28
 30
0.0
 11
140.534
 21
186.24
 31
0.0
  0
LINE
  5
C85
330
1D
100
AcDbEntity
  8
0
100
AcDbLine
 10
140.534
 20
191.174
 30
0.0
 11
140.535
 21
191.929
 31
0.0
  0
LINE
  5
C86
330
1D
100
AcDbEntity
  8
0
100
AcDbLine
 10
140.534
 20
191.174
 30
0.0
 11
140.535
 21
189.944
 31
0.0
  0
LINE
  5
C87
330
1D
100
AcDbEntity
  8
0
100
AcDbLine
 10
140.534
 20
192.183
 30
0.0
 11
140.535
 21
191.929
 31
0.0
  0
LINE
  5
C88
330
1D
100
AcDbEntity
  8
0
100
AcDbLine
 10
140.534
 20
186.24
 30
0.0
 11
140.534
 21
188.28
 31
0.0
  0
LINE
  5
C89
330
1D
100
AcDbEntity
  8
0
100
AcDbLine
 10
134.832
 20
193.485
 30
0.0
 11
134.535
 21
192.183
 31
0.0
  0
LINE
  5
C8A
330
1D
100
AcDbEntity
  8
0
100
AcDbLine
 10
126.647
 20
196.25
 30
0.0
 11
137.0
 21
196.25
 31
0.0
  0
LINE
  5
C8B
330
1D
100
AcDbEntity
  8
0
100
AcDbLine
 10
126.932
 20
197.25
 30
0.0
 11
137.0
 21
197.25
 31
0.0
  0
LINE
  5
C8C
330
1D
100
AcDbEntity
  8
0
100
AcDbLine
 10
132.212
 20
203.25
 30
0.0
 11
133.36
 21
203.25
 31
0.0
  0
LINE
  5
C8D
330
1D
100
AcDbEntity
  8
0
100
AcDbLine
 10
131.186
 20
200.25
 30
0.0
 11
132.58
 21
200.25
 31
0.0
  0
LINE
  5
C8E
330
1D
100
AcDbEntity
  8
0
100
AcDbLine
 10
124.012
 20
200.25
 30
0.0
 11
124.998
 21
200.25
 31
0.0
  0
LINE
  5
C8F
330
1D
100
AcDbEntity
  8
0
100
AcDbLine
 10
123.868
 20
203.25
 30
0.0
 11
124.344
 21
203.25
 31
0.0
  0
LINE
  5
C90
330
1D
100
AcDbEntity
  8
0
100
AcDbLine
 10
124.344
 20
203.25
 30
0.0
 11
124.904
 21
203.25
 31
0.0
  0
LINE
  5
C91
330
1D
100
AcDbEntity
  8
0
100
AcDbLine
 10
124.904
 20
203.25
 30
0.0
 11
125.548
 21
203.25
 31
0.0
  0
LINE
  5
C92
330
1D
100
AcDbEntity
  8
0
100
AcDbLine
 10
124.998
 20
200.25
 30
0.0
 11
126.086
 21
200.25
 31
0.0
  0
LINE
  5
C93
330
1D
100
AcDbEntity
  8
0
100
AcDbLine
 10
126.086
 20
200.25
 30
0.0
 11
127.242
 21
200.25
 31
0.0
  0
LINE
  5
C94
330
1D
100
AcDbEntity
  8
0
100
AcDbLine
 10
129.826
 20
200.25
 30
0.0
 11
131.186
 21
200.25
 31
0.0
  0
LINE
  5
C95
330
1D
100
AcDbEntity
  8
0
100
AcDbLine
 10
128.534
 20
200.25
 30
0.0
 11
129.826
 21
200.25
 31
0.0
  0
LINE
  5
C96
330
1D
100
AcDbEntity
  8
0
100
AcDbLine
 10
127.242
 20
200.25
 30
0.0
 11
128.534
 21
200.25
 31
0.0
  0
LINE
  5
C97
330
1D
100
AcDbEntity
  8
0
100
AcDbLine
 10
125.548
 20
203.25
 30
0.0
 11
126.304
 21
203.25
 31
0.0
  0
LINE
  5
C98
330
1D
100
AcDbEntity
  8
0
100
AcDbLine
 10
126.304
 20
203.25
 30
0.0
 11
127.116
 21
203.25
 31
0.0
  0
LINE
  5
C99
330
1D
100
AcDbEntity
  8
0
100
AcDbLine
 10
130.028
 20
203.25
 30
0.0
 11
131.092
 21
203.25
 31
0.0
  0
LINE
  5
C9A
330
1D
100
AcDbEntity
  8
0
100
AcDbLine
 10
128.964
 20
203.25
 30
0.0
 11
130.028
 21
203.25
 31
0.0
  0
LINE
  5
C9B
330
1D
100
AcDbEntity
  8
0
100
AcDbLine
 10
128.012
 20
203.25
 30
0.0
 11
128.964
 21
203.25
 31
0.0
  0
LINE
  5
C9C
330
1D
100
AcDbEntity
  8
0
100
AcDbLine
 10
127.116
 20
203.25
 30
0.0
 11
128.012
 21
203.25
 31
0.0
  0
LINE
  5
C9D
330
1D
100
AcDbEntity
  8
0
100
AcDbLine
 10
131.092
 20
203.25
 30
0.0
 11
132.212
 21
203.25
 31
0.0
  0
LINE
  5
C9E
330
1D
100
AcDbEntity
  8
0
100
AcDbLine
 10
133.36
 20
203.25
 30
0.0
 11
134.564
 21
203.25
 31
0.0
  0
LINE
  5
C9F
330
1D
100
AcDbEntity
  8
0
100
AcDbLine
 10
132.58
 20
200.25
 30
0.0
 11
134.042
 21
200.25
 31
0.0
  0
LINE
  5
CA0
330
1D
100
AcDbEntity
  8
0
100
AcDbLine
 10
134.042
 20
200.25
 30
0.0
 11
135.504
 21
200.25
 31
0.0
  0
LINE
  5
CA1
330
1D
100
AcDbEntity
  8
0
100
AcDbLine
 10
134.564
 20
203.25
 30
0.0
 11
135.768
 21
203.25
 31
0.0
  0
LINE
  5
CA2
330
1D
100
AcDbEntity
  8
0
100
AcDbLine
 10
135.768
 20
203.25
 30
0.0
 11
137.0
 21
203.25
 31
0.0
  0
LINE
  5
CA3
330
1D
100
AcDbEntity
  8
0
100
AcDbLine
 10
135.504
 20
200.25
 30
0.0
 11
137.0
 21
200.25
 31
0.0
  0
LINE
  5
CA4
330
1D
100
AcDbEntity
  8
0
100
AcDbLine
 10
135.664
 20
194.529
 30
0.0
 11
136.866
 21
195.108
 31
0.0
  0
LINE
  5
CA5
330
1D
100
AcDbEntity
  8
0
100
AcDbLine
 10
137.0
 20
203.25
 30
0.0
 11
138.232
 21
203.25
 31
0.0
  0
LINE
  5
CA6
330
1D
100
AcDbEntity
  8
0
100
AcDbLine
 10
137.0
 20
200.25
 30
0.0
 11
138.496
 21
200.25
 31
0.0
  0
LINE
  5
CA7
330
1D
100
AcDbEntity
  8
0
100
AcDbLine
 10
136.866
 20
195.108
 30
0.0
 11
138.202
 21
195.108
 31
0.0
  0
LINE
  5
CA8
330
1D
100
AcDbEntity
  8
0
100
AcDbLine
 10
138.232
 20
203.25
 30
0.0
 11
139.436
 21
203.25
 31
0.0
  0
LINE
  5
CA9
330
1D
100
AcDbEntity
  8
0
100
AcDbLine
 10
139.436
 20
203.25
 30
0.0
 11
140.64
 21
203.25
 31
0.0
  0
LINE
  5
CAA
330
1D
100
AcDbEntity
  8
0
100
AcDbLine
 10
138.496
 20
200.25
 30
0.0
 11
139.958
 21
200.25
 31
0.0
  0
LINE
  5
CAB
330
1D
100
AcDbEntity
  8
0
100
AcDbLine
 10
138.202
 20
195.108
 30
0.0
 11
139.405
 21
194.529
 31
0.0
  0
LINE
  5
CAC
330
1D
100
AcDbEntity
  8
0
100
AcDbLine
 10
156.0
 20
139.75
 30
0.0
 11
156.0
 21
180.75
 31
0.0
  0
LINE
  5
CAD
330
1D
100
AcDbEntity
  8
0
100
AcDbLine
 10
161.57
 20
180.959
 30
0.0
 11
176.968
 21
23.9591
 31
0.0
  0
LINE
  5
CAE
330
1D
100
AcDbEntity
  8
0
100
AcDbLine
 10
167.506
 20
181.676
 30
0.0
 11
182.903
 21
24.6768
 31
0.0
  0
LINE
  5
CAF
330
1D
100
AcDbEntity
  8
0
100
AcDbLine
 10
167.506
 20
181.676
 30
0.0
 11
182.903
 21
24.6768
 31
0.0
  0
LINE
  5
CB0
330
1D
100
AcDbEntity
  8
0
100
AcDbLine
 10
160.566
 20
180.959
 30
0.0
 11
165.381560243102
 21
131.855923502574
 31
0.0
  0
LINE
  5
CB1
330
1D
100
AcDbEntity
  8
0
100
AcDbLine
 10
160.566
 20
180.959
 30
0.0
 11
165.381560243102
 21
131.855923502574
 31
0.0
  0
LINE
  5
CB2
330
1D
100
AcDbEntity
  8
0
100
AcDbLine
 10
211.87
 20
180.512
 30
0.0
 11
256.204
 21
23.5117
 31
0.0
  0
LINE
  5
CB3
330
1D
100
AcDbEntity
  8
0
100
AcDbLine
 10
212.055
 20
180.511
 30
0.0
 11
256.39
 21
23.5117
 31
0.0
  0
LINE
  5
CB4
330
1D
100
AcDbEntity
  8
0
100
AcDbLine
 10
185.338
 20
180.673
 30
0.0
 11
214.276
 21
23.6706
 31
0.0
  0
LINE
  5
CB5
330
1D
100
AcDbEntity
  8
0
100
AcDbLine
 10
191.102
 20
181.965
 30
0.0
 11
220.04
 21
24.9644
 31
0.0
  0
LINE
  5
CB6
330
1D
100
AcDbEntity
  8
0
100
AcDbLine
 10
191.102
 20
181.965
 30
0.0
 11
220.04
 21
24.9644
 31
0.0
  0
LINE
  5
CB7
330
1D
100
AcDbEntity
  8
0
100
AcDbLine
 10
202.837
 20
180.673
 30
0.0
 11
241.824
 21
23.6706
 31
0.0
  0
LINE
  5
CB8
330
1D
100
AcDbEntity
  8
0
100
AcDbLine
 10
217.825
 20
182.124
 30
0.0
 11
262.16
 21
25.124
 31
0.0
  0
LINE
  5
CB9
330
1D
100
AcDbEntity
  8
0
100
AcDbLine
 10
217.825
 20
182.124
 30
0.0
 11
262.16
 21
25.124
 31
0.0
  0
LINE
  5
CBA
330
1D
100
AcDbEntity
  8
0
100
AcDbLine
 10
208.612
 20
181.965
 30
0.0
 11
247.6
 21
24.9644
 31
0.0
  0
LINE
  5
CBB
330
1D
100
AcDbEntity
  8
0
100
AcDbLine
 10
208.612
 20
181.965
 30
0.0
 11
247.6
 21
24.9644
 31
0.0
  0
LINE
  5
CBC
330
1D
100
AcDbEntity
  8
0
100
AcDbLine
 10
202.303
 20
180.671
 30
0.0
 11
241.29
 21
23.6706
 31
0.0
  0
LINE
  5
CBD
330
1D
100
AcDbEntity
  8
0
100
AcDbLine
 10
184.52
 20
180.671
 30
0.0
 11
213.457
 21
23.6706
 31
0.0
  0
LINE
  5
CBE
330
1D
100
AcDbEntity
  8
0
100
AcDbLine
 10
204.867
 20
3.21326
 30
0.0
 11
214.853
 21
3.21326
 31
0.0
  0
LINE
  5
CBF
330
1D
100
AcDbEntity
  8
0
100
AcDbLine
 10
204.0
 20
2.75
 30
0.0
 11
213.859
 21
2.75
 31
0.0
  0
LINE
  5
CC0
330
1D
100
AcDbEntity
  8
0
100
AcDbLine
 10
202.996
 20
15.4659
 30
0.0
 11
212.708
 21
15.4659
 31
0.0
  0
LINE
  5
CC1
330
1D
100
AcDbEntity
  8
0
100
AcDbLine
 10
202.7
 20
15.75
 30
0.0
 11
212.368
 21
15.75
 31
0.0
  0
LINE
  5
CC2
330
1D
100
AcDbEntity
  8
0
100
AcDbLine
 10
167.268
 20
70.2875
 30
0.0
 11
170.792
 21
74.5375
 31
0.0
  0
LINE
  5
CC3
330
1D
100
AcDbEntity
  8
0
100
AcDbLine
 10
170.97571911435
 20
74.813669408228
 30
0.0
 11
175.963
 21
23.9596
 31
0.0
  0
LINE
  5
CC4
330
1D
100
AcDbEntity
  8
0
100
AcDbLine
 10
170.97571911435
 20
74.813669408228
 30
0.0
 11
175.963
 21
23.9596
 31
0.0
  0
LINE
  5
CC5
330
1D
100
AcDbEntity
  8
0
100
AcDbLine
 10
171.682
 20
2.75
 30
0.0
 11
182.831
 21
2.75
 31
0.0
  0
LINE
  5
CC6
330
1D
100
AcDbEntity
  8
0
100
AcDbLine
 10
172.13
 20
3.21326
 30
0.0
 11
183.424
 21
3.21326
 31
0.0
  0
LINE
  5
CC7
330
1D
100
AcDbEntity
  8
0
100
AcDbLine
 10
171.009
 20
15.75
 30
0.0
 11
181.941
 21
15.75
 31
0.0
  0
LINE
  5
CC8
330
1D
100
AcDbEntity
  8
0
100
AcDbLine
 10
171.162
 20
15.4659
 30
0.0
 11
182.144
 21
15.4659
 31
0.0
  0
LINE
  5
CC9
330
1D
100
AcDbEntity
  8
0
100
AcDbLine
 10
143.304
 20
2.75
 30
0.0
 11
146.377
 21
2.75
 31
0.0
  0
LINE
  5
CCA
330
1D
100
AcDbEntity
  8
0
100
AcDbLine
 10
148.452
 20
15.75
 30
0.0
 11
159.817
 21
15.75
 31
0.0
  0
LINE
  5
CCB
330
1D
100
AcDbEntity
  8
0
100
AcDbLine
 10
148.679
 20
2.75
 30
0.0
 11
160.269
 21
2.75
 31
0.0
  0
LINE
  5
CCC
330
1D
100
AcDbEntity
  8
0
100
AcDbLine
 10
170.755
 20
2.75
 30
0.0
 11
171.682
 21
2.75
 31
0.0
  0
LINE
  5
CCD
330
1D
100
AcDbEntity
  8
0
100
AcDbLine
 10
167.597
 20
2.75
 30
0.0
 11
167.755
 21
2.75
 31
0.0
  0
LINE
  5
CCE
330
1D
100
AcDbEntity
  8
0
100
AcDbLine
 10
175.493
 20
2.75
 30
0.0
 11
176.21
 21
2.75
 31
0.0
  0
LINE
  5
CCF
330
1D
100
AcDbEntity
  8
0
100
AcDbLine
 10
171.988
 20
2.75
 30
0.0
 11
172.493
 21
2.75
 31
0.0
  0
LINE
  5
CD0
330
1D
100
AcDbEntity
  8
0
100
AcDbLine
 10
157.863
 20
2.75
 30
0.0
 11
160.269
 21
2.75
 31
0.0
  0
LINE
  5
CD1
330
1D
100
AcDbEntity
  8
0
100
AcDbLine
 10
157.272
 20
2.75
 30
0.0
 11
157.863
 21
2.75
 31
0.0
  0
LINE
  5
CD2
330
1D
100
AcDbEntity
  8
0
100
AcDbLine
 10
152.788
 20
2.75
 30
0.0
 11
154.272
 21
2.75
 31
0.0
  0
LINE
  5
CD3
330
1D
100
AcDbEntity
  8
0
100
AcDbLine
 10
160.269
 20
2.75
 30
0.0
 11
171.682
 21
2.75
 31
0.0
  0
LINE
  5
CD4
330
1D
100
AcDbEntity
  8
0
100
AcDbLine
 10
160.57
 20
3.21326
 30
0.0
 11
172.13
 21
3.21326
 31
0.0
  0
LINE
  5
CD5
330
1D
100
AcDbEntity
  8
0
100
AcDbLine
 10
148.83
 20
3.21326
 30
0.0
 11
160.57
 21
3.21326
 31
0.0
  0
LINE
  5
CD6
330
1D
100
AcDbEntity
  8
0
100
AcDbLine
 10
159.92
 20
15.4659
 30
0.0
 11
171.162
 21
15.4659
 31
0.0
  0
LINE
  5
CD7
330
1D
100
AcDbEntity
  8
0
100
AcDbLine
 10
159.817
 20
15.75
 30
0.0
 11
171.009
 21
15.75
 31
0.0
  0
LINE
  5
CD8
330
1D
100
AcDbEntity
  8
0
100
AcDbLine
 10
176.145
 20
15.75
 30
0.0
 11
176.145
 21
20.1833
 31
0.0
  0
LINE
  5
CD9
330
1D
100
AcDbEntity
  8
0
100
AcDbLine
 10
176.145
 20
20.1833
 30
0.0
 11
176.145
 21
15.75
 31
0.0
  0
LINE
  5
CDA
330
1D
100
AcDbEntity
  8
0
100
AcDbLine
 10
176.099
 20
22.0897
 30
0.0
 11
176.145
 21
20.1833
 31
0.0
  0
LINE
  5
CDB
330
1D
100
AcDbEntity
  8
0
100
AcDbLine
 10
175.963
 20
23.9596
 30
0.0
 11
176.099
 21
22.0897
 31
0.0
  0
LINE
  5
CDC
330
1D
100
AcDbEntity
  8
0
100
AcDbLine
 10
148.504
 20
15.4659
 30
0.0
 11
159.92
 21
15.4659
 31
0.0
  0
LINE
  5
CDD
330
1D
100
AcDbEntity
  8
0
100
AcDbLine
 10
143.427
 20
58.175
 30
0.0
 11
148.61
 21
59.2375
 31
0.0
  0
LINE
  5
CDE
330
1D
100
AcDbEntity
  8
0
100
AcDbLine
 10
148.61
 20
59.2375
 30
0.0
 11
153.792
 21
61.15
 31
0.0
  0
LINE
  5
CDF
330
1D
100
AcDbEntity
  8
0
100
AcDbLine
 10
153.792
 20
61.15
 30
0.0
 11
158.561
 21
63.4875
 31
0.0
  0
LINE
  5
CE0
330
1D
100
AcDbEntity
  8
0
100
AcDbLine
 10
163.122
 20
66.675
 30
0.0
 11
167.268
 21
70.2875
 31
0.0
  0
LINE
  5
CE1
330
1D
100
AcDbEntity
  8
0
100
AcDbLine
 10
158.561
 20
63.4875
 30
0.0
 11
163.122
 21
66.675
 31
0.0
  0
LINE
  5
CE2
330
1D
100
AcDbEntity
  8
0
100
AcDbLine
 10
183.729
 20
2.75
 30
0.0
 11
186.969
 21
2.75
 31
0.0
  0
LINE
  5
CE3
330
1D
100
AcDbEntity
  8
0
100
AcDbLine
 10
186.969
 20
2.75
 30
0.0
 11
187.676
 21
2.75
 31
0.0
  0
LINE
  5
CE4
330
1D
100
AcDbEntity
  8
0
100
AcDbLine
 10
182.831
 20
2.75
 30
0.0
 11
193.631
 21
2.75
 31
0.0
  0
LINE
  5
CE5
330
1D
100
AcDbEntity
  8
0
100
AcDbLine
 10
183.424
 20
3.21326
 30
0.0
 11
194.363
 21
3.21326
 31
0.0
  0
LINE
  5
CE6
330
1D
100
AcDbEntity
  8
0
100
AcDbLine
 10
182.144
 20
15.4659
 30
0.0
 11
192.782
 21
15.4659
 31
0.0
  0
LINE
  5
CE7
330
1D
100
AcDbEntity
  8
0
100
AcDbLine
 10
197.073
 20
2.75
 30
0.0
 11
197.768
 21
2.75
 31
0.0
  0
LINE
  5
CE8
330
1D
100
AcDbEntity
  8
0
100
AcDbLine
 10
197.768
 20
2.75
 30
0.0
 11
198.0
 21
2.75
 31
0.0
  0
LINE
  5
CE9
330
1D
100
AcDbEntity
  8
0
100
AcDbLine
 10
193.631
 20
2.75
 30
0.0
 11
204.0
 21
2.75
 31
0.0
  0
LINE
  5
CEA
330
1D
100
AcDbEntity
  8
0
100
AcDbLine
 10
194.363
 20
3.21326
 30
0.0
 11
204.867
 21
3.21326
 31
0.0
  0
LINE
  5
CEB
330
1D
100
AcDbEntity
  8
0
100
AcDbLine
 10
192.782
 20
15.4659
 30
0.0
 11
202.996
 21
15.4659
 31
0.0
  0
LINE
  5
CEC
330
1D
100
AcDbEntity
  8
0
100
AcDbLine
 10
177.149
 20
15.75
 30
0.0
 11
177.149
 21
20.1833
 31
0.0
  0
LINE
  5
CED
330
1D
100
AcDbEntity
  8
0
100
AcDbLine
 10
177.149
 20
20.1833
 30
0.0
 11
177.149
 21
15.75
 31
0.0
  0
LINE
  5
CEE
330
1D
100
AcDbEntity
  8
0
100
AcDbLine
 10
177.104
 20
22.0897
 30
0.0
 11
177.149
 21
20.1833
 31
0.0
  0
LINE
  5
CEF
330
1D
100
AcDbEntity
  8
0
100
AcDbLine
 10
176.968
 20
23.9591
 30
0.0
 11
177.104
 21
22.0897
 31
0.0
  0
LINE
  5
CF0
330
1D
100
AcDbEntity
  8
0
100
AcDbLine
 10
183.119
 20
20.1833
 30
0.0
 11
183.119
 21
15.75
 31
0.0
  0
LINE
  5
CF1
330
1D
100
AcDbEntity
  8
0
100
AcDbLine
 10
183.065
 20
22.452
 30
0.0
 11
183.119
 21
20.1833
 31
0.0
  0
LINE
  5
CF2
330
1D
100
AcDbEntity
  8
0
100
AcDbLine
 10
182.903
 20
24.6768
 30
0.0
 11
183.065
 21
22.452
 31
0.0
  0
LINE
  5
CF3
330
1D
100
AcDbEntity
  8
0
100
AcDbLine
 10
183.119
 20
15.75
 30
0.0
 11
192.532
 21
15.75
 31
0.0
  0
LINE
  5
CF4
330
1D
100
AcDbEntity
  8
0
100
AcDbLine
 10
183.119
 20
15.75
 30
0.0
 11
183.119
 21
20.1833
 31
0.0
  0
LINE
  5
CF5
330
1D
100
AcDbEntity
  8
0
100
AcDbLine
 10
181.941
 20
15.75
 30
0.0
 11
192.532
 21
15.75
 31
0.0
  0
LINE
  5
CF6
330
1D
100
AcDbEntity
  8
0
100
AcDbLine
 10
192.532
 20
15.75
 30
0.0
 11
202.7
 21
15.75
 31
0.0
  0
LINE
  5
CF7
330
1D
100
AcDbEntity
  8
0
100
AcDbLine
 10
176.183
 20
116.4
 30
0.0
 11
178.049
 21
111.088
 31
0.0
  0
LINE
  5
CF8
330
1D
100
AcDbEntity
  8
0
100
AcDbLine
 10
141.659
 20
138.75
 30
0.0
 11
146.0
 21
138.75
 31
0.0
  0
LINE
  5
CF9
330
1D
100
AcDbEntity
  8
0
100
AcDbLine
 10
141.918
 20
139.75
 30
0.0
 11
146.5
 21
139.75
 31
0.0
  0
LINE
  5
CFA
330
1D
100
AcDbEntity
  8
0
100
AcDbLine
 10
146.5
 20
139.75
 30
0.0
 11
150.435
 21
139.75
 31
0.0
  0
LINE
  5
CFB
330
1D
100
AcDbEntity
  8
0
100
AcDbLine
 10
146.0
 20
138.75
 30
0.0
 11
146.629804961506
 21
138.75
 31
0.0
  0
LINE
  5
CFC
330
1D
100
AcDbEntity
  8
0
100
AcDbLine
 10
154.387
 20
138.75
 30
0.0
 11
154.447389221557
 21
138.75
 31
0.0
  0
LINE
  5
CFD
330
1D
100
AcDbEntity
  8
0
100
AcDbLine
 10
154.234643284859
 20
138.75
 30
0.0
 11
154.387
 21
138.75
 31
0.0
  0
LINE
  5
CFE
330
1D
100
AcDbEntity
  8
0
100
AcDbLine
 10
154.808866552609
 20
138.75
 30
0.0
 11
155.0
 21
138.75
 31
0.0
  0
LINE
  5
CFF
330
1D
100
AcDbEntity
  8
0
100
AcDbLine
 10
155.0
 20
138.75
 30
0.0
 11
156.0
 21
139.75
 31
0.0
  0
LINE
  5
D00
330
1D
100
AcDbEntity
  8
0
100
AcDbLine
 10
155.005464959189
 20
138.755464959189
 30
0.0
 11
158.561
 21
137.012
 31
0.0
  0
LINE
  5
D01
330
1D
100
AcDbEntity
  8
0
100
AcDbLine
 10
155.353
 20
139.75
 30
0.0
 11
156.0
 21
139.75
 31
0.0
  0
LINE
  5
D02
330
1D
100
AcDbEntity
  8
0
100
AcDbLine
 10
150.435
 20
139.75
 30
0.0
 11
153.454
 21
139.75
 31
0.0
  0
LINE
  5
D03
330
1D
100
AcDbEntity
  8
0
100
AcDbLine
 10
153.454
 20
139.75
 30
0.0
 11
155.353
 21
139.75
 31
0.0
  0
LINE
  5
D04
330
1D
100
AcDbEntity
  8
0
100
AcDbLine
 10
170.792
 20
74.5375
 30
0.0
 11
171.851278271888
 21
76.129823447292
 31
0.0
  0
LINE
  5
D05
330
1D
100
AcDbEntity
  8
0
100
AcDbLine
 10
158.561
 20
137.012
 30
0.0
 11
163.122
 21
133.825
 31
0.0
  0
LINE
  5
D06
330
1D
100
AcDbEntity
  8
0
100
AcDbLine
 10
163.122
 20
133.825
 30
0.0
 11
166.479714748197
 21
130.898945155515
 31
0.0
  0
LINE
  5
D07
330
1D
100
AcDbEntity
  8
0
100
AcDbLine
 10
173.902
 20
121.287
 30
0.0
 11
176.183
 21
116.4
 31
0.0
  0
LINE
  5
D08
330
1D
100
AcDbEntity
  8
0
100
AcDbLine
 10
173.346437739541
 20
122.1225770762
 30
0.0
 11
173.902
 21
121.287
 31
0.0
  0
LINE
  5
D09
330
1D
100
AcDbEntity
  8
0
100
AcDbLine
 10
179.085
 20
105.775
 30
0.0
 11
179.5
 21
100.25
 31
0.0
  0
LINE
  5
D0A
330
1D
100
AcDbEntity
  8
0
100
AcDbLine
 10
178.049
 20
111.088
 30
0.0
 11
179.085
 21
105.775
 31
0.0
  0
LINE
  5
D0B
330
1D
100
AcDbEntity
  8
0
100
AcDbLine
 10
179.085
 20
94.725
 30
0.0
 11
179.5
 21
100.25
 31
0.0
  0
LINE
  5
D0C
330
1D
100
AcDbEntity
  8
0
100
AcDbLine
 10
178.049
 20
89.4125
 30
0.0
 11
179.085
 21
94.725
 31
0.0
  0
LINE
  5
D0D
330
1D
100
AcDbEntity
  8
0
100
AcDbLine
 10
176.880567667468
 20
86.085974401619
 30
0.0
 11
178.049
 21
89.4125
 31
0.0
  0
LINE
  5
D0E
330
1D
100
AcDbEntity
  8
0
100
AcDbLine
 10
246.766
 20
2.75
 30
0.0
 11
253.047
 21
2.75
 31
0.0
  0
LINE
  5
D0F
330
1D
100
AcDbEntity
  8
0
100
AcDbLine
 10
240.978
 20
3.21326
 30
0.0
 11
248.186
 21
3.21326
 31
0.0
  0
LINE
  5
D10
330
1D
100
AcDbEntity
  8
0
100
AcDbLine
 10
245.122
 20
15.4659
 30
0.0
 11
251.31
 21
15.4659
 31
0.0
  0
LINE
  5
D11
330
1D
100
AcDbEntity
  8
0
100
AcDbLine
 10
244.637
 20
15.75
 30
0.0
 11
250.796
 21
15.75
 31
0.0
  0
LINE
  5
D12
330
1D
100
AcDbEntity
  8
0
100
AcDbLine
 10
223.134
 20
2.75
 30
0.0
 11
231.753
 21
2.75
 31
0.0
  0
LINE
  5
D13
330
1D
100
AcDbEntity
  8
0
100
AcDbLine
 10
224.248
 20
3.21326
 30
0.0
 11
232.978
 21
3.21326
 31
0.0
  0
LINE
  5
D14
330
1D
100
AcDbEntity
  8
0
100
AcDbLine
 10
221.843
 20
15.4659
 30
0.0
 11
230.333
 21
15.4659
 31
0.0
  0
LINE
  5
D15
330
1D
100
AcDbEntity
  8
0
100
AcDbLine
 10
221.462
 20
15.75
 30
0.0
 11
229.914
 21
15.75
 31
0.0
  0
LINE
  5
D16
330
1D
100
AcDbEntity
  8
0
100
AcDbLine
 10
213.859
 20
2.75
 30
0.0
 11
223.134
 21
2.75
 31
0.0
  0
LINE
  5
D17
330
1D
100
AcDbEntity
  8
0
100
AcDbLine
 10
214.853
 20
3.21326
 30
0.0
 11
224.248
 21
3.21326
 31
0.0
  0
LINE
  5
D18
330
1D
100
AcDbEntity
  8
0
100
AcDbLine
 10
212.708
 20
15.4659
 30
0.0
 11
221.843
 21
15.4659
 31
0.0
  0
LINE
  5
D19
330
1D
100
AcDbEntity
  8
0
100
AcDbLine
 10
220.472
 20
15.75
 30
0.0
 11
220.472
 21
20.1833
 31
0.0
  0
LINE
  5
D1A
330
1D
100
AcDbEntity
  8
0
100
AcDbLine
 10
214.591
 20
15.75
 30
0.0
 11
214.591
 21
20.1833
 31
0.0
  0
LINE
  5
D1B
330
1D
100
AcDbEntity
  8
0
100
AcDbLine
 10
213.772
 20
15.75
 30
0.0
 11
213.772
 21
20.1833
 31
0.0
  0
LINE
  5
D1C
330
1D
100
AcDbEntity
  8
0
100
AcDbLine
 10
212.368
 20
15.75
 30
0.0
 11
221.462
 21
15.75
 31
0.0
  0
LINE
  5
D1D
330
1D
100
AcDbEntity
  8
0
100
AcDbLine
 10
220.472
 20
20.1833
 30
0.0
 11
220.472
 21
15.75
 31
0.0
  0
LINE
  5
D1E
330
1D
100
AcDbEntity
  8
0
100
AcDbLine
 10
214.591
 20
20.1833
 30
0.0
 11
214.591
 21
15.75
 31
0.0
  0
LINE
  5
D1F
330
1D
100
AcDbEntity
  8
0
100
AcDbLine
 10
214.512
 20
21.9445
 30
0.0
 11
214.591
 21
20.1833
 31
0.0
  0
LINE
  5
D20
330
1D
100
AcDbEntity
  8
0
100
AcDbLine
 10
213.772
 20
20.1833
 30
0.0
 11
213.772
 21
15.75
 31
0.0
  0
LINE
  5
D21
330
1D
100
AcDbEntity
  8
0
100
AcDbLine
 10
220.364
 20
22.5973
 30
0.0
 11
220.472
 21
20.1833
 31
0.0
  0
LINE
  5
D22
330
1D
100
AcDbEntity
  8
0
100
AcDbLine
 10
220.04
 20
24.9644
 30
0.0
 11
220.364
 21
22.5973
 31
0.0
  0
LINE
  5
D23
330
1D
100
AcDbEntity
  8
0
100
AcDbLine
 10
214.276
 20
23.6706
 30
0.0
 11
214.512
 21
21.9445
 31
0.0
  0
LINE
  5
D24
330
1D
100
AcDbEntity
  8
0
100
AcDbLine
 10
213.693
 20
21.9445
 30
0.0
 11
213.772
 21
20.1833
 31
0.0
  0
LINE
  5
D25
330
1D
100
AcDbEntity
  8
0
100
AcDbLine
 10
213.457
 20
23.6706
 30
0.0
 11
213.693
 21
21.9445
 31
0.0
  0
LINE
  5
D26
330
1D
100
AcDbEntity
  8
0
100
AcDbLine
 10
239.65
 20
2.75
 30
0.0
 11
246.766
 21
2.75
 31
0.0
  0
LINE
  5
D27
330
1D
100
AcDbEntity
  8
0
100
AcDbLine
 10
231.753
 20
2.75
 30
0.0
 11
239.65
 21
2.75
 31
0.0
  0
LINE
  5
D28
330
1D
100
AcDbEntity
  8
0
100
AcDbLine
 10
232.978
 20
3.21326
 30
0.0
 11
240.978
 21
3.21326
 31
0.0
  0
LINE
  5
D29
330
1D
100
AcDbEntity
  8
0
100
AcDbLine
 10
230.333
 20
15.4659
 30
0.0
 11
238.113
 21
15.4659
 31
0.0
  0
LINE
  5
D2A
330
1D
100
AcDbEntity
  8
0
100
AcDbLine
 10
238.113
 20
15.4659
 30
0.0
 11
245.122
 21
15.4659
 31
0.0
  0
LINE
  5
D2B
330
1D
100
AcDbEntity
  8
0
100
AcDbLine
 10
229.914
 20
15.75
 30
0.0
 11
237.658
 21
15.75
 31
0.0
  0
LINE
  5
D2C
330
1D
100
AcDbEntity
  8
0
100
AcDbLine
 10
242.249
 20
15.75
 30
0.0
 11
242.249
 21
20.1833
 31
0.0
  0
LINE
  5
D2D
330
1D
100
AcDbEntity
  8
0
100
AcDbLine
 10
241.714
 20
15.75
 30
0.0
 11
241.714
 21
20.1833
 31
0.0
  0
LINE
  5
D2E
330
1D
100
AcDbEntity
  8
0
100
AcDbLine
 10
237.658
 20
15.75
 30
0.0
 11
244.637
 21
15.75
 31
0.0
  0
LINE
  5
D2F
330
1D
100
AcDbEntity
  8
0
100
AcDbLine
 10
242.249
 20
20.1833
 30
0.0
 11
242.249
 21
15.75
 31
0.0
  0
LINE
  5
D30
330
1D
100
AcDbEntity
  8
0
100
AcDbLine
 10
242.142
 20
21.9445
 30
0.0
 11
242.249
 21
20.1833
 31
0.0
  0
LINE
  5
D31
330
1D
100
AcDbEntity
  8
0
100
AcDbLine
 10
241.714
 20
20.1833
 30
0.0
 11
241.714
 21
15.75
 31
0.0
  0
LINE
  5
D32
330
1D
100
AcDbEntity
  8
0
100
AcDbLine
 10
241.608
 20
21.9445
 30
0.0
 11
241.714
 21
20.1833
 31
0.0
  0
LINE
  5
D33
330
1D
100
AcDbEntity
  8
0
100
AcDbLine
 10
241.824
 20
23.6706
 30
0.0
 11
242.142
 21
21.9445
 31
0.0
  0
LINE
  5
D34
330
1D
100
AcDbEntity
  8
0
100
AcDbLine
 10
241.29
 20
23.6706
 30
0.0
 11
241.608
 21
21.9445
 31
0.0
  0
LINE
  5
D35
330
1D
100
AcDbEntity
  8
0
100
AcDbLine
 10
262.919
 20
2.75
 30
0.0
 11
266.434
 21
2.75
 31
0.0
  0
LINE
  5
D36
330
1D
100
AcDbEntity
  8
0
100
AcDbLine
 10
264.547
 20
3.21326
 30
0.0
 11
268.108
 21
3.21326
 31
0.0
  0
LINE
  5
D37
330
1D
100
AcDbEntity
  8
0
100
AcDbLine
 10
264.496
 20
15.4659
 30
0.0
 11
266.988
 21
15.4659
 31
0.0
  0
LINE
  5
D38
330
1D
100
AcDbEntity
  8
0
100
AcDbLine
 10
263.923
 20
15.75
 30
0.0
 11
266.404
 21
15.75
 31
0.0
  0
LINE
  5
D39
330
1D
100
AcDbEntity
  8
0
100
AcDbLine
 10
256.665
 20
15.75
 30
0.0
 11
256.665
 21
20.1833
 31
0.0
  0
LINE
  5
D3A
330
1D
100
AcDbEntity
  8
0
100
AcDbLine
 10
262.843
 20
15.75
 30
0.0
 11
262.843
 21
20.1833
 31
0.0
  0
LINE
  5
D3B
330
1D
100
AcDbEntity
  8
0
100
AcDbLine
 10
256.851
 20
15.75
 30
0.0
 11
256.851
 21
20.1833
 31
0.0
  0
LINE
  5
D3C
330
1D
100
AcDbEntity
  8
0
100
AcDbLine
 10
248.182
 20
15.75
 30
0.0
 11
248.182
 21
20.1833
 31
0.0
  0
LINE
  5
D3D
330
1D
100
AcDbEntity
  8
0
100
AcDbLine
 10
256.665
 20
20.1833
 30
0.0
 11
256.665
 21
15.75
 31
0.0
  0
LINE
  5
D3E
330
1D
100
AcDbEntity
  8
0
100
AcDbLine
 10
262.843
 20
20.1833
 30
0.0
 11
262.843
 21
15.75
 31
0.0
  0
LINE
  5
D3F
330
1D
100
AcDbEntity
  8
0
100
AcDbLine
 10
256.851
 20
20.1833
 30
0.0
 11
256.851
 21
15.75
 31
0.0
  0
LINE
  5
D40
330
1D
100
AcDbEntity
  8
0
100
AcDbLine
 10
248.182
 20
20.1833
 30
0.0
 11
248.182
 21
15.75
 31
0.0
  0
LINE
  5
D41
330
1D
100
AcDbEntity
  8
0
100
AcDbLine
 10
261.857
 20
0.25
 30
0.0
 11
261.857
 21
2.75
 31
0.0
  0
LINE
  5
D42
330
1D
100
AcDbEntity
  8
0
100
AcDbLine
 10
261.857
 20
2.75
 30
0.0
 11
261.857
 21
0.25
 31
0.0
  0
LINE
  5
D43
330
1D
100
AcDbEntity
  8
0
100
AcDbLine
 10
258.445
 20
2.75
 30
0.0
 11
262.919
 21
2.75
 31
0.0
  0
LINE
  5
D44
330
1D
100
AcDbEntity
  8
0
100
AcDbLine
 10
253.047
 20
2.75
 30
0.0
 11
258.445
 21
2.75
 31
0.0
  0
LINE
  5
D45
330
1D
100
AcDbEntity
  8
0
100
AcDbLine
 10
248.186
 20
3.21326
 30
0.0
 11
254.548
 21
3.21326
 31
0.0
  0
LINE
  5
D46
330
1D
100
AcDbEntity
  8
0
100
AcDbLine
 10
254.548
 20
3.21326
 30
0.0
 11
260.016
 21
3.21326
 31
0.0
  0
LINE
  5
D47
330
1D
100
AcDbEntity
  8
0
100
AcDbLine
 10
260.016
 20
3.21326
 30
0.0
 11
264.547
 21
3.21326
 31
0.0
  0
LINE
  5
D48
330
1D
100
AcDbEntity
  8
0
100
AcDbLine
 10
261.033
 20
15.4659
 30
0.0
 11
264.496
 21
15.4659
 31
0.0
  0
LINE
  5
D49
330
1D
100
AcDbEntity
  8
0
100
AcDbLine
 10
251.31
 20
15.4659
 30
0.0
 11
256.627
 21
15.4659
 31
0.0
  0
LINE
  5
D4A
330
1D
100
AcDbEntity
  8
0
100
AcDbLine
 10
256.627
 20
15.4659
 30
0.0
 11
261.033
 21
15.4659
 31
0.0
  0
LINE
  5
D4B
330
1D
100
AcDbEntity
  8
0
100
AcDbLine
 10
248.182
 20
15.75
 30
0.0
 11
250.796
 21
15.75
 31
0.0
  0
LINE
  5
D4C
330
1D
100
AcDbEntity
  8
0
100
AcDbLine
 10
260.476
 20
15.75
 30
0.0
 11
263.923
 21
15.75
 31
0.0
  0
LINE
  5
D4D
330
1D
100
AcDbEntity
  8
0
100
AcDbLine
 10
250.796
 20
15.75
 30
0.0
 11
256.089
 21
15.75
 31
0.0
  0
LINE
  5
D4E
330
1D
100
AcDbEntity
  8
0
100
AcDbLine
 10
256.089
 20
15.75
 30
0.0
 11
260.476
 21
15.75
 31
0.0
  0
LINE
  5
D4F
330
1D
100
AcDbEntity
  8
0
100
AcDbLine
 10
256.549
 20
21.8639
 30
0.0
 11
256.665
 21
20.1833
 31
0.0
  0
LINE
  5
D50
330
1D
100
AcDbEntity
  8
0
100
AcDbLine
 10
256.735
 20
21.8639
 30
0.0
 11
256.851
 21
20.1833
 31
0.0
  0
LINE
  5
D51
330
1D
100
AcDbEntity
  8
0
100
AcDbLine
 10
256.204
 20
23.5117
 30
0.0
 11
256.549
 21
21.8639
 31
0.0
  0
LINE
  5
D52
330
1D
100
AcDbEntity
  8
0
100
AcDbLine
 10
262.671
 20
22.678
 30
0.0
 11
262.843
 21
20.1833
 31
0.0
  0
LINE
  5
D53
330
1D
100
AcDbEntity
  8
0
100
AcDbLine
 10
256.39
 20
23.5117
 30
0.0
 11
256.735
 21
21.8639
 31
0.0
  0
LINE
  5
D54
330
1D
100
AcDbEntity
  8
0
100
AcDbLine
 10
248.036
 20
22.5973
 30
0.0
 11
248.182
 21
20.1833
 31
0.0
  0
LINE
  5
D55
330
1D
100
AcDbEntity
  8
0
100
AcDbLine
 10
262.16
 20
25.124
 30
0.0
 11
262.671
 21
22.678
 31
0.0
  0
LINE
  5
D56
330
1D
100
AcDbEntity
  8
0
100
AcDbLine
 10
247.6
 20
24.9644
 30
0.0
 11
248.036
 21
22.5973
 31
0.0
  0
LINE
  5
D57
330
1D
100
AcDbEntity
  8
0
100
AcDbLine
 10
266.434
 20
2.75
 30
0.0
 11
268.964
 21
2.75
 31
0.0
  0
LINE
  5
D58
330
1D
100
AcDbEntity
  8
0
100
AcDbLine
 10
270.49
 20
2.75
 30
0.0
 11
271.0
 21
2.75
 31
0.0
  0
LINE
  5
D59
330
1D
100
AcDbEntity
  8
0
100
AcDbLine
 10
271.0
 20
2.75
 30
0.0
 11
272.733
 21
3.21326
 31
0.0
  0
LINE
  5
D5A
330
1D
100
AcDbEntity
  8
0
100
AcDbLine
 10
268.964
 20
2.75
 30
0.0
 11
270.49
 21
2.75
 31
0.0
  0
LINE
  5
D5B
330
1D
100
AcDbEntity
  8
0
100
AcDbLine
 10
268.108
 20
3.21326
 30
0.0
 11
270.671
 21
3.21326
 31
0.0
  0
LINE
  5
D5C
330
1D
100
AcDbEntity
  8
0
100
AcDbLine
 10
272.217
 20
3.21326
 30
0.0
 11
272.733
 21
3.21326
 31
0.0
  0
LINE
  5
D5D
330
1D
100
AcDbEntity
  8
0
100
AcDbLine
 10
272.733
 20
3.21326
 30
0.0
 11
273.703
 21
4.52852
 31
0.0
  0
LINE
  5
D5E
330
1D
100
AcDbEntity
  8
0
100
AcDbLine
 10
270.671
 20
3.21326
 30
0.0
 11
272.217
 21
3.21326
 31
0.0
  0
LINE
  5
D5F
330
1D
100
AcDbEntity
  8
0
100
AcDbLine
 10
271.002
 20
9.30498
 30
0.0
 11
273.356
 21
7.71283
 31
0.0
  0
LINE
  5
D60
330
1D
100
AcDbEntity
  8
0
100
AcDbLine
 10
273.703
 20
4.52852
 30
0.0
 11
274.0
 21
6.27
 31
0.0
  0
LINE
  5
D61
330
1D
100
AcDbEntity
  8
0
100
AcDbLine
 10
273.356
 20
7.71283
 30
0.0
 11
274.0
 21
6.27
 31
0.0
  0
LINE
  5
D62
330
1D
100
AcDbEntity
  8
0
100
AcDbLine
 10
268.491
 20
15.4659
 30
0.0
 11
268.993
 21
15.4659
 31
0.0
  0
LINE
  5
D63
330
1D
100
AcDbEntity
  8
0
100
AcDbLine
 10
268.993
 20
15.4659
 30
0.0
 11
270.24
 21
11.10481
 31
0.0
  0
LINE
  5
D64
330
1D
100
AcDbEntity
  8
0
100
AcDbLine
 10
270.24
 20
11.10481
 30
0.0
 11
271.002
 21
9.30498
 31
0.0
  0
LINE
  5
D65
330
1D
100
AcDbEntity
  8
0
100
AcDbLine
 10
266.988
 20
15.4659
 30
0.0
 11
268.491
 21
15.4659
 31
0.0
  0
LINE
  5
D66
330
1D
100
AcDbEntity
  8
0
100
AcDbLine
 10
267.9
 20
15.75
 30
0.0
 11
268.4
 21
15.75
 31
0.0
  0
LINE
  5
D67
330
1D
100
AcDbEntity
  8
0
100
AcDbLine
 10
268.4
 20
15.75
 30
0.0
 11
268.993
 21
15.4659
 31
0.0
  0
LINE
  5
D68
330
1D
100
AcDbEntity
  8
0
100
AcDbLine
 10
266.404
 20
15.75
 30
0.0
 11
267.9
 21
15.75
 31
0.0
  0
LINE
  5
D69
330
1D
100
AcDbEntity
  8
0
100
AcDbLine
 10
211.259
 20
182.585
 30
0.0
 11
212.055
 21
180.511
 31
0.0
  0
LINE
  5
D6A
330
1D
100
AcDbEntity
  8
0
100
AcDbLine
 10
210.136
 20
192.432
 30
0.0
 11
212.733
 21
190.444
 31
0.0
  0
LINE
  5
D6B
330
1D
100
AcDbEntity
  8
0
100
AcDbLine
 10
160.234
 20
195.108
 30
0.0
 11
178.441
 21
195.108
 31
0.0
  0
LINE
  5
D6C
330
1D
100
AcDbEntity
  8
0
100
AcDbLine
 10
165.890196902655
 20
189.258
 30
0.0
 11
178.441
 21
189.258
 31
0.0
  0
LINE
  5
D6D
330
1D
100
AcDbEntity
  8
0
100
AcDbLine
 10
175.637
 20
188.25
 30
0.0
 11
177.0
 21
188.25
 31
0.0
  0
LINE
  5
D6E
330
1D
100
AcDbEntity
  8
0
100
AcDbLine
 10
175.903
 20
187.322
 30
0.0
 11
177.0
 21
188.25
 31
0.0
  0
LINE
  5
D6F
330
1D
100
AcDbEntity
  8
0
100
AcDbLine
 10
175.808738
 20
189.258
 30
0.0
 11
178.441
 21
189.258
 31
0.0
  0
LINE
  5
D70
330
1D
100
AcDbEntity
  8
0
100
AcDbLine
 10
172.144496
 20
189.258
 30
0.0
 11
178.441
 21
189.258
 31
0.0
  0
LINE
  5
D71
330
1D
100
AcDbEntity
  8
0
100
AcDbLine
 10
175.637
 20
196.25
 30
0.0
 11
177.0
 21
196.25
 31
0.0
  0
LINE
  5
D72
330
1D
100
AcDbEntity
  8
0
100
AcDbLine
 10
175.9
 20
197.25
 30
0.0
 11
177.0
 21
196.25
 31
0.0
  0
LINE
  5
D73
330
1D
100
AcDbEntity
  8
0
100
AcDbLine
 10
149.535
 20
189.258
 30
0.0
 11
158.979
 21
189.258
 31
0.0
  0
LINE
  5
D74
330
1D
100
AcDbEntity
  8
0
100
AcDbLine
 10
148.73010925
 20
195.108
 30
0.0
 11
158.979
 21
195.108
 31
0.0
  0
LINE
  5
D75
330
1D
100
AcDbEntity
  8
0
100
AcDbLine
 10
154.0
 20
200.25
 30
0.0
 11
174.0
 21
197.25
 31
0.0
  0
LINE
  5
D76
330
1D
100
AcDbEntity
  8
0
100
AcDbLine
 10
156.45
 20
197.25
 30
0.0
 11
164.507
 21
197.25
 31
0.0
  0
LINE
  5
D77
330
1D
100
AcDbEntity
  8
0
100
AcDbLine
 10
157.0
 20
196.25
 30
0.0
 11
165.284
 21
196.25
 31
0.0
  0
LINE
  5
D78
330
1D
100
AcDbEntity
  8
0
100
AcDbLine
 10
157.0
 20
188.25
 30
0.0
 11
159.795188281764
 21
188.25
 31
0.0
  0
LINE
  5
D79
330
1D
100
AcDbEntity
  8
0
100
AcDbLine
 10
156.949
 20
183.327
 30
0.0
 11
159.119
 21
184.925
 31
0.0
  0
LINE
  5
D7A
330
1D
100
AcDbEntity
  8
0
100
AcDbLine
 10
158.643
 20
189.623
 30
0.0
 11
159.41
 21
188.986
 31
0.0
  0
LINE
  5
D7B
330
1D
100
AcDbEntity
  8
0
100
AcDbLine
 10
147.353
 20
188.25
 30
0.0
 11
157.0
 21
188.25
 31
0.0
  0
LINE
  5
D7C
330
1D
100
AcDbEntity
  8
0
100
AcDbLine
 10
156.0
 20
180.75
 30
0.0
 11
156.949
 21
183.327
 31
0.0
  0
LINE
  5
D7D
330
1D
100
AcDbEntity
  8
0
100
AcDbLine
 10
147.068
 20
197.25
 30
0.0
 11
156.45
 21
197.25
 31
0.0
  0
LINE
  5
D7E
330
1D
100
AcDbEntity
  8
0
100
AcDbLine
 10
147.353
 20
196.25
 30
0.0
 11
157.0
 21
196.25
 31
0.0
  0
LINE
  5
D7F
330
1D
100
AcDbEntity
  8
0
100
AcDbLine
 10
149.656
 20
203.25
 30
0.0
 11
150.132
 21
203.25
 31
0.0
  0
LINE
  5
D80
330
1D
100
AcDbEntity
  8
0
100
AcDbLine
 10
149.988
 20
200.25
 30
0.0
 11
150.906
 21
200.25
 31
0.0
  0
LINE
  5
D81
330
1D
100
AcDbEntity
  8
0
100
AcDbLine
 10
141.788
 20
203.25
 30
0.0
 11
142.908
 21
203.25
 31
0.0
  0
LINE
  5
D82
330
1D
100
AcDbEntity
  8
0
100
AcDbLine
 10
141.42
 20
200.25
 30
0.0
 11
142.814
 21
200.25
 31
0.0
  0
LINE
  5
D83
330
1D
100
AcDbEntity
  8
0
100
AcDbLine
 10
142.908
 20
203.25
 30
0.0
 11
143.972
 21
203.25
 31
0.0
  0
LINE
  5
D84
330
1D
100
AcDbEntity
  8
0
100
AcDbLine
 10
142.814
 20
200.25
 30
0.0
 11
144.174
 21
200.25
 31
0.0
  0
LINE
  5
D85
330
1D
100
AcDbEntity
  8
0
100
AcDbLine
 10
143.972
 20
203.25
 30
0.0
 11
145.036
 21
203.25
 31
0.0
  0
LINE
  5
D86
330
1D
100
AcDbEntity
  8
0
100
AcDbLine
 10
145.036
 20
203.25
 30
0.0
 11
145.988
 21
203.25
 31
0.0
  0
LINE
  5
D87
330
1D
100
AcDbEntity
  8
0
100
AcDbLine
 10
144.174
 20
200.25
 30
0.0
 11
145.466
 21
200.25
 31
0.0
  0
LINE
  5
D88
330
1D
100
AcDbEntity
  8
0
100
AcDbLine
 10
145.988
 20
203.25
 30
0.0
 11
146.884
 21
203.25
 31
0.0
  0
LINE
  5
D89
330
1D
100
AcDbEntity
  8
0
100
AcDbLine
 10
145.466
 20
200.25
 30
0.0
 11
146.758
 21
200.25
 31
0.0
  0
LINE
  5
D8A
330
1D
100
AcDbEntity
  8
0
100
AcDbLine
 10
146.884
 20
203.25
 30
0.0
 11
147.696
 21
203.25
 31
0.0
  0
LINE
  5
D8B
330
1D
100
AcDbEntity
  8
0
100
AcDbLine
 10
146.758
 20
200.25
 30
0.0
 11
147.914
 21
200.25
 31
0.0
  0
LINE
  5
D8C
330
1D
100
AcDbEntity
  8
0
100
AcDbLine
 10
147.696
 20
203.25
 30
0.0
 11
148.452
 21
203.25
 31
0.0
  0
LINE
  5
D8D
330
1D
100
AcDbEntity
  8
0
100
AcDbLine
 10
148.452
 20
203.25
 30
0.0
 11
149.096
 21
203.25
 31
0.0
  0
LINE
  5
D8E
330
1D
100
AcDbEntity
  8
0
100
AcDbLine
 10
147.914
 20
200.25
 30
0.0
 11
149.002
 21
200.25
 31
0.0
  0
LINE
  5
D8F
330
1D
100
AcDbEntity
  8
0
100
AcDbLine
 10
149.096
 20
203.25
 30
0.0
 11
149.656
 21
203.25
 31
0.0
  0
LINE
  5
D90
330
1D
100
AcDbEntity
  8
0
100
AcDbLine
 10
149.002
 20
200.25
 30
0.0
 11
149.988
 21
200.25
 31
0.0
  0
LINE
  5
D91
330
1D
100
AcDbEntity
  8
0
100
AcDbLine
 10
153.898
 20
200.25
 30
0.0
 11
154.0
 21
200.25
 31
0.0
  0
LINE
  5
D92
330
1D
100
AcDbEntity
  8
0
100
AcDbLine
 10
153.728
 20
200.25
 30
0.0
 11
153.898
 21
200.25
 31
0.0
  0
LINE
  5
D93
330
1D
100
AcDbEntity
  8
0
100
AcDbLine
 10
153.388
 20
200.25
 30
0.0
 11
153.728
 21
200.25
 31
0.0
  0
LINE
  5
D94
330
1D
100
AcDbEntity
  8
0
100
AcDbLine
 10
152.946
 20
200.25
 30
0.0
 11
153.388
 21
200.25
 31
0.0
  0
LINE
  5
D95
330
1D
100
AcDbEntity
  8
0
100
AcDbLine
 10
152.368
 20
200.25
 30
0.0
 11
152.946
 21
200.25
 31
0.0
  0
LINE
  5
D96
330
1D
100
AcDbEntity
  8
0
100
AcDbLine
 10
151.688
 20
200.25
 30
0.0
 11
152.368
 21
200.25
 31
0.0
  0
LINE
  5
D97
330
1D
100
AcDbEntity
  8
0
100
AcDbLine
 10
150.906
 20
200.25
 30
0.0
 11
151.688
 21
200.25
 31
0.0
  0
LINE
  5
D98
330
1D
100
AcDbEntity
  8
0
100
AcDbLine
 10
150.916
 20
203.25
 30
0.0
 11
151.0
 21
203.25
 31
0.0
  0
LINE
  5
D99
330
1D
100
AcDbEntity
  8
0
100
AcDbLine
 10
150.776
 20
203.25
 30
0.0
 11
150.916
 21
203.25
 31
0.0
  0
LINE
  5
D9A
330
1D
100
AcDbEntity
  8
0
100
AcDbLine
 10
150.496
 20
203.25
 30
0.0
 11
150.776
 21
203.25
 31
0.0
  0
LINE
  5
D9B
330
1D
100
AcDbEntity
  8
0
100
AcDbLine
 10
150.132
 20
203.25
 30
0.0
 11
150.496
 21
203.25
 31
0.0
  0
LINE
  5
D9C
330
1D
100
AcDbEntity
  8
0
100
AcDbLine
 10
151.0
 20
203.25
 30
0.0
 11
154.0
 21
200.25
 31
0.0
  0
LINE
  5
D9D
330
1D
100
AcDbEntity
  8
0
100
AcDbLine
 10
161.359
 20
194.804
 30
0.0
 11
162.452
 21
194.234
 31
0.0
  0
LINE
  5
D9E
330
1D
100
AcDbEntity
  8
0
100
AcDbLine
 10
159.119
 20
184.925
 30
0.0
 11
160.86063722523
 21
185.173731198098
 31
0.0
  0
LINE
  5
D9F
330
1D
100
AcDbEntity
  8
0
100
AcDbLine
 10
158.979
 20
189.258
 30
0.0
 11
159.132103560902
 21
189.216795347726
 31
0.0
  0
LINE
  5
DA0
330
1D
100
AcDbEntity
  8
0
100
AcDbLine
 10
159.41
 20
188.986
 30
0.0
 11
159.559762326725
 21
188.768278298122
 31
0.0
  0
LINE
  5
DA1
330
1D
100
AcDbEntity
  8
0
100
AcDbLine
 10
160.219
 20
187.317
 30
0.0
 11
160.801
 21
185.454
 31
0.0
  0
LINE
  5
DA2
330
1D
100
AcDbEntity
  8
0
100
AcDbLine
 10
159.529
 20
188.836
 30
0.0
 11
160.219
 21
187.317
 31
0.0
  0
LINE
  5
DA3
330
1D
100
AcDbEntity
  8
0
100
AcDbLine
 10
159.886247863477
 20
185.03457418546
 30
0.0
 11
160.253
 21
183.311
 31
0.0
  0
LINE
  5
DA4
330
1D
100
AcDbEntity
  8
0
100
AcDbLine
 10
162.452
 20
194.234
 30
0.0
 11
163.504
 21
193.361
 31
0.0
  0
LINE
  5
DA5
330
1D
100
AcDbEntity
  8
0
100
AcDbLine
 10
163.504
 20
193.361
 30
0.0
 11
164.483
 21
191.939
 31
0.0
  0
LINE
  5
DA6
330
1D
100
AcDbEntity
  8
0
100
AcDbLine
 10
164.483
 20
191.939
 30
0.0
 11
165.077
 21
191.051
 31
0.0
  0
LINE
  5
DA7
330
1D
100
AcDbEntity
  8
0
100
AcDbLine
 10
166.207396481732
 20
188.25
 30
0.0
 11
171.641
 21
188.25
 31
0.0
  0
LINE
  5
DA8
330
1D
100
AcDbEntity
  8
0
100
AcDbLine
 10
166.803608210405
 20
186.022474134911
 30
0.0
 11
175.903
 21
187.322
 31
0.0
  0
LINE
  5
DA9
330
1D
100
AcDbEntity
  8
0
100
AcDbLine
 10
167.133
 20
184.475
 30
0.0
 11
167.506
 21
181.676
 31
0.0
  0
LINE
  5
DAA
330
1D
100
AcDbEntity
  8
0
100
AcDbLine
 10
166.59
 20
187.026
 30
0.0
 11
167.133
 21
184.475
 31
0.0
  0
LINE
  5
DAB
330
1D
100
AcDbEntity
  8
0
100
AcDbLine
 10
165.897
 20
189.243
 30
0.0
 11
166.59
 21
187.026
 31
0.0
  0
LINE
  5
DAC
330
1D
100
AcDbEntity
  8
0
100
AcDbLine
 10
165.077
 20
191.051
 30
0.0
 11
165.897
 21
189.243
 31
0.0
  0
LINE
  5
DAD
330
1D
100
AcDbEntity
  8
0
100
AcDbLine
 10
161.257
 20
183.311
 30
0.0
 11
161.57
 21
180.959
 31
0.0
  0
LINE
  5
DAE
330
1D
100
AcDbEntity
  8
0
100
AcDbLine
 10
160.801
 20
185.454
 30
0.0
 11
161.257
 21
183.311
 31
0.0
  0
LINE
  5
DAF
330
1D
100
AcDbEntity
  8
0
100
AcDbLine
 10
160.253
 20
183.311
 30
0.0
 11
160.566
 21
180.959
 31
0.0
  0
LINE
  5
DB0
330
1D
100
AcDbEntity
  8
0
100
AcDbLine
 10
171.641
 20
188.25
 30
0.0
 11
175.637
 21
188.25
 31
0.0
  0
LINE
  5
DB1
330
1D
100
AcDbEntity
  8
0
100
AcDbLine
 10
158.979
 20
195.108
 30
0.0
 11
160.234
 21
195.108
 31
0.0
  0
LINE
  5
DB2
330
1D
100
AcDbEntity
  8
0
100
AcDbLine
 10
160.234
 20
195.108
 30
0.0
 11
161.359
 21
194.804
 31
0.0
  0
LINE
  5
DB3
330
1D
100
AcDbEntity
  8
0
100
AcDbLine
 10
164.507
 20
197.25
 30
0.0
 11
170.688
 21
197.25
 31
0.0
  0
LINE
  5
DB4
330
1D
100
AcDbEntity
  8
0
100
AcDbLine
 10
165.284
 20
196.25
 30
0.0
 11
171.641
 21
196.25
 31
0.0
  0
LINE
  5
DB5
330
1D
100
AcDbEntity
  8
0
100
AcDbLine
 10
170.688
 20
197.25
 30
0.0
 11
174.574
 21
197.25
 31
0.0
  0
LINE
  5
DB6
330
1D
100
AcDbEntity
  8
0
100
AcDbLine
 10
174.574
 20
197.25
 30
0.0
 11
175.9
 21
197.25
 31
0.0
  0
LINE
  5
DB7
330
1D
100
AcDbEntity
  8
0
100
AcDbLine
 10
171.641
 20
196.25
 30
0.0
 11
175.637
 21
196.25
 31
0.0
  0
LINE
  5
DB8
330
1D
100
AcDbEntity
  8
0
100
AcDbLine
 10
193.571
 20
195.108
 30
0.0
 11
196.42
 21
194.804
 31
0.0
  0
LINE
  5
DB9
330
1D
100
AcDbEntity
  8
0
100
AcDbLine
 10
193.571
 20
195.108
 30
0.0
 11
200.624
 21
195.108
 31
0.0
  0
LINE
  5
DBA
330
1D
100
AcDbEntity
  8
0
100
AcDbLine
 10
192.904
 20
189.258
 30
0.0
 11
194.823
 21
189.054
 31
0.0
  0
LINE
  5
DBB
330
1D
100
AcDbEntity
  8
0
100
AcDbLine
 10
192.369
 20
189.258
 30
0.0
 11
194.288
 21
189.054
 31
0.0
  0
LINE
  5
DBC
330
1D
100
AcDbEntity
  8
0
100
AcDbLine
 10
181.577
 20
194.804
 30
0.0
 11
183.619
 21
193.902
 31
0.0
  0
LINE
  5
DBD
330
1D
100
AcDbEntity
  8
0
100
AcDbLine
 10
184.407
 20
193.361
 30
0.0
 11
186.246
 21
191.939
 31
0.0
  0
LINE
  5
DBE
330
1D
100
AcDbEntity
  8
0
100
AcDbLine
 10
177.0
 20
188.25
 30
0.0
 11
177.0
 21
189.258
 31
0.0
  0
LINE
  5
DBF
330
1D
100
AcDbEntity
  8
0
100
AcDbLine
 10
177.0
 20
189.258
 30
0.0
 11
177.622
 21
189.258
 31
0.0
  0
LINE
  5
DC0
330
1D
100
AcDbEntity
  8
0
100
AcDbLine
 10
177.0
 20
189.258
 30
0.0
 11
178.441
 21
189.258
 31
0.0
  0
LINE
  5
DC1
330
1D
100
AcDbEntity
  8
0
100
AcDbLine
 10
177.0
 20
189.258
 30
0.0
 11
177.0
 21
188.25
 31
0.0
  0
LINE
  5
DC2
330
1D
100
AcDbEntity
  8
0
100
AcDbLine
 10
179.865
 20
189.054
 30
0.0
 11
181.032754737666
 21
188.538015348473
 31
0.0
  0
LINE
  5
DC3
330
1D
100
AcDbEntity
  8
0
100
AcDbLine
 10
181.032754737667
 20
188.538015348473
 30
0.0
 11
181.795
 21
187.948
 31
0.0
  0
LINE
  5
DC4
330
1D
100
AcDbEntity
  8
0
100
AcDbLine
 10
178.441
 20
189.258
 30
0.0
 11
179.865
 21
189.054
 31
0.0
  0
LINE
  5
DC5
330
1D
100
AcDbEntity
  8
0
100
AcDbLine
 10
179.046
 20
189.054
 30
0.0
 11
180.21476139214
 21
188.537570547659
 31
0.0
  0
LINE
  5
DC6
330
1D
100
AcDbEntity
  8
0
100
AcDbLine
 10
177.622
 20
189.258
 30
0.0
 11
179.046
 21
189.054
 31
0.0
  0
LINE
  5
DC7
330
1D
100
AcDbEntity
  8
0
100
AcDbLine
 10
180.21476139214
 20
188.537570547659
 30
0.0
 11
180.977
 21
187.948
 31
0.0
  0
LINE
  5
DC8
330
1D
100
AcDbEntity
  8
0
100
AcDbLine
 10
181.795
 20
187.948
 30
0.0
 11
182.992
 21
186.545
 31
0.0
  0
LINE
  5
DC9
330
1D
100
AcDbEntity
  8
0
100
AcDbLine
 10
180.977
 20
187.948
 30
0.0
 11
182.174
 21
186.545
 31
0.0
  0
LINE
  5
DCA
330
1D
100
AcDbEntity
  8
0
100
AcDbLine
 10
184.003
 20
184.824
 30
0.0
 11
184.794
 21
182.844
 31
0.0
  0
LINE
  5
DCB
330
1D
100
AcDbEntity
  8
0
100
AcDbLine
 10
183.976
 20
182.844
 30
0.0
 11
184.52
 21
180.671
 31
0.0
  0
LINE
  5
DCC
330
1D
100
AcDbEntity
  8
0
100
AcDbLine
 10
183.619
 20
193.902
 30
0.0
 11
184.407
 21
193.361
 31
0.0
  0
LINE
  5
DCD
330
1D
100
AcDbEntity
  8
0
100
AcDbLine
 10
182.992
 20
186.545
 30
0.0
 11
184.003
 21
184.824
 31
0.0
  0
LINE
  5
DCE
330
1D
100
AcDbEntity
  8
0
100
AcDbLine
 10
182.174
 20
186.545
 30
0.0
 11
183.185
 21
184.824
 31
0.0
  0
LINE
  5
DCF
330
1D
100
AcDbEntity
  8
0
100
AcDbLine
 10
183.185
 20
184.824
 30
0.0
 11
183.976
 21
182.844
 31
0.0
  0
LINE
  5
DD0
330
1D
100
AcDbEntity
  8
0
100
AcDbLine
 10
184.794
 20
182.844
 30
0.0
 11
185.338
 21
180.673
 31
0.0
  0
LINE
  5
DD1
330
1D
100
AcDbEntity
  8
0
100
AcDbLine
 10
190.357
 20
184.942
 30
0.0
 11
191.102
 21
181.965
 31
0.0
  0
LINE
  5
DD2
330
1D
100
AcDbEntity
  8
0
100
AcDbLine
 10
189.273
 20
187.656
 30
0.0
 11
190.357
 21
184.942
 31
0.0
  0
LINE
  5
DD3
330
1D
100
AcDbEntity
  8
0
100
AcDbLine
 10
187.887
 20
190.016
 30
0.0
 11
189.273
 21
187.656
 31
0.0
  0
LINE
  5
DD4
330
1D
100
AcDbEntity
  8
0
100
AcDbLine
 10
186.246
 20
191.939
 30
0.0
 11
187.887
 21
190.016
 31
0.0
  0
LINE
  5
DD5
330
1D
100
AcDbEntity
  8
0
100
AcDbLine
 10
188.33216440678
 20
189.258
 30
0.0
 11
192.369
 21
189.258
 31
0.0
  0
LINE
  5
DD6
330
1D
100
AcDbEntity
  8
0
100
AcDbLine
 10
188.33216440678
 20
189.258
 30
0.0
 11
192.904
 21
189.258
 31
0.0
  0
LINE
  5
DD7
330
1D
100
AcDbEntity
  8
0
100
AcDbLine
 10
177.0
 20
195.108
 30
0.0
 11
177.0
 21
196.25
 31
0.0
  0
LINE
  5
DD8
330
1D
100
AcDbEntity
  8
0
100
AcDbLine
 10
177.0
 20
196.25
 30
0.0
 11
177.0
 21
195.108
 31
0.0
  0
LINE
  5
DD9
330
1D
100
AcDbEntity
  8
0
100
AcDbLine
 10
178.441
 20
195.108
 30
0.0
 11
179.463
 21
195.108
 31
0.0
  0
LINE
  5
DDA
330
1D
100
AcDbEntity
  8
0
100
AcDbLine
 10
179.463
 20
195.108
 30
0.0
 11
192.904
 21
195.108
 31
0.0
  0
LINE
  5
DDB
330
1D
100
AcDbEntity
  8
0
100
AcDbLine
 10
179.463
 20
195.108
 30
0.0
 11
181.577
 21
194.804
 31
0.0
  0
LINE
  5
DDC
330
1D
100
AcDbEntity
  8
0
100
AcDbLine
 10
192.904
 20
195.108
 30
0.0
 11
193.571
 21
195.108
 31
0.0
  0
LINE
  5
DDD
330
1D
100
AcDbEntity
  8
0
100
AcDbLine
 10
196.42
 20
194.804
 30
0.0
 11
199.171
 21
193.902
 31
0.0
  0
LINE
  5
DDE
330
1D
100
AcDbEntity
  8
0
100
AcDbLine
 10
204.095
 20
194.804
 30
0.0
 11
207.223
 21
193.902
 31
0.0
  0
LINE
  5
DDF
330
1D
100
AcDbEntity
  8
0
100
AcDbLine
 10
201.732
 20
192.432
 30
0.0
 11
204.015
 21
190.444
 31
0.0
  0
LINE
  5
DE0
330
1D
100
AcDbEntity
  8
0
100
AcDbLine
 10
199.939
 20
186.117
 30
0.0
 11
201.1976190661
 21
184.527521809683
 31
0.0
  0
LINE
  5
DE1
330
1D
100
AcDbEntity
  8
0
100
AcDbLine
 10
196.676
 20
188.446
 30
0.0
 11
198.401
 21
187.456
 31
0.0
  0
LINE
  5
DE2
330
1D
100
AcDbEntity
  8
0
100
AcDbLine
 10
194.823
 20
189.054
 30
0.0
 11
196.676
 21
188.446
 31
0.0
  0
LINE
  5
DE3
330
1D
100
AcDbEntity
  8
0
100
AcDbLine
 10
194.288
 20
189.054
 30
0.0
 11
196.141
 21
188.446
 31
0.0
  0
LINE
  5
DE4
330
1D
100
AcDbEntity
  8
0
100
AcDbLine
 10
196.141
 20
188.446
 30
0.0
 11
197.866
 21
187.456
 31
0.0
  0
LINE
  5
DE5
330
1D
100
AcDbEntity
  8
0
100
AcDbLine
 10
199.171
 20
193.902
 30
0.0
 11
201.732
 21
192.432
 31
0.0
  0
LINE
  5
DE6
330
1D
100
AcDbEntity
  8
0
100
AcDbLine
 10
198.401
 20
187.456
 30
0.0
 11
199.939
 21
186.117
 31
0.0
  0
LINE
  5
DE7
330
1D
100
AcDbEntity
  8
0
100
AcDbLine
 10
197.866
 20
187.456
 30
0.0
 11
199.406
 21
186.117
 31
0.0
  0
LINE
  5
DE8
330
1D
100
AcDbEntity
  8
0
100
AcDbLine
 10
199.406
 20
186.117
 30
0.0
 11
200.706
 21
184.474
 31
0.0
  0
LINE
  5
DE9
330
1D
100
AcDbEntity
  8
0
100
AcDbLine
 10
202.104
 20
182.844
 30
0.0
 11
202.837
 21
180.673
 31
0.0
  0
LINE
  5
DEA
330
1D
100
AcDbEntity
  8
0
100
AcDbLine
 10
201.038
 20
184.824
 30
0.0
 11
202.104
 21
182.844
 31
0.0
  0
LINE
  5
DEB
330
1D
100
AcDbEntity
  8
0
100
AcDbLine
 10
201.57
 20
182.844
 30
0.0
 11
202.303
 21
180.671
 31
0.0
  0
LINE
  5
DEC
330
1D
100
AcDbEntity
  8
0
100
AcDbLine
 10
200.66354970446
 20
184.527650642748
 30
0.0
 11
201.57
 21
182.844
 31
0.0
  0
LINE
  5
DED
330
1D
100
AcDbEntity
  8
0
100
AcDbLine
 10
211.074
 20
182.585
 30
0.0
 11
211.87
 21
180.512
 31
0.0
  0
LINE
  5
DEE
330
1D
100
AcDbEntity
  8
0
100
AcDbLine
 10
204.015
 20
190.444
 30
0.0
 11
205.945
 21
188.006
 31
0.0
  0
LINE
  5
DEF
330
1D
100
AcDbEntity
  8
0
100
AcDbLine
 10
209.918
 20
184.474
 30
0.0
 11
211.074
 21
182.585
 31
0.0
  0
LINE
  5
DF0
330
1D
100
AcDbEntity
  8
0
100
AcDbLine
 10
210.103
 20
184.474
 30
0.0
 11
211.259
 21
182.585
 31
0.0
  0
LINE
  5
DF1
330
1D
100
AcDbEntity
  8
0
100
AcDbLine
 10
206.087035857475
 20
187.759898266752
 30
0.0
 11
206.689
 21
187.456
 31
0.0
  0
LINE
  5
DF2
330
1D
100
AcDbEntity
  8
0
100
AcDbLine
 10
206.010328772189
 20
187.89280658284
 30
0.0
 11
206.876
 21
187.456
 31
0.0
  0
LINE
  5
DF3
330
1D
100
AcDbEntity
  8
0
100
AcDbLine
 10
206.689
 20
187.456
 30
0.0
 11
208.44
 21
186.117
 31
0.0
  0
LINE
  5
DF4
330
1D
100
AcDbEntity
  8
0
100
AcDbLine
 10
208.44
 20
186.117
 30
0.0
 11
209.918
 21
184.474
 31
0.0
  0
LINE
  5
DF5
330
1D
100
AcDbEntity
  8
0
100
AcDbLine
 10
208.625
 20
186.117
 30
0.0
 11
210.103
 21
184.474
 31
0.0
  0
LINE
  5
DF6
330
1D
100
AcDbEntity
  8
0
100
AcDbLine
 10
206.876
 20
187.456
 30
0.0
 11
208.625
 21
186.117
 31
0.0
  0
LINE
  5
DF7
330
1D
100
AcDbEntity
  8
0
100
AcDbLine
 10
206.147
 20
187.656
 30
0.0
 11
207.608
 21
184.942
 31
0.0
  0
LINE
  5
DF8
330
1D
100
AcDbEntity
  8
0
100
AcDbLine
 10
207.608
 20
184.942
 30
0.0
 11
208.612
 21
181.965
 31
0.0
  0
LINE
  5
DF9
330
1D
100
AcDbEntity
  8
0
100
AcDbLine
 10
205.945
 20
188.006
 30
0.0
 11
206.147
 21
187.656
 31
0.0
  0
LINE
  5
DFA
330
1D
100
AcDbEntity
  8
0
100
AcDbLine
 10
207.223
 20
193.902
 30
0.0
 11
210.136
 21
192.432
 31
0.0
  0
LINE
  5
DFB
330
1D
100
AcDbEntity
  8
0
100
AcDbLine
 10
200.624
 20
195.108
 30
0.0
 11
200.855
 21
195.108
 31
0.0
  0
LINE
  5
DFC
330
1D
100
AcDbEntity
  8
0
100
AcDbLine
 10
200.855
 20
195.108
 30
0.0
 11
204.095
 21
194.804
 31
0.0
  0
LINE
  5
DFD
330
1D
100
AcDbEntity
  8
0
100
AcDbLine
 10
216.644
 20
185.201
 30
0.0
 11
217.825
 21
182.124
 31
0.0
  0
LINE
  5
DFE
330
1D
100
AcDbEntity
  8
0
100
AcDbLine
 10
214.927
 20
188.006
 30
0.0
 11
216.644
 21
185.201
 31
0.0
  0
LINE
  5
DFF
330
1D
100
AcDbEntity
  8
0
100
AcDbLine
 10
212.733
 20
190.444
 30
0.0
 11
214.927
 21
188.006
 31
0.0
  0
ENDSEC
  0
SECTION
  2
OBJECTS
  0
DICTIONARY
  5
C
330
0
100
AcDbDictionary
281
     1
  3
ACAD_GROUP
350
D
  3
ACAD_LAYOUT
350
1A
  3
ACAD_MLEADERSTYLE
350
E02
  3
ACAD_MLINESTYLE
350
17
  3
ACAD_PLOTSETTINGS
350
19
  3
ACAD_PLOTSTYLENAME
350
E
  3
ACAD_SCALELIST
350
7D7
  3
AcDbVariableDictionary
350
E00
  3
DWGPROPS
350
E05
  0
DICTIONARY
  5
D
102
{ACAD_REACTORS
330
C
102
}
330
C
100
AcDbDictionary
281
     1
  0
DICTIONARY
  5
1A
102
{ACAD_REACTORS
330
C
102
}
330
C
100
AcDbDictionary
281
     1
  3
Layout1
350
1C
  3
Model
350
1E
  0
DICTIONARY
  5
E02
102
{ACAD_REACTORS
330
C
102
}
330
C
100
AcDbDictionary
281
     1
  0
DICTIONARY
  5
17
102
{ACAD_REACTORS
330
C
102
}
330
C
100
AcDbDictionary
281
     1
  3
Standard
350
18
  0
DICTIONARY
  5
19
102
{ACAD_REACTORS
330
C
102
}
330
C
100
AcDbDictionary
281
     1
  0
ACDBDICTIONARYWDFLT
  5
E
102
{ACAD_REACTORS
330
C
102
}
330
C
100
AcDbDictionary
281
     1
  3
Normal
350
F
100
AcDbDictionaryWithDefault
340
F
  0
DICTIONARY
  5
7D7
102
{ACAD_REACTORS
330
C
102
}
330
C
100
AcDbDictionary
281
     1
  3
A0
350
7D8
  3
A1
350
7D9
  3
A2
350
7DA
  3
A3
350
7DB
  3
A4
350
7DC
  3
A5
350
7DD
  3
A6
350
7DE
  3
A7
350
7DF
  3
A8
350
7E0
  3
A9
350
7E1
  3
B0
350
7E2
  3
B1
350
7E3
  3
B2
350
7E4
  3
B3
350
7E5
  3
B4
350
7E6
  3
B5
350
7E7
  3
B6
350
7E8
  3
B7
350
7E9
  3
B8
350
7EA
  3
B9
350
7EB
  3
C0
350
7EC
  3
C1
350
7ED
  3
C2
350
7EE
  3
C3
350
7EF
  3
C4
350
7F0
  3
C5
350
7F1
  3
C6
350
7F2
  3
C7
350
7F3
  3
C8
350
7F4
  3
C9
350
7F5
  3
D0
350
7F6
  3
D1
350
7F7
  3
D2
350
7F8
  0
DICTIONARY
  5
E00
102
{ACAD_REACTORS
330
C
102
}
330
C
100
AcDbDictionary
281
     1
  3
CANNOSCALE
350
E03
  0
XRECORD
  5
E05
102
{ACAD_REACTORS
330
C
102
}
330
C
100
AcDbXrecord
280
     1
  1
DWGPROPS COOKIE
  2

  3

  4

  6

  7

  8
MARTIN
  9

300
=
301
=
302
=
303
=
304
=
305
=
306
=
307
=
308
=
309
=
 40
0.0
 41
2456647.917488426
 42
2456647.918622315
  1

 90
        0
  0
LAYOUT
  5
1C
102
{ACAD_REACTORS
330
1A
102
}
330
1A
100
AcDbPlotSettings
  1

  2
none_device
  4

  6

 40
0.0
 41
0.0
 42
0.0
 43
0.0
 44
0.0
 45
0.0
 46
0.0
 47
0.0
 48
0.0
 49
0.0
140
0.0
141
0.0
142
1.0
143
1.0
 70
   688
 72
     0
 73
     0
 74
     5
  7

 75
    16
147
1.0
148
0.0
149
0.0
100
AcDbLayout
  1
Layout1
 70
     1
 71
     1
 10
0.0
 20
0.0
 11
12.0
 21
9.0
 12
0.0
 22
0.0
 32
0.0
 14
1.000000000000E+20
 24
1.000000000000E+20
 34
1.000000000000E+20
 15
-1.000000000000E+20
 25
-1.000000000000E+20
 35
-1.000000000000E+20
146
0.0
 13
0.0
 23
0.0
 33
0.0
 16
1.0
 26
0.0
 36
0.0
 17
0.0
 27
1.0
 37
0.0
 76
     0
330
1B
  0
LAYOUT
  5
1E
102
{ACAD_REACTORS
330
1A
102
}
330
1A
100
AcDbPlotSettings
  1

  2
none_device
  4

  6

 40
0.0
 41
0.0
 42
0.0
 43
0.0
 44
0.0
 45
0.0
 46
0.0
 47
0.0
 48
0.0
 49
0.0
140
0.0
141
0.0
142
1.0
143
1.0
 70
  1712
 72
     0
 73
     0
 74
     0
  7

 75
     0
147
1.0
148
0.0
149
0.0
100
AcDbLayout
  1
Model
 70
     1
 71
     0
 10
0.0
 20
0.0
 11
12.0
 21
9.0
 12
0.0
 22
0.0
 32
0.0
 14
0.0
 24
0.25
 34
0.0
 15
274.0
 25
265.75
 35
0.0
146
0.0
 13
0.0
 23
0.0
 33
0.0
 16
1.0
 26
0.0
 36
0.0
 17
0.0
 27
1.0
 37
0.0
 76
     0
330
1D
331
7D2
  0
MLINESTYLE
  5
18
102
{ACAD_REACTORS
330
17
102
}
330
17
100
AcDbMlineStyle
  2
Standard
 70
     0
  3

 62
   256
 51
90.0
 52
90.0
 71
     2
 49
0.5
 62
   256
  6
BYLAYER
 49
-0.5
 62
   256
  6
BYLAYER
  0
ACDBPLACEHOLDER
  5
F
102
{ACAD_REACTORS
330
E
102
}
330
E
  0
SCALE
  5
7D8
102
{ACAD_REACTORS
330
7D7
102
}
330
7D7
100
AcDbScale
 70
     0
300
1:1
140
1.0
141
1.0
290
     1
  0
SCALE
  5
7D9
102
{ACAD_REACTORS
330
7D7
102
}
330
7D7
100
AcDbScale
 70
     0
300
1:2
140
1.0
141
2.0
290
     0
  0
SCALE
  5
7DA
102
{ACAD_REACTORS
330
7D7
102
}
330
7D7
100
AcDbScale
 70
     0
300
1:4
140
1.0
141
4.0
290
     0
  0
SCALE
  5
7DB
102
{ACAD_REACTORS
330
7D7
102
}
330
7D7
100
AcDbScale
 70
     0
300
1:5
140
1.0
141
5.0
290
     0
  0
SCALE
  5
7DC
102
{ACAD_REACTORS
330
7D7
102
}
330
7D7
100
AcDbScale
 70
     0
300
1:8
140
1.0
141
8.0
290
     0
  0
SCALE
  5
7DD
102
{ACAD_REACTORS
330
7D7
102
}
330
7D7
100
AcDbScale
 70
     0
300
1:10
140
1.0
141
10.0
290
     0
  0
SCALE
  5
7DE
102
{ACAD_REACTORS
330
7D7
102
}
330
7D7
100
AcDbScale
 70
     0
300
1:16
140
1.0
141
16.0
290
     0
  0
SCALE
  5
7DF
102
{ACAD_REACTORS
330
7D7
102
}
330
7D7
100
AcDbScale
 70
     0
300
1:20
140
1.0
141
20.0
290
     0
  0
SCALE
  5
7E0
102
{ACAD_REACTORS
330
7D7
102
}
330
7D7
100
AcDbScale
 70
     0
300
1:30
140
1.0
141
30.0
290
     0
  0
SCALE
  5
7E1
102
{ACAD_REACTORS
330
7D7
102
}
330
7D7
100
AcDbScale
 70
     0
300
1:40
140
1.0
141
40.0
290
     0
  0
SCALE
  5
7E2
102
{ACAD_REACTORS
330
7D7
102
}
330
7D7
100
AcDbScale
 70
     0
300
1:50
140
1.0
141
50.0
290
     0
  0
SCALE
  5
7E3
102
{ACAD_REACTORS
330
7D7
102
}
330
7D7
100
AcDbScale
 70
     0
300
1:100
140
1.0
141
100.0
290
     0
  0
SCALE
  5
7E4
102
{ACAD_REACTORS
330
7D7
102
}
330
7D7
100
AcDbScale
 70
     0
300
2:1
140
2.0
141
1.0
290
     0
  0
SCALE
  5
7E5
102
{ACAD_REACTORS
330
7D7
102
}
330
7D7
100
AcDbScale
 70
     0
300
4:1
140
4.0
141
1.0
290
     0
  0
SCALE
  5
7E6
102
{ACAD_REACTORS
330
7D7
102
}
330
7D7
100
AcDbScale
 70
     0
300
8:1
140
8.0
141
1.0
290
     0
  0
SCALE
  5
7E7
102
{ACAD_REACTORS
330
7D7
102
}
330
7D7
100
AcDbScale
 70
     0
300
10:1
140
10.0
141
1.0
290
     0
  0
SCALE
  5
7E8
102
{ACAD_REACTORS
330
7D7
102
}
330
7D7
100
AcDbScale
 70
     0
300
100:1
140
100.0
141
1.0
290
     0
  0
SCALE
  5
7E9
102
{ACAD_REACTORS
330
7D7
102
}
330
7D7
100
AcDbScale
 70
     0
300
1/128" = 1'-0"
140
0.0078125
141
12.0
290
     0
  0
SCALE
  5
7EA
102
{ACAD_REACTORS
330
7D7
102
}
330
7D7
100
AcDbScale
 70
     0
300
1/64" = 1'-0"
140
0.015625
141
12.0
290
     0
  0
SCALE
  5
7EB
102
{ACAD_REACTORS
330
7D7
102
}
330
7D7
100
AcDbScale
 70
     0
300
1/32" = 1'-0"
140
0.03125
141
12.0
290
     0
  0
SCALE
  5
7EC
102
{ACAD_REACTORS
330
7D7
102
}
330
7D7
100
AcDbScale
 70
     0
300
1/16" = 1'-0"
140
0.0625
141
12.0
290
     0
  0
SCALE
  5
7ED
102
{ACAD_REACTORS
330
7D7
102
}
330
7D7
100
AcDbScale
 70
     0
300
3/32" = 1'-0"
140
0.09375
141
12.0
290
     0
  0
SCALE
  5
7EE
102
{ACAD_REACTORS
330
7D7
102
}
330
7D7
100
AcDbScale
 70
     0
300
1/8" = 1'-0"
140
0.125
141
12.0
290
     0
  0
SCALE
  5
7EF
102
{ACAD_REACTORS
330
7D7
102
}
330
7D7
100
AcDbScale
 70
     0
300
3/16" = 1'-0"
140
0.1875
141
12.0
290
     0
  0
SCALE
  5
7F0
102
{ACAD_REACTORS
330
7D7
102
}
330
7D7
100
AcDbScale
 70
     0
300
1/4" = 1'-0"
140
0.25
141
12.0
290
     0
  0
SCALE
  5
7F1
102
{ACAD_REACTORS
330
7D7
102
}
330
7D7
100
AcDbScale
 70
     0
300
3/8" = 1'-0"
140
0.375
141
12.0
290
     0
  0
SCALE
  5
7F2
102
{ACAD_REACTORS
330
7D7
102
}
330
7D7
100
AcDbScale
 70
     0
300
1/2" = 1'-0"
140
0.5
141
12.0
290
     0
  0
SCALE
  5
7F3
102
{ACAD_REACTORS
330
7D7
102
}
330
7D7
100
AcDbScale
 70
     0
300
3/4" = 1'-0"
140
0.75
141
12.0
290
     0
  0
SCALE
  5
7F4
102
{ACAD_REACTORS
330
7D7
102
}
330
7D7
100
AcDbScale
 70
     0
300
1" = 1'-0"
140
1.0
141
12.0
290
     0
  0
SCALE
  5
7F5
102
{ACAD_REACTORS
330
7D7
102
}
330
7D7
100
AcDbScale
 70
     0
300
1-1/2" = 1'-0"
140
1.5
141
12.0
290
     0
  0
SCALE
  5
7F6
102
{ACAD_REACTORS
330
7D7
102
}
330
7D7
100
AcDbScale
 70
     0
300
3" = 1'-0"
140
3.0
141
12.0
290
     0
  0
SCALE
  5
7F7
102
{ACAD_REACTORS
330
7D7
102
}
330
7D7
100
AcDbScale
 70
     0
300
6" = 1'-0"
140
6.0
141
12.0
290
     0
  0
SCALE
  5
7F8
102
{ACAD_REACTORS
330
7D7
102
}
330
7D7
100
AcDbScale
 70
     0
300
1'-0" = 1'-0"
140
12.0
141
12.0
290
     0
  0
DICTIONARYVAR
  5
E03
102
{ACAD_REACTORS
330
E00
102
}
330
E00
100
DictionaryVariables
280
     0
  1
1:1
  0
ENDSEC
  0
SECTION
  2
THUMBNAILIMAGE
 90
    16364
310
28000000B40000005500000001000800000000000000000000000000000000000000000000000000FFFFFF000000FF0000FFFF0000FF0000FFFF0000FF000000FF00FF000000000080808000C0C0C0000000FF007F7FFF000000A5005252A50000007F003F3F7F0000004C0026264C000000260013132600003FFF007F9FFF
310
000029A5005267A500001F7F003F4F7F0000134C00262F4C000009260013172600007FFF007FBFFF000052A500527CA500003F7F003F5F7F0000264C0026394C0000132600131C260000BFFF007FDFFF00007CA5005291A500005F7F003F6F7F0000394C0026424C00001C26001321260000FFFF007FFFFF0000A5A50052A5
310
A500007F7F003F7F7F00004C4C00264C4C00002626001326260000FFBF007FFFDF0000A57C0052A59100007F5F003F7F6F00004C3900264C420000261C001326210000FF7F007FFFBF0000A5520052A57C00007F3F003F7F5F00004C2600264C39000026130013261C0000FF3F007FFF9F0000A5290052A56700007F1F003F
310
7F4F00004C1300264C2F00002609001326170000FF00007FFF7F0000A5000052A55200007F00003F7F3F00004C0000264C260000260000132613003FFF00009FFF7F0029A5000067A552001F7F00004F7F3F00134C00002F4C260009260000172613007FFF0000BFFF7F0052A500007CA552003F7F00005F7F3F00264C0000
310
394C2600132600001C261300BFFF0000DFFF7F007CA5000091A552005F7F00006F7F3F00394C0000424C26001C26000021261300FFFF0000FFFF7F00A5A50000A5A552007F7F00007F7F3F004C4C00004C4C26002626000026261300FFBF0000FFDF7F00A57C0000A59152007F5F00007F6F3F004C3900004C422600261C00
310
0026211300FF7F0000FFBF7F00A5520000A57C52007F3F00007F5F3F004C2600004C39260026130000261C1300FF3F0000FF9F7F00A5290000A56752007F1F00007F4F3F004C1300004C2F26002609000026171300FF000000FF7F7F00A5000000A55252007F0000007F3F3F004C0000004C2626002600000026131300FF00
310
3F00FF7F9F00A5002900A55267007F001F007F3F4F004C0013004C262F002600090026131700FF007F00FF7FBF00A5005200A5527C007F003F007F3F5F004C0026004C2639002600130026131C00FF00BF00FF7FDF00A5007C00A55291007F005F007F3F6F004C0039004C26420026001C0026132100FF00FF00FF7FFF00A5
310
00A500A552A5007F007F007F3F7F004C004C004C264C002600260026132600BF00FF00DF7FFF007C00A5009152A5005F007F006F3F7F0039004C0042264C001C002600211326007F00FF00BF7FFF005200A5007C52A5003F007F005F3F7F0026004C0039264C00130026001C1326003F00FF009F7FFF002900A5006752A500
310
1F007F004F3F7F0013004C002F264C000900260017132600000000002D2D2D005B5B5B0089898900B7B7B700B3B3B30000000000000000000000000000000000000000000000000000000000000000000000000000000000000000000000000000000007070707070707070707070707070707070707070707070707070707
310
07070707070707070707070707070707070707070707070707070707070707070707070707070707070707070707070707070700000000000000000000000000000000000000000000000000000000000000000000000000000000000000000000000000000000000000000000000000000000000000000000000000000000
310
00000000000000000000000000000000000000000007070707070707070707070707070707070707070707070707070707070707070707070707070707070707070707070707070707070707070707070707070707070707070707070707070707070707070707070707070700000000000000000000000000000000000000
310
00000000000000000000000000000000000000000000000000000000000000000000000000000000000000000000000000000000000000000000000000000000000000000000000000000700000000000000000000000000000000000000000000000000000000000000000000000000000000000000000000000000000000
310
00000000000000000000000000000000000000000000000000000000000000000007000000000000000000000000000000000000000000000000000000000000000000000000000000000000000000000000000000000000000000000000000000000000000000000000000000000000000000000000000000000000000000
310
00070000000000000000000000000000000000000000000000000000000000000000000000000000000000000000000000000000000000000000000000000000000000000000000000000000000000000000000000070000000000000000000000000000000000000000000000000000000000000000000000000000000000
310
00000000000000000000000000000000000000000000000000000000000000000000000000000000000000000000000000000000000007000000000000000000000000000000000000000000000000000000000000000000000000000000000000000000000000000000000000000000000000000000000000000000000000
310
00000000000000000000070000000000000000000000000000000000000000000000000000000000000000000000000000000000000000000000000000000000000000000000000000000000000000000000000000000000000000000000000000000000000000000000000007070707070707070707070707070707070707
310
07070707070707070707070707070707070707070707070707070707070707070707070707070707070707070707070707070707070707070707070707070707000000000000000000000000000000000000000000000000000000000000000000000000000000000000000000000000000000000000000000000000000000
310
00000000000000000000000000000000000000000000000000000000000000000000000007070000070007000000000000070007000000000000000000070007000000000000000000000700070000000000000000000007070700000000000000000007000700000000000007000700000707000000000000000000000000
310
00000000000000000000000000000000000000000000000000000000000000000000000000000000000000000000000000000000000000000000000000000000000000000000000000000000000000000000000000000000000700070007000700000000000007000700000000000000000007000700000000000000000000
310
07000700000000000000000000070707000000000000000000070007000000000000070007000707070000000000000000000000000000000000000000000000000000000000000000000000000000000000000000000000000000000000000000000000000000000000000000000000000000000000000000000000000000
310
00000000000000000000000000000007000700070007000000000000070007000000000000000000070007000000000000000000000700070000000000000000000007070700000000000000000007000700000000000007000700070007000000000000000000000000000000000000000000000000000000000000000000
310
00000000000000000000000000000000000000000000000000000000000000000000000000000000000000000000000000000000000000000000000000000000000000000700000707000007000000000007000700000000000000000007000700000000000000000000070007000000000000000000000707070000000000
310
00000000070007000000000007070007070000070000000000000000000000000000000000000000000000000000000000000000000000000000000000000000000000000000000000000000000000000000000000000000000000000000000000000000000000000000000000000000000000000000000000000700070007
310
00070000000000070000070000000000000000070007000000000000000000000700070000000000000000000007070700000000000000000700000700000000000700070007000700000000000000000000000000000000000000000000000000000000000000000000000000000000000000000000000000000000000000
310
00000000000000000000000000000000000000000000000000000000000000000000000000000000000000000000000007000700070007000000000000070007000000000000000007000700000000000000000000070007000000000000000000000707070000000000000000070007000000000000070007000700070000
310
00000000000000000000000000000000000000000000000000000000000000000000000000000000000000000000000000000000000000000000000000000000000000000000000000000000000000000000000000000000000000000000000000000000000700070007000700000000000007000700000000000000000700
310
07000000000000000000000700070000000000000000000007000700000000000000000700070000000000000700070007000700000000000000000000000000000000000000000000000000000000000000000000000000000000000000000000000000000000000000000000000000000000000000000000000000000000
310
00000000000000000000000000000000000000000000000000000007000007070000070000000000070007000000000000000007070007000000000000000000070007000000000000000000000700070000000000000000070007000000000007070007070000070000000000000000000000000000000000000000000000
310
00000000000000000000000000000000000000000000000000000000000000000000000000000000000000000000000000000000000000000000000000000000000000000000000000000000000000000007000700070007000000000007000700000000000000000007000700000000000000000007000700000000000000
310
00000007000700000000000000000700070000000000070007000700070000000000000000000000000000000000000000000000000000000000000000000000000000000000000000000000000000000000000000000000000000000000000000000000000000000000000000000000000000000000000000000000000000
310
00000000000000070007000700070000000000070007000000000000000000070007000000000000000000070007000000000000000000070707000000000000000000070007000000000007000700070007000000000000000000000000000000000000000000000000000000000000000000000000000000000000000000
310
00000000000000000000000000000000000000000000000000000000000000000000000000000000000000000000000000000000000000000000000007000007070007000000000007000007000000000000000007000700000000000000000007000700000000000000000007070700000000000000000700000700000000
310
00070007070700070000000000000000000000000000000000000000000000000000000000000000000000000000000000000000000000000000000000000000000000000000000000000000000000000000000000000000000000000000000000000000000000000000000000000000000007000707000007000000000007
310
00070000000000000000070007000000000000000000070007000000000000000000070707000000000000000007000700000000000707000707000700000000000000000000000000000000000000000000000000000000000000000000000000000000000000000000000000000000000000000000000000000000000000
310
00000000000000000000000000000000000000000000000000000000000000000000000000000000070007000700070000000000070007000000000000000007000700000000000000070707000707070700000000000007070700000000000000000700070000000000070007000700070000000000000000000000000000
310
00000000000000000000000000000000000000000000000000000000000000000000000000000000000000000000000000000000000000000000000000000000000000000000000000000000000000000000000000000000000000000007000700070007000000000007000700000000000000000700070000000000070700
310
00070007000000070000000000070707000000000000000007000700000000000700070007000700000000000000000000000000000000000000000000000000000000000000000000000000000000000000000000000000000000000000000000000000000000000000000000000000000000000000000000000000000000
310
00000000000000000000000000000000000000070000070700070000000000070007000000000000000007000700000000070000000007000700000000070700000007070700000000000000000700070000000000070007070700070000000000000000000000000000000000000000000000000000000000000000000000
310
00000000000000000000000000000000000000000000000000000000000000000000000000000000000000000000000000000000000000000000000000000000000000000000000000070007070000070000000007000007000000000000000700070000070700000000000700070000000000000700000707070000000000
310
00000700000700000000070700070700070000000000000000000000000000000000000000000000000000000000000000000000000000000000000000000000000000000000000000000000000000000000000000000000000000000000000000000000000000000000000000000000000000000000000000000000000007
310
00070007000700000000000700070000000000000007000700070000000000000007000700000000000000070007000700000000000000070007000000000007000700070007000000000000000000000000000000000000000000000000000000000000000000000000000000000000000000000000000000000000000000
310
00000000000000000000000000000000000000000000000000000000000000000000000000000000000000000000000000000000070000070700070000000000070007000000000000000707000700000000000000000700070000000000000000070700070000000000000007000700000000000700070707000700000000
310
00000000000000000000000000000000000000000000000000000000000000000000000000000000000000000000000000000000000000000000000000000000000000000000000000000000000000000000000000000000000000000000000000000000000000000000070007070000070000000007000700000000000000
310
00070707000000000000000007000700000000000000000007000700000000000000070007000000000707000707000700000000000000000000000000000000000000000000000000000000000000000000000000000000000000000000000000000000000000000000000000000000000000000000000000000000000000
310
00000000000000000000000000000000000000000000000000000000000000000700070007000700000000070007000000000000000007000700000000000000000700070000000000000000000700070000000000000007000700000000070707000700070000000000000000000000000000000000000000000000000000
310
00000000000000000000000000000000000000000000000000000000000000000000000000000000000000000000000000000000000000000000000000000000000000000000000000000000000000000000000000070007000700070000000007000700000000000000000700070000000000000000070007000000000000
310
00000007000700000000000000070007000000000700070007000700000000000000000000000000000000000000000000000000000000000000000000000000000000000000000000000000000000000000000000000000000000000000000000000000000000000000000000000000000000000000000000000000000000
310
00000000000000000000000700000707000700000000070000070000000000000007000700000000000000000700070000000000000000000707070000000000000700000700000000070007070700070000000000000000000000000000000000000000000000000000000000000000000000000000000000000000000000
310
00000000000000000000000000000000000000000000000000000000000000000000000000000000000000000000000000000000000000000000000000000000000700070700000700000000070007000000000000000700070000000000000000070007000000000000000000070707000000000000070007000000000707
310
00070700070000000000000000000000000000000000000000000000000000000000000000000000000000000000000000000000000000000000000000000000000000000000000000000000000000000000000000000000000000000000000000000000000000000000000000000000000000000000070007000700070000
310
00000700070000000000000707000700000000000000000700070000000000000000000707070000000000000700070000000007070700070007000000000000000000000000000000000000000000000000000000000000000000000000000000000000000000000000000000000000000000000000000000000000000000
310
00000000000000000000000000000000000000000000000000000000000000000000000000000000000000000700000707000700000000070007000000000000070700070000000000000000070007000000000000000000070707000000000000070007000000000700070707000700000000000000000000000000000000
310
00000000000000000000000000000000000000000000000000000000000000000000000000000000000000000000000000000000000000000000000000000000000000000000000000000000000000000000000000000000000000000000000000000700070700070000000007000700000000000007070007000000000000
310
00000700070000000000000000000707000000000000000700070000000007000707070700000000000000000000000000000000000000000000000000000000000000000000000000000000000000000000000000000000000000000000000000000000000000000000000000000000000000000000000000000000000000
310
00000000000000000000000000000000000000000000000007000707000007000000070000070000000000070700070000000000000000070007000000000000000007000707000000000007000007000000070700070700070000000000000000000000000000000000000000000000000000000000000000000000000000
310
00000000000000000000000000000000000000000000000000000000000000000000000000000000000000000000000000000000000000000000000000000000000000000000000000000000000700070007000700000000070007000000000007000700070000000000000007000700000000000000000700070700000000
310
00070007000000000707070007000700000000000000000000000000000000000000000000000000000000000000000000000000000000000000000000000000000000000000000000000000000000000000000000000000000000000000000000000000000000000000000000000000000000000000000000000000000000
310
00000007000007070007000000000700070000000000070007000700000000000000070007000000000000000007000707000000000007000700000000070007070700070000000000000000000000000000000000000000000000000000000000000000000000000000000000000000000000000000000000000000000000
310
00000000000000000000000000000000000000000000000000000000000000000000000000000000000000000000000000000000000000000007000707000700000000070007000000000000070700070000000000000007000700000000000000000700070700000000000700070000000007000707070700000000000000
310
00000000000000000000000000000000000000000000000000000000000000000000000000000000000000000000000000000000000000000000000000000000000000000000000000000000000000000000000000000000000000000000000000000000000000000000000000000700070700000700000007000700000000
310
00000707000700000000000000070007000000000000000007000700000000000007000700000007070007070007000000000000000000000000000000000000000000000000000000000000000000000000000000000000000000000000000000000000000000000000000000000000000000000000000000000000000000
310
00000000000000000000000000000000000000000000000000000000000000000000000007000007070007000000070000070000000000070700070000000000000007000700000000000000000700070000000000070000070000000707070707000700000000000000000000000000000000000000000000000000000000
310
00000000000000000000000000000000000000000000000000000000000000000000000000000000000000000000000000000000000000000000000000000000000000000000000000000000000000000000000000000000000007000707000700000000070007000000000007070007000000000000000700070000000000
310
00000007070700000000000700070000000007000707070700000000000000000000000000000000000000000000000000000000000000000000000000000000000000000000000000000000000000000000000000000000000000000000000000000000000000000000000000000000000000000000000000000000000000
310
00000000000000000000000000000000070007070007000000000700070000000000070700070000000000000007000700000000000000000707000000000000070007000000000700070707070000000000000000000000000000000000000000000000000000000000000000000000000000000000000000000000000000
310
00000000000000000000000000000000000000000000000000000000000000000000000000000000000000000000000000000000000000000000000000000000000000000007000707000007000000070007000000000007070007000000000000000700070000000000000000070700000000000007000700000007070007
310
07000700000000000000000000000000000000000000000000000000000000000000000000000000000000000000000000000000000000000000000000000000000000000000000000000000000000000000000000000000000000000000000000000000000000000000000000000000000000000000000000000700000707
310
00070000000700070000000000070700070000000000000007000700000000000000000707000000000000070007000000070707070700070000000000000000000000000000000000000000000000000000000000000000000000000000000000000000000000000000000000000000000000000000000000000000000000
310
00000000000000000000000000000000000000000000000000000000000000000000000000000000000000000000000000070007070007000000070007000000000007070007070000000000000700070000000000000707000700000000000007000700000007000707070700000000000000000000000000000000000000
310
00000000000000000000000000000000000000000000000000000000000000000000000000000000000000000000000000000000000000000000000000000000000000000000000000000000000000000000000000000000000000000000000000000000000007000707000007000007000007000000000007070007070707
310
07070707000707070007070700070007000000000007000007000007070007070007000000000000000000000000000000000000000000000000000000000000000000000000000000000000000000000000000000000000000000000000000000000000000000000000000000000000000000000000000000000000000000
310
00000000000000000000000000000000000000000000000000000000070000070700070000000700070000000000070700070007070707070700070707070707000007000700000000000700070000000707070707000700000000000000000000000000000000000000000000000000000000000000000000000000000000
310
00000000000000000000000000000000000000000000000000000000000000000000000000000000000000000000000000000000000000000000000000000000000000000000000000000000000000000000070007070007000000070007000000000007070007000700000000070007000000000700070700070000000000
310
07000700000007070707070700000000000000000000000000000000000000000000000000000000000000000000000000000000000000000000000000000000000000000000000000000000000000000000000000000000000000000000000000000000000000000000000000000000000000000000000000000000000000
310
00000000000000000700070700070000000700070000000000070700070007000000000700070000000007000707000700000000000700070000000700070707070000000000000000000000000000000000000000000000000000000000000000000000000000000000000000000000000000000000000000000000000000
310
00000000000000000000000000000000000000000000000000000000000000000000000000000000000000000000000000000000000000000000000000070007070000070000070007000000000007070007000700000000070007000000000700070700070000000000070007000007070007070007000000000000000000
310
00000000000000000000000000000000000000000000000000000000000000000000000000000000000000000000000000000000000000000000000000000000000000000000000000000000000000000000000000000000000000000000000000000000000000000000000000000000000007000007070007000007000007
310
00000000070700070007000000000700070000000007000707000700000000070000070000070707070700070000000000000000000000000000000000000000000000000000000000000000000000000000000000000000000000000000000000000000000000000000000000000000000000000000000000000000000000
310
00000000000000000000000000000000000000000000000000000000000000000000000000000000000700070700070000000700070000000007070007000700000000070007000000000700070700070000000007000700000007070707070700000000000000000000000000000000000000000000000000000000000000
310
00000000000000000000000000000000000000000000000000000000000000000000000000000000000000000000000000000000000000000000000000000000000000000000000000000000000000000000000000000000000000000000070007070007000000070007000000000707000700070000000007000700000000
310
07000707000700000000070007000000070007070707000000000000000000000000000000000000000000000000000000000000000000000000000000000000000000000000000000000000000000000000000000000000000000000000000000000000000000000000000000000000000000000000000000000000000000
310
00000000000000000000000000000000000000000700000700000700000700070000000007070007000700000000070007000000000700070707000000000007000700000707000707000700000000000000000000000000000000000000000000000000000000000000000000000000000000000000000000000000000000
310
00000000000000000000000000000000000000000000000000000000000000000000000000000000000000000000000000000000000000000000000000000000000000000000000000000700070700070000070007000000000707000700070000000007000700000000070007000700000000000700070000070707070707
310
00000000000000000000000000000000000000000000000000000000000000000000000000000000000000000000000000000000000000000000000000000000000000000000000000000000000000000000000000000000000000000000000000000000000000000000000000000000000000000000000000000000000000
310
07000707000700000700070000000000070700070700000000070007000000000707070007000000000007000700000707070707070000000000000000000000000000000000000000000000000000000000000000000000000000000000000000000000000000000000000000000000000000000000000000000000000000
310
00000000000000000000000000000000000000000000000000000000000000000000000000000000000000000000000000000000000700070700070000070000070000000007070007070000000007000700000000070707000700000000070000070000070007070707000000000000000000000000000000000000000000
310
00000000000000000000000000000000000000000000000000000000000000000000000000000000000000000000000000000000000000000000000000000000000000000000000000000000000000000000000000000000000000000000000000000000000000000000070000070000070000070007000000000707000707
310
00000000070007000000000707070007000000000700070000070700070700070000000000000000000000000000000000000000000000000000000000000000000000000000000000000000000000000000000000000000000000000000000000000000000000000000000000000000000000000000000000000000000000
310
00000000000000000000000000000000000000000000000000000000000000000007000707000700000700070000000007070007070000000007000700000000070707000700000000070007000007070707070700000000000000000000000000000000000000000000000000000000000000000000000000000000000000
310
00000000000000000000000000000000000000000000000000000000000000000000000000000000000000000000000000000000000000000000000000000000000000000000000000000000000000000000000000000700070700070000070007000000000707000707000000000700070000000007070700070000000007
310
00070000070007070007000000000000000000000000000000000000000000000000000000000000000000000000000000000000000000000000000000000000000000000000000000000000000000000000000000000000000000000000000000000000000000000000000000000000000000000000000000000000000000
310
00000000000000000000000007000707000700000707000700000007070007000000000007000700000000000700070700000007070007000007000707000700000000000000000000000000000000000000000000000000000000000000000000000000000000000000000000000000000000000000000000000000000000
310
00000000000000000000000000000000000000000000000000000000000000000000000000000000000000000000000000000000000000000000000000000000000007000707000707070700070707070707000707070707070700070707070707070007070707070700070707070000070007000000000000000000000000
310
00000000000000000000000000000000000000000000000000000000000000000000000000000000000000000000000000000000000000000000000000000000000000000000000000000000000000000000000000000000000000000000000000000000000000000000000000000000000000000000000707000707000000
310
00070000000000000700000000000007000700000000000007070000000000070000000007070007070000000000000000000000000000000000000000000000000000000000000000000000000000000000000000000000000000000000000000000000000000000000000000000000000000000000000000000000000000
310
00000000000000000000000000000000000000000000000000000000000000000000000000000000000000000000000707070707070707070707070707070707070707070707070707070707070707070707070707070707070707070000000000000000000000000000000000000000000000000000000000000000000000
310
00000000000000000000000000000000000000000000000000000000000000000000000000000000000000000000000000000000000000000000000000000000000000000000000000000000000000000000000000000000000000000000000000000000000000000000000000000707070707070707070707070707070707
310
07070707070707070000000000000000000000000000000000000000000000000000000000000000000000000000000000000000000000000000000000000000000000000000000000000000000000000000000000000000000000000000000000000000000000000000000000000000000000000000000000000000000000
310
00000000000000000000000000000000000000000000000000000000000000000000000000000000070707070707070707070707070707070700000000000000000000000000000000000000000000000000000000000000000000000000000000000000000000000000000000000000000000000000000000000000000000
310
00000000000000000000000000000000000000000000000000000000000000000000000000000000000000000000000000000000000000000000000000000000000000000000000000000000000000000000000000000000000000000000000000070707070707070707000000000000000000000000000000000000000000
310
00000000000000000000000000000000000000000000000000000000000000000000000000000000000000000000000000000000000000000000000000000000000000000000000000000000000000000000000000000000000000000000000000000000000000000000000000000000000000000000000000000000000000
310
00000000000000000000000000000000000000000000000700000000000000070000000000000000000000000000000000000000000000000000000000000000000000000000000000000000000000000000000000000000000000000000000000000000000000000000000000000000000000000000000000000000000000
310
00000000000000000000000000000000000000000000000000000000000000000000000000000000000000000000000000000000000000000000000000000000000000000000000000000000070000000000000007000000000000000000000000000000000000000000000000000000000000000000000000000000000000
310
00000000000000000000000000000000000000000000000000000000000000000000000000000000000000000000000000000000000000000000000000000000000000000000000000000000000000000000000000000000000000000000000000000000000000000000000000000000000000000000000000000000000000
310
00000700000000000000070000000000000000000000000000000000000000000000000000000000000000000000000000000000000000000000000000000000000000000000000000000000000000000000000000000000000000000000000000000000000000000000000000000000000000000000000000000000000000
310
00000000000000000000000000000000000000000000000000000000000000000000000000000000000000000000000000000000000000070000000000000007000000000000000000000000000000000000000000000000000000000000000000000000000000000000000000000000000000000000000000000000000000
310
00000000000000000000000000000000000000000000000000000000000000000000000000000000000000000000000000000000000000000000000000000000000000000000000000000000000000000000000000000000000000000000000000000000000000000000000000000000000000000700000000000000000000
310
00000000000000000000000000000000000000000000000000000000000000000000000000000000000000000000000000000000000000000000000000000000000000000000000000000000000000000000000000000000000000000000000000000000000000000000000000000000000000000000000000000000000000
310
00000000000000000000000000000000000000000000000000000000000000000000070000000000000007000000000000000000000000000000000000000000000000000000000000000000000000000000000000000000000000000000000000000000000000000000000000000000000000000000000000000000000000
310
00000000000000000000000000000000000000000000000000000000000000000000000000000000000000000000000000000000000000000000000000000000000000000000000000000000000000000000000000000007000000000000000700000000000000000000000000000000000000000000000000000000000000
310
00000000000000000000000000000000000000000000000000000000000000000000000000000000000000000000000000000000000000000000000000000000000000000000000000000000000000000000000000000000000000000000000000000000000000000000000000000000000000000000000000000000000000
310
00000000000000000000000000070000000000000007000000000000000000000000000000000000000000000000000000000000000000000000000000000000000000000000000000000000000000000000000000000000000000000000000000000000000000000000000000000000000000000000000000000000000000
310
00000000000000000000000000000000000000000000000000000000000000000000000000000000000000000000000000000000000000000000000000000000000700000000000000000007000000000000000000000000000000000000000000000000000000000000000000000000000000000000000000000000000000
310
00000000000000000000000000000000000000000000000000000000000000000000000000000000000000000000000000000000000000000000000000000000000000000000000000000000000000000000000000000000000000000000000000000000000000000000000000000000000000000007000000000000000000
310
00000700000000000000000000000000000000000000000000000000000000000000000000000000000000000000000000000000000000000000000000000000000000000000000000000000000000000000000000000000000000000000000000000000000000000000000000000000000000000000000000000000000000
310
00000000000000000000000000000000000000000000000000000000000000000000000000000000000000070000000000000000000000070000000000000000000000000000000000000000000000000000000000000000000000000000000000000000000000000000000000000000000000000000000000000000000000
310
00000000000000000000000000000000000000000000000000000000000000000000000000000000000000000000000000000000000000000000000000000000000000000000000000000000000000000000000000000000000000000000070700000000000000000000000000070700000000000000000000000000000000
310
00000000000000000000000000000000000000000000000000000000000000000000000000000000000000000000000000000000000000000000000000000000000000000000000000000000000000000000000000000000000000000000000000000000000000000000000000000000000000000000000000000000000000
310
00000000000000000000000000000000000007070000000000000000000000000000000000070707000000000000000000000000000000000000000000000000000000000000000000000000000000000000000000000000000000000000000000000000000000000000000000000000000000000000000000000000000000
310
00000000000000000000000000000000000000000000000000000000000000000000000000000000000000000000000000000000000000000000000000000000000000000707070000000000000000000000000000000000000000000007070000000000000000000000000000000000000000000000000000000000000000
310
00000000000000000000000000000000000000000000000000000000000000000000000000000000000000000000000000000000000000000000000000000000000000000000000000000000000000000000000000000000000000000000000000000000000000000000000000000000000000000000000000070000000000
310
00000000000000000000000000000000000000000700000000000000000000000000000000000000000000000000000000000000000000000000000000000000000000000000000000000000000000000000000000000000000000000000000000000000000000000000000000000000000000000000000000000000000000
310
00000000000000000000000000000000000000000000000000000000000000000000000000000000000000000000000700000000000000000000000000000000000000000000000000070000000000000000000000000000000000000000000000000000000000000000000000000000000000000000000000000000000000
310
00000000000000000000000000000000000000000000000000000000000000000000000000000000000000000000000000000000000000000000000000000000000000000000000000000000000000000000000000000000000000000000000000000000070000000000000000000000000000000000000000000000000007
310
00000000000000000000000000000000000000000000000000000000000000000000000000000000000000000000000000000000000000000000000000000000000000000000000000000000000000000000000000000000000000000000000000000000000000000000000000000000000000000000000000000000000000
310
00000000000000000000000000000000000000000000000000000700000000000000000000000000000000000000000000000000070000000000000000000000000000000000000000000000000000000000000000000000000000000000000000000000000000000000000000000000000000000000000000000000000000
310
00000000000000000000000000000000000000000000000000000000000000000000000000000000000000000000000000000000000000000000000000000000000000000000000000000000000000070707070707070707070707070707070707070707070707070707000000000000000000000000000000000000000000
310
00000000000000000000000000000000000000000000000000000000000000000000000000000000000000000000000000000000000000000000000000000000000000000000000000000000000000000000000000000000000000000000000000000000000000000000000000000000000000000000000000000000000000
310
000000000000000000000000000000000000000000000000000000000000000000000000000000000000000000000000000000000000000000000000000000000000000000000000000000000000000000000000000000000000000000000000000000000000000000000000
  0
ENDSEC
  0
EOF
