  0
SECTION
  2
HEADER
  9
$ACADVER
  1
AC1015
  9
$ACADMAINTVER
 70
     6
  9
$DWGCODEPAGE
  3
ANSI_1252
  9
$INSBASE
 10
0.0
 20
0.0
 30
0.0
  9
$EXTMIN
 10
0.0
 20
0.0
 30
0.0
  9
$EXTMAX
 10
274.0
 20
658.0
 30
0.0
  9
$LIMMIN
 10
0.0
 20
0.0
  9
$LIMMAX
 10
12.0
 20
9.0
  9
$ORTHOMODE
 70
     0
  9
$REGENMODE
 70
     1
  9
$FILLMODE
 70
     1
  9
$QTEXTMODE
 70
     0
  9
$MIRRTEXT
 70
     1
  9
$LTSCALE
 40
1.0
  9
$ATTMODE
 70
     1
  9
$TEXTSIZE
 40
0.2
  9
$TRACEWID
 40
0.05
  9
$TEXTSTYLE
  7
Standard
  9
$CLAYER
  8
0
  9
$CELTYPE
  6
ByBlock
  9
$CECOLOR
 62
   256
  9
$CELTSCALE
 40
1.0
  9
$DISPSILH
 70
     0
  9
$DIMSCALE
 40
1.0
  9
$DIMASZ
 40
0.18
  9
$DIMEXO
 40
0.0625
  9
$DIMDLI
 40
0.38
  9
$DIMRND
 40
0.0
  9
$DIMDLE
 40
0.0
  9
$DIMEXE
 40
0.18
  9
$DIMTP
 40
0.0
  9
$DIMTM
 40
0.0
  9
$DIMTXT
 40
0.18
  9
$DIMCEN
 40
0.09
  9
$DIMTSZ
 40
0.0
  9
$DIMTOL
 70
     0
  9
$DIMLIM
 70
     0
  9
$DIMTIH
 70
     1
  9
$DIMTOH
 70
     1
  9
$DIMSE1
 70
     0
  9
$DIMSE2
 70
     0
  9
$DIMTAD
 70
     0
  9
$DIMZIN
 70
     0
  9
$DIMBLK
  1

  9
$DIMASO
 70
     1
  9
$DIMSHO
 70
     1
  9
$DIMPOST
  1

  9
$DIMAPOST
  1

  9
$DIMALT
 70
     0
  9
$DIMALTD
 70
     2
  9
$DIMALTF
 40
25.4
  9
$DIMLFAC
 40
1.0
  9
$DIMTOFL
 70
     0
  9
$DIMTVP
 40
0.0
  9
$DIMTIX
 70
     0
  9
$DIMSOXD
 70
     0
  9
$DIMSAH
 70
     0
  9
$DIMBLK1
  1

  9
$DIMBLK2
  1

  9
$DIMSTYLE
  2
Standard
  9
$DIMCLRD
 70
     0
  9
$DIMCLRE
 70
     0
  9
$DIMCLRT
 70
     0
  9
$DIMTFAC
 40
1.0
  9
$DIMGAP
 40
0.09
  9
$DIMJUST
 70
     0
  9
$DIMSD1
 70
     0
  9
$DIMSD2
 70
     0
  9
$DIMTOLJ
 70
     1
  9
$DIMTZIN
 70
     0
  9
$DIMALTZ
 70
     0
  9
$DIMALTTZ
 70
     0
  9
$DIMUPT
 70
     0
  9
$DIMDEC
 70
     4
  9
$DIMTDEC
 70
     4
  9
$DIMALTU
 70
     2
  9
$DIMALTTD
 70
     2
  9
$DIMTXSTY
  7
Standard
  9
$DIMAUNIT
 70
     0
  9
$DIMADEC
 70
     0
  9
$DIMALTRND
 40
0.0
  9
$DIMAZIN
 70
     0
  9
$DIMDSEP
 70
    46
  9
$DIMATFIT
 70
     3
  9
$DIMFRAC
 70
     0
  9
$DIMLDRBLK
  1

  9
$DIMLUNIT
 70
     2
  9
$DIMLWD
 70
    -2
  9
$DIMLWE
 70
    -2
  9
$DIMTMOVE
 70
     2
  9
$LUNITS
 70
     2
  9
$LUPREC
 70
     4
  9
$SKETCHINC
 40
0.1
  9
$FILLETRAD
 40
0.5
  9
$AUNITS
 70
     0
  9
$AUPREC
 70
     0
  9
$MENU
  1
.
  9
$ELEVATION
 40
0.0
  9
$PELEVATION
 40
0.0
  9
$THICKNESS
 40
0.0
  9
$LIMCHECK
 70
     0
  9
$CHAMFERA
 40
0.5
  9
$CHAMFERB
 40
0.5
  9
$CHAMFERC
 40
1.0
  9
$CHAMFERD
 40
0.0
  9
$SKPOLY
 70
     0
  9
$TDCREATE
 40
2456647.945389711
  9
$TDUCREATE
 40
2456647.903723044
  9
$TDUPDATE
 40
2456647.958681273
  9
$TDUUPDATE
 40
2456647.917014606
  9
$TDINDWG
 40
0.0132912037
  9
$TDUSRTIMER
 40
0.0132912037
  9
$USRTIMER
 70
     1
  9
$ANGBASE
 50
0.0
  9
$ANGDIR
 70
     0
  9
$PDMODE
 70
     0
  9
$PDSIZE
 40
0.0
  9
$PLINEWID
 40
0.0
  9
$SPLFRAME
 70
     0
  9
$SPLINETYPE
 70
     6
  9
$SPLINESEGS
 70
     8
  9
$HANDSEED
  5
83B
  9
$SURFTAB1
 70
     6
  9
$SURFTAB2
 70
     6
  9
$SURFTYPE
 70
     6
  9
$SURFU
 70
     6
  9
$SURFV
 70
     6
  9
$UCSBASE
  2

  9
$UCSNAME
  2

  9
$UCSORG
 10
0.0
 20
0.0
 30
0.0
  9
$UCSXDIR
 10
1.0
 20
0.0
 30
0.0
  9
$UCSYDIR
 10
0.0
 20
1.0
 30
0.0
  9
$UCSORTHOREF
  2

  9
$UCSORTHOVIEW
 70
     0
  9
$UCSORGTOP
 10
0.0
 20
0.0
 30
0.0
  9
$UCSORGBOTTOM
 10
0.0
 20
0.0
 30
0.0
  9
$UCSORGLEFT
 10
0.0
 20
0.0
 30
0.0
  9
$UCSORGRIGHT
 10
0.0
 20
0.0
 30
0.0
  9
$UCSORGFRONT
 10
0.0
 20
0.0
 30
0.0
  9
$UCSORGBACK
 10
0.0
 20
0.0
 30
0.0
  9
$PUCSBASE
  2

  9
$PUCSNAME
  2

  9
$PUCSORG
 10
0.0
 20
0.0
 30
0.0
  9
$PUCSXDIR
 10
1.0
 20
0.0
 30
0.0
  9
$PUCSYDIR
 10
0.0
 20
1.0
 30
0.0
  9
$PUCSORTHOREF
  2

  9
$PUCSORTHOVIEW
 70
     0
  9
$PUCSORGTOP
 10
0.0
 20
0.0
 30
0.0
  9
$PUCSORGBOTTOM
 10
0.0
 20
0.0
 30
0.0
  9
$PUCSORGLEFT
 10
0.0
 20
0.0
 30
0.0
  9
$PUCSORGRIGHT
 10
0.0
 20
0.0
 30
0.0
  9
$PUCSORGFRONT
 10
0.0
 20
0.0
 30
0.0
  9
$PUCSORGBACK
 10
0.0
 20
0.0
 30
0.0
  9
$USERI1
 70
     0
  9
$USERI2
 70
     0
  9
$USERI3
 70
     0
  9
$USERI4
 70
     0
  9
$USERI5
 70
     0
  9
$USERR1
 40
0.0
  9
$USERR2
 40
0.0
  9
$USERR3
 40
0.0
  9
$USERR4
 40
0.0
  9
$USERR5
 40
0.0
  9
$WORLDVIEW
 70
     1
  9
$SHADEDGE
 70
     3
  9
$SHADEDIF
 70
    70
  9
$TILEMODE
 70
     1
  9
$MAXACTVP
 70
    64
  9
$PINSBASE
 10
0.0
 20
0.0
 30
0.0
  9
$PLIMCHECK
 70
     0
  9
$PEXTMIN
 10
1.000000000000E+20
 20
1.000000000000E+20
 30
1.000000000000E+20
  9
$PEXTMAX
 10
-1.000000000000E+20
 20
-1.000000000000E+20
 30
-1.000000000000E+20
  9
$PLIMMIN
 10
0.0
 20
0.0
  9
$PLIMMAX
 10
12.0
 20
9.0
  9
$UNITMODE
 70
     0
  9
$VISRETAIN
 70
     1
  9
$PLINEGEN
 70
     0
  9
$PSLTSCALE
 70
     1
  9
$TREEDEPTH
 70
  3020
  9
$CMLSTYLE
  2
Standard
  9
$CMLJUST
 70
     0
  9
$CMLSCALE
 40
1.0
  9
$PROXYGRAPHICS
 70
     1
  9
$MEASUREMENT
 70
     0
  9
$CELWEIGHT
370
    -1
  9
$ENDCAPS
280
     0
  9
$JOINSTYLE
280
     0
  9
$LWDISPLAY
290
     0
  9
$INSUNITS
 70
     0
  9
$HYPERLINKBASE
  1

  9
$STYLESHEET
  1

  9
$XEDIT
290
     1
  9
$CEPSNTYPE
380
     0
  9
$PSTYLEMODE
290
     1
  9
$FINGERPRINTGUID
  2
{07AB599B-1385-4E7A-AD76-3E3F28601715}
  9
$VERSIONGUID
  2
{FAEB1C32-E019-11D5-929B-00C0DF256EC4}
  9
$EXTNAMES
290
     1
  9
$PSVPSCALE
 40
0.0
  9
$OLESTARTUP
290
     0
  0
ENDSEC
  0
SECTION
  2
CLASSES
  0
CLASS
  1
ACDBDICTIONARYWDFLT
  2
AcDbDictionaryWithDefault
  3
ObjectDBX Classes
 90
        0
280
     0
281
     0
  0
CLASS
  1
SCALE
  2
AcDbScale
  3
ObjectDBX Classes
 90
     1153
280
     0
281
     0
  0
CLASS
  1
DICTIONARYVAR
  2
AcDbDictionaryVar
  3
ObjectDBX Classes
 90
        0
280
     0
281
     0
  0
CLASS
  1
ACDBPLACEHOLDER
  2
AcDbPlaceHolder
  3
ObjectDBX Classes
 90
        0
280
     0
281
     0
  0
CLASS
  1
LAYOUT
  2
AcDbLayout
  3
ObjectDBX Classes
 90
        0
280
     0
281
     0
  0
ENDSEC
  0
SECTION
  2
TABLES
  0
TABLE
  2
VPORT
  5
8
330
0
100
AcDbSymbolTable
 70
     1
  0
VPORT
  5
7B7
330
8
100
AcDbSymbolTableRecord
100
AcDbViewportTableRecord
  2
*Active
 70
     0
 10
0.0
 20
0.0
 11
1.0
 21
1.0
 12
137.0
 22
329.0
 13
0.0
 23
0.0
 14
0.5
 24
0.5
 15
0.5
 25
0.5
 16
0.0
 26
0.0
 36
1.0
 17
0.0
 27
0.0
 37
0.0
 40
671.16
 41
1.729542302358
 42
50.0
 43
0.0
 44
0.0
 50
0.0
 51
0.0
 71
    16
 72
   100
 73
     1
 74
     3
 75
     0
 76
     0
 77
     0
 78
     0
281
     0
 65
     1
110
0.0
120
0.0
130
0.0
111
1.0
121
0.0
131
0.0
112
0.0
122
1.0
132
0.0
 79
     0
146
0.0
  0
ENDTAB
  0
TABLE
  2
LTYPE
  5
5
330
0
100
AcDbSymbolTable
 70
     1
  0
LTYPE
  5
14
330
5
100
AcDbSymbolTableRecord
100
AcDbLinetypeTableRecord
  2
ByBlock
 70
     0
  3

 72
    65
 73
     0
 40
0.0
  0
LTYPE
  5
15
330
5
100
AcDbSymbolTableRecord
100
AcDbLinetypeTableRecord
  2
ByLayer
 70
     0
  3

 72
    65
 73
     0
 40
0.0
  0
LTYPE
  5
16
330
5
100
AcDbSymbolTableRecord
100
AcDbLinetypeTableRecord
  2
Continuous
 70
     0
  3
Solid line
 72
    65
 73
     0
 40
0.0
  0
ENDTAB
  0
TABLE
  2
LAYER
  5
2
330
0
100
AcDbSymbolTable
 70
     1
  0
LAYER
  5
10
330
2
100
AcDbSymbolTableRecord
100
AcDbLayerTableRecord
  2
0
 70
     0
 62
     7
  6
Continuous
370
    -3
390
F
  0
ENDTAB
  0
TABLE
  2
STYLE
  5
3
330
0
100
AcDbSymbolTable
 70
     1
  0
STYLE
  5
11
330
3
100
AcDbSymbolTableRecord
100
AcDbTextStyleTableRecord
  2
Standard
 70
     0
 40
0.0
 41
1.0
 50
0.0
 71
     0
 42
0.2
  3
txt
  4

  0
ENDTAB
  0
TABLE
  2
VIEW
  5
6
330
0
100
AcDbSymbolTable
 70
     0
  0
ENDTAB
  0
TABLE
  2
UCS
  5
7
330
0
100
AcDbSymbolTable
 70
     0
  0
ENDTAB
  0
TABLE
  2
APPID
  5
9
330
0
100
AcDbSymbolTable
 70
     1
  0
APPID
  5
12
330
9
100
AcDbSymbolTableRecord
100
AcDbRegAppTableRecord
  2
ACAD
 70
     0
  0
ENDTAB
  0
TABLE
  2
DIMSTYLE
  5
A
330
0
100
AcDbSymbolTable
 70
     1
100
AcDbDimStyleTable
  0
DIMSTYLE
105
20
330
A
100
AcDbSymbolTableRecord
100
AcDbDimStyleTableRecord
  2
Standard
 70
     0
340
11
  0
ENDTAB
  0
TABLE
  2
BLOCK_RECORD
  5
1
330
0
100
AcDbSymbolTable
 70
     0
  0
BLOCK_RECORD
  5
1D
330
1
100
AcDbSymbolTableRecord
100
AcDbBlockTableRecord
  2
*Model_Space
340
1E
  0
BLOCK_RECORD
  5
1B
330
1
100
AcDbSymbolTableRecord
100
AcDbBlockTableRecord
  2
*Paper_Space
340
1C
  0
ENDTAB
  0
ENDSEC
  0
SECTION
  2
BLOCKS
  0
BLOCK
  5
7BA
330
1D
100
AcDbEntity
  8
0
100
AcDbBlockBegin
  2
*Model_Space
 70
     0
 10
0.0
 20
0.0
 30
0.0
  3
*Model_Space
  1
*Model_Space
  0
ENDBLK
  5
7BB
330
1D
100
AcDbEntity
  8
0
100
AcDbBlockEnd
  0
BLOCK
  5
7B8
330
1B
100
AcDbEntity
 67
     1
  8
0
100
AcDbBlockBegin
  2
*Paper_Space
 70
     0
 10
0.0
 20
0.0
 30
0.0
  3
*Paper_Space
  1
*Paper_Space
  0
ENDBLK
  5
7B9
330
1B
100
AcDbEntity
 67
     1
  8
0
100
AcDbBlockEnd
  0
ENDSEC
  0
SECTION
  2
ENTITIES
  0
LINE
  5
21
330
1D
100
AcDbEntity
  8
0
100
AcDbLine
 10
101.542
 20
4.66816
 30
0.0
 11
113.21
 21
2.08134
 31
0.0
  0
LINE
  5
22
330
1D
100
AcDbEntity
  8
0
100
AcDbLine
 10
125.06
 20
0.521326
 30
0.0
 11
137.0
 21
0.0
 31
0.0
  0
LINE
  5
23
330
1D
100
AcDbEntity
  8
0
100
AcDbLine
 10
125.06
 20
0.521326
 30
0.0
 11
137.0
 21
0.0
 31
0.0
  0
LINE
  5
24
330
1D
100
AcDbEntity
  8
0
100
AcDbLine
 10
113.21
 20
2.08134
 30
0.0
 11
125.06
 21
0.521326
 31
0.0
  0
LINE
  5
25
330
1D
100
AcDbEntity
  8
0
100
AcDbLine
 10
113.21
 20
2.08134
 30
0.0
 11
125.06
 21
0.521326
 31
0.0
  0
LINE
  5
26
330
1D
100
AcDbEntity
  8
0
100
AcDbLine
 10
137.0
 20
0.0
 30
0.0
 11
148.94
 21
0.521326
 31
0.0
  0
LINE
  5
27
330
1D
100
AcDbEntity
  8
0
100
AcDbLine
 10
137.0
 20
0.0
 30
0.0
 11
148.94
 21
0.521326
 31
0.0
  0
LINE
  5
28
330
1D
100
AcDbEntity
  8
0
100
AcDbLine
 10
79.1011
 20
12.8359
 30
0.0
 11
90.1436
 21
8.26202
 31
0.0
  0
LINE
  5
29
330
1D
100
AcDbEntity
  8
0
100
AcDbLine
 10
90.1436
 20
8.26202
 30
0.0
 11
101.542
 21
4.66816
 31
0.0
  0
LINE
  5
2A
330
1D
100
AcDbEntity
  8
0
100
AcDbLine
 10
102.838
 20
9.5044
 30
0.0
 11
114.08
 21
7.01212
 31
0.0
  0
LINE
  5
2B
330
1D
100
AcDbEntity
  8
0
100
AcDbLine
 10
68.5002
 20
18.3545
 30
0.0
 11
79.1011
 21
12.8359
 31
0.0
  0
LINE
  5
2C
330
1D
100
AcDbEntity
  8
0
100
AcDbLine
 10
18.3545
 20
68.5002
 30
0.0
 11
24.776
 21
58.4203
 31
0.0
  0
LINE
  5
2D
330
1D
100
AcDbEntity
  8
0
100
AcDbLine
 10
22.6905
 20
71.0038
 30
0.0
 11
28.8776
 21
61.2918
 31
0.0
  0
LINE
  5
2E
330
1D
100
AcDbEntity
  8
0
100
AcDbLine
 10
32.052
 20
48.9379
 30
0.0
 11
40.1266
 21
40.1263
 31
0.0
  0
LINE
  5
2F
330
1D
100
AcDbEntity
  8
0
100
AcDbLine
 10
38.8583
 20
56.3936
 30
0.0
 11
39.1233
 21
57.7025
 31
0.0
  0
LINE
  5
30
330
1D
100
AcDbEntity
  8
0
100
AcDbLine
 10
39.1233
 20
57.7025
 30
0.0
 11
39.9295
 21
58.767
 31
0.0
  0
LINE
  5
31
330
1D
100
AcDbEntity
  8
0
100
AcDbLine
 10
39.9295
 20
58.767
 30
0.0
 11
40.0413
 21
58.8606
 31
0.0
  0
LINE
  5
32
330
1D
100
AcDbEntity
  8
0
100
AcDbLine
 10
40.0413
 20
58.8606
 30
0.0
 11
40.3749
 21
59.1404
 31
0.0
  0
LINE
  5
33
330
1D
100
AcDbEntity
  8
0
100
AcDbLine
 10
40.3749
 20
59.1404
 30
0.0
 11
74.8606
 21
88.0773
 31
0.0
  0
LINE
  5
34
330
1D
100
AcDbEntity
  8
0
100
AcDbLine
 10
35.8872
 20
52.1568
 30
0.0
 11
43.667
 21
43.6666
 31
0.0
  0
LINE
  5
35
330
1D
100
AcDbEntity
  8
0
100
AcDbLine
 10
24.776
 20
58.4203
 30
0.0
 11
32.052
 21
48.9379
 31
0.0
  0
LINE
  5
36
330
1D
100
AcDbEntity
  8
0
100
AcDbLine
 10
28.8776
 20
61.2918
 30
0.0
 11
35.8872
 21
52.1568
 31
0.0
  0
LINE
  5
39
330
1D
100
AcDbEntity
  8
0
100
AcDbLine
 10
40.1266
 20
40.1263
 30
0.0
 11
48.9379
 21
32.052
 31
0.0
  0
LINE
  5
3A
330
1D
100
AcDbEntity
  8
0
100
AcDbLine
 10
72.1473
 20
29.0089
 30
0.0
 11
72.5408
 21
30.285
 31
0.0
  0
LINE
  5
3B
330
1D
100
AcDbEntity
  8
0
100
AcDbLine
 10
72.5408
 20
30.285
 30
0.0
 11
72.6139
 21
30.4112
 31
0.0
  0
LINE
  5
3C
330
1D
100
AcDbEntity
  8
0
100
AcDbLine
 10
72.6139
 20
30.4112
 30
0.0
 11
72.8316
 21
30.7881
 31
0.0
  0
LINE
  5
3D
330
1D
100
AcDbEntity
  8
0
100
AcDbLine
 10
72.8316
 20
30.7881
 30
0.0
 11
95.3406
 21
69.7748
 31
0.0
  0
LINE
  5
3E
330
1D
100
AcDbEntity
  8
0
100
AcDbLine
 10
61.2918
 20
28.8776
 30
0.0
 11
71.0038
 21
22.6905
 31
0.0
  0
LINE
  5
3F
330
1D
100
AcDbEntity
  8
0
100
AcDbLine
 10
58.4203
 20
24.776
 30
0.0
 11
68.5002
 21
18.3545
 31
0.0
  0
LINE
  5
40
330
1D
100
AcDbEntity
  8
0
100
AcDbLine
 10
48.9379
 20
32.052
 30
0.0
 11
58.4203
 21
24.776
 31
0.0
  0
LINE
  5
41
330
1D
100
AcDbEntity
  8
0
100
AcDbLine
 10
43.7857
 20
54.1701
 30
0.0
 11
43.898
 21
54.2646
 31
0.0
  0
LINE
  5
42
330
1D
100
AcDbEntity
  8
0
100
AcDbLine
 10
43.7857
 20
54.1701
 30
0.0
 11
43.831629189443
 21
54.230738835578
 31
0.0
  0
LINE
  5
43
330
1D
100
AcDbEntity
  8
0
100
AcDbLine
 10
43.898
 20
54.2646
 30
0.0
 11
44.2315
 21
54.5443
 31
0.0
  0
LINE
  5
44
330
1D
100
AcDbEntity
  8
0
100
AcDbLine
 10
44.2315
 20
54.5443
 30
0.0
 11
78.7172
 21
83.4812
 31
0.0
  0
LINE
  5
45
330
1D
100
AcDbEntity
  8
0
100
AcDbLine
 10
52.1568
 20
35.8872
 30
0.0
 11
61.2918
 21
28.8776
 31
0.0
  0
LINE
  5
46
330
1D
100
AcDbEntity
  8
0
100
AcDbLine
 10
43.667
 20
43.6666
 30
0.0
 11
52.1568
 21
35.8872
 31
0.0
  0
LINE
  5
4A
330
1D
100
AcDbEntity
  8
0
100
AcDbLine
 10
77.7367
 20
27.2841
 30
0.0
 11
77.8099
 21
27.4114
 31
0.0
  0
LINE
  5
4B
330
1D
100
AcDbEntity
  8
0
100
AcDbLine
 10
77.8099
 20
27.4114
 30
0.0
 11
78.0277
 21
27.7883
 31
0.0
  0
LINE
  5
4C
330
1D
100
AcDbEntity
  8
0
100
AcDbLine
 10
78.0277
 20
27.7883
 30
0.0
 11
100.537
 21
66.7749
 31
0.0
  0
LINE
  5
4D
330
1D
100
AcDbEntity
  8
0
100
AcDbLine
 10
71.0038
 20
22.6905
 30
0.0
 11
81.2176
 21
17.3735
 31
0.0
  0
LINE
  5
4E
330
1D
100
AcDbEntity
  8
0
100
AcDbLine
 10
112.927
 20
14.6743
 30
0.0
 11
112.952
 21
14.818
 31
0.0
  0
LINE
  5
4F
330
1D
100
AcDbEntity
  8
0
100
AcDbLine
 10
112.952
 20
14.818
 30
0.0
 11
113.028
 21
15.2466
 31
0.0
  0
LINE
  5
50
330
1D
100
AcDbEntity
  8
0
100
AcDbLine
 10
95.3406
 20
69.7748
 30
0.0
 11
95.8421
 21
70.6439
 31
0.0
  0
LINE
  5
51
330
1D
100
AcDbEntity
  8
0
100
AcDbLine
 10
95.8421
 20
70.6439
 30
0.0
 11
96.5716
 21
71.9074
 31
0.0
  0
LINE
  5
52
330
1D
100
AcDbEntity
  8
0
100
AcDbLine
 10
96.5716
 20
71.9074
 30
0.0
 11
97.5041
 21
73.522
 31
0.0
  0
LINE
  5
53
330
1D
100
AcDbEntity
  8
0
100
AcDbLine
 10
97.5041
 20
73.522
 30
0.0
 11
98.6078
 21
75.4334
 31
0.0
  0
LINE
  5
54
330
1D
100
AcDbEntity
  8
0
100
AcDbLine
 10
98.6078
 20
75.4334
 30
0.0
 11
99.8449
 21
77.5772
 31
0.0
  0
LINE
  5
55
330
1D
100
AcDbEntity
  8
0
100
AcDbLine
 10
101.768
 20
68.9076
 30
0.0
 11
102.7
 21
70.5222
 31
0.0
  0
LINE
  5
56
330
1D
100
AcDbEntity
  8
0
100
AcDbLine
 10
102.7
 20
70.5222
 30
0.0
 11
103.804
 21
72.4335
 31
0.0
  0
LINE
  5
57
330
1D
100
AcDbEntity
  8
0
100
AcDbLine
 10
103.804
 20
72.4335
 30
0.0
 11
105.041
 21
74.5773
 31
0.0
  0
LINE
  5
58
330
1D
100
AcDbEntity
  8
0
100
AcDbLine
 10
105.041
 20
74.5773
 30
0.0
 11
106.371
 21
76.8793
 31
0.0
  0
LINE
  5
59
330
1D
100
AcDbEntity
  8
0
100
AcDbLine
 10
106.371
 20
76.8793
 30
0.0
 11
107.747
 21
79.2626
 31
0.0
  0
LINE
  5
5A
330
1D
100
AcDbEntity
  8
0
100
AcDbLine
 10
101.038
 20
67.644
 30
0.0
 11
101.768
 21
68.9076
 31
0.0
  0
LINE
  5
5B
330
1D
100
AcDbEntity
  8
0
100
AcDbLine
 10
100.537
 20
66.7749
 30
0.0
 11
101.038
 21
67.644
 31
0.0
  0
LINE
  5
5C
330
1D
100
AcDbEntity
  8
0
100
AcDbLine
 10
99.8449
 20
77.5772
 30
0.0
 11
101.174
 21
79.8794
 31
0.0
  0
LINE
  5
5D
330
1D
100
AcDbEntity
  8
0
100
AcDbLine
 10
113.028
 20
15.2466
 30
0.0
 11
120.845
 21
59.5806
 31
0.0
  0
LINE
  5
5E
330
1D
100
AcDbEntity
  8
0
100
AcDbLine
 10
81.2176
 20
17.3735
 30
0.0
 11
91.8556
 21
12.967
 31
0.0
  0
LINE
  5
5F
330
1D
100
AcDbEntity
  8
0
100
AcDbLine
 10
91.8556
 20
12.967
 30
0.0
 11
102.838
 21
9.5044
 31
0.0
  0
LINE
  5
60
330
1D
100
AcDbEntity
  8
0
100
AcDbLine
 10
118.836
 20
13.6316
 30
0.0
 11
118.861
 21
13.7762
 31
0.0
  0
LINE
  5
61
330
1D
100
AcDbEntity
  8
0
100
AcDbLine
 10
118.937
 20
14.2048
 30
0.0
 11
126.754
 21
58.5388
 31
0.0
  0
LINE
  5
62
330
1D
100
AcDbEntity
  8
0
100
AcDbLine
 10
118.861
 20
13.7762
 30
0.0
 11
118.937
 21
14.2048
 31
0.0
  0
LINE
  5
63
330
1D
100
AcDbEntity
  8
0
100
AcDbLine
 10
120.845
 20
59.5806
 30
0.0
 11
121.019
 21
60.5688
 31
0.0
  0
LINE
  5
64
330
1D
100
AcDbEntity
  8
0
100
AcDbLine
 10
121.019
 20
60.5688
 30
0.0
 11
121.273
 21
62.0056
 31
0.0
  0
LINE
  5
65
330
1D
100
AcDbEntity
  8
0
100
AcDbLine
 10
121.273
 20
62.0056
 30
0.0
 11
121.597
 21
63.8418
 31
0.0
  0
LINE
  5
66
330
1D
100
AcDbEntity
  8
0
100
AcDbLine
 10
121.597
 20
63.8418
 30
0.0
 11
121.98
 21
66.0154
 31
0.0
  0
LINE
  5
67
330
1D
100
AcDbEntity
  8
0
100
AcDbLine
 10
121.98
 20
66.0154
 30
0.0
 11
122.409
 21
68.453
 31
0.0
  0
LINE
  5
68
330
1D
100
AcDbEntity
  8
0
100
AcDbLine
 10
127.181
 20
60.9639
 30
0.0
 11
127.505
 21
62.8
 31
0.0
  0
LINE
  5
69
330
1D
100
AcDbEntity
  8
0
100
AcDbLine
 10
127.505
 20
62.8
 30
0.0
 11
127.889
 21
64.9736
 31
0.0
  0
LINE
  5
6A
330
1D
100
AcDbEntity
  8
0
100
AcDbLine
 10
127.889
 20
64.9736
 30
0.0
 11
128.318
 21
67.4112
 31
0.0
  0
LINE
  5
6B
330
1D
100
AcDbEntity
  8
0
100
AcDbLine
 10
128.318
 20
67.4112
 30
0.0
 11
128.78
 21
70.0293
 31
0.0
  0
LINE
  5
6C
330
1D
100
AcDbEntity
  8
0
100
AcDbLine
 10
126.928
 20
59.527
 30
0.0
 11
127.181
 21
60.9639
 31
0.0
  0
LINE
  5
6D
330
1D
100
AcDbEntity
  8
0
100
AcDbLine
 10
126.754
 20
58.5388
 30
0.0
 11
126.928
 21
59.527
 31
0.0
  0
LINE
  5
6E
330
1D
100
AcDbEntity
  8
0
100
AcDbLine
 10
123.349
 20
73.7812
 30
0.0
 11
127.660003164905
 21
98.229635437674
 31
0.0
  0
LINE
  5
6F
330
1D
100
AcDbEntity
  8
0
100
AcDbLine
 10
122.871
 20
71.0709
 30
0.0
 11
123.349
 21
73.7812
 31
0.0
  0
LINE
  5
70
330
1D
100
AcDbEntity
  8
0
100
AcDbLine
 10
129.258
 20
72.7394
 30
0.0
 11
133.614502537265
 21
97.445709749996
 31
0.0
  0
LINE
  5
71
330
1D
100
AcDbEntity
  8
0
100
AcDbLine
 10
128.78
 20
70.0293
 30
0.0
 11
129.258
 21
72.7394
 31
0.0
  0
LINE
  5
72
330
1D
100
AcDbEntity
  8
0
100
AcDbLine
 10
122.409
 20
68.453
 30
0.0
 11
122.871
 21
71.0709
 31
0.0
  0
LINE
  5
73
330
1D
100
AcDbEntity
  8
0
100
AcDbLine
 10
118.937
 20
14.2048
 30
0.0
 11
126.754
 21
58.5388
 31
0.0
  0
LINE
  5
74
330
1D
100
AcDbEntity
  8
0
100
AcDbLine
 10
125.496
 20
5.50912
 30
0.0
 11
137.0
 21
5.00684
 31
0.0
  0
LINE
  5
75
330
1D
100
AcDbEntity
  8
0
100
AcDbLine
 10
114.08
 20
7.01212
 30
0.0
 11
125.496
 21
5.50912
 31
0.0
  0
LINE
  5
76
330
1D
100
AcDbEntity
  8
0
100
AcDbLine
 10
107.747
 20
79.2626
 30
0.0
 11
120.293537963496
 21
100.99474399273
 31
0.0
  0
LINE
  5
77
330
1D
100
AcDbEntity
  8
0
100
AcDbLine
 10
12.8359
 20
79.1011
 30
0.0
 11
18.3545
 21
68.5002
 31
0.0
  0
LINE
  5
78
330
1D
100
AcDbEntity
  8
0
100
AcDbLine
 10
130.283583610871
 20
78.5556221066
 30
0.0
 11
131.869
 21
78.3469
 31
0.0
  0
LINE
  5
79
330
1D
100
AcDbEntity
  8
0
100
AcDbLine
 10
131.869
 20
78.3469
 30
0.0
 11
137.0
 21
78.1229
 31
0.0
  0
LINE
  5
7A
330
1D
100
AcDbEntity
  8
0
100
AcDbLine
 10
137.0
 20
5.00684
 30
0.0
 11
148.504
 21
5.50912
 31
0.0
  0
LINE
  5
7B
330
1D
100
AcDbEntity
  8
0
100
AcDbLine
 10
137.0
 20
78.1229
 30
0.0
 11
142.131
 21
78.3469
 31
0.0
  0
LINE
  5
7C
330
1D
100
AcDbEntity
  8
0
100
AcDbLine
 10
101.174
 20
79.8794
 30
0.0
 11
102.551
 21
82.2625
 31
0.0
  0
LINE
  5
7D
330
1D
100
AcDbEntity
  8
0
100
AcDbLine
 10
121.761
 20
80.1291
 30
0.0
 11
124.366484646346
 21
79.551529255964
 31
0.0
  0
LINE
  5
7E
330
1D
100
AcDbEntity
  8
0
100
AcDbLine
 10
131.968
 20
79.4854
 30
0.0
 11
137.0
 21
79.2657
 31
0.0
  0
LINE
  5
7F
330
1D
100
AcDbEntity
  8
0
100
AcDbLine
 10
130.482031907577
 20
79.681048993383
 30
0.0
 11
131.968
 21
79.4854
 31
0.0
  0
LINE
  5
80
330
1D
100
AcDbEntity
  8
0
100
AcDbLine
 10
137.0
 20
79.2657
 30
0.0
 11
142.032
 21
79.4854
 31
0.0
  0
LINE
  5
81
330
1D
100
AcDbEntity
  8
0
100
AcDbLine
 10
148.94
 20
0.521326
 30
0.0
 11
160.79
 21
2.08134
 31
0.0
  0
LINE
  5
82
330
1D
100
AcDbEntity
  8
0
100
AcDbLine
 10
160.79
 20
2.08134
 30
0.0
 11
172.458
 21
4.66816
 31
0.0
  0
LINE
  5
83
330
1D
100
AcDbEntity
  8
0
100
AcDbLine
 10
172.458
 20
4.66816
 30
0.0
 11
183.856
 21
8.26202
 31
0.0
  0
LINE
  5
84
330
1D
100
AcDbEntity
  8
0
100
AcDbLine
 10
148.94
 20
0.521326
 30
0.0
 11
160.79
 21
2.08134
 31
0.0
  0
LINE
  5
85
330
1D
100
AcDbEntity
  8
0
100
AcDbLine
 10
148.124
 20
59.7125
 30
0.0
 11
148.299
 21
58.7243
 31
0.0
  0
LINE
  5
86
330
1D
100
AcDbEntity
  8
0
100
AcDbLine
 10
156.191
 20
13.9616
 30
0.0
 11
156.217
 21
13.818
 31
0.0
  0
LINE
  5
87
330
1D
100
AcDbEntity
  8
0
100
AcDbLine
 10
162.1
 20
15.0036
 30
0.0
 11
162.126
 21
14.8591
 31
0.0
  0
LINE
  5
88
330
1D
100
AcDbEntity
  8
0
100
AcDbLine
 10
156.116
 20
14.3904
 30
0.0
 11
156.191
 21
13.9616
 31
0.0
  0
LINE
  5
89
330
1D
100
AcDbEntity
  8
0
100
AcDbLine
 10
162.025
 20
15.4323
 30
0.0
 11
162.1
 21
15.0036
 31
0.0
  0
LINE
  5
8A
330
1D
100
AcDbEntity
  8
0
100
AcDbLine
 10
148.299
 20
58.7243
 30
0.0
 11
156.116
 21
14.3904
 31
0.0
  0
LINE
  5
8B
330
1D
100
AcDbEntity
  8
0
100
AcDbLine
 10
148.299
 20
58.7243
 30
0.0
 11
156.116
 21
14.3904
 31
0.0
  0
LINE
  5
8C
330
1D
100
AcDbEntity
  8
0
100
AcDbLine
 10
145.795
 20
72.925
 30
0.0
 11
146.272
 21
70.2144
 31
0.0
  0
LINE
  5
8D
330
1D
100
AcDbEntity
  8
0
100
AcDbLine
 10
147.871
 20
61.1493
 30
0.0
 11
148.124
 21
59.7125
 31
0.0
  0
LINE
  5
8E
330
1D
100
AcDbEntity
  8
0
100
AcDbLine
 10
147.547
 20
62.9856
 30
0.0
 11
147.871
 21
61.1493
 31
0.0
  0
LINE
  5
8F
330
1D
100
AcDbEntity
  8
0
100
AcDbLine
 10
153.456
 20
64.0275
 30
0.0
 11
153.779
 21
62.1912
 31
0.0
  0
LINE
  5
90
330
1D
100
AcDbEntity
  8
0
100
AcDbLine
 10
153.073
 20
66.2011
 30
0.0
 11
153.456
 21
64.0275
 31
0.0
  0
LINE
  5
91
330
1D
100
AcDbEntity
  8
0
100
AcDbLine
 10
147.164
 20
65.1592
 30
0.0
 11
147.547
 21
62.9856
 31
0.0
  0
LINE
  5
92
330
1D
100
AcDbEntity
  8
0
100
AcDbLine
 10
152.642
 20
68.6385
 30
0.0
 11
153.073
 21
66.2011
 31
0.0
  0
LINE
  5
93
330
1D
100
AcDbEntity
  8
0
100
AcDbLine
 10
152.182
 20
71.2568
 30
0.0
 11
152.642
 21
68.6385
 31
0.0
  0
LINE
  5
94
330
1D
100
AcDbEntity
  8
0
100
AcDbLine
 10
151.703
 20
73.9669
 30
0.0
 11
152.182
 21
71.2568
 31
0.0
  0
LINE
  5
95
330
1D
100
AcDbEntity
  8
0
100
AcDbLine
 10
146.734
 20
67.5966
 30
0.0
 11
147.164
 21
65.1592
 31
0.0
  0
LINE
  5
96
330
1D
100
AcDbEntity
  8
0
100
AcDbLine
 10
153.779
 20
62.1912
 30
0.0
 11
154.033
 21
60.7544
 31
0.0
  0
LINE
  5
97
330
1D
100
AcDbEntity
  8
0
100
AcDbLine
 10
154.033
 20
60.7544
 30
0.0
 11
154.207
 21
59.7662
 31
0.0
  0
LINE
  5
98
330
1D
100
AcDbEntity
  8
0
100
AcDbLine
 10
146.272
 20
70.2144
 30
0.0
 11
146.734
 21
67.5966
 31
0.0
  0
LINE
  5
99
330
1D
100
AcDbEntity
  8
0
100
AcDbLine
 10
154.207
 20
59.7662
 30
0.0
 11
162.025
 21
15.4323
 31
0.0
  0
LINE
  5
9A
330
1D
100
AcDbEntity
  8
0
100
AcDbLine
 10
154.207
 20
59.7662
 30
0.0
 11
162.025
 21
15.4323
 31
0.0
  0
LINE
  5
9B
330
1D
100
AcDbEntity
  8
0
100
AcDbLine
 10
171.122
 20
72.9681
 30
0.0
 11
172.226
 21
71.0566
 31
0.0
  0
LINE
  5
9C
330
1D
100
AcDbEntity
  8
0
100
AcDbLine
 10
169.884
 20
75.1113
 30
0.0
 11
171.122
 21
72.9681
 31
0.0
  0
LINE
  5
9D
330
1D
100
AcDbEntity
  8
0
100
AcDbLine
 10
168.555
 20
77.4133
 30
0.0
 11
169.884
 21
75.1113
 31
0.0
  0
LINE
  5
9E
330
1D
100
AcDbEntity
  8
0
100
AcDbLine
 10
159.92
 20
7.01212
 30
0.0
 11
171.162
 21
9.5044
 31
0.0
  0
LINE
  5
9F
330
1D
100
AcDbEntity
  8
0
100
AcDbLine
 10
183.856
 20
8.26202
 30
0.0
 11
194.899
 21
12.8359
 31
0.0
  0
LINE
  5
A0
330
1D
100
AcDbEntity
  8
0
100
AcDbLine
 10
182.144
 20
12.967
 30
0.0
 11
192.782
 21
17.3735
 31
0.0
  0
LINE
  5
A1
330
1D
100
AcDbEntity
  8
0
100
AcDbLine
 10
173.887
 20
68.1782
 30
0.0
 11
174.389
 21
67.3093
 31
0.0
  0
LINE
  5
A2
330
1D
100
AcDbEntity
  8
0
100
AcDbLine
 10
173.158
 20
69.4417
 30
0.0
 11
173.887
 21
68.1782
 31
0.0
  0
LINE
  5
A3
330
1D
100
AcDbEntity
  8
0
100
AcDbLine
 10
172.226
 20
71.0566
 30
0.0
 11
173.158
 21
69.4417
 31
0.0
  0
LINE
  5
A4
330
1D
100
AcDbEntity
  8
0
100
AcDbLine
 10
177.422
 20
74.0565
 30
0.0
 11
178.354
 21
72.4416
 31
0.0
  0
LINE
  5
A5
330
1D
100
AcDbEntity
  8
0
100
AcDbLine
 10
176.318
 20
75.968
 30
0.0
 11
177.422
 21
74.0565
 31
0.0
  0
LINE
  5
A6
330
1D
100
AcDbEntity
  8
0
100
AcDbLine
 10
175.08
 20
78.1112
 30
0.0
 11
176.318
 21
75.968
 31
0.0
  0
LINE
  5
A7
330
1D
100
AcDbEntity
  8
0
100
AcDbLine
 10
178.354
 20
72.4416
 30
0.0
 11
179.083
 21
71.1781
 31
0.0
  0
LINE
  5
A8
330
1D
100
AcDbEntity
  8
0
100
AcDbLine
 10
179.083
 20
71.1781
 30
0.0
 11
179.585
 21
70.3092
 31
0.0
  0
LINE
  5
A9
330
1D
100
AcDbEntity
  8
0
100
AcDbLine
 10
174.389
 20
67.3093
 30
0.0
 11
196.898
 21
28.3226
 31
0.0
  0
LINE
  5
AA
330
1D
100
AcDbEntity
  8
0
100
AcDbLine
 10
179.585
 20
70.3092
 30
0.0
 11
202.094
 21
31.3226
 31
0.0
  0
LINE
  5
AB
330
1D
100
AcDbEntity
  8
0
100
AcDbLine
 10
192.782
 20
17.3735
 30
0.0
 11
202.996
 21
22.6905
 31
0.0
  0
LINE
  5
AC
330
1D
100
AcDbEntity
  8
0
100
AcDbLine
 10
171.162
 20
9.5044
 30
0.0
 11
182.144
 21
12.967
 31
0.0
  0
LINE
  5
AD
330
1D
100
AcDbEntity
  8
0
100
AcDbLine
 10
148.504
 20
5.50912
 30
0.0
 11
159.92
 21
7.01212
 31
0.0
  0
LINE
  5
AE
330
1D
100
AcDbEntity
  8
0
100
AcDbLine
 10
142.131
 20
78.3469
 30
0.0
 11
144.777308548741
 21
78.695289923804
 31
0.0
  0
LINE
  5
AF
330
1D
100
AcDbEntity
  8
0
100
AcDbLine
 10
167.179
 20
79.7972
 30
0.0
 11
168.555
 21
77.4133
 31
0.0
  0
LINE
  5
B0
330
1D
100
AcDbEntity
  8
0
100
AcDbLine
 10
173.751
 20
80.414
 30
0.0
 11
175.08
 21
78.1112
 31
0.0
  0
LINE
  5
B1
330
1D
100
AcDbEntity
  8
0
100
AcDbLine
 10
152.239
 20
80.1291
 30
0.0
 11
157.137
 21
81.6735
 31
0.0
  0
LINE
  5
B2
330
1D
100
AcDbEntity
  8
0
100
AcDbLine
 10
150.677645686178
 20
79.782986821401
 30
0.0
 11
152.239
 21
80.1291
 31
0.0
  0
LINE
  5
B3
330
1D
100
AcDbEntity
  8
0
100
AcDbLine
 10
142.032
 20
79.4854
 30
0.0
 11
144.578818384484
 21
79.820725136383
 31
0.0
  0
LINE
  5
B4
330
1D
100
AcDbEntity
  8
0
100
AcDbLine
 10
17.3735
 20
81.2176
 30
0.0
 11
22.6905
 21
71.0038
 31
0.0
  0
LINE
  5
B5
330
1D
100
AcDbEntity
  8
0
100
AcDbLine
 10
122.057
 20
81.2329
 30
0.0
 11
124.564939783922
 21
80.67700224513
 31
0.0
  0
LINE
  5
B7
330
1D
100
AcDbEntity
  8
0
100
AcDbLine
 10
79.4858
 20
84.1264
 30
0.0
 11
80.6034
 21
85.0642
 31
0.0
  0
LINE
  5
B8
330
1D
100
AcDbEntity
  8
0
100
AcDbLine
 10
78.7172
 20
83.4812
 30
0.0
 11
79.4858
 21
84.1264
 31
0.0
  0
LINE
  5
B9
330
1D
100
AcDbEntity
  8
0
100
AcDbLine
 10
102.551
 20
82.2625
 30
0.0
 11
115.026648474993
 21
103.873316229414
 31
0.0
  0
LINE
  5
BB
330
1D
100
AcDbEntity
  8
0
100
AcDbLine
 10
110.69974031857
 20
84.377108716509
 30
0.0
 11
112.117
 21
83.6393
 31
0.0
  0
LINE
  5
BC
330
1D
100
AcDbEntity
  8
0
100
AcDbLine
 10
112.117
 20
83.6393
 30
0.0
 11
116.863
 21
81.6735
 31
0.0
  0
LINE
  5
BD
330
1D
100
AcDbEntity
  8
0
100
AcDbLine
 10
116.863
 20
81.6735
 30
0.0
 11
121.761
 21
80.1291
 31
0.0
  0
LINE
  5
BE
330
1D
100
AcDbEntity
  8
0
100
AcDbLine
 10
8.26202
 20
90.1436
 30
0.0
 11
12.8359
 21
79.1011
 31
0.0
  0
LINE
  5
BF
330
1D
100
AcDbEntity
  8
0
100
AcDbLine
 10
74.8606
 20
88.0773
 30
0.0
 11
75.6291
 21
88.7225
 31
0.0
  0
LINE
  5
C0
330
1D
100
AcDbEntity
  8
0
100
AcDbLine
 10
75.6291
 20
88.7225
 30
0.0
 11
76.7467
 21
89.6603
 31
0.0
  0
LINE
  5
C1
330
1D
100
AcDbEntity
  8
0
100
AcDbLine
 10
76.7467
 20
89.6603
 30
0.0
 11
78.1753
 21
90.8586
 31
0.0
  0
LINE
  5
C2
330
1D
100
AcDbEntity
  8
0
100
AcDbLine
 10
21.0777
 20
91.0465
 30
0.0
 11
21.2155
 21
91.0969
 31
0.0
  0
LINE
  5
C3
330
1D
100
AcDbEntity
  8
0
100
AcDbLine
 10
21.0777
 20
91.0465
 30
0.0
 11
21.141630152876
 21
91.087792142069
 31
0.0
  0
LINE
  5
C4
330
1D
100
AcDbEntity
  8
0
100
AcDbLine
 10
17.0747
 20
93.4928
 30
0.0
 11
17.208
 21
94.8212
 31
0.0
  0
LINE
  5
C5
330
1D
100
AcDbEntity
  8
0
100
AcDbLine
 10
21.6246
 20
91.2457
 30
0.0
 11
63.9276
 21
106.643
 31
0.0
  0
LINE
  5
C6
330
1D
100
AcDbEntity
  8
0
100
AcDbLine
 10
21.2155
 20
91.0969
 30
0.0
 11
21.6246
 21
91.2457
 31
0.0
  0
LINE
  5
C7
330
1D
100
AcDbEntity
  8
0
100
AcDbLine
 10
21.6246
 20
91.2457
 30
0.0
 11
63.9276
 21
106.643
 31
0.0
  0
LINE
  5
C8
330
1D
100
AcDbEntity
  8
0
100
AcDbLine
 10
78.1753
 20
90.8586
 30
0.0
 11
79.8661
 21
92.2772
 31
0.0
  0
LINE
  5
C9
330
1D
100
AcDbEntity
  8
0
100
AcDbLine
 10
80.6034
 20
85.0642
 30
0.0
 11
82.0319
 21
86.2625
 31
0.0
  0
LINE
  5
CA
330
1D
100
AcDbEntity
  8
0
100
AcDbLine
 10
82.0319
 20
86.2625
 30
0.0
 11
83.7228
 21
87.6811
 31
0.0
  0
LINE
  5
CB
330
1D
100
AcDbEntity
  8
0
100
AcDbLine
 10
83.7228
 20
87.6811
 30
0.0
 11
85.6184
 21
89.2725
 31
0.0
  0
LINE
  5
CC
330
1D
100
AcDbEntity
  8
0
100
AcDbLine
 10
85.6184
 20
89.2725
 30
0.0
 11
87.6555
 21
90.9808
 31
0.0
  0
LINE
  5
CD
330
1D
100
AcDbEntity
  8
0
100
AcDbLine
 10
89.7634
 20
92.7499
 30
0.0
 11
108.755158885836
 21
108.68595014036
 31
0.0
  0
LINE
  5
CE
330
1D
100
AcDbEntity
  8
0
100
AcDbLine
 10
87.6555
 20
90.9808
 30
0.0
 11
89.7634
 21
92.7499
 31
0.0
  0
LINE
  5
CF
330
1D
100
AcDbEntity
  8
0
100
AcDbLine
 10
79.8661
 20
92.2772
 30
0.0
 11
81.7618
 21
93.8686
 31
0.0
  0
LINE
  5
D0
330
1D
100
AcDbEntity
  8
0
100
AcDbLine
 10
17.208
 20
94.8212
 30
0.0
 11
17.9046
 21
95.9606
 31
0.0
  0
LINE
  5
D1
330
1D
100
AcDbEntity
  8
0
100
AcDbLine
 10
81.7618
 20
93.8686
 30
0.0
 11
83.798
 21
95.5774
 31
0.0
  0
LINE
  5
D2
330
1D
100
AcDbEntity
  8
0
100
AcDbLine
 10
12.967
 20
91.8556
 30
0.0
 11
17.3735
 21
81.2176
 31
0.0
  0
LINE
  5
D3
330
1D
100
AcDbEntity
  8
0
100
AcDbLine
 10
17.9046
 20
95.9606
 30
0.0
 11
19.0263
 21
96.6851
 31
0.0
  0
LINE
  5
D4
330
1D
100
AcDbEntity
  8
0
100
AcDbLine
 10
83.798
 20
95.5774
 30
0.0
 11
85.9068
 21
97.346
 31
0.0
  0
LINE
  5
D5
330
1D
100
AcDbEntity
  8
0
100
AcDbLine
 10
95.3679
 20
95.3672
 30
0.0
 11
99.1545
 21
91.8976
 31
0.0
  0
LINE
  5
D6
330
1D
100
AcDbEntity
  8
0
100
AcDbLine
 10
99.1545
 20
91.8976
 30
0.0
 11
103.23
 21
88.7704
 31
0.0
  0
LINE
  5
D7
330
1D
100
AcDbEntity
  8
0
100
AcDbLine
 10
2.08134
 20
113.21
 30
0.0
 11
4.66816
 21
101.542
 31
0.0
  0
LINE
  5
D8
330
1D
100
AcDbEntity
  8
0
100
AcDbLine
 10
2.08134
 20
113.21
 30
0.0
 11
4.66816
 21
101.542
 31
0.0
  0
LINE
  5
D9
330
1D
100
AcDbEntity
  8
0
100
AcDbLine
 10
7.01212
 20
114.08
 30
0.0
 11
9.5044
 21
102.838
 31
0.0
  0
LINE
  5
DA
330
1D
100
AcDbEntity
  8
0
100
AcDbLine
 10
4.66816
 20
101.542
 30
0.0
 11
8.26202
 21
90.1436
 31
0.0
  0
LINE
  5
DB
330
1D
100
AcDbEntity
  8
0
100
AcDbLine
 10
19.0263
 20
96.6851
 30
0.0
 11
19.1634
 21
96.7348
 31
0.0
  0
LINE
  5
DC
330
1D
100
AcDbEntity
  8
0
100
AcDbLine
 10
19.5725
 20
96.8836
 30
0.0
 11
61.8755
 21
112.281
 31
0.0
  0
LINE
  5
DD
330
1D
100
AcDbEntity
  8
0
100
AcDbLine
 10
19.1634
 20
96.7348
 30
0.0
 11
19.5725
 21
96.8836
 31
0.0
  0
LINE
  5
DE
330
1D
100
AcDbEntity
  8
0
100
AcDbLine
 10
61.8755
 20
112.281
 30
0.0
 11
62.8183
 21
112.624
 31
0.0
  0
LINE
  5
DF
330
1D
100
AcDbEntity
  8
0
100
AcDbLine
 10
62.8183
 20
112.624
 30
0.0
 11
64.1893
 21
113.123
 31
0.0
  0
LINE
  5
E0
330
1D
100
AcDbEntity
  8
0
100
AcDbLine
 10
64.1893
 20
113.123
 30
0.0
 11
65.9415
 21
113.76
 31
0.0
  0
LINE
  5
E1
330
1D
100
AcDbEntity
  8
0
100
AcDbLine
 10
66.2414
 20
107.485
 30
0.0
 11
67.9937
 21
108.123
 31
0.0
  0
LINE
  5
E2
330
1D
100
AcDbEntity
  8
0
100
AcDbLine
 10
67.9937
 20
108.123
 30
0.0
 11
70.0677
 21
108.877
 31
0.0
  0
LINE
  5
E3
330
1D
100
AcDbEntity
  8
0
100
AcDbLine
 10
70.0677
 20
108.877
 30
0.0
 11
72.3934
 21
109.724
 31
0.0
  0
LINE
  5
E4
330
1D
100
AcDbEntity
  8
0
100
AcDbLine
 10
65.9415
 20
113.76
 30
0.0
 11
68.0156
 21
114.515
 31
0.0
  0
LINE
  5
E5
330
1D
100
AcDbEntity
  8
0
100
AcDbLine
 10
68.0156
 20
114.515
 30
0.0
 11
70.3412
 21
115.362
 31
0.0
  0
LINE
  5
E6
330
1D
100
AcDbEntity
  8
0
100
AcDbLine
 10
64.8705
 20
106.986
 30
0.0
 11
66.2414
 21
107.485
 31
0.0
  0
LINE
  5
E7
330
1D
100
AcDbEntity
  8
0
100
AcDbLine
 10
63.9276
 20
106.643
 30
0.0
 11
64.8705
 21
106.986
 31
0.0
  0
LINE
  5
E8
330
1D
100
AcDbEntity
  8
0
100
AcDbLine
 10
72.3934
 20
109.724
 30
0.0
 11
74.8919
 21
110.633
 31
0.0
  0
LINE
  5
E9
330
1D
100
AcDbEntity
  8
0
100
AcDbLine
 10
75.4256
 20
117.212
 30
0.0
 11
98.753703504569
 21
125.703777600457
 31
0.0
  0
LINE
  5
EA
330
1D
100
AcDbEntity
  8
0
100
AcDbLine
 10
75.4256
 20
117.212
 30
0.0
 11
98.753703504569
 21
125.703777600457
 31
0.0
  0
LINE
  5
EB
330
1D
100
AcDbEntity
  8
0
100
AcDbLine
 10
77.4777
 20
111.574
 30
0.0
 11
101.052247853844
 21
120.154714202695
 31
0.0
  0
LINE
  5
EC
330
1D
100
AcDbEntity
  8
0
100
AcDbLine
 10
77.4777
 20
111.574
 30
0.0
 11
101.052247853844
 21
120.154714202695
 31
0.0
  0
LINE
  5
ED
330
1D
100
AcDbEntity
  8
0
100
AcDbLine
 10
72.8391
 20
116.272
 30
0.0
 11
75.4256
 21
117.212
 31
0.0
  0
LINE
  5
EE
330
1D
100
AcDbEntity
  8
0
100
AcDbLine
 10
74.8919
 20
110.633
 30
0.0
 11
77.4777
 21
111.574
 31
0.0
  0
LINE
  5
EF
330
1D
100
AcDbEntity
  8
0
100
AcDbLine
 10
70.3412
 20
115.362
 30
0.0
 11
72.8391
 21
116.272
 31
0.0
  0
LINE
  5
F0
330
1D
100
AcDbEntity
  8
0
100
AcDbLine
 10
19.5725
 20
96.8836
 30
0.0
 11
61.8755
 21
112.281
 31
0.0
  0
LINE
  5
F1
330
1D
100
AcDbEntity
  8
0
100
AcDbLine
 10
9.5044
 20
102.838
 30
0.0
 11
12.967
 21
91.8556
 31
0.0
  0
LINE
  5
F2
330
1D
100
AcDbEntity
  8
0
100
AcDbLine
 10
0.521326
 20
125.06
 30
0.0
 11
2.08134
 21
113.21
 31
0.0
  0
LINE
  5
F3
330
1D
100
AcDbEntity
  8
0
100
AcDbLine
 10
0.521326
 20
125.06
 30
0.0
 11
2.08134
 21
113.21
 31
0.0
  0
LINE
  5
F4
330
1D
100
AcDbEntity
  8
0
100
AcDbLine
 10
5.50912
 20
125.496
 30
0.0
 11
7.01212
 21
114.08
 31
0.0
  0
LINE
  5
F5
330
1D
100
AcDbEntity
  8
0
100
AcDbLine
 10
78.3469
 20
131.869
 30
0.0
 11
79.0174
 21
126.776
 31
0.0
  0
LINE
  5
F6
330
1D
100
AcDbEntity
  8
0
100
AcDbLine
 10
79.0174
 20
126.776
 30
0.0
 11
80.1291
 21
121.761
 31
0.0
  0
LINE
  5
F7
330
1D
100
AcDbEntity
  8
0
100
AcDbLine
 10
64.4857
 20
133.465
 30
0.0
 11
66.9608
 21
133.466
 31
0.0
  0
LINE
  5
F8
330
1D
100
AcDbEntity
  8
0
100
AcDbLine
 10
69.6194
 20
133.465
 30
0.0
 11
72.3713
 21
133.466
 31
0.0
  0
LINE
  5
F9
330
1D
100
AcDbEntity
  8
0
100
AcDbLine
 10
12.9337
 20
133.466
 30
0.0
 11
57.9516
 21
133.466
 31
0.0
  0
LINE
  5
FA
330
1D
100
AcDbEntity
  8
0
100
AcDbLine
 10
12.3516
 20
133.466
 30
0.0
 11
12.4984
 21
133.466
 31
0.0
  0
LINE
  5
FC
330
1D
100
AcDbEntity
  8
0
100
AcDbLine
 10
12.4984
 20
133.466
 30
0.0
 11
12.9337
 21
133.466
 31
0.0
  0
LINE
  5
FD
330
1D
100
AcDbEntity
  8
0
100
AcDbLine
 10
60.414
 20
133.466
 30
0.0
 11
62.2786
 21
133.466
 31
0.0
  0
LINE
  5
FE
330
1D
100
AcDbEntity
  8
0
100
AcDbLine
 10
72.3713
 20
133.466
 30
0.0
 11
97.465366118864
 21
133.465197777987
 31
0.0
  0
LINE
  5
FF
330
1D
100
AcDbEntity
  8
0
100
AcDbLine
 10
62.2786
 20
133.466
 30
0.0
 11
64.4857
 21
133.465
 31
0.0
  0
LINE
  5
100
330
1D
100
AcDbEntity
  8
0
100
AcDbLine
 10
66.9608
 20
133.466
 30
0.0
 11
69.6194
 21
133.465
 31
0.0
  0
LINE
  5
101
330
1D
100
AcDbEntity
  8
0
100
AcDbLine
 10
58.955
 20
133.466
 30
0.0
 11
60.414
 21
133.466
 31
0.0
  0
LINE
  5
102
330
1D
100
AcDbEntity
  8
0
100
AcDbLine
 10
57.9516
 20
133.466
 30
0.0
 11
58.955
 21
133.466
 31
0.0
  0
LINE
  5
103
330
1D
100
AcDbEntity
  8
0
100
AcDbLine
 10
12.9337
 20
133.466
 30
0.0
 11
57.9516
 21
133.466
 31
0.0
  0
LINE
  5
104
330
1D
100
AcDbEntity
  8
0
100
AcDbLine
 10
78.277189279257
 20
133.465811197023
 30
0.0
 11
78.3469
 21
131.869
 31
0.0
  0
LINE
  5
105
330
1D
100
AcDbEntity
  8
0
100
AcDbLine
 10
79.420006300992
 20
133.46577466277
 30
0.0
 11
79.4854
 21
131.968
 31
0.0
  0
LINE
  5
106
330
1D
100
AcDbEntity
  8
0
100
AcDbLine
 10
79.4854
 20
131.968
 30
0.0
 11
80.1428
 21
126.975
 31
0.0
  0
LINE
  5
107
330
1D
100
AcDbEntity
  8
0
100
AcDbLine
 10
80.1428
 20
126.975
 30
0.0
 11
81.2329
 21
122.057
 31
0.0
  0
LINE
  5
108
330
1D
100
AcDbEntity
  8
0
100
AcDbLine
 10
80.1291
 20
121.761
 30
0.0
 11
80.931497806799
 21
119.216228918867
 31
0.0
  0
LINE
  5
109
330
1D
100
AcDbEntity
  8
0
100
AcDbLine
 10
83.6393
 20
112.117
 30
0.0
 11
86.0111
 21
107.561
 31
0.0
  0
LINE
  5
10A
330
1D
100
AcDbEntity
  8
0
100
AcDbLine
 10
83.027511183717
 20
113.594032110123
 30
0.0
 11
83.6393
 21
112.117
 31
0.0
  0
LINE
  5
10B
330
1D
100
AcDbEntity
  8
0
100
AcDbLine
 10
85.9068
 20
97.346
 30
0.0
 11
105.089193917552
 21
113.442201287871
 31
0.0
  0
LINE
  5
10C
330
1D
100
AcDbEntity
  8
0
100
AcDbLine
 10
85.9068
 20
97.346
 30
0.0
 11
105.089193917552
 21
113.442201287871
 31
0.0
  0
LINE
  5
10D
330
1D
100
AcDbEntity
  8
0
100
AcDbLine
 10
94.287605145425
 20
96.546176083546
 30
0.0
 11
95.3679
 21
95.3672
 31
0.0
  0
LINE
  5
10E
330
1D
100
AcDbEntity
  8
0
100
AcDbLine
 10
95.163017667787
 20
97.280737739142
 30
0.0
 11
96.1758
 21
96.1754
 31
0.0
  0
LINE
  5
10F
330
1D
100
AcDbEntity
  8
0
100
AcDbLine
 10
86.0111
 20
107.561
 30
0.0
 11
88.7704
 21
103.23
 31
0.0
  0
LINE
  5
110
330
1D
100
AcDbEntity
  8
0
100
AcDbLine
 10
87.0006
 20
108.133
 30
0.0
 11
89.7069
 21
103.885
 31
0.0
  0
LINE
  5
111
330
1D
100
AcDbEntity
  8
0
100
AcDbLine
 10
89.7069
 20
103.885
 30
0.0
 11
91.270727980561
 21
101.846943148173
 31
0.0
  0
LINE
  5
112
330
1D
100
AcDbEntity
  8
0
100
AcDbLine
 10
88.7704
 20
103.23
 30
0.0
 11
90.395300616609
 21
101.112360430101
 31
0.0
  0
LINE
  5
113
330
1D
100
AcDbEntity
  8
0
100
AcDbLine
 10
84.6748
 20
112.601
 30
0.0
 11
87.0006
 21
108.133
 31
0.0
  0
LINE
  5
114
330
1D
100
AcDbEntity
  8
0
100
AcDbLine
 10
94.925
 20
132.646
 30
0.0
 11
95.9875
 21
127.256
 31
0.0
  0
LINE
  5
115
330
1D
100
AcDbEntity
  8
0
100
AcDbLine
 10
95.9875
 20
127.256
 30
0.0
 11
96.850377779839
 21
125.010938649684
 31
0.0
  0
LINE
  5
116
330
1D
100
AcDbEntity
  8
0
100
AcDbLine
 10
95.9875
 20
127.256
 30
0.0
 11
96.850529931244
 21
125.010994035065
 31
0.0
  0
LINE
  5
117
330
1D
100
AcDbEntity
  8
0
100
AcDbLine
 10
94.860411899786
 20
133.465281054711
 30
0.0
 11
94.925
 21
132.646
 31
0.0
  0
LINE
  5
118
330
1D
100
AcDbEntity
  8
0
100
AcDbLine
 10
94.860399916806
 20
133.465281055094
 30
0.0
 11
94.925
 21
132.646
 31
0.0
  0
LINE
  5
119
330
1D
100
AcDbEntity
  8
0
100
AcDbLine
 10
97.465366118864
 20
133.465197777987
 30
0.0
 11
98.363
 21
126.647
 31
0.0
  0
LINE
  5
11A
330
1D
100
AcDbEntity
  8
0
100
AcDbLine
 10
99.213506288974
 20
119.485445126631
 30
0.0
 11
100.238
 21
117.305
 31
0.0
  0
LINE
  5
11B
330
1D
100
AcDbEntity
  8
0
100
AcDbLine
 10
99.213330440119
 20
119.48538112079
 30
0.0
 11
100.238
 21
117.305
 31
0.0
  0
LINE
  5
11C
330
1D
100
AcDbEntity
  8
0
100
AcDbLine
 10
99.4255
 20
126.932
 30
0.0
 11
103.312
 21
117.55
 31
0.0
  0
LINE
  5
11D
330
1D
100
AcDbEntity
  8
0
100
AcDbLine
 10
98.363
 20
126.647
 30
0.0
 11
98.753703504569
 21
125.703777600457
 31
0.0
  0
LINE
  5
11E
330
1D
100
AcDbEntity
  8
0
100
AcDbLine
 10
98.363
 20
126.647
 30
0.0
 11
102.359
 21
117.0
 31
0.0
  0
LINE
  5
11F
330
1D
100
AcDbEntity
  8
0
100
AcDbLine
 10
98.363
 20
126.647
 30
0.0
 11
98.753703504569
 21
125.703777600457
 31
0.0
  0
LINE
  5
120
330
1D
100
AcDbEntity
  8
0
100
AcDbLine
 10
84.101553784804
 20
113.984964426559
 30
0.0
 11
84.6748
 21
112.601
 31
0.0
  0
LINE
  5
121
330
1D
100
AcDbEntity
  8
0
100
AcDbLine
 10
81.2329
 20
122.057
 30
0.0
 11
82.005443399849
 21
119.607161131998
 31
0.0
  0
LINE
  5
122
330
1D
100
AcDbEntity
  8
0
100
AcDbLine
 10
96.1758
 20
96.1754
 30
0.0
 11
99.8895
 21
92.7727
 31
0.0
  0
LINE
  5
123
330
1D
100
AcDbEntity
  8
0
100
AcDbLine
 10
103.23
 20
88.7704
 30
0.0
 11
105.48028866906
 21
87.336730749356
 31
0.0
  0
LINE
  5
124
330
1D
100
AcDbEntity
  8
0
100
AcDbLine
 10
111.271233370602
 20
85.367004840343
 30
0.0
 11
112.601
 21
84.6748
 31
0.0
  0
LINE
  5
125
330
1D
100
AcDbEntity
  8
0
100
AcDbLine
 10
111.075
 20
105.281
 30
0.0
 11
114.517316545557
 21
102.99103113226
 31
0.0
  0
LINE
  5
126
330
1D
100
AcDbEntity
  8
0
100
AcDbLine
 10
111.075
 20
105.28
 30
0.0
 11
114.517206555455
 21
102.990840603014
 31
0.0
  0
LINE
  5
127
330
1D
100
AcDbEntity
  8
0
100
AcDbLine
 10
107.948760314843
 20
108.009298328503
 30
0.0
 11
111.075
 21
105.281
 31
0.0
  0
LINE
  5
128
330
1D
100
AcDbEntity
  8
0
100
AcDbLine
 10
107.948628429874
 20
108.009187663372
 30
0.0
 11
111.075
 21
105.28
 31
0.0
  0
LINE
  5
129
330
1D
100
AcDbEntity
  8
0
100
AcDbLine
 10
115.762
 20
106.734
 30
0.0
 11
118.574
 21
105.032
 31
0.0
  0
LINE
  5
12A
330
1D
100
AcDbEntity
  8
0
100
AcDbLine
 10
100.238
 20
117.305
 30
0.0
 11
103.425
 21
112.744
 31
0.0
  0
LINE
  5
12B
330
1D
100
AcDbEntity
  8
0
100
AcDbLine
 10
103.425
 20
112.744
 30
0.0
 11
103.786852036656
 21
112.349388933447
 31
0.0
  0
LINE
  5
12C
330
1D
100
AcDbEntity
  8
0
100
AcDbLine
 10
106.734
 20
115.762
 30
0.0
 11
108.732
 21
113.246
 31
0.0
  0
LINE
  5
12D
330
1D
100
AcDbEntity
  8
0
100
AcDbLine
 10
108.732
 20
113.246
 30
0.0
 11
110.878
 21
110.878
 31
0.0
  0
LINE
  5
12E
330
1D
100
AcDbEntity
  8
0
100
AcDbLine
 10
105.032
 20
118.574
 30
0.0
 11
106.734
 21
115.762
 31
0.0
  0
LINE
  5
12F
330
1D
100
AcDbEntity
  8
0
100
AcDbLine
 10
103.312
 20
117.55
 30
0.0
 11
109.493
 21
109.493
 31
0.0
  0
LINE
  5
130
330
1D
100
AcDbEntity
  8
0
100
AcDbLine
 10
102.359
 20
117.0
 30
0.0
 11
105.089193917552
 21
113.442201287871
 31
0.0
  0
LINE
  5
131
330
1D
100
AcDbEntity
  8
0
100
AcDbLine
 10
102.359
 20
117.0
 30
0.0
 11
108.716
 21
108.716
 31
0.0
  0
LINE
  5
132
330
1D
100
AcDbEntity
  8
0
100
AcDbLine
 10
100.222
 20
133.744
 30
0.0
 11
100.592
 21
130.562
 31
0.0
  0
LINE
  5
133
330
1D
100
AcDbEntity
  8
0
100
AcDbLine
 10
100.592
 20
130.562
 30
0.0
 11
101.332
 21
127.38
 31
0.0
  0
LINE
  5
134
330
1D
100
AcDbEntity
  8
0
100
AcDbLine
 10
101.332
 20
127.38
 30
0.0
 11
102.294
 21
124.346
 31
0.0
  0
LINE
  5
135
330
1D
100
AcDbEntity
  8
0
100
AcDbLine
 10
102.294
 20
124.346
 30
0.0
 11
103.552
 21
121.386
 31
0.0
  0
LINE
  5
136
330
1D
100
AcDbEntity
  8
0
100
AcDbLine
 10
103.552
 20
121.386
 30
0.0
 11
105.032
 21
118.574
 31
0.0
  0
LINE
  5
137
330
1D
100
AcDbEntity
  8
0
100
AcDbLine
 10
101.052247853844
 20
120.154714202695
 30
0.0
 11
102.359
 21
117.0
 31
0.0
  0
LINE
  5
138
330
1D
100
AcDbEntity
  8
0
100
AcDbLine
 10
113.246
 20
108.732
 30
0.0
 11
115.762
 21
106.734
 31
0.0
  0
LINE
  5
139
330
1D
100
AcDbEntity
  8
0
100
AcDbLine
 10
110.878
 20
110.878
 30
0.0
 11
113.246
 21
108.732
 31
0.0
  0
LINE
  5
13A
330
1D
100
AcDbEntity
  8
0
100
AcDbLine
 10
109.493
 20
109.493
 30
0.0
 11
117.55
 21
103.312
 31
0.0
  0
LINE
  5
13B
330
1D
100
AcDbEntity
  8
0
100
AcDbLine
 10
108.716
 20
108.716
 30
0.0
 11
117.0
 21
102.359
 31
0.0
  0
LINE
  5
13C
330
1D
100
AcDbEntity
  8
0
100
AcDbLine
 10
117.0
 20
102.359
 30
0.0
 11
126.647
 21
98.363
 31
0.0
  0
LINE
  5
13D
330
1D
100
AcDbEntity
  8
0
100
AcDbLine
 10
103.885
 20
89.7069
 30
0.0
 11
106.051697712272
 21
88.326548300678
 31
0.0
  0
LINE
  5
13E
330
1D
100
AcDbEntity
  8
0
100
AcDbLine
 10
99.8895
 20
92.7727
 30
0.0
 11
103.885
 21
89.7069
 31
0.0
  0
LINE
  5
13F
330
1D
100
AcDbEntity
  8
0
100
AcDbLine
 10
112.601
 20
84.6748
 30
0.0
 11
117.254
 21
82.7475
 31
0.0
  0
LINE
  5
140
330
1D
100
AcDbEntity
  8
0
100
AcDbLine
 10
120.85
 20
99.8902
 30
0.0
 11
125.95
 21
98.0244
 31
0.0
  0
LINE
  5
141
330
1D
100
AcDbEntity
  8
0
100
AcDbLine
 10
125.95
 20
98.0244
 30
0.0
 11
127.570212267899
 21
97.720415920922
 31
0.0
  0
LINE
  5
142
330
1D
100
AcDbEntity
  8
0
100
AcDbLine
 10
125.95
 20
98.0242
 30
0.0
 11
127.570178131162
 21
97.720222325654
 31
0.0
  0
LINE
  5
143
330
1D
100
AcDbEntity
  8
0
100
AcDbLine
 10
120.85
 20
99.8901
 30
0.0
 11
125.95
 21
98.0242
 31
0.0
  0
LINE
  5
144
330
1D
100
AcDbEntity
  8
0
100
AcDbLine
 10
119.900902555348
 20
100.314651265051
 30
0.0
 11
120.85
 21
99.8902
 31
0.0
  0
LINE
  5
145
330
1D
100
AcDbEntity
  8
0
100
AcDbLine
 10
119.900865209376
 20
100.314586577242
 30
0.0
 11
120.85
 21
99.8901
 31
0.0
  0
LINE
  5
146
330
1D
100
AcDbEntity
  8
0
100
AcDbLine
 10
126.932
 20
99.4255
 30
0.0
 11
137.0
 21
98.1
 31
0.0
  0
LINE
  5
147
330
1D
100
AcDbEntity
  8
0
100
AcDbLine
 10
126.647
 20
98.363
 30
0.0
 11
127.660003164905
 21
98.229635437674
 31
0.0
  0
LINE
  5
148
330
1D
100
AcDbEntity
  8
0
100
AcDbLine
 10
126.647
 20
98.363
 30
0.0
 11
137.0
 21
97.0
 31
0.0
  0
LINE
  5
149
330
1D
100
AcDbEntity
  8
0
100
AcDbLine
 10
127.38
 20
101.332
 30
0.0
 11
130.562
 21
100.592
 31
0.0
  0
LINE
  5
14A
330
1D
100
AcDbEntity
  8
0
100
AcDbLine
 10
124.346
 20
102.294
 30
0.0
 11
127.38
 21
101.332
 31
0.0
  0
LINE
  5
14B
330
1D
100
AcDbEntity
  8
0
100
AcDbLine
 10
121.386
 20
103.552
 30
0.0
 11
124.346
 21
102.294
 31
0.0
  0
LINE
  5
14C
330
1D
100
AcDbEntity
  8
0
100
AcDbLine
 10
124.012
 20
126.086
 30
0.0
 11
124.998
 21
124.998
 31
0.0
  0
LINE
  5
14D
330
1D
100
AcDbEntity
  8
0
100
AcDbLine
 10
128.534
 20
122.312
 30
0.0
 11
129.826
 21
121.632
 31
0.0
  0
LINE
  5
14E
330
1D
100
AcDbEntity
  8
0
100
AcDbLine
 10
127.242
 20
123.094
 30
0.0
 11
128.534
 21
122.312
 31
0.0
  0
LINE
  5
14F
330
1D
100
AcDbEntity
  8
0
100
AcDbLine
 10
128.964
 20
125.548
 30
0.0
 11
130.028
 21
124.904
 31
0.0
  0
LINE
  5
150
330
1D
100
AcDbEntity
  8
0
100
AcDbLine
 10
128.012
 20
126.304
 30
0.0
 11
128.964
 21
125.548
 31
0.0
  0
LINE
  5
151
330
1D
100
AcDbEntity
  8
0
100
AcDbLine
 10
126.086
 20
124.012
 30
0.0
 11
127.242
 21
123.094
 31
0.0
  0
LINE
  5
152
330
1D
100
AcDbEntity
  8
0
100
AcDbLine
 10
124.998
 20
124.998
 30
0.0
 11
126.086
 21
124.012
 31
0.0
  0
LINE
  5
153
330
1D
100
AcDbEntity
  8
0
100
AcDbLine
 10
118.574
 20
105.032
 30
0.0
 11
121.386
 21
103.552
 31
0.0
  0
LINE
  5
154
330
1D
100
AcDbEntity
  8
0
100
AcDbLine
 10
117.55
 20
103.312
 30
0.0
 11
126.932
 21
99.4255
 31
0.0
  0
LINE
  5
155
330
1D
100
AcDbEntity
  8
0
100
AcDbLine
 10
120.293537963496
 20
100.99474399273
 30
0.0
 11
126.647
 21
98.363
 31
0.0
  0
LINE
  5
156
330
1D
100
AcDbEntity
  8
0
100
AcDbLine
 10
133.506872749303
 20
96.835326797853
 30
0.0
 11
137.0
 21
96.5732
 31
0.0
  0
LINE
  5
157
330
1D
100
AcDbEntity
  8
0
100
AcDbLine
 10
133.50683794354
 20
96.835129409703
 30
0.0
 11
137.0
 21
96.573
 31
0.0
  0
LINE
  5
158
330
1D
100
AcDbEntity
  8
0
100
AcDbLine
 10
130.028
 20
124.904
 30
0.0
 11
131.092
 21
124.344
 31
0.0
  0
LINE
  5
159
330
1D
100
AcDbEntity
  8
0
100
AcDbLine
 10
129.826
 20
121.632
 30
0.0
 11
131.186
 21
121.054
 31
0.0
  0
LINE
  5
15A
330
1D
100
AcDbEntity
  8
0
100
AcDbLine
 10
131.092
 20
124.344
 30
0.0
 11
132.212
 21
123.868
 31
0.0
  0
LINE
  5
15B
330
1D
100
AcDbEntity
  8
0
100
AcDbLine
 10
134.042
 20
120.272
 30
0.0
 11
135.504
 21
120.102
 31
0.0
  0
LINE
  5
15C
330
1D
100
AcDbEntity
  8
0
100
AcDbLine
 10
134.564
 20
123.224
 30
0.0
 11
135.768
 21
123.084
 31
0.0
  0
LINE
  5
15D
330
1D
100
AcDbEntity
  8
0
100
AcDbLine
 10
133.36
 20
123.504
 30
0.0
 11
134.564
 21
123.224
 31
0.0
  0
LINE
  5
15E
330
1D
100
AcDbEntity
  8
0
100
AcDbLine
 10
132.212
 20
123.868
 30
0.0
 11
133.36
 21
123.504
 31
0.0
  0
LINE
  5
15F
330
1D
100
AcDbEntity
  8
0
100
AcDbLine
 10
132.58
 20
120.612
 30
0.0
 11
134.042
 21
120.272
 31
0.0
  0
LINE
  5
160
330
1D
100
AcDbEntity
  8
0
100
AcDbLine
 10
131.186
 20
121.054
 30
0.0
 11
132.58
 21
120.612
 31
0.0
  0
LINE
  5
161
330
1D
100
AcDbEntity
  8
0
100
AcDbLine
 10
133.744
 20
100.222
 30
0.0
 11
137.0
 21
100.0
 31
0.0
  0
LINE
  5
162
330
1D
100
AcDbEntity
  8
0
100
AcDbLine
 10
130.562
 20
100.592
 30
0.0
 11
133.744
 21
100.222
 31
0.0
  0
LINE
  5
163
330
1D
100
AcDbEntity
  8
0
100
AcDbLine
 10
133.614502537265
 20
97.445709749996
 30
0.0
 11
137.0
 21
97.0
 31
0.0
  0
LINE
  5
164
330
1D
100
AcDbEntity
  8
0
100
AcDbLine
 10
125.548
 20
128.964
 30
0.0
 11
126.304
 21
128.012
 31
0.0
  0
LINE
  5
165
330
1D
100
AcDbEntity
  8
0
100
AcDbLine
 10
126.304
 20
128.012
 30
0.0
 11
127.116
 21
127.116
 31
0.0
  0
LINE
  5
166
330
1D
100
AcDbEntity
  8
0
100
AcDbLine
 10
122.312
 20
128.534
 30
0.0
 11
123.094
 21
127.242
 31
0.0
  0
LINE
  5
167
330
1D
100
AcDbEntity
  8
0
100
AcDbLine
 10
123.094
 20
127.242
 30
0.0
 11
124.012
 21
126.086
 31
0.0
  0
LINE
  5
168
330
1D
100
AcDbEntity
  8
0
100
AcDbLine
 10
127.116
 20
127.116
 30
0.0
 11
128.012
 21
126.304
 31
0.0
  0
LINE
  5
169
330
1D
100
AcDbEntity
  8
0
100
AcDbLine
 10
135.504
 20
120.102
 30
0.0
 11
137.0
 21
120.0
 31
0.0
  0
LINE
  5
16A
330
1D
100
AcDbEntity
  8
0
100
AcDbLine
 10
135.4
 20
129.256
 30
0.0
 11
136.808
 21
129.099
 31
0.0
  0
LINE
  5
16B
330
1D
100
AcDbEntity
  8
0
100
AcDbLine
 10
135.344
 20
128.974
 30
0.0
 11
136.801
 21
128.811
 31
0.0
  0
LINE
  5
16C
330
1D
100
AcDbEntity
  8
0
100
AcDbLine
 10
134.041
 20
129.656
 30
0.0
 11
135.4
 21
129.256
 31
0.0
  0
LINE
  5
16D
330
1D
100
AcDbEntity
  8
0
100
AcDbLine
 10
134.918
 20
129.447
 30
0.0
 11
135.666
 21
129.284
 31
0.0
  0
LINE
  5
16E
330
1D
100
AcDbEntity
  8
0
100
AcDbLine
 10
134.188
 20
129.68
 30
0.0
 11
134.918
 21
129.447
 31
0.0
  0
LINE
  5
16F
330
1D
100
AcDbEntity
  8
0
100
AcDbLine
 10
133.936
 20
129.387
 30
0.0
 11
135.344
 21
128.974
 31
0.0
  0
LINE
  5
170
330
1D
100
AcDbEntity
  8
0
100
AcDbLine
 10
135.768
 20
123.084
 30
0.0
 11
137.0
 21
123.0
 31
0.0
  0
LINE
  5
171
330
1D
100
AcDbEntity
  8
0
100
AcDbLine
 10
135.666
 20
129.284
 30
0.0
 11
136.427
 21
129.192
 31
0.0
  0
LINE
  5
172
330
1D
100
AcDbEntity
  8
0
100
AcDbLine
 10
135.557
 20
129.608
 30
0.0
 11
136.311
 21
129.503
 31
0.0
  0
LINE
  5
173
330
1D
100
AcDbEntity
  8
0
100
AcDbLine
 10
121.632
 20
129.826
 30
0.0
 11
122.312
 21
128.534
 31
0.0
  0
LINE
  5
174
330
1D
100
AcDbEntity
  8
0
100
AcDbLine
 10
134.817
 20
129.786
 30
0.0
 11
135.557
 21
129.608
 31
0.0
  0
LINE
  5
175
330
1D
100
AcDbEntity
  8
0
100
AcDbLine
 10
136.427
 20
129.192
 30
0.0
 11
137.193
 21
129.174
 31
0.0
  0
LINE
  5
176
330
1D
100
AcDbEntity
  8
0
100
AcDbLine
 10
137.0
 20
96.5732
 30
0.0
 11
141.563825670284
 21
96.915672782425
 31
0.0
  0
LINE
  5
177
330
1D
100
AcDbEntity
  8
0
100
AcDbLine
 10
137.0
 20
96.573
 30
0.0
 11
141.56386048304
 21
96.9154753948
 31
0.0
  0
LINE
  5
178
330
1D
100
AcDbEntity
  8
0
100
AcDbLine
 10
137.0
 20
123.0
 30
0.0
 11
138.232
 21
123.084
 31
0.0
  0
LINE
  5
179
330
1D
100
AcDbEntity
  8
0
100
AcDbLine
 10
137.0
 20
120.0
 30
0.0
 11
138.496
 21
120.102
 31
0.0
  0
LINE
  5
17A
330
1D
100
AcDbEntity
  8
0
100
AcDbLine
 10
137.0
 20
100.0
 30
0.0
 11
140.256
 21
100.222
 31
0.0
  0
LINE
  5
17B
330
1D
100
AcDbEntity
  8
0
100
AcDbLine
 10
137.0
 20
98.1
 30
0.0
 11
147.068
 21
99.4255
 31
0.0
  0
LINE
  5
17C
330
1D
100
AcDbEntity
  8
0
100
AcDbLine
 10
138.232
 20
123.084
 30
0.0
 11
139.436
 21
123.224
 31
0.0
  0
LINE
  5
17D
330
1D
100
AcDbEntity
  8
0
100
AcDbLine
 10
139.436
 20
123.224
 30
0.0
 11
140.64
 21
123.504
 31
0.0
  0
LINE
  5
17E
330
1D
100
AcDbEntity
  8
0
100
AcDbLine
 10
138.496
 20
120.102
 30
0.0
 11
139.958
 21
120.272
 31
0.0
  0
LINE
  5
17F
330
1D
100
AcDbEntity
  8
0
100
AcDbLine
 10
140.64
 20
123.504
 30
0.0
 11
141.788
 21
123.868
 31
0.0
  0
LINE
  5
180
330
1D
100
AcDbEntity
  8
0
100
AcDbLine
 10
139.958
 20
120.272
 30
0.0
 11
141.42
 21
120.612
 31
0.0
  0
LINE
  5
181
330
1D
100
AcDbEntity
  8
0
100
AcDbLine
 10
140.256
 20
100.222
 30
0.0
 11
143.438
 21
100.592
 31
0.0
  0
LINE
  5
182
330
1D
100
AcDbEntity
  8
0
100
AcDbLine
 10
137.0
 20
97.0
 30
0.0
 11
141.445726665942
 21
97.585291745936
 31
0.0
  0
LINE
  5
183
330
1D
100
AcDbEntity
  8
0
100
AcDbLine
 10
137.0
 20
97.0
 30
0.0
 11
147.353
 21
98.363
 31
0.0
  0
LINE
  5
184
330
1D
100
AcDbEntity
  8
0
100
AcDbLine
 10
136.808
 20
129.099
 30
0.0
 11
138.222
 21
129.19
 31
0.0
  0
LINE
  5
185
330
1D
100
AcDbEntity
  8
0
100
AcDbLine
 10
138.222
 20
129.19
 30
0.0
 11
139.598
 21
129.525
 31
0.0
  0
LINE
  5
186
330
1D
100
AcDbEntity
  8
0
100
AcDbLine
 10
139.691
 20
129.251
 30
0.0
 11
141.034
 21
129.841
 31
0.0
  0
LINE
  5
187
330
1D
100
AcDbEntity
  8
0
100
AcDbLine
 10
138.713
 20
129.357
 30
0.0
 11
139.453
 21
129.556
 31
0.0
  0
LINE
  5
188
330
1D
100
AcDbEntity
  8
0
100
AcDbLine
 10
137.957
 20
129.229
 30
0.0
 11
138.713
 21
129.357
 31
0.0
  0
LINE
  5
189
330
1D
100
AcDbEntity
  8
0
100
AcDbLine
 10
137.193
 20
129.174
 30
0.0
 11
137.957
 21
129.229
 31
0.0
  0
LINE
  5
18A
330
1D
100
AcDbEntity
  8
0
100
AcDbLine
 10
137.071
 20
129.472
 30
0.0
 11
137.83
 21
129.517
 31
0.0
  0
LINE
  5
18B
330
1D
100
AcDbEntity
  8
0
100
AcDbLine
 10
138.265
 20
128.905
 30
0.0
 11
139.691
 21
129.251
 31
0.0
  0
LINE
  5
18C
330
1D
100
AcDbEntity
  8
0
100
AcDbLine
 10
136.801
 20
128.811
 30
0.0
 11
138.265
 21
128.905
 31
0.0
  0
LINE
  5
18D
330
1D
100
AcDbEntity
  8
0
100
AcDbLine
 10
139.598
 20
129.525
 30
0.0
 11
140.896
 21
130.094
 31
0.0
  0
LINE
  5
18E
330
1D
100
AcDbEntity
  8
0
100
AcDbLine
 10
140.171
 20
129.824
 30
0.0
 11
140.86
 21
130.16
 31
0.0
  0
LINE
  5
18F
330
1D
100
AcDbEntity
  8
0
100
AcDbLine
 10
139.453
 20
129.556
 30
0.0
 11
140.171
 21
129.824
 31
0.0
  0
LINE
  5
190
330
1D
100
AcDbEntity
  8
0
100
AcDbLine
 10
138.582
 20
129.635
 30
0.0
 11
139.318
 21
129.827
 31
0.0
  0
LINE
  5
191
330
1D
100
AcDbEntity
  8
0
100
AcDbLine
 10
137.83
 20
129.517
 30
0.0
 11
138.582
 21
129.635
 31
0.0
  0
LINE
  5
192
330
1D
100
AcDbEntity
  8
0
100
AcDbLine
 10
136.311
 20
129.503
 30
0.0
 11
137.071
 21
129.472
 31
0.0
  0
LINE
  5
193
330
1D
100
AcDbEntity
  8
0
100
AcDbLine
 10
124.904
 20
130.028
 30
0.0
 11
125.548
 21
128.964
 31
0.0
  0
LINE
  5
194
330
1D
100
AcDbEntity
  8
0
100
AcDbLine
 10
132.772
 20
130.286
 30
0.0
 11
134.041
 21
129.656
 31
0.0
  0
LINE
  5
195
330
1D
100
AcDbEntity
  8
0
100
AcDbLine
 10
132.811
 20
130.35
 30
0.0
 11
133.483
 21
129.983
 31
0.0
  0
LINE
  5
196
330
1D
100
AcDbEntity
  8
0
100
AcDbLine
 10
132.622
 20
130.04
 30
0.0
 11
133.936
 21
129.387
 31
0.0
  0
LINE
  5
197
330
1D
100
AcDbEntity
  8
0
100
AcDbLine
 10
133.483
 20
129.983
 30
0.0
 11
134.188
 21
129.68
 31
0.0
  0
LINE
  5
198
330
1D
100
AcDbEntity
  8
0
100
AcDbLine
 10
133.408
 20
130.356
 30
0.0
 11
134.099
 21
130.037
 31
0.0
  0
LINE
  5
199
330
1D
100
AcDbEntity
  8
0
100
AcDbLine
 10
124.344
 20
131.092
 30
0.0
 11
124.904
 21
130.028
 31
0.0
  0
LINE
  5
19A
330
1D
100
AcDbEntity
  8
0
100
AcDbLine
 10
121.054
 20
131.186
 30
0.0
 11
121.632
 21
129.826
 31
0.0
  0
LINE
  5
19B
330
1D
100
AcDbEntity
  8
0
100
AcDbLine
 10
131.631
 20
131.128
 30
0.0
 11
132.772
 21
130.286
 31
0.0
  0
LINE
  5
19C
330
1D
100
AcDbEntity
  8
0
100
AcDbLine
 10
132.176
 20
130.781
 30
0.0
 11
132.811
 21
130.35
 31
0.0
  0
LINE
  5
19D
330
1D
100
AcDbEntity
  8
0
100
AcDbLine
 10
131.441
 20
130.911
 30
0.0
 11
132.622
 21
130.04
 31
0.0
  0
LINE
  5
19E
330
1D
100
AcDbEntity
  8
0
100
AcDbLine
 10
132.752
 20
130.742
 30
0.0
 11
133.408
 21
130.356
 31
0.0
  0
LINE
  5
19F
330
1D
100
AcDbEntity
  8
0
100
AcDbLine
 10
134.099
 20
130.037
 30
0.0
 11
134.817
 21
129.786
 31
0.0
  0
LINE
  5
1A0
330
1D
100
AcDbEntity
  8
0
100
AcDbLine
 10
131.585
 20
131.27
 30
0.0
 11
132.176
 21
130.781
 31
0.0
  0
LINE
  5
1A1
330
1D
100
AcDbEntity
  8
0
100
AcDbLine
 10
132.137
 20
131.191
 30
0.0
 11
132.752
 21
130.742
 31
0.0
  0
LINE
  5
1A2
330
1D
100
AcDbEntity
  8
0
100
AcDbLine
 10
140.032
 20
130.091
 30
0.0
 11
140.717
 21
130.423
 31
0.0
  0
LINE
  5
1A3
330
1D
100
AcDbEntity
  8
0
100
AcDbLine
 10
139.318
 20
129.827
 30
0.0
 11
140.032
 21
130.091
 31
0.0
  0
LINE
  5
1A4
330
1D
100
AcDbEntity
  8
0
100
AcDbLine
 10
141.42
 20
120.612
 30
0.0
 11
142.814
 21
121.054
 31
0.0
  0
LINE
  5
1A5
330
1D
100
AcDbEntity
  8
0
100
AcDbLine
 10
141.445726665942
 20
97.585291745936
 30
0.0
 11
145.795
 21
72.925
 31
0.0
  0
LINE
  5
1A6
330
1D
100
AcDbEntity
  8
0
100
AcDbLine
 10
141.788
 20
123.868
 30
0.0
 11
142.908
 21
124.344
 31
0.0
  0
LINE
  5
1A7
330
1D
100
AcDbEntity
  8
0
100
AcDbLine
 10
141.445726665942
 20
97.585291745936
 30
0.0
 11
145.795
 21
72.925
 31
0.0
  0
LINE
  5
1A8
330
1D
100
AcDbEntity
  8
0
100
AcDbLine
 10
140.896
 20
130.094
 30
0.0
 11
142.075
 21
130.881
 31
0.0
  0
LINE
  5
1A9
330
1D
100
AcDbEntity
  8
0
100
AcDbLine
 10
140.86
 20
130.16
 30
0.0
 11
141.514
 21
130.56
 31
0.0
  0
LINE
  5
1AA
330
1D
100
AcDbEntity
  8
0
100
AcDbLine
 10
141.034
 20
129.841
 30
0.0
 11
142.255
 21
130.656
 31
0.0
  0
LINE
  5
1AB
330
1D
100
AcDbEntity
  8
0
100
AcDbLine
 10
141.514
 20
130.56
 30
0.0
 11
142.128
 21
131.02
 31
0.0
  0
LINE
  5
1AC
330
1D
100
AcDbEntity
  8
0
100
AcDbLine
 10
147.48058718265
 20
97.917566818739
 30
0.0
 11
148.05
 21
98.0244
 31
0.0
  0
LINE
  5
1AD
330
1D
100
AcDbEntity
  8
0
100
AcDbLine
 10
147.480621312982
 20
97.917373222269
 30
0.0
 11
148.05
 21
98.0242
 31
0.0
  0
LINE
  5
1AE
330
1D
100
AcDbEntity
  8
0
100
AcDbLine
 10
148.05
 20
98.0244
 30
0.0
 11
153.15
 21
99.8902
 31
0.0
  0
LINE
  5
1AF
330
1D
100
AcDbEntity
  8
0
100
AcDbLine
 10
148.05
 20
98.0242
 30
0.0
 11
153.15
 21
99.8901
 31
0.0
  0
LINE
  5
1B0
330
1D
100
AcDbEntity
  8
0
100
AcDbLine
 10
147.353
 20
98.363
 30
0.0
 11
157.0
 21
102.359
 31
0.0
  0
LINE
  5
1B1
330
1D
100
AcDbEntity
  8
0
100
AcDbLine
 10
143.438
 20
100.592
 30
0.0
 11
146.62
 21
101.332
 31
0.0
  0
LINE
  5
1B2
330
1D
100
AcDbEntity
  8
0
100
AcDbLine
 10
142.814
 20
121.054
 30
0.0
 11
144.174
 21
121.632
 31
0.0
  0
LINE
  5
1B3
330
1D
100
AcDbEntity
  8
0
100
AcDbLine
 10
144.174
 20
121.632
 30
0.0
 11
145.466
 21
122.312
 31
0.0
  0
LINE
  5
1B4
330
1D
100
AcDbEntity
  8
0
100
AcDbLine
 10
142.908
 20
124.344
 30
0.0
 11
143.972
 21
124.904
 31
0.0
  0
LINE
  5
1B5
330
1D
100
AcDbEntity
  8
0
100
AcDbLine
 10
143.972
 20
124.904
 30
0.0
 11
145.036
 21
125.548
 31
0.0
  0
LINE
  5
1B6
330
1D
100
AcDbEntity
  8
0
100
AcDbLine
 10
145.466
 20
122.312
 30
0.0
 11
146.758
 21
123.094
 31
0.0
  0
LINE
  5
1B7
330
1D
100
AcDbEntity
  8
0
100
AcDbLine
 10
146.758
 20
123.094
 30
0.0
 11
147.914
 21
124.012
 31
0.0
  0
LINE
  5
1B8
330
1D
100
AcDbEntity
  8
0
100
AcDbLine
 10
146.62
 20
101.332
 30
0.0
 11
149.654
 21
102.294
 31
0.0
  0
LINE
  5
1B9
330
1D
100
AcDbEntity
  8
0
100
AcDbLine
 10
153.15
 20
99.8902
 30
0.0
 11
155.079551679805
 21
100.753125778686
 31
0.0
  0
LINE
  5
1BA
330
1D
100
AcDbEntity
  8
0
100
AcDbLine
 10
153.15
 20
99.8901
 30
0.0
 11
155.079580206511
 21
100.753076371182
 31
0.0
  0
LINE
  5
1BB
330
1D
100
AcDbEntity
  8
0
100
AcDbLine
 10
149.654
 20
102.294
 30
0.0
 11
152.614
 21
103.552
 31
0.0
  0
LINE
  5
1BC
330
1D
100
AcDbEntity
  8
0
100
AcDbLine
 10
149.002
 20
124.998
 30
0.0
 11
149.988
 21
126.086
 31
0.0
  0
LINE
  5
1BD
330
1D
100
AcDbEntity
  8
0
100
AcDbLine
 10
147.914
 20
124.012
 30
0.0
 11
149.002
 21
124.998
 31
0.0
  0
LINE
  5
1BE
330
1D
100
AcDbEntity
  8
0
100
AcDbLine
 10
152.614
 20
103.552
 30
0.0
 11
155.426
 21
105.032
 31
0.0
  0
LINE
  5
1BF
330
1D
100
AcDbEntity
  8
0
100
AcDbLine
 10
147.068
 20
99.4255
 30
0.0
 11
156.45
 21
103.312
 31
0.0
  0
LINE
  5
1C0
330
1D
100
AcDbEntity
  8
0
100
AcDbLine
 10
147.398720226052
 20
98.38193832521
 30
0.0
 11
151.703
 21
73.9669
 31
0.0
  0
LINE
  5
1C1
330
1D
100
AcDbEntity
  8
0
100
AcDbLine
 10
155.426
 20
105.032
 30
0.0
 11
158.238
 21
106.734
 31
0.0
  0
LINE
  5
1C2
330
1D
100
AcDbEntity
  8
0
100
AcDbLine
 10
156.45
 20
103.312
 30
0.0
 11
164.507
 21
109.493
 31
0.0
  0
LINE
  5
1C3
330
1D
100
AcDbEntity
  8
0
100
AcDbLine
 10
154.70196160005
 20
101.40710185071
 30
0.0
 11
167.179
 21
79.7972
 31
0.0
  0
LINE
  5
1C4
330
1D
100
AcDbEntity
  8
0
100
AcDbLine
 10
145.036
 20
125.548
 30
0.0
 11
145.988
 21
126.304
 31
0.0
  0
LINE
  5
1C5
330
1D
100
AcDbEntity
  8
0
100
AcDbLine
 10
149.096
 20
130.028
 30
0.0
 11
149.656
 21
131.092
 31
0.0
  0
LINE
  5
1C6
330
1D
100
AcDbEntity
  8
0
100
AcDbLine
 10
148.452
 20
128.964
 30
0.0
 11
149.096
 21
130.028
 31
0.0
  0
LINE
  5
1C7
330
1D
100
AcDbEntity
  8
0
100
AcDbLine
 10
147.696
 20
128.012
 30
0.0
 11
148.452
 21
128.964
 31
0.0
  0
LINE
  5
1C8
330
1D
100
AcDbEntity
  8
0
100
AcDbLine
 10
146.884
 20
127.116
 30
0.0
 11
147.696
 21
128.012
 31
0.0
  0
LINE
  5
1C9
330
1D
100
AcDbEntity
  8
0
100
AcDbLine
 10
145.988
 20
126.304
 30
0.0
 11
146.884
 21
127.116
 31
0.0
  0
LINE
  5
1CA
330
1D
100
AcDbEntity
  8
0
100
AcDbLine
 10
152.368
 20
129.826
 30
0.0
 11
152.946
 21
131.186
 31
0.0
  0
LINE
  5
1CB
330
1D
100
AcDbEntity
  8
0
100
AcDbLine
 10
151.688
 20
128.534
 30
0.0
 11
152.368
 21
129.826
 31
0.0
  0
LINE
  5
1CC
330
1D
100
AcDbEntity
  8
0
100
AcDbLine
 10
150.906
 20
127.242
 30
0.0
 11
151.688
 21
128.534
 31
0.0
  0
LINE
  5
1CD
330
1D
100
AcDbEntity
  8
0
100
AcDbLine
 10
149.988
 20
126.086
 30
0.0
 11
150.906
 21
127.242
 31
0.0
  0
LINE
  5
1CE
330
1D
100
AcDbEntity
  8
0
100
AcDbLine
 10
142.255
 20
130.656
 30
0.0
 11
143.316
 21
131.67
 31
0.0
  0
LINE
  5
1CF
330
1D
100
AcDbEntity
  8
0
100
AcDbLine
 10
142.075
 20
130.881
 30
0.0
 11
143.1
 21
131.861
 31
0.0
  0
LINE
  5
1D0
330
1D
100
AcDbEntity
  8
0
100
AcDbLine
 10
149.656
 20
131.092
 30
0.0
 11
150.132
 21
132.212
 31
0.0
  0
LINE
  5
1D1
330
1D
100
AcDbEntity
  8
0
100
AcDbLine
 10
152.946
 20
131.186
 30
0.0
 11
153.388
 21
132.58
 31
0.0
  0
LINE
  5
1D2
330
1D
100
AcDbEntity
  8
0
100
AcDbLine
 10
142.128
 20
131.02
 30
0.0
 11
142.695
 21
131.537
 31
0.0
  0
LINE
  5
1D3
330
1D
100
AcDbEntity
  8
0
100
AcDbLine
 10
141.366
 20
130.821
 30
0.0
 11
141.973
 21
131.281
 31
0.0
  0
LINE
  5
1D4
330
1D
100
AcDbEntity
  8
0
100
AcDbLine
 10
140.717
 20
130.423
 30
0.0
 11
141.366
 21
130.821
 31
0.0
  0
LINE
  5
1D5
330
1D
100
AcDbEntity
  8
0
100
AcDbLine
 10
123.868
 20
132.212
 30
0.0
 11
124.344
 21
131.092
 31
0.0
  0
LINE
  5
1D6
330
1D
100
AcDbEntity
  8
0
100
AcDbLine
 10
120.612
 20
132.58
 30
0.0
 11
121.054
 21
131.186
 31
0.0
  0
LINE
  5
1D7
330
1D
100
AcDbEntity
  8
0
100
AcDbLine
 10
130.126
 20
133.041
 30
0.0
 11
130.555
 21
132.405
 31
0.0
  0
LINE
  5
1D8
330
1D
100
AcDbEntity
  8
0
100
AcDbLine
 10
130.653
 20
132.155
 30
0.0
 11
131.631
 21
131.128
 31
0.0
  0
LINE
  5
1D9
330
1D
100
AcDbEntity
  8
0
100
AcDbLine
 10
131.043
 20
131.813
 30
0.0
 11
131.585
 21
131.27
 31
0.0
  0
LINE
  5
1DA
330
1D
100
AcDbEntity
  8
0
100
AcDbLine
 10
130.555
 20
132.405
 30
0.0
 11
131.043
 21
131.813
 31
0.0
  0
LINE
  5
1DB
330
1D
100
AcDbEntity
  8
0
100
AcDbLine
 10
130.593
 20
132.867
 30
0.0
 11
131.052
 21
132.258
 31
0.0
  0
LINE
  5
1DC
330
1D
100
AcDbEntity
  8
0
100
AcDbLine
 10
130.428
 20
131.975
 30
0.0
 11
131.441
 21
130.911
 31
0.0
  0
LINE
  5
1DD
330
1D
100
AcDbEntity
  8
0
100
AcDbLine
 10
123.504
 20
133.36
 30
0.0
 11
123.868
 21
132.212
 31
0.0
  0
LINE
  5
1DE
330
1D
100
AcDbEntity
  8
0
100
AcDbLine
 10
129.868
 20
133.337
 30
0.0
 11
130.653
 21
132.155
 31
0.0
  0
LINE
  5
1DF
330
1D
100
AcDbEntity
  8
0
100
AcDbLine
 10
129.616
 20
133.199
 30
0.0
 11
130.428
 21
131.975
 31
0.0
  0
LINE
  5
1E0
330
1D
100
AcDbEntity
  8
0
100
AcDbLine
 10
131.568
 20
131.698
 30
0.0
 11
132.137
 21
131.191
 31
0.0
  0
LINE
  5
1E1
330
1D
100
AcDbEntity
  8
0
100
AcDbLine
 10
131.052
 20
132.258
 30
0.0
 11
131.568
 21
131.698
 31
0.0
  0
LINE
  5
1E2
330
1D
100
AcDbEntity
  8
0
100
AcDbLine
 10
120.272
 20
134.042
 30
0.0
 11
120.612
 21
132.58
 31
0.0
  0
LINE
  5
1E3
330
1D
100
AcDbEntity
  8
0
100
AcDbLine
 10
123.224
 20
134.564
 30
0.0
 11
123.504
 21
133.36
 31
0.0
  0
LINE
  5
1E4
330
1D
100
AcDbEntity
  8
0
100
AcDbLine
 10
123.084
 20
135.768
 30
0.0
 11
123.224
 21
134.564
 31
0.0
  0
LINE
  5
1E5
330
1D
100
AcDbEntity
  8
0
100
AcDbLine
 10
120.102
 20
135.504
 30
0.0
 11
120.272
 21
134.042
 31
0.0
  0
LINE
  5
1E6
330
1D
100
AcDbEntity
  8
0
100
AcDbLine
 10
128.966
 20
136.018
 30
0.0
 11
129.3
 21
134.638
 31
0.0
  0
LINE
  5
1E7
330
1D
100
AcDbEntity
  8
0
100
AcDbLine
 10
129.223
 20
135.152
 30
0.0
 11
129.456
 21
134.421
 31
0.0
  0
LINE
  5
1E8
330
1D
100
AcDbEntity
  8
0
100
AcDbLine
 10
129.06
 20
135.902
 30
0.0
 11
129.223
 21
135.152
 31
0.0
  0
LINE
  5
1E9
330
1D
100
AcDbEntity
  8
0
100
AcDbLine
 10
128.969
 20
136.665
 30
0.0
 11
129.06
 21
135.902
 31
0.0
  0
LINE
  5
1EA
330
1D
100
AcDbEntity
  8
0
100
AcDbLine
 10
128.681
 20
135.974
 30
0.0
 11
129.027
 21
134.546
 31
0.0
  0
LINE
  5
1EB
330
1D
100
AcDbEntity
  8
0
100
AcDbLine
 10
129.027
 20
134.546
 30
0.0
 11
129.616
 21
133.199
 31
0.0
  0
LINE
  5
1EC
330
1D
100
AcDbEntity
  8
0
100
AcDbLine
 10
129.3
 20
134.638
 30
0.0
 11
129.868
 21
133.337
 31
0.0
  0
LINE
  5
1ED
330
1D
100
AcDbEntity
  8
0
100
AcDbLine
 10
129.758
 20
133.715
 30
0.0
 11
130.126
 21
133.041
 31
0.0
  0
LINE
  5
1EE
330
1D
100
AcDbEntity
  8
0
100
AcDbLine
 10
129.865
 20
134.203
 30
0.0
 11
130.197
 21
133.517
 31
0.0
  0
LINE
  5
1EF
330
1D
100
AcDbEntity
  8
0
100
AcDbLine
 10
129.602
 20
134.919
 30
0.0
 11
129.865
 21
134.203
 31
0.0
  0
LINE
  5
1F0
330
1D
100
AcDbEntity
  8
0
100
AcDbLine
 10
129.456
 20
134.421
 30
0.0
 11
129.758
 21
133.715
 31
0.0
  0
LINE
  5
1F4
330
1D
100
AcDbEntity
  8
0
100
AcDbLine
 10
129.411
 20
135.657
 30
0.0
 11
129.602
 21
134.919
 31
0.0
  0
LINE
  5
1F5
330
1D
100
AcDbEntity
  8
0
100
AcDbLine
 10
129.292
 20
136.41
 30
0.0
 11
129.411
 21
135.657
 31
0.0
  0
LINE
  5
1F6
330
1D
100
AcDbEntity
  8
0
100
AcDbLine
 10
130.197
 20
133.517
 30
0.0
 11
130.593
 21
132.867
 31
0.0
  0
LINE
  5
1F7
330
1D
100
AcDbEntity
  8
0
100
AcDbLine
 10
143.1
 20
131.861
 30
0.0
 11
143.94
 21
133.005
 31
0.0
  0
LINE
  5
1F8
330
1D
100
AcDbEntity
  8
0
100
AcDbLine
 10
143.21
 20
132.105
 30
0.0
 11
143.669
 21
132.72
 31
0.0
  0
LINE
  5
1F9
330
1D
100
AcDbEntity
  8
0
100
AcDbLine
 10
142.695
 20
131.537
 30
0.0
 11
143.21
 21
132.105
 31
0.0
  0
LINE
  5
1FA
330
1D
100
AcDbEntity
  8
0
100
AcDbLine
 10
143.316
 20
131.67
 30
0.0
 11
144.186
 21
132.855
 31
0.0
  0
LINE
  5
1FB
330
1D
100
AcDbEntity
  8
0
100
AcDbLine
 10
143.669
 20
132.72
 30
0.0
 11
144.068
 21
133.376
 31
0.0
  0
LINE
  5
1FC
330
1D
100
AcDbEntity
  8
0
100
AcDbLine
 10
143.94
 20
133.005
 30
0.0
 11
144.569
 21
134.277
 31
0.0
  0
LINE
  5
1FD
330
1D
100
AcDbEntity
  8
0
100
AcDbLine
 10
143.87
 20
133.642
 30
0.0
 11
144.189
 21
134.334
 31
0.0
  0
LINE
  5
1FE
330
1D
100
AcDbEntity
  8
0
100
AcDbLine
 10
144.068
 20
133.376
 30
0.0
 11
144.402
 21
134.067
 31
0.0
  0
LINE
  5
1FF
330
1D
100
AcDbEntity
  8
0
100
AcDbLine
 10
144.186
 20
132.855
 30
0.0
 11
144.837
 21
134.172
 31
0.0
  0
LINE
  5
200
330
1D
100
AcDbEntity
  8
0
100
AcDbLine
 10
143.485
 20
132.985
 30
0.0
 11
143.87
 21
133.642
 31
0.0
  0
LINE
  5
201
330
1D
100
AcDbEntity
  8
0
100
AcDbLine
 10
143.038
 20
132.368
 30
0.0
 11
143.485
 21
132.985
 31
0.0
  0
LINE
  5
202
330
1D
100
AcDbEntity
  8
0
100
AcDbLine
 10
150.132
 20
132.212
 30
0.0
 11
150.496
 21
133.36
 31
0.0
  0
LINE
  5
203
330
1D
100
AcDbEntity
  8
0
100
AcDbLine
 10
150.496
 20
133.36
 30
0.0
 11
150.776
 21
134.564
 31
0.0
  0
LINE
  5
204
330
1D
100
AcDbEntity
  8
0
100
AcDbLine
 10
153.728
 20
134.042
 30
0.0
 11
153.898
 21
135.504
 31
0.0
  0
LINE
  5
205
330
1D
100
AcDbEntity
  8
0
100
AcDbLine
 10
153.388
 20
132.58
 30
0.0
 11
153.728
 21
134.042
 31
0.0
  0
LINE
  5
206
330
1D
100
AcDbEntity
  8
0
100
AcDbLine
 10
144.402
 20
134.067
 30
0.0
 11
144.67
 21
134.787
 31
0.0
  0
LINE
  5
207
330
1D
100
AcDbEntity
  8
0
100
AcDbLine
 10
144.569
 20
134.277
 30
0.0
 11
144.968
 21
135.639
 31
0.0
  0
LINE
  5
208
330
1D
100
AcDbEntity
  8
0
100
AcDbLine
 10
150.776
 20
134.564
 30
0.0
 11
150.916
 21
135.768
 31
0.0
  0
LINE
  5
209
330
1D
100
AcDbEntity
  8
0
100
AcDbLine
 10
144.67
 20
134.787
 30
0.0
 11
144.868
 21
135.529
 31
0.0
  0
LINE
  5
20A
330
1D
100
AcDbEntity
  8
0
100
AcDbLine
 10
144.837
 20
134.172
 30
0.0
 11
145.25
 21
135.582
 31
0.0
  0
LINE
  5
20B
330
1D
100
AcDbEntity
  8
0
100
AcDbLine
 10
144.189
 20
134.334
 30
0.0
 11
144.439
 21
135.055
 31
0.0
  0
LINE
  5
20C
330
1D
100
AcDbEntity
  8
0
100
AcDbLine
 10
153.898
 20
135.504
 30
0.0
 11
154.0
 21
137.0
 31
0.0
  0
LINE
  5
20D
330
1D
100
AcDbEntity
  8
0
100
AcDbLine
 10
144.868
 20
135.529
 30
0.0
 11
144.995
 21
136.286
 31
0.0
  0
LINE
  5
20E
330
1D
100
AcDbEntity
  8
0
100
AcDbLine
 10
144.968
 20
135.639
 30
0.0
 11
145.124
 21
137.05
 31
0.0
  0
LINE
  5
20F
330
1D
100
AcDbEntity
  8
0
100
AcDbLine
 10
144.722
 20
136.551
 30
0.0
 11
144.752
 21
137.314
 31
0.0
  0
LINE
  5
210
330
1D
100
AcDbEntity
  8
0
100
AcDbLine
 10
150.916
 20
135.768
 30
0.0
 11
151.0
 21
137.0
 31
0.0
  0
LINE
  5
211
330
1D
100
AcDbEntity
  8
0
100
AcDbLine
 10
144.995
 20
136.286
 30
0.0
 11
145.049
 21
137.052
 31
0.0
  0
LINE
  5
212
330
1D
100
AcDbEntity
  8
0
100
AcDbLine
 10
145.25
 20
135.582
 30
0.0
 11
145.412
 21
137.044
 31
0.0
  0
LINE
  5
213
330
1D
100
AcDbEntity
  8
0
100
AcDbLine
 10
144.617
 20
135.796
 30
0.0
 11
144.722
 21
136.551
 31
0.0
  0
LINE
  5
214
330
1D
100
AcDbEntity
  8
0
100
AcDbLine
 10
144.439
 20
135.055
 30
0.0
 11
144.617
 21
135.796
 31
0.0
  0
LINE
  5
215
330
1D
100
AcDbEntity
  8
0
100
AcDbLine
 10
142.532
 20
131.798
 30
0.0
 11
143.038
 21
132.368
 31
0.0
  0
LINE
  5
216
330
1D
100
AcDbEntity
  8
0
100
AcDbLine
 10
141.973
 20
131.281
 30
0.0
 11
142.532
 21
131.798
 31
0.0
  0
LINE
  5
217
330
1D
100
AcDbEntity
  8
0
100
AcDbLine
 10
117.254
 20
82.7475
 30
0.0
 11
122.057
 21
81.2329
 31
0.0
  0
LINE
  5
218
330
1D
100
AcDbEntity
  8
0
100
AcDbLine
 10
151.943
 20
81.2329
 30
0.0
 11
156.746
 21
82.7475
 31
0.0
  0
LINE
  5
219
330
1D
100
AcDbEntity
  8
0
100
AcDbLine
 10
157.137
 20
81.6735
 30
0.0
 11
161.883
 21
83.6393
 31
0.0
  0
LINE
  5
21A
330
1D
100
AcDbEntity
  8
0
100
AcDbLine
 10
161.883
 20
83.6393
 30
0.0
 11
164.249386695739
 21
84.871213073958
 31
0.0
  0
LINE
  5
21B
330
1D
100
AcDbEntity
  8
0
100
AcDbLine
 10
158.238
 20
106.734
 30
0.0
 11
160.754
 21
108.732
 31
0.0
  0
LINE
  5
21C
330
1D
100
AcDbEntity
  8
0
100
AcDbLine
 10
157.0
 20
102.359
 30
0.0
 11
165.284
 21
108.716
 31
0.0
  0
LINE
  5
21D
330
1D
100
AcDbEntity
  8
0
100
AcDbLine
 10
160.373979344477
 20
103.583957382101
 30
0.0
 11
162.925
 21
105.281
 31
0.0
  0
LINE
  5
21E
330
1D
100
AcDbEntity
  8
0
100
AcDbLine
 10
160.37416887508
 20
103.583629097888
 30
0.0
 11
162.925
 21
105.28
 31
0.0
  0
LINE
  5
21F
330
1D
100
AcDbEntity
  8
0
100
AcDbLine
 10
160.754
 20
108.732
 30
0.0
 11
163.122
 21
110.878
 31
0.0
  0
LINE
  5
220
330
1D
100
AcDbEntity
  8
0
100
AcDbLine
 10
159.82819376771
 20
104.529307554483
 30
0.0
 11
172.375
 21
82.7971
 31
0.0
  0
LINE
  5
221
330
1D
100
AcDbEntity
  8
0
100
AcDbLine
 10
161.399
 20
84.6748
 30
0.0
 11
163.677873566175
 21
85.861058760119
 31
0.0
  0
LINE
  5
222
330
1D
100
AcDbEntity
  8
0
100
AcDbLine
 10
169.422160858417
 20
87.911685489871
 30
0.0
 11
170.77
 21
88.7704
 31
0.0
  0
LINE
  5
223
330
1D
100
AcDbEntity
  8
0
100
AcDbLine
 10
170.77
 20
88.7704
 30
0.0
 11
174.846
 21
91.8976
 31
0.0
  0
LINE
  5
224
330
1D
100
AcDbEntity
  8
0
100
AcDbLine
 10
172.375
 20
82.7971
 30
0.0
 11
173.751
 21
80.414
 31
0.0
  0
LINE
  5
225
330
1D
100
AcDbEntity
  8
0
100
AcDbLine
 10
170.115
 20
89.7069
 30
0.0
 11
174.111
 21
92.7727
 31
0.0
  0
LINE
  5
226
330
1D
100
AcDbEntity
  8
0
100
AcDbLine
 10
168.850726638418
 20
88.901461441043
 30
0.0
 11
170.115
 21
89.7069
 31
0.0
  0
LINE
  5
227
330
1D
100
AcDbEntity
  8
0
100
AcDbLine
 10
189.068
 20
90.0907
 30
0.0
 11
190.965
 21
88.5001
 31
0.0
  0
LINE
  5
228
330
1D
100
AcDbEntity
  8
0
100
AcDbLine
 10
184.924
 20
93.5689
 30
0.0
 11
187.032
 21
91.7992
 31
0.0
  0
LINE
  5
229
330
1D
100
AcDbEntity
  8
0
100
AcDbLine
 10
187.032
 20
91.7992
 30
0.0
 11
189.068
 21
90.0907
 31
0.0
  0
LINE
  5
22A
330
1D
100
AcDbEntity
  8
0
100
AcDbLine
 10
174.846
 20
91.8976
 30
0.0
 11
178.632
 21
95.3672
 31
0.0
  0
LINE
  5
22B
330
1D
100
AcDbEntity
  8
0
100
AcDbLine
 10
178.632
 20
95.3672
 30
0.0
 11
180.435164277589
 21
97.335247281992
 31
0.0
  0
LINE
  5
22C
330
1D
100
AcDbEntity
  8
0
100
AcDbLine
 10
174.111
 20
92.7727
 30
0.0
 11
177.824
 21
96.1754
 31
0.0
  0
LINE
  5
22D
330
1D
100
AcDbEntity
  8
0
100
AcDbLine
 10
184.256099758802
 20
101.961096408887
 30
0.0
 11
185.23
 21
103.23
 31
0.0
  0
LINE
  5
22E
330
1D
100
AcDbEntity
  8
0
100
AcDbLine
 10
162.925
 20
105.281
 30
0.0
 11
166.86554682838
 21
108.720803572755
 31
0.0
  0
LINE
  5
22F
330
1D
100
AcDbEntity
  8
0
100
AcDbLine
 10
162.925
 20
105.28
 30
0.0
 11
166.865560782356
 21
108.720791864703
 31
0.0
  0
LINE
  5
230
330
1D
100
AcDbEntity
  8
0
100
AcDbLine
 10
164.507
 20
109.493
 30
0.0
 11
170.688
 21
117.55
 31
0.0
  0
LINE
  5
231
330
1D
100
AcDbEntity
  8
0
100
AcDbLine
 10
165.284
 20
108.716
 30
0.0
 11
165.905702180377
 21
109.526159015612
 31
0.0
  0
LINE
  5
232
330
1D
100
AcDbEntity
  8
0
100
AcDbLine
 10
165.284
 20
108.716
 30
0.0
 11
171.641
 21
117.0
 31
0.0
  0
LINE
  5
233
330
1D
100
AcDbEntity
  8
0
100
AcDbLine
 10
165.284
 20
108.716
 30
0.0
 11
165.905702180377
 21
109.526159015612
 31
0.0
  0
LINE
  5
234
330
1D
100
AcDbEntity
  8
0
100
AcDbLine
 10
168.968
 20
118.574
 30
0.0
 11
170.448
 21
121.386
 31
0.0
  0
LINE
  5
235
330
1D
100
AcDbEntity
  8
0
100
AcDbLine
 10
167.266
 20
115.762
 30
0.0
 11
168.968
 21
118.574
 31
0.0
  0
LINE
  5
236
330
1D
100
AcDbEntity
  8
0
100
AcDbLine
 10
165.268
 20
113.246
 30
0.0
 11
167.266
 21
115.762
 31
0.0
  0
LINE
  5
237
330
1D
100
AcDbEntity
  8
0
100
AcDbLine
 10
163.122
 20
110.878
 30
0.0
 11
165.268
 21
113.246
 31
0.0
  0
LINE
  5
238
330
1D
100
AcDbEntity
  8
0
100
AcDbLine
 10
165.905702180377
 20
109.526159015612
 30
0.0
 11
184.924
 21
93.5689
 31
0.0
  0
LINE
  5
239
330
1D
100
AcDbEntity
  8
0
100
AcDbLine
 10
170.882096394526
 20
113.183493773277
 30
0.0
 11
173.762
 21
117.305
 31
0.0
  0
LINE
  5
23A
330
1D
100
AcDbEntity
  8
0
100
AcDbLine
 10
173.762
 20
117.305
 30
0.0
 11
175.243135050237
 21
120.456688141545
 31
0.0
  0
LINE
  5
23B
330
1D
100
AcDbEntity
  8
0
100
AcDbLine
 10
173.762
 20
117.305
 30
0.0
 11
175.242880861882
 21
120.456780653861
 31
0.0
  0
LINE
  5
23C
330
1D
100
AcDbEntity
  8
0
100
AcDbLine
 10
170.688
 20
117.55
 30
0.0
 11
174.574
 21
126.932
 31
0.0
  0
LINE
  5
23D
330
1D
100
AcDbEntity
  8
0
100
AcDbLine
 10
171.641
 20
117.0
 30
0.0
 11
175.637
 21
126.647
 31
0.0
  0
LINE
  5
23E
330
1D
100
AcDbEntity
  8
0
100
AcDbLine
 10
169.562196773557
 20
114.291048304569
 30
0.0
 11
188.78
 21
98.165
 31
0.0
  0
LINE
  5
23F
330
1D
100
AcDbEntity
  8
0
100
AcDbLine
 10
169.562196773557
 20
114.291048304569
 30
0.0
 11
171.641
 21
117.0
 31
0.0
  0
LINE
  5
240
330
1D
100
AcDbEntity
  8
0
100
AcDbLine
 10
183.380484513242
 20
102.695842913457
 30
0.0
 11
184.293
 21
103.885
 31
0.0
  0
LINE
  5
241
330
1D
100
AcDbEntity
  8
0
100
AcDbLine
 10
185.23
 20
103.23
 30
0.0
 11
187.989
 21
107.561
 31
0.0
  0
LINE
  5
242
330
1D
100
AcDbEntity
  8
0
100
AcDbLine
 10
188.78
 20
98.165
 30
0.0
 11
190.889
 21
96.3963
 31
0.0
  0
LINE
  5
243
330
1D
100
AcDbEntity
  8
0
100
AcDbLine
 10
187.989
 20
107.561
 30
0.0
 11
190.361
 21
112.117
 31
0.0
  0
LINE
  5
246
330
1D
100
AcDbEntity
  8
0
100
AcDbLine
 10
186.999
 20
108.133
 30
0.0
 11
189.325
 21
112.601
 31
0.0
  0
LINE
  5
247
330
1D
100
AcDbEntity
  8
0
100
AcDbLine
 10
184.293
 20
103.885
 30
0.0
 11
186.999
 21
108.133
 31
0.0
  0
LINE
  5
248
330
1D
100
AcDbEntity
  8
0
100
AcDbLine
 10
177.824
 20
96.1754
 30
0.0
 11
179.559714000739
 21
98.069791821965
 31
0.0
  0
LINE
  5
249
330
1D
100
AcDbEntity
  8
0
100
AcDbLine
 10
190.889
 20
96.3963
 30
0.0
 11
192.925
 21
94.6868
 31
0.0
  0
LINE
  5
24A
330
1D
100
AcDbEntity
  8
0
100
AcDbLine
 10
192.655
 20
87.0813
 30
0.0
 11
194.083
 21
85.8826
 31
0.0
  0
LINE
  5
24B
330
1D
100
AcDbEntity
  8
0
100
AcDbLine
 10
192.925
 20
94.6868
 30
0.0
 11
194.821
 21
93.0963
 31
0.0
  0
LINE
  5
24C
330
1D
100
AcDbEntity
  8
0
100
AcDbLine
 10
190.965
 20
88.5001
 30
0.0
 11
192.655
 21
87.0813
 31
0.0
  0
LINE
  5
24D
330
1D
100
AcDbEntity
  8
0
100
AcDbLine
 10
190.361
 20
112.117
 30
0.0
 11
191.382426671713
 21
114.582763470981
 31
0.0
  0
LINE
  5
24E
330
1D
100
AcDbEntity
  8
0
100
AcDbLine
 10
194.083
 20
85.8826
 30
0.0
 11
195.201
 21
84.9448
 31
0.0
  0
LINE
  5
24F
330
1D
100
AcDbEntity
  8
0
100
AcDbLine
 10
193.390562184482
 20
120.236916826163
 30
0.0
 11
193.871
 21
121.761
 31
0.0
  0
LINE
  5
250
330
1D
100
AcDbEntity
  8
0
100
AcDbLine
 10
192.316239430161
 20
120.627955104331
 30
0.0
 11
192.767
 21
122.057
 31
0.0
  0
LINE
  5
251
330
1D
100
AcDbEntity
  8
0
100
AcDbLine
 10
189.325
 20
112.601
 30
0.0
 11
190.307718437782
 21
114.973905496108
 31
0.0
  0
LINE
  5
252
330
1D
100
AcDbEntity
  8
0
100
AcDbLine
 10
170.448
 20
121.386
 30
0.0
 11
171.706
 21
124.346
 31
0.0
  0
LINE
  5
253
330
1D
100
AcDbEntity
  8
0
100
AcDbLine
 10
173.357160084446
 20
121.143092175839
 30
0.0
 11
196.888
 21
112.579
 31
0.0
  0
LINE
  5
254
330
1D
100
AcDbEntity
  8
0
100
AcDbLine
 10
171.706
 20
124.346
 30
0.0
 11
172.668
 21
127.38
 31
0.0
  0
LINE
  5
255
330
1D
100
AcDbEntity
  8
0
100
AcDbLine
 10
175.637
 20
126.647
 30
0.0
 11
177.0
 21
137.0
 31
0.0
  0
LINE
  5
256
330
1D
100
AcDbEntity
  8
0
100
AcDbLine
 10
173.778
 20
133.744
 30
0.0
 11
174.0
 21
137.0
 31
0.0
  0
LINE
  5
257
330
1D
100
AcDbEntity
  8
0
100
AcDbLine
 10
173.408
 20
130.562
 30
0.0
 11
173.778
 21
133.744
 31
0.0
  0
LINE
  5
258
330
1D
100
AcDbEntity
  8
0
100
AcDbLine
 10
172.668
 20
127.38
 30
0.0
 11
173.408
 21
130.562
 31
0.0
  0
LINE
  5
259
330
1D
100
AcDbEntity
  8
0
100
AcDbLine
 10
174.574
 20
126.932
 30
0.0
 11
175.9
 21
137.0
 31
0.0
  0
LINE
  5
25A
330
1D
100
AcDbEntity
  8
0
100
AcDbLine
 10
175.64352813597
 20
126.696586054068
 30
0.0
 11
198.94
 21
118.217
 31
0.0
  0
LINE
  5
25B
330
1D
100
AcDbEntity
  8
0
100
AcDbLine
 10
175.64352813597
 20
126.696586054068
 30
0.0
 11
176.675371167886
 21
134.53420227522
 31
0.0
  0
LINE
  5
25C
330
1D
100
AcDbEntity
  8
0
100
AcDbLine
 10
177.532729270607
 20
126.00894357807
 30
0.0
 11
178.012
 21
127.256
 31
0.0
  0
LINE
  5
25D
330
1D
100
AcDbEntity
  8
0
100
AcDbLine
 10
179.075
 20
132.646
 30
0.0
 11
179.223890647956
 21
134.534283747024
 31
0.0
  0
LINE
  5
25E
330
1D
100
AcDbEntity
  8
0
100
AcDbLine
 10
179.075
 20
132.646
 30
0.0
 11
179.223863029514
 21
134.534283746141
 31
0.0
  0
LINE
  5
25F
330
1D
100
AcDbEntity
  8
0
100
AcDbLine
 10
178.012
 20
127.256
 30
0.0
 11
179.075
 21
132.646
 31
0.0
  0
LINE
  5
260
330
1D
100
AcDbEntity
  8
0
100
AcDbLine
 10
177.532813769147
 20
126.008912821797
 30
0.0
 11
178.012
 21
127.256
 31
0.0
  0
LINE
  5
261
330
1D
100
AcDbEntity
  8
0
100
AcDbLine
 10
176.675371167886
 20
134.53420227522
 30
0.0
 11
201.629
 21
134.535
 31
0.0
  0
LINE
  5
262
330
1D
100
AcDbEntity
  8
0
100
AcDbLine
 10
192.767
 20
122.057
 30
0.0
 11
193.857
 21
126.975
 31
0.0
  0
LINE
  5
263
330
1D
100
AcDbEntity
  8
0
100
AcDbLine
 10
193.871
 20
121.761
 30
0.0
 11
194.983
 21
126.776
 31
0.0
  0
LINE
  5
264
330
1D
100
AcDbEntity
  8
0
100
AcDbLine
 10
194.515
 20
131.968
 30
0.0
 11
194.626709852262
 21
134.534776148776
 31
0.0
  0
LINE
  5
265
330
1D
100
AcDbEntity
  8
0
100
AcDbLine
 10
193.857
 20
126.975
 30
0.0
 11
194.515
 21
131.968
 31
0.0
  0
LINE
  5
266
330
1D
100
AcDbEntity
  8
0
100
AcDbLine
 10
192.316239430161
 20
120.627955104331
 30
0.0
 11
192.767
 21
122.057
 31
0.0
  0
LINE
  5
267
330
1D
100
AcDbEntity
  8
0
100
AcDbLine
 10
156.746
 20
82.7475
 30
0.0
 11
161.399
 21
84.6748
 31
0.0
  0
LINE
  5
268
330
1D
100
AcDbEntity
  8
0
100
AcDbLine
 10
150.479231081768
 20
80.908448089108
 30
0.0
 11
151.943
 21
81.2329
 31
0.0
  0
LINE
  5
269
330
1D
100
AcDbEntity
  8
0
100
AcDbLine
 10
0.0
 20
137.0
 30
0.0
 11
0.521326
 21
148.94
 31
0.0
  0
LINE
  5
26A
330
1D
100
AcDbEntity
  8
0
100
AcDbLine
 10
0.0
 20
137.0
 30
0.0
 11
0.521326
 21
125.06
 31
0.0
  0
LINE
  5
26B
330
1D
100
AcDbEntity
  8
0
100
AcDbLine
 10
9.42676
 20
137.133
 30
0.0
 11
10.0063
 21
138.336
 31
0.0
  0
LINE
  5
26C
330
1D
100
AcDbEntity
  8
0
100
AcDbLine
 10
9.42676
 20
137.133
 30
0.0
 11
9.42749
 21
135.798
 31
0.0
  0
LINE
  5
26D
330
1D
100
AcDbEntity
  8
0
100
AcDbLine
 10
10.0063
 20
138.336
 30
0.0
 11
11.0506
 21
139.169
 31
0.0
  0
LINE
  5
26E
330
1D
100
AcDbEntity
  8
0
100
AcDbLine
 10
11.0506
 20
139.169
 30
0.0
 11
12.3525
 21
139.466
 31
0.0
  0
LINE
  5
26F
330
1D
100
AcDbEntity
  8
0
100
AcDbLine
 10
12.9336
 20
139.465
 30
0.0
 11
57.9515
 21
139.466
 31
0.0
  0
LINE
  5
270
330
1D
100
AcDbEntity
  8
0
100
AcDbLine
 10
72.3712
 20
139.465
 30
0.0
 11
97.324628831944
 21
139.465797723486
 31
0.0
  0
LINE
  5
271
330
1D
100
AcDbEntity
  8
0
100
AcDbLine
 10
62.2785
 20
139.465
 30
0.0
 11
64.4857
 21
139.465
 31
0.0
  0
LINE
  5
272
330
1D
100
AcDbEntity
  8
0
100
AcDbLine
 10
64.4857
 20
139.465
 30
0.0
 11
66.9607
 21
139.466
 31
0.0
  0
LINE
  5
273
330
1D
100
AcDbEntity
  8
0
100
AcDbLine
 10
12.9336
 20
139.465
 30
0.0
 11
57.9515
 21
139.466
 31
0.0
  0
LINE
  5
274
330
1D
100
AcDbEntity
  8
0
100
AcDbLine
 10
12.3525
 20
139.466
 30
0.0
 11
12.4983
 21
139.466
 31
0.0
  0
LINE
  5
275
330
1D
100
AcDbEntity
  8
0
100
AcDbLine
 10
57.9515
 20
139.466
 30
0.0
 11
58.955
 21
139.466
 31
0.0
  0
LINE
  5
276
330
1D
100
AcDbEntity
  8
0
100
AcDbLine
 10
58.955
 20
139.466
 30
0.0
 11
60.414
 21
139.466
 31
0.0
  0
LINE
  5
277
330
1D
100
AcDbEntity
  8
0
100
AcDbLine
 10
60.414
 20
139.466
 30
0.0
 11
62.2785
 21
139.465
 31
0.0
  0
LINE
  5
278
330
1D
100
AcDbEntity
  8
0
100
AcDbLine
 10
69.619
 20
139.466
 30
0.0
 11
72.3712
 21
139.465
 31
0.0
  0
LINE
  5
279
330
1D
100
AcDbEntity
  8
0
100
AcDbLine
 10
66.9607
 20
139.466
 30
0.0
 11
69.619
 21
139.466
 31
0.0
  0
LINE
  5
27A
330
1D
100
AcDbEntity
  8
0
100
AcDbLine
 10
12.4983
 20
139.466
 30
0.0
 11
12.9336
 21
139.465
 31
0.0
  0
LINE
  5
27B
330
1D
100
AcDbEntity
  8
0
100
AcDbLine
 10
78.230520728563
 20
139.465187313647
 30
0.0
 11
78.3469
 21
142.131
 31
0.0
  0
LINE
  5
27C
330
1D
100
AcDbEntity
  8
0
100
AcDbLine
 10
123.0
 20
137.0
 30
0.0
 11
123.084
 21
138.232
 31
0.0
  0
LINE
  5
27D
330
1D
100
AcDbEntity
  8
0
100
AcDbLine
 10
123.0
 20
137.0
 30
0.0
 11
123.084
 21
135.768
 31
0.0
  0
LINE
  5
27E
330
1D
100
AcDbEntity
  8
0
100
AcDbLine
 10
120.0
 20
137.0
 30
0.0
 11
120.102
 21
138.496
 31
0.0
  0
LINE
  5
27F
330
1D
100
AcDbEntity
  8
0
100
AcDbLine
 10
120.0
 20
137.0
 30
0.0
 11
120.102
 21
135.504
 31
0.0
  0
LINE
  5
280
330
1D
100
AcDbEntity
  8
0
100
AcDbLine
 10
100.0
 20
137.0
 30
0.0
 11
100.222
 21
140.256
 31
0.0
  0
LINE
  5
281
330
1D
100
AcDbEntity
  8
0
100
AcDbLine
 10
100.0
 20
137.0
 30
0.0
 11
100.222
 21
133.744
 31
0.0
  0
LINE
  5
282
330
1D
100
AcDbEntity
  8
0
100
AcDbLine
 10
98.1
 20
137.0
 30
0.0
 11
99.4255
 21
147.068
 31
0.0
  0
LINE
  5
283
330
1D
100
AcDbEntity
  8
0
100
AcDbLine
 10
98.1
 20
137.0
 30
0.0
 11
99.4255
 21
126.932
 31
0.0
  0
LINE
  5
284
330
1D
100
AcDbEntity
  8
0
100
AcDbLine
 10
97.0
 20
137.0
 30
0.0
 11
98.363
 21
147.353
 31
0.0
  0
LINE
  5
285
330
1D
100
AcDbEntity
  8
0
100
AcDbLine
 10
97.0
 20
137.0
 30
0.0
 11
98.363
 21
126.647
 31
0.0
  0
LINE
  5
286
330
1D
100
AcDbEntity
  8
0
100
AcDbLine
 10
128.876
 20
137.435
 30
0.0
 11
129.032
 21
138.846
 31
0.0
  0
LINE
  5
287
330
1D
100
AcDbEntity
  8
0
100
AcDbLine
 10
128.876
 20
137.435
 30
0.0
 11
128.966
 21
136.018
 31
0.0
  0
LINE
  5
288
330
1D
100
AcDbEntity
  8
0
100
AcDbLine
 10
128.951
 20
137.433
 30
0.0
 11
129.005
 21
138.199
 31
0.0
  0
LINE
  5
289
330
1D
100
AcDbEntity
  8
0
100
AcDbLine
 10
128.951
 20
137.433
 30
0.0
 11
128.969
 21
136.665
 31
0.0
  0
LINE
  5
28A
330
1D
100
AcDbEntity
  8
0
100
AcDbLine
 10
123.084
 20
138.232
 30
0.0
 11
123.224
 21
139.436
 31
0.0
  0
LINE
  5
28B
330
1D
100
AcDbEntity
  8
0
100
AcDbLine
 10
120.102
 20
138.496
 30
0.0
 11
120.272
 21
139.958
 31
0.0
  0
LINE
  5
28C
330
1D
100
AcDbEntity
  8
0
100
AcDbLine
 10
129.005
 20
138.199
 30
0.0
 11
129.132
 21
138.956
 31
0.0
  0
LINE
  5
28D
330
1D
100
AcDbEntity
  8
0
100
AcDbLine
 10
128.588
 20
137.441
 30
0.0
 11
128.75
 21
138.903
 31
0.0
  0
LINE
  5
28E
330
1D
100
AcDbEntity
  8
0
100
AcDbLine
 10
128.588
 20
137.441
 30
0.0
 11
128.681
 21
135.974
 31
0.0
  0
LINE
  5
292
330
1D
100
AcDbEntity
  8
0
100
AcDbLine
 10
129.278
 20
137.934
 30
0.0
 11
129.383
 21
138.689
 31
0.0
  0
LINE
  5
293
330
1D
100
AcDbEntity
  8
0
100
AcDbLine
 10
129.248
 20
137.171
 30
0.0
 11
129.292
 21
136.41
 31
0.0
  0
LINE
  5
294
330
1D
100
AcDbEntity
  8
0
100
AcDbLine
 10
129.248
 20
137.171
 30
0.0
 11
129.278
 21
137.934
 31
0.0
  0
LINE
  5
295
330
1D
100
AcDbEntity
  8
0
100
AcDbLine
 10
129.383
 20
138.689
 30
0.0
 11
129.561
 21
139.43
 31
0.0
  0
LINE
  5
296
330
1D
100
AcDbEntity
  8
0
100
AcDbLine
 10
150.916
 20
138.232
 30
0.0
 11
151.0
 21
137.0
 31
0.0
  0
LINE
  5
297
330
1D
100
AcDbEntity
  8
0
100
AcDbLine
 10
153.898
 20
138.496
 30
0.0
 11
154.0
 21
137.0
 31
0.0
  0
LINE
  5
298
330
1D
100
AcDbEntity
  8
0
100
AcDbLine
 10
145.034
 20
138.467
 30
0.0
 11
145.124
 21
137.05
 31
0.0
  0
LINE
  5
299
330
1D
100
AcDbEntity
  8
0
100
AcDbLine
 10
145.031
 20
137.82
 30
0.0
 11
145.049
 21
137.052
 31
0.0
  0
LINE
  5
29A
330
1D
100
AcDbEntity
  8
0
100
AcDbLine
 10
144.94
 20
138.583
 30
0.0
 11
145.031
 21
137.82
 31
0.0
  0
LINE
  5
29B
330
1D
100
AcDbEntity
  8
0
100
AcDbLine
 10
145.319
 20
138.511
 30
0.0
 11
145.412
 21
137.044
 31
0.0
  0
LINE
  5
29C
330
1D
100
AcDbEntity
  8
0
100
AcDbLine
 10
144.708
 20
138.075
 30
0.0
 11
144.752
 21
137.314
 31
0.0
  0
LINE
  5
29D
330
1D
100
AcDbEntity
  8
0
100
AcDbLine
 10
129.032
 20
138.846
 30
0.0
 11
129.431
 21
140.208
 31
0.0
  0
LINE
  5
29E
330
1D
100
AcDbEntity
  8
0
100
AcDbLine
 10
129.132
 20
138.956
 30
0.0
 11
129.33
 21
139.698
 31
0.0
  0
LINE
  5
29F
330
1D
100
AcDbEntity
  8
0
100
AcDbLine
 10
128.75
 20
138.903
 30
0.0
 11
129.163
 21
140.313
 31
0.0
  0
LINE
  5
2A0
330
1D
100
AcDbEntity
  8
0
100
AcDbLine
 10
94.612653466778
 20
139.465711025724
 30
0.0
 11
94.925
 21
143.427
 31
0.0
  0
LINE
  5
2A1
330
1D
100
AcDbEntity
  8
0
100
AcDbLine
 10
94.612711405439
 20
139.465711027576
 30
0.0
 11
94.925
 21
143.427
 31
0.0
  0
LINE
  5
2A2
330
1D
100
AcDbEntity
  8
0
100
AcDbLine
 10
123.224
 20
139.436
 30
0.0
 11
123.504
 21
140.64
 31
0.0
  0
LINE
  5
2A3
330
1D
100
AcDbEntity
  8
0
100
AcDbLine
 10
120.272
 20
139.958
 30
0.0
 11
120.612
 21
141.42
 31
0.0
  0
LINE
  5
2A4
330
1D
100
AcDbEntity
  8
0
100
AcDbLine
 10
123.504
 20
140.64
 30
0.0
 11
123.868
 21
141.788
 31
0.0
  0
LINE
  5
2A5
330
1D
100
AcDbEntity
  8
0
100
AcDbLine
 10
100.222
 20
140.256
 30
0.0
 11
100.592
 21
143.438
 31
0.0
  0
LINE
  5
2A6
330
1D
100
AcDbEntity
  8
0
100
AcDbLine
 10
97.324628831944
 20
139.465797723486
 30
0.0
 11
98.35647186403
 21
147.303413945933
 31
0.0
  0
LINE
  5
2A7
330
1D
100
AcDbEntity
  8
0
100
AcDbLine
 10
120.612
 20
141.42
 30
0.0
 11
121.054
 21
142.814
 31
0.0
  0
LINE
  5
2AA
330
1D
100
AcDbEntity
  8
0
100
AcDbLine
 10
129.431
 20
140.208
 30
0.0
 11
130.06
 21
141.48
 31
0.0
  0
LINE
  5
2AB
330
1D
100
AcDbEntity
  8
0
100
AcDbLine
 10
129.33
 20
139.698
 30
0.0
 11
129.598
 21
140.418
 31
0.0
  0
LINE
  5
2AC
330
1D
100
AcDbEntity
  8
0
100
AcDbLine
 10
129.598
 20
140.418
 30
0.0
 11
129.932
 21
141.109
 31
0.0
  0
LINE
  5
2AD
330
1D
100
AcDbEntity
  8
0
100
AcDbLine
 10
129.163
 20
140.313
 30
0.0
 11
129.814
 21
141.631
 31
0.0
  0
LINE
  5
2B0
330
1D
100
AcDbEntity
  8
0
100
AcDbLine
 10
129.561
 20
139.43
 30
0.0
 11
129.811
 21
140.15
 31
0.0
  0
LINE
  5
2B1
330
1D
100
AcDbEntity
  8
0
100
AcDbLine
 10
130.06
 20
141.48
 30
0.0
 11
130.9
 21
142.624
 31
0.0
  0
LINE
  5
2B2
330
1D
100
AcDbEntity
  8
0
100
AcDbLine
 10
129.932
 20
141.109
 30
0.0
 11
130.331
 21
141.765
 31
0.0
  0
LINE
  5
2B3
330
1D
100
AcDbEntity
  8
0
100
AcDbLine
 10
130.515
 20
141.5
 30
0.0
 11
130.962
 21
142.117
 31
0.0
  0
LINE
  5
2B4
330
1D
100
AcDbEntity
  8
0
100
AcDbLine
 10
130.13
 20
140.843
 30
0.0
 11
130.515
 21
141.5
 31
0.0
  0
LINE
  5
2B5
330
1D
100
AcDbEntity
  8
0
100
AcDbLine
 10
129.811
 20
140.15
 30
0.0
 11
130.13
 21
140.843
 31
0.0
  0
LINE
  5
2B6
330
1D
100
AcDbEntity
  8
0
100
AcDbLine
 10
123.868
 20
141.788
 30
0.0
 11
124.344
 21
142.908
 31
0.0
  0
LINE
  5
2B7
330
1D
100
AcDbEntity
  8
0
100
AcDbLine
 10
130.331
 20
141.765
 30
0.0
 11
130.79
 21
142.38
 31
0.0
  0
LINE
  5
2B8
330
1D
100
AcDbEntity
  8
0
100
AcDbLine
 10
129.814
 20
141.631
 30
0.0
 11
130.684
 21
142.815
 31
0.0
  0
LINE
  5
2BB
330
1D
100
AcDbEntity
  8
0
100
AcDbLine
 10
143.407
 20
141.618
 30
0.0
 11
143.803
 21
140.968
 31
0.0
  0
LINE
  5
2BC
330
1D
100
AcDbEntity
  8
0
100
AcDbLine
 10
144.7
 20
139.847
 30
0.0
 11
145.034
 21
138.467
 31
0.0
  0
LINE
  5
2BD
330
1D
100
AcDbEntity
  8
0
100
AcDbLine
 10
150.776
 20
139.436
 30
0.0
 11
150.916
 21
138.232
 31
0.0
  0
LINE
  5
2BE
330
1D
100
AcDbEntity
  8
0
100
AcDbLine
 10
144.777
 20
139.333
 30
0.0
 11
144.94
 21
138.583
 31
0.0
  0
LINE
  5
2BF
330
1D
100
AcDbEntity
  8
0
100
AcDbLine
 10
153.728
 20
139.958
 30
0.0
 11
153.898
 21
138.496
 31
0.0
  0
LINE
  5
2C0
330
1D
100
AcDbEntity
  8
0
100
AcDbLine
 10
173.778
 20
140.256
 30
0.0
 11
174.0
 21
137.0
 31
0.0
  0
LINE
  5
2C1
330
1D
100
AcDbEntity
  8
0
100
AcDbLine
 10
144.544
 20
140.064
 30
0.0
 11
144.777
 21
139.333
 31
0.0
  0
LINE
  5
2C2
330
1D
100
AcDbEntity
  8
0
100
AcDbLine
 10
144.973
 20
139.939
 30
0.0
 11
145.319
 21
138.511
 31
0.0
  0
LINE
  5
2C3
330
1D
100
AcDbEntity
  8
0
100
AcDbLine
 10
144.398
 20
139.566
 30
0.0
 11
144.589
 21
138.828
 31
0.0
  0
LINE
  5
2C4
330
1D
100
AcDbEntity
  8
0
100
AcDbLine
 10
144.132
 20
141.148
 30
0.0
 11
144.7
 21
139.847
 31
0.0
  0
LINE
  5
2C5
330
1D
100
AcDbEntity
  8
0
100
AcDbLine
 10
143.874
 20
141.444
 30
0.0
 11
144.242
 21
140.77
 31
0.0
  0
LINE
  5
2C6
330
1D
100
AcDbEntity
  8
0
100
AcDbLine
 10
144.242
 20
140.77
 30
0.0
 11
144.544
 21
140.064
 31
0.0
  0
LINE
  5
2C7
330
1D
100
AcDbEntity
  8
0
100
AcDbLine
 10
144.384
 20
141.286
 30
0.0
 11
144.973
 21
139.939
 31
0.0
  0
LINE
  5
2CA
330
1D
100
AcDbEntity
  8
0
100
AcDbLine
 10
150.496
 20
140.64
 30
0.0
 11
150.776
 21
139.436
 31
0.0
  0
LINE
  5
2CB
330
1D
100
AcDbEntity
  8
0
100
AcDbLine
 10
153.388
 20
141.42
 30
0.0
 11
153.728
 21
139.958
 31
0.0
  0
LINE
  5
2CC
330
1D
100
AcDbEntity
  8
0
100
AcDbLine
 10
176.534633880886
 20
140.53480222391
 30
0.0
 11
201.629
 21
140.534
 31
0.0
  0
LINE
  5
2D0
330
1D
100
AcDbEntity
  8
0
100
AcDbLine
 10
150.132
 20
141.788
 30
0.0
 11
150.496
 21
140.64
 31
0.0
  0
LINE
  5
2D5
330
1D
100
AcDbEntity
  8
0
100
AcDbLine
 10
144.135
 20
140.281
 30
0.0
 11
144.398
 21
139.566
 31
0.0
  0
LINE
  5
2D6
330
1D
100
AcDbEntity
  8
0
100
AcDbLine
 10
143.803
 20
140.968
 30
0.0
 11
144.135
 21
140.281
 31
0.0
  0
LINE
  5
2D7
330
1D
100
AcDbEntity
  8
0
100
AcDbLine
 10
144.589
 20
138.828
 30
0.0
 11
144.708
 21
138.075
 31
0.0
  0
LINE
  5
2D8
330
1D
100
AcDbEntity
  8
0
100
AcDbLine
 10
79.373333084127
 20
139.465223847635
 30
0.0
 11
79.4854
 21
142.032
 31
0.0
  0
LINE
  5
2D9
330
1D
100
AcDbEntity
  8
0
100
AcDbLine
 10
143.445
 20
142.08
 30
0.0
 11
143.874
 21
141.444
 31
0.0
  0
LINE
  5
2DB
330
1D
100
AcDbEntity
  8
0
100
AcDbLine
 10
130.962
 20
142.117
 30
0.0
 11
131.468
 21
142.687
 31
0.0
  0
LINE
  5
2DC
330
1D
100
AcDbEntity
  8
0
100
AcDbLine
 10
79.4854
 20
142.032
 30
0.0
 11
80.1428
 21
147.025
 31
0.0
  0
LINE
  5
2DD
330
1D
100
AcDbEntity
  8
0
100
AcDbLine
 10
78.3469
 20
142.131
 30
0.0
 11
79.0174
 21
147.224
 31
0.0
  0
LINE
  5
2DE
330
1D
100
AcDbEntity
  8
0
100
AcDbLine
 10
5.00684
 20
137.0
 30
0.0
 11
5.50912
 21
148.504
 31
0.0
  0
LINE
  5
2DF
330
1D
100
AcDbEntity
  8
0
100
AcDbLine
 10
5.00684
 20
137.0
 30
0.0
 11
5.50912
 21
125.496
 31
0.0
  0
LINE
  5
2E0
330
1D
100
AcDbEntity
  8
0
100
AcDbLine
 10
194.821
 20
93.0963
 30
0.0
 11
196.512
 21
91.6775
 31
0.0
  0
LINE
  5
2E1
330
1D
100
AcDbEntity
  8
0
100
AcDbLine
 10
194.899
 20
12.8359
 30
0.0
 11
205.5
 21
18.3545
 31
0.0
  0
LINE
  5
2E2
330
1D
100
AcDbEntity
  8
0
100
AcDbLine
 10
202.385
 20
30.8185
 30
0.0
 11
202.778
 21
29.5434
 31
0.0
  0
LINE
  5
2E4
330
1D
100
AcDbEntity
  8
0
100
AcDbLine
 10
197.116
 20
27.9456
 30
0.0
 11
197.188
 21
27.8192
 31
0.0
  0
LINE
  5
2E5
330
1D
100
AcDbEntity
  8
0
100
AcDbLine
 10
202.312
 20
30.9455
 30
0.0
 11
202.385
 21
30.8185
 31
0.0
  0
LINE
  5
2E6
330
1D
100
AcDbEntity
  8
0
100
AcDbLine
 10
196.898
 20
28.3226
 30
0.0
 11
197.116
 21
27.9456
 31
0.0
  0
LINE
  5
2E7
330
1D
100
AcDbEntity
  8
0
100
AcDbLine
 10
202.094
 20
31.3226
 30
0.0
 11
202.312
 21
30.9455
 31
0.0
  0
LINE
  5
2E8
330
1D
100
AcDbEntity
  8
0
100
AcDbLine
 10
202.996
 20
22.6905
 30
0.0
 11
212.708
 21
28.8776
 31
0.0
  0
LINE
  5
2E9
330
1D
100
AcDbEntity
  8
0
100
AcDbLine
 10
205.5
 20
18.3545
 30
0.0
 11
215.58
 21
24.776
 31
0.0
  0
LINE
  5
2EA
330
1D
100
AcDbEntity
  8
0
100
AcDbLine
 10
215.58
 20
24.776
 30
0.0
 11
225.062
 21
32.052
 31
0.0
  0
LINE
  5
2EB
330
1D
100
AcDbEntity
  8
0
100
AcDbLine
 10
225.062
 20
32.052
 30
0.0
 11
233.873
 21
40.1263
 31
0.0
  0
LINE
  5
2EC
330
1D
100
AcDbEntity
  8
0
100
AcDbLine
 10
221.843
 20
35.8872
 30
0.0
 11
230.333
 21
43.6666
 31
0.0
  0
LINE
  5
2ED
330
1D
100
AcDbEntity
  8
0
100
AcDbLine
 10
241.948
 20
48.9379
 30
0.0
 11
249.224
 21
58.4203
 31
0.0
  0
LINE
  5
2EE
330
1D
100
AcDbEntity
  8
0
100
AcDbLine
 10
233.873
 20
40.1263
 30
0.0
 11
241.948
 21
48.9379
 31
0.0
  0
LINE
  5
2EF
330
1D
100
AcDbEntity
  8
0
100
AcDbLine
 10
230.333
 20
43.6666
 30
0.0
 11
238.113
 21
52.1568
 31
0.0
  0
LINE
  5
2F1
330
1D
100
AcDbEntity
  8
0
100
AcDbLine
 10
230.789
 20
55.0831
 30
0.0
 11
230.901
 21
54.9893
 31
0.0
  0
LINE
  5
2F2
330
1D
100
AcDbEntity
  8
0
100
AcDbLine
 10
230.456
 20
55.363
 30
0.0
 11
230.789
 21
55.0831
 31
0.0
  0
LINE
  5
2F3
330
1D
100
AcDbEntity
  8
0
100
AcDbLine
 10
234.758
 20
59.5851
 30
0.0
 11
235.564
 21
58.5213
 31
0.0
  0
LINE
  5
2F4
330
1D
100
AcDbEntity
  8
0
100
AcDbLine
 10
235.564
 20
58.5213
 30
0.0
 11
235.828
 21
57.213
 31
0.0
  0
LINE
  5
2F5
330
1D
100
AcDbEntity
  8
0
100
AcDbLine
 10
234.645
 20
59.6793
 30
0.0
 11
234.758
 21
59.5851
 31
0.0
  0
LINE
  5
2F6
330
1D
100
AcDbEntity
  8
0
100
AcDbLine
 10
234.312
 20
59.9592
 30
0.0
 11
234.645
 21
59.6793
 31
0.0
  0
LINE
  5
2F7
330
1D
100
AcDbEntity
  8
0
100
AcDbLine
 10
245.122
 20
61.2918
 30
0.0
 11
251.31
 21
71.0038
 31
0.0
  0
LINE
  5
2F8
330
1D
100
AcDbEntity
  8
0
100
AcDbLine
 10
249.224
 20
58.4203
 30
0.0
 11
255.646
 21
68.5002
 31
0.0
  0
LINE
  5
2FA
330
1D
100
AcDbEntity
  8
0
100
AcDbLine
 10
238.113
 20
52.1568
 30
0.0
 11
245.122
 21
61.2918
 31
0.0
  0
LINE
  5
2FB
330
1D
100
AcDbEntity
  8
0
100
AcDbLine
 10
212.708
 20
28.8776
 30
0.0
 11
221.843
 21
35.8872
 31
0.0
  0
LINE
  5
2FC
330
1D
100
AcDbEntity
  8
0
100
AcDbLine
 10
195.201
 20
84.9448
 30
0.0
 11
195.97
 21
84.2999
 31
0.0
  0
LINE
  5
2FD
330
1D
100
AcDbEntity
  8
0
100
AcDbLine
 10
196.512
 20
91.6775
 30
0.0
 11
197.94
 21
90.4787
 31
0.0
  0
LINE
  5
2FE
330
1D
100
AcDbEntity
  8
0
100
AcDbLine
 10
197.94
 20
90.4787
 30
0.0
 11
199.058
 21
89.5409
 31
0.0
  0
LINE
  5
2FF
330
1D
100
AcDbEntity
  8
0
100
AcDbLine
 10
199.058
 20
89.5409
 30
0.0
 11
199.826
 21
88.8961
 31
0.0
  0
LINE
  5
300
330
1D
100
AcDbEntity
  8
0
100
AcDbLine
 10
195.97
 20
84.2999
 30
0.0
 11
230.456
 21
55.363
 31
0.0
  0
LINE
  5
301
330
1D
100
AcDbEntity
  8
0
100
AcDbLine
 10
199.826
 20
88.8961
 30
0.0
 11
234.312
 21
59.9592
 31
0.0
  0
LINE
  5
303
330
1D
100
AcDbEntity
  8
0
100
AcDbLine
 10
261.164
 20
79.1011
 30
0.0
 11
265.738
 21
90.1436
 31
0.0
  0
LINE
  5
304
330
1D
100
AcDbEntity
  8
0
100
AcDbLine
 10
255.646
 20
68.5002
 30
0.0
 11
261.164
 21
79.1011
 31
0.0
  0
LINE
  5
305
330
1D
100
AcDbEntity
  8
0
100
AcDbLine
 10
256.627
 20
81.2176
 30
0.0
 11
261.033
 21
91.8556
 31
0.0
  0
LINE
  5
306
330
1D
100
AcDbEntity
  8
0
100
AcDbLine
 10
251.31
 20
71.0038
 30
0.0
 11
256.627
 21
81.2176
 31
0.0
  0
LINE
  5
307
330
1D
100
AcDbEntity
  8
0
100
AcDbLine
 10
209.495
 20
107.99
 30
0.0
 11
210.438
 21
107.647
 31
0.0
  0
LINE
  5
308
330
1D
100
AcDbEntity
  8
0
100
AcDbLine
 10
208.124
 20
108.489
 30
0.0
 11
209.495
 21
107.99
 31
0.0
  0
LINE
  5
309
330
1D
100
AcDbEntity
  8
0
100
AcDbLine
 10
206.372
 20
109.127
 30
0.0
 11
208.124
 21
108.489
 31
0.0
  0
LINE
  5
30A
330
1D
100
AcDbEntity
  8
0
100
AcDbLine
 10
204.298
 20
109.882
 30
0.0
 11
206.372
 21
109.127
 31
0.0
  0
LINE
  5
30B
330
1D
100
AcDbEntity
  8
0
100
AcDbLine
 10
201.972
 20
110.728
 30
0.0
 11
204.298
 21
109.882
 31
0.0
  0
LINE
  5
30C
330
1D
100
AcDbEntity
  8
0
100
AcDbLine
 10
196.888
 20
112.579
 30
0.0
 11
199.474
 21
111.637
 31
0.0
  0
LINE
  5
30D
330
1D
100
AcDbEntity
  8
0
100
AcDbLine
 10
199.474
 20
111.637
 30
0.0
 11
201.972
 21
110.728
 31
0.0
  0
LINE
  5
30E
330
1D
100
AcDbEntity
  8
0
100
AcDbLine
 10
255.34
 20
97.689
 30
0.0
 11
256.461
 21
96.965
 31
0.0
  0
LINE
  5
30F
330
1D
100
AcDbEntity
  8
0
100
AcDbLine
 10
256.461
 20
96.965
 30
0.0
 11
257.157
 21
95.826
 31
0.0
  0
LINE
  5
310
330
1D
100
AcDbEntity
  8
0
100
AcDbLine
 10
257.157
 20
95.826
 30
0.0
 11
257.29
 21
94.497
 31
0.0
  0
LINE
  5
312
330
1D
100
AcDbEntity
  8
0
100
AcDbLine
 10
253.15
 20
92.101
 30
0.0
 11
253.287
 21
92.051
 31
0.0
  0
LINE
  5
313
330
1D
100
AcDbEntity
  8
0
100
AcDbLine
 10
255.202
 20
97.739
 30
0.0
 11
255.34
 21
97.689
 31
0.0
  0
LINE
  5
314
330
1D
100
AcDbEntity
  8
0
100
AcDbLine
 10
252.741
 20
92.25
 30
0.0
 11
253.15
 21
92.101
 31
0.0
  0
LINE
  5
315
330
1D
100
AcDbEntity
  8
0
100
AcDbLine
 10
254.793
 20
97.888
 30
0.0
 11
255.202
 21
97.739
 31
0.0
  0
LINE
  5
316
330
1D
100
AcDbEntity
  8
0
100
AcDbLine
 10
210.438
 20
107.647
 30
0.0
 11
252.741
 21
92.25
 31
0.0
  0
LINE
  5
317
330
1D
100
AcDbEntity
  8
0
100
AcDbLine
 10
208.424
 20
114.765
 30
0.0
 11
210.176
 21
114.127
 31
0.0
  0
LINE
  5
318
330
1D
100
AcDbEntity
  8
0
100
AcDbLine
 10
206.35
 20
115.52
 30
0.0
 11
208.424
 21
114.765
 31
0.0
  0
LINE
  5
319
330
1D
100
AcDbEntity
  8
0
100
AcDbLine
 10
204.024
 20
116.366
 30
0.0
 11
206.35
 21
115.52
 31
0.0
  0
LINE
  5
31A
330
1D
100
AcDbEntity
  8
0
100
AcDbLine
 10
201.526
 20
117.276
 30
0.0
 11
204.024
 21
116.366
 31
0.0
  0
LINE
  5
31B
330
1D
100
AcDbEntity
  8
0
100
AcDbLine
 10
198.94
 20
118.217
 30
0.0
 11
201.526
 21
117.276
 31
0.0
  0
LINE
  5
31C
330
1D
100
AcDbEntity
  8
0
100
AcDbLine
 10
210.176
 20
114.127
 30
0.0
 11
211.547
 21
113.628
 31
0.0
  0
LINE
  5
31D
330
1D
100
AcDbEntity
  8
0
100
AcDbLine
 10
211.547
 20
113.628
 30
0.0
 11
212.49
 21
113.285
 31
0.0
  0
LINE
  5
31E
330
1D
100
AcDbEntity
  8
0
100
AcDbLine
 10
212.49
 20
113.285
 30
0.0
 11
254.793
 21
97.888
 31
0.0
  0
LINE
  5
31F
330
1D
100
AcDbEntity
  8
0
100
AcDbLine
 10
264.496
 20
102.838
 30
0.0
 11
266.988
 21
114.08
 31
0.0
  0
LINE
  5
320
330
1D
100
AcDbEntity
  8
0
100
AcDbLine
 10
261.033
 20
91.8556
 30
0.0
 11
264.496
 21
102.838
 31
0.0
  0
LINE
  5
321
330
1D
100
AcDbEntity
  8
0
100
AcDbLine
 10
194.983
 20
126.776
 30
0.0
 11
195.653
 21
131.869
 31
0.0
  0
LINE
  5
322
330
1D
100
AcDbEntity
  8
0
100
AcDbLine
 10
215.045
 20
134.534
 30
0.0
 11
216.048
 21
134.534
 31
0.0
  0
LINE
  5
323
330
1D
100
AcDbEntity
  8
0
100
AcDbLine
 10
213.586
 20
134.534
 30
0.0
 11
215.045
 21
134.534
 31
0.0
  0
LINE
  5
324
330
1D
100
AcDbEntity
  8
0
100
AcDbLine
 10
207.039
 20
134.534
 30
0.0
 11
209.514
 21
134.535
 31
0.0
  0
LINE
  5
325
330
1D
100
AcDbEntity
  8
0
100
AcDbLine
 10
204.381
 20
134.534
 30
0.0
 11
207.039
 21
134.534
 31
0.0
  0
LINE
  5
326
330
1D
100
AcDbEntity
  8
0
100
AcDbLine
 10
201.629
 20
134.535
 30
0.0
 11
204.381
 21
134.534
 31
0.0
  0
LINE
  5
327
330
1D
100
AcDbEntity
  8
0
100
AcDbLine
 10
207.039
 20
140.534
 30
0.0
 11
209.514
 21
140.535
 31
0.0
  0
LINE
  5
328
330
1D
100
AcDbEntity
  8
0
100
AcDbLine
 10
201.629
 20
140.534
 30
0.0
 11
204.381
 21
140.535
 31
0.0
  0
LINE
  5
329
330
1D
100
AcDbEntity
  8
0
100
AcDbLine
 10
211.721
 20
134.535
 30
0.0
 11
213.586
 21
134.534
 31
0.0
  0
LINE
  5
32A
330
1D
100
AcDbEntity
  8
0
100
AcDbLine
 10
211.721
 20
140.534
 30
0.0
 11
213.586
 21
140.534
 31
0.0
  0
LINE
  5
32B
330
1D
100
AcDbEntity
  8
0
100
AcDbLine
 10
209.514
 20
134.535
 30
0.0
 11
211.721
 21
134.535
 31
0.0
  0
LINE
  5
32C
330
1D
100
AcDbEntity
  8
0
100
AcDbLine
 10
209.514
 20
140.535
 30
0.0
 11
211.721
 21
140.534
 31
0.0
  0
LINE
  5
32D
330
1D
100
AcDbEntity
  8
0
100
AcDbLine
 10
204.381
 20
140.535
 30
0.0
 11
207.039
 21
140.534
 31
0.0
  0
LINE
  5
32E
330
1D
100
AcDbEntity
  8
0
100
AcDbLine
 10
213.586
 20
140.534
 30
0.0
 11
215.045
 21
140.534
 31
0.0
  0
LINE
  5
32F
330
1D
100
AcDbEntity
  8
0
100
AcDbLine
 10
215.045
 20
140.534
 30
0.0
 11
216.048
 21
140.534
 31
0.0
  0
LINE
  5
330
330
1D
100
AcDbEntity
  8
0
100
AcDbLine
 10
216.048
 20
134.534
 30
0.0
 11
261.066
 21
134.535
 31
0.0
  0
LINE
  5
331
330
1D
100
AcDbEntity
  8
0
100
AcDbLine
 10
261.648
 20
140.534
 30
0.0
 11
262.949
 21
140.237
 31
0.0
  0
LINE
  5
332
330
1D
100
AcDbEntity
  8
0
100
AcDbLine
 10
262.949
 20
140.237
 30
0.0
 11
263.993
 21
139.405
 31
0.0
  0
LINE
  5
333
330
1D
100
AcDbEntity
  8
0
100
AcDbLine
 10
263.993
 20
139.405
 30
0.0
 11
264.573
 21
138.202
 31
0.0
  0
LINE
  5
335
330
1D
100
AcDbEntity
  8
0
100
AcDbLine
 10
261.502
 20
134.534
 30
0.0
 11
261.647
 21
134.534
 31
0.0
  0
LINE
  5
336
330
1D
100
AcDbEntity
  8
0
100
AcDbLine
 10
261.502
 20
140.534
 30
0.0
 11
261.648
 21
140.534
 31
0.0
  0
LINE
  5
337
330
1D
100
AcDbEntity
  8
0
100
AcDbLine
 10
261.066
 20
134.535
 30
0.0
 11
261.502
 21
134.534
 31
0.0
  0
LINE
  5
338
330
1D
100
AcDbEntity
  8
0
100
AcDbLine
 10
261.066
 20
140.534
 30
0.0
 11
261.502
 21
140.534
 31
0.0
  0
LINE
  5
339
330
1D
100
AcDbEntity
  8
0
100
AcDbLine
 10
216.048
 20
140.534
 30
0.0
 11
261.066
 21
140.534
 31
0.0
  0
LINE
  5
33A
330
1D
100
AcDbEntity
  8
0
100
AcDbLine
 10
195.653
 20
131.869
 30
0.0
 11
195.769379271071
 21
134.53481267796
 31
0.0
  0
LINE
  5
33B
330
1D
100
AcDbEntity
  8
0
100
AcDbLine
 10
194.515
 20
142.032
 30
0.0
 11
194.580185343971
 21
140.534225338533
 31
0.0
  0
LINE
  5
33C
330
1D
100
AcDbEntity
  8
0
100
AcDbLine
 10
0.521326
 20
148.94
 30
0.0
 11
2.08134
 21
160.79
 31
0.0
  0
LINE
  5
33D
330
1D
100
AcDbEntity
  8
0
100
AcDbLine
 10
0.521326
 20
148.94
 30
0.0
 11
2.08134
 21
160.79
 31
0.0
  0
LINE
  5
33E
330
1D
100
AcDbEntity
  8
0
100
AcDbLine
 10
130.9
 20
142.624
 30
0.0
 11
131.925
 21
143.604
 31
0.0
  0
LINE
  5
33F
330
1D
100
AcDbEntity
  8
0
100
AcDbLine
 10
130.79
 20
142.38
 30
0.0
 11
131.305
 21
142.948
 31
0.0
  0
LINE
  5
340
330
1D
100
AcDbEntity
  8
0
100
AcDbLine
 10
131.468
 20
142.687
 30
0.0
 11
132.027
 21
143.204
 31
0.0
  0
LINE
  5
341
330
1D
100
AcDbEntity
  8
0
100
AcDbLine
 10
143.347
 20
142.33
 30
0.0
 11
144.132
 21
141.148
 31
0.0
  0
LINE
  5
343
330
1D
100
AcDbEntity
  8
0
100
AcDbLine
 10
142.957
 20
142.672
 30
0.0
 11
143.445
 21
142.08
 31
0.0
  0
LINE
  5
344
330
1D
100
AcDbEntity
  8
0
100
AcDbLine
 10
143.572
 20
142.51
 30
0.0
 11
144.384
 21
141.286
 31
0.0
  0
LINE
  5
346
330
1D
100
AcDbEntity
  8
0
100
AcDbLine
 10
142.948
 20
142.227
 30
0.0
 11
143.407
 21
141.618
 31
0.0
  0
LINE
  5
347
330
1D
100
AcDbEntity
  8
0
100
AcDbLine
 10
94.925
 20
143.427
 30
0.0
 11
95.867705524245
 21
148.209289671229
 31
0.0
  0
LINE
  5
348
330
1D
100
AcDbEntity
  8
0
100
AcDbLine
 10
124.344
 20
142.908
 30
0.0
 11
124.904
 21
143.972
 31
0.0
  0
LINE
  5
349
330
1D
100
AcDbEntity
  8
0
100
AcDbLine
 10
121.054
 20
142.814
 30
0.0
 11
121.632
 21
144.174
 31
0.0
  0
LINE
  5
34A
330
1D
100
AcDbEntity
  8
0
100
AcDbLine
 10
124.904
 20
143.972
 30
0.0
 11
125.548
 21
145.036
 31
0.0
  0
LINE
  5
34B
330
1D
100
AcDbEntity
  8
0
100
AcDbLine
 10
100.592
 20
143.438
 30
0.0
 11
101.332
 21
146.62
 31
0.0
  0
LINE
  5
34C
330
1D
100
AcDbEntity
  8
0
100
AcDbLine
 10
131.305
 20
142.948
 30
0.0
 11
131.872
 21
143.465
 31
0.0
  0
LINE
  5
34D
330
1D
100
AcDbEntity
  8
0
100
AcDbLine
 10
131.925
 20
143.604
 30
0.0
 11
133.104
 21
144.391
 31
0.0
  0
LINE
  5
34E
330
1D
100
AcDbEntity
  8
0
100
AcDbLine
 10
131.745
 20
143.829
 30
0.0
 11
132.966
 21
144.644
 31
0.0
  0
LINE
  5
34F
330
1D
100
AcDbEntity
  8
0
100
AcDbLine
 10
131.872
 20
143.465
 30
0.0
 11
132.486
 21
143.925
 31
0.0
  0
LINE
  5
350
330
1D
100
AcDbEntity
  8
0
100
AcDbLine
 10
130.684
 20
142.815
 30
0.0
 11
131.745
 21
143.829
 31
0.0
  0
LINE
  5
351
330
1D
100
AcDbEntity
  8
0
100
AcDbLine
 10
125.953
 20
143.997
 30
0.0
 11
126.032
 21
146.274
 31
0.0
  0
LINE
  5
352
330
1D
100
AcDbEntity
  8
0
100
AcDbLine
 10
132.486
 20
143.925
 30
0.0
 11
133.14
 21
144.325
 31
0.0
  0
LINE
  5
353
330
1D
100
AcDbEntity
  8
0
100
AcDbLine
 10
132.634
 20
143.664
 30
0.0
 11
133.283
 21
144.062
 31
0.0
  0
LINE
  5
354
330
1D
100
AcDbEntity
  8
0
100
AcDbLine
 10
132.027
 20
143.204
 30
0.0
 11
132.634
 21
143.664
 31
0.0
  0
LINE
  5
355
330
1D
100
AcDbEntity
  8
0
100
AcDbLine
 10
121.632
 20
144.174
 30
0.0
 11
122.312
 21
145.466
 31
0.0
  0
LINE
  5
356
330
1D
100
AcDbEntity
  8
0
100
AcDbLine
 10
133.104
 20
144.391
 30
0.0
 11
134.402
 21
144.96
 31
0.0
  0
LINE
  5
357
330
1D
100
AcDbEntity
  8
0
100
AcDbLine
 10
133.14
 20
144.325
 30
0.0
 11
133.829
 21
144.661
 31
0.0
  0
LINE
  5
358
330
1D
100
AcDbEntity
  8
0
100
AcDbLine
 10
125.548
 20
145.036
 30
0.0
 11
126.008756608684
 21
145.61621202575
 31
0.0
  0
LINE
  5
359
330
1D
100
AcDbEntity
  8
0
100
AcDbLine
 10
122.312
 20
145.466
 30
0.0
 11
123.094
 21
146.758
 31
0.0
  0
LINE
  5
35A
330
1D
100
AcDbEntity
  8
0
100
AcDbLine
 10
132.966
 20
144.644
 30
0.0
 11
134.31
 21
145.234
 31
0.0
  0
LINE
  5
35B
330
1D
100
AcDbEntity
  8
0
100
AcDbLine
 10
133.829
 20
144.661
 30
0.0
 11
134.547
 21
144.929
 31
0.0
  0
LINE
  5
35C
330
1D
100
AcDbEntity
  8
0
100
AcDbLine
 10
123.094
 20
146.758
 30
0.0
 11
124.012
 21
147.914
 31
0.0
  0
LINE
  5
35D
330
1D
100
AcDbEntity
  8
0
100
AcDbLine
 10
101.332
 20
146.62
 30
0.0
 11
102.294
 21
149.654
 31
0.0
  0
LINE
  5
35E
330
1D
100
AcDbEntity
  8
0
100
AcDbLine
 10
99.4255
 20
147.068
 30
0.0
 11
103.312
 21
156.45
 31
0.0
  0
LINE
  5
35F
330
1D
100
AcDbEntity
  8
0
100
AcDbLine
 10
98.363
 20
147.353
 30
0.0
 11
102.359
 21
157.0
 31
0.0
  0
LINE
  5
371
330
1D
100
AcDbEntity
  8
0
100
AcDbLine
 10
124.012
 20
147.914
 30
0.0
 11
124.998
 21
149.002
 31
0.0
  0
LINE
  5
372
330
1D
100
AcDbEntity
  8
0
100
AcDbLine
 10
124.998
 20
149.002
 30
0.0
 11
126.033003734271
 21
149.939972134183
 31
0.0
  0
LINE
  5
373
330
1D
100
AcDbEntity
  8
0
100
AcDbLine
 10
102.294
 20
149.654
 30
0.0
 11
103.552
 21
152.614
 31
0.0
  0
LINE
  5
392
330
1D
100
AcDbEntity
  8
0
100
AcDbLine
 10
126.032
 20
146.274
 30
0.0
 11
126.035
 21
157.231
 31
0.0
  0
LINE
  5
393
330
1D
100
AcDbEntity
  8
0
100
AcDbLine
 10
140.517
 20
144.502
 30
0.0
 11
141.189
 21
144.135
 31
0.0
  0
LINE
  5
394
330
1D
100
AcDbEntity
  8
0
100
AcDbLine
 10
139.901
 20
144.449
 30
0.0
 11
140.592
 21
144.129
 31
0.0
  0
LINE
  5
395
330
1D
100
AcDbEntity
  8
0
100
AcDbLine
 10
134.402
 20
144.96
 30
0.0
 11
135.778
 21
145.295
 31
0.0
  0
LINE
  5
396
330
1D
100
AcDbEntity
  8
0
100
AcDbLine
 10
134.547
 20
144.929
 30
0.0
 11
135.287
 21
145.128
 31
0.0
  0
LINE
  5
397
330
1D
100
AcDbEntity
  8
0
100
AcDbLine
 10
135.287
 20
145.128
 30
0.0
 11
136.043
 21
145.256
 31
0.0
  0
LINE
  5
398
330
1D
100
AcDbEntity
  8
0
100
AcDbLine
 10
135.778
 20
145.295
 30
0.0
 11
137.192
 21
145.386
 31
0.0
  0
LINE
  5
399
330
1D
100
AcDbEntity
  8
0
100
AcDbLine
 10
136.043
 20
145.256
 30
0.0
 11
136.807
 21
145.311
 31
0.0
  0
LINE
  5
39A
330
1D
100
AcDbEntity
  8
0
100
AcDbLine
 10
134.31
 20
145.234
 30
0.0
 11
135.735
 21
145.581
 31
0.0
  0
LINE
  5
39B
330
1D
100
AcDbEntity
  8
0
100
AcDbLine
 10
135.735
 20
145.581
 30
0.0
 11
137.199
 21
145.674
 31
0.0
  0
LINE
  5
39C
330
1D
100
AcDbEntity
  8
0
100
AcDbLine
 10
138.443
 20
144.877
 30
0.0
 11
139.183
 21
144.699
 31
0.0
  0
LINE
  5
39D
330
1D
100
AcDbEntity
  8
0
100
AcDbLine
 10
136.929
 20
145.013
 30
0.0
 11
137.689
 21
144.982
 31
0.0
  0
LINE
  5
39E
330
1D
100
AcDbEntity
  8
0
100
AcDbLine
 10
137.192
 20
145.386
 30
0.0
 11
138.6
 21
145.229
 31
0.0
  0
LINE
  5
39F
330
1D
100
AcDbEntity
  8
0
100
AcDbLine
 10
136.807
 20
145.311
 30
0.0
 11
137.573
 21
145.293
 31
0.0
  0
LINE
  5
3A0
330
1D
100
AcDbEntity
  8
0
100
AcDbLine
 10
137.573
 20
145.293
 30
0.0
 11
138.334
 21
145.202
 31
0.0
  0
LINE
  5
3A1
330
1D
100
AcDbEntity
  8
0
100
AcDbLine
 10
138.6
 20
145.229
 30
0.0
 11
139.959
 21
144.829
 31
0.0
  0
LINE
  5
3A2
330
1D
100
AcDbEntity
  8
0
100
AcDbLine
 10
138.334
 20
145.202
 30
0.0
 11
139.082
 21
145.038
 31
0.0
  0
LINE
  5
3A3
330
1D
100
AcDbEntity
  8
0
100
AcDbLine
 10
137.199
 20
145.674
 30
0.0
 11
138.656
 21
145.511
 31
0.0
  0
LINE
  5
3A4
330
1D
100
AcDbEntity
  8
0
100
AcDbLine
 10
139.082
 20
145.038
 30
0.0
 11
139.812
 21
144.805
 31
0.0
  0
LINE
  5
3A5
330
1D
100
AcDbEntity
  8
0
100
AcDbLine
 10
138.656
 20
145.511
 30
0.0
 11
140.064
 21
145.098
 31
0.0
  0
LINE
  5
3A6
330
1D
100
AcDbEntity
  8
0
100
AcDbLine
 10
137.689
 20
144.982
 30
0.0
 11
138.443
 21
144.877
 31
0.0
  0
LINE
  5
3A7
330
1D
100
AcDbEntity
  8
0
100
AcDbLine
 10
136.17
 20
144.968
 30
0.0
 11
136.929
 21
145.013
 31
0.0
  0
LINE
  5
3A8
330
1D
100
AcDbEntity
  8
0
100
AcDbLine
 10
135.418
 20
144.85
 30
0.0
 11
136.17
 21
144.968
 31
0.0
  0
LINE
  5
3A9
330
1D
100
AcDbEntity
  8
0
100
AcDbLine
 10
139.959
 20
144.829
 30
0.0
 11
141.228
 21
144.199
 31
0.0
  0
LINE
  5
3AA
330
1D
100
AcDbEntity
  8
0
100
AcDbLine
 10
139.812
 20
144.805
 30
0.0
 11
140.517
 21
144.502
 31
0.0
  0
LINE
  5
3AB
330
1D
100
AcDbEntity
  8
0
100
AcDbLine
 10
140.064
 20
145.098
 30
0.0
 11
141.378
 21
144.445
 31
0.0
  0
LINE
  5
3AC
330
1D
100
AcDbEntity
  8
0
100
AcDbLine
 10
139.183
 20
144.699
 30
0.0
 11
139.901
 21
144.449
 31
0.0
  0
LINE
  5
3AD
330
1D
100
AcDbEntity
  8
0
100
AcDbLine
 10
134.682
 20
144.658
 30
0.0
 11
135.418
 21
144.85
 31
0.0
  0
LINE
  5
3AE
330
1D
100
AcDbEntity
  8
0
100
AcDbLine
 10
133.968
 20
144.394
 30
0.0
 11
134.682
 21
144.658
 31
0.0
  0
LINE
  5
3AF
330
1D
100
AcDbEntity
  8
0
100
AcDbLine
 10
133.283
 20
144.062
 30
0.0
 11
133.968
 21
144.394
 31
0.0
  0
LINE
  5
3B0
330
1D
100
AcDbEntity
  8
0
100
AcDbLine
 10
141.824
 20
143.704
 30
0.0
 11
142.415
 21
143.215
 31
0.0
  0
LINE
  5
3B1
330
1D
100
AcDbEntity
  8
0
100
AcDbLine
 10
142.369
 20
143.357
 30
0.0
 11
143.347
 21
142.33
 31
0.0
  0
LINE
  5
3B2
330
1D
100
AcDbEntity
  8
0
100
AcDbLine
 10
149.656
 20
142.908
 30
0.0
 11
150.132
 21
141.788
 31
0.0
  0
LINE
  5
3B3
330
1D
100
AcDbEntity
  8
0
100
AcDbLine
 10
179.075
 20
143.427
 30
0.0
 11
179.303013664903
 21
140.534713723549
 31
0.0
  0
LINE
  5
3B4
330
1D
100
AcDbEntity
  8
0
100
AcDbLine
 10
179.075
 20
143.427
 30
0.0
 11
179.303055968101
 21
140.534713722197
 31
0.0
  0
LINE
  5
3B5
330
1D
100
AcDbEntity
  8
0
100
AcDbLine
 10
152.946
 20
142.814
 30
0.0
 11
153.388
 21
141.42
 31
0.0
  0
LINE
  5
3B6
330
1D
100
AcDbEntity
  8
0
100
AcDbLine
 10
173.408
 20
143.438
 30
0.0
 11
173.778
 21
140.256
 31
0.0
  0
LINE
  5
3B7
330
1D
100
AcDbEntity
  8
0
100
AcDbLine
 10
142.415
 20
143.215
 30
0.0
 11
142.957
 21
142.672
 31
0.0
  0
LINE
  5
3B8
330
1D
100
AcDbEntity
  8
0
100
AcDbLine
 10
142.559
 20
143.574
 30
0.0
 11
143.572
 21
142.51
 31
0.0
  0
LINE
  5
3B9
330
1D
100
AcDbEntity
  8
0
100
AcDbLine
 10
141.863
 20
143.294
 30
0.0
 11
142.432
 21
142.787
 31
0.0
  0
LINE
  5
3BA
330
1D
100
AcDbEntity
  8
0
100
AcDbLine
 10
141.228
 20
144.199
 30
0.0
 11
142.369
 21
143.357
 31
0.0
  0
LINE
  5
3BB
330
1D
100
AcDbEntity
  8
0
100
AcDbLine
 10
141.189
 20
144.135
 30
0.0
 11
141.824
 21
143.704
 31
0.0
  0
LINE
  5
3BC
330
1D
100
AcDbEntity
  8
0
100
AcDbLine
 10
147.966331827862
 20
149.940574281
 30
0.0
 11
149.002
 21
149.002
 31
0.0
  0
LINE
  5
3BD
330
1D
100
AcDbEntity
  8
0
100
AcDbLine
 10
141.378
 20
144.445
 30
0.0
 11
142.559
 21
143.574
 31
0.0
  0
LINE
  5
3BE
330
1D
100
AcDbEntity
  8
0
100
AcDbLine
 10
149.096
 20
143.972
 30
0.0
 11
149.656
 21
142.908
 31
0.0
  0
LINE
  5
3BF
330
1D
100
AcDbEntity
  8
0
100
AcDbLine
 10
148.452
 20
145.036
 30
0.0
 11
149.096
 21
143.972
 31
0.0
  0
LINE
  5
3C0
330
1D
100
AcDbEntity
  8
0
100
AcDbLine
 10
147.990673403767
 20
145.616929787849
 30
0.0
 11
148.452
 21
145.036
 31
0.0
  0
LINE
  5
3C1
330
1D
100
AcDbEntity
  8
0
100
AcDbLine
 10
152.368
 20
144.174
 30
0.0
 11
152.946
 21
142.814
 31
0.0
  0
LINE
  5
3C2
330
1D
100
AcDbEntity
  8
0
100
AcDbLine
 10
151.688
 20
145.466
 30
0.0
 11
152.368
 21
144.174
 31
0.0
  0
LINE
  5
3C3
330
1D
100
AcDbEntity
  8
0
100
AcDbLine
 10
150.906
 20
146.758
 30
0.0
 11
151.688
 21
145.466
 31
0.0
  0
LINE
  5
3C4
330
1D
100
AcDbEntity
  8
0
100
AcDbLine
 10
172.668
 20
146.62
 30
0.0
 11
173.408
 21
143.438
 31
0.0
  0
LINE
  5
3C5
330
1D
100
AcDbEntity
  8
0
100
AcDbLine
 10
149.988
 20
147.914
 30
0.0
 11
150.906
 21
146.758
 31
0.0
  0
LINE
  5
3C6
330
1D
100
AcDbEntity
  8
0
100
AcDbLine
 10
149.002
 20
149.002
 30
0.0
 11
149.988
 21
147.914
 31
0.0
  0
LINE
  5
3C7
330
1D
100
AcDbEntity
  8
0
100
AcDbLine
 10
171.706
 20
149.654
 30
0.0
 11
172.668
 21
146.62
 31
0.0
  0
LINE
  5
3C8
330
1D
100
AcDbEntity
  8
0
100
AcDbLine
 10
174.574
 20
147.068
 30
0.0
 11
175.9
 21
137.0
 31
0.0
  0
LINE
  5
3C9
330
1D
100
AcDbEntity
  8
0
100
AcDbLine
 10
177.848164333279
 20
149.243384036405
 30
0.0
 11
178.012
 21
148.817
 31
0.0
  0
LINE
  5
3CA
330
1D
100
AcDbEntity
  8
0
100
AcDbLine
 10
178.012
 20
148.817
 30
0.0
 11
179.075
 21
143.427
 31
0.0
  0
LINE
  5
3CB
330
1D
100
AcDbEntity
  8
0
100
AcDbLine
 10
177.848135443225
 20
149.243373519851
 30
0.0
 11
178.012
 21
148.817
 31
0.0
  0
LINE
  5
3CC
330
1D
100
AcDbEntity
  8
0
100
AcDbLine
 10
175.637
 20
147.353
 30
0.0
 11
177.0
 21
137.0
 31
0.0
  0
LINE
  5
3CD
330
1D
100
AcDbEntity
  8
0
100
AcDbLine
 10
175.246285679022
 20
148.29624851213
 30
0.0
 11
198.574
 21
156.788
 31
0.0
  0
LINE
  5
3CF
330
1D
100
AcDbEntity
  8
0
100
AcDbLine
 10
147.967
 20
146.283
 30
0.0
 11
148.048
 21
144.004
 31
0.0
  0
LINE
  5
3D0
330
1D
100
AcDbEntity
  8
0
100
AcDbLine
 10
141.248
 20
143.743
 30
0.0
 11
141.863
 21
143.294
 31
0.0
  0
LINE
  5
3D1
330
1D
100
AcDbEntity
  8
0
100
AcDbLine
 10
140.592
 20
144.129
 30
0.0
 11
141.248
 21
143.743
 31
0.0
  0
LINE
  5
3D2
330
1D
100
AcDbEntity
  8
0
100
AcDbLine
 10
142.432
 20
142.787
 30
0.0
 11
142.948
 21
142.227
 31
0.0
  0
LINE
  5
3D3
330
1D
100
AcDbEntity
  8
0
100
AcDbLine
 10
80.1428
 20
147.025
 30
0.0
 11
81.2329
 21
151.943
 31
0.0
  0
LINE
  5
3D8
330
1D
100
AcDbEntity
  8
0
100
AcDbLine
 10
81.2329
 20
151.943
 30
0.0
 11
81.683564107306
 21
153.37211640525
 31
0.0
  0
LINE
  5
3D9
330
1D
100
AcDbEntity
  8
0
100
AcDbLine
 10
79.0174
 20
147.224
 30
0.0
 11
80.1291
 21
152.239
 31
0.0
  0
LINE
  5
3DA
330
1D
100
AcDbEntity
  8
0
100
AcDbLine
 10
103.552
 20
152.614
 30
0.0
 11
105.032
 21
155.426
 31
0.0
  0
LINE
  5
3DB
330
1D
100
AcDbEntity
  8
0
100
AcDbLine
 10
170.448
 20
152.614
 30
0.0
 11
171.706
 21
149.654
 31
0.0
  0
LINE
  5
3DC
330
1D
100
AcDbEntity
  8
0
100
AcDbLine
 10
97.924949214046
 20
153.846089110299
 30
0.0
 11
100.238
 21
158.768
 31
0.0
  0
LINE
  5
3DD
330
1D
100
AcDbEntity
  8
0
100
AcDbLine
 10
97.925346173509
 20
153.845944636177
 30
0.0
 11
100.238
 21
158.768
 31
0.0
  0
LINE
  5
3DE
330
1D
100
AcDbEntity
  8
0
100
AcDbLine
 10
100.642839915554
 20
152.856907824162
 30
0.0
 11
102.359
 21
157.0
 31
0.0
  0
LINE
  5
3DF
330
1D
100
AcDbEntity
  8
0
100
AcDbLine
 10
172.947744364153
 20
153.845304584339
 30
0.0
 11
196.522
 21
162.426
 31
0.0
  0
LINE
  5
3E0
330
1D
100
AcDbEntity
  8
0
100
AcDbLine
 10
80.1291
 20
152.239
 30
0.0
 11
80.609639171769
 21
153.763009883012
 31
0.0
  0
LINE
  5
3E1
330
1D
100
AcDbEntity
  8
0
100
AcDbLine
 10
5.50912
 20
148.504
 30
0.0
 11
7.01212
 21
159.92
 31
0.0
  0
LINE
  5
3E2
330
1D
100
AcDbEntity
  8
0
100
AcDbLine
 10
191.994251911594
 20
154.392840969383
 30
0.0
 11
192.767
 21
151.943
 31
0.0
  0
LINE
  5
3E3
330
1D
100
AcDbEntity
  8
0
100
AcDbLine
 10
193.857
 20
147.025
 30
0.0
 11
194.515
 21
142.032
 31
0.0
  0
LINE
  5
3E4
330
1D
100
AcDbEntity
  8
0
100
AcDbLine
 10
192.767
 20
151.943
 30
0.0
 11
193.857
 21
147.025
 31
0.0
  0
LINE
  5
3E5
330
1D
100
AcDbEntity
  8
0
100
AcDbLine
 10
75.06
 20
155.783
 30
0.0
 11
98.35647186403
 21
147.303413945933
 31
0.0
  0
LINE
  5
3E6
330
1D
100
AcDbEntity
  8
0
100
AcDbLine
 10
63.824
 20
159.873
 30
0.0
 11
65.576
 21
159.235
 31
0.0
  0
LINE
  5
3E7
330
1D
100
AcDbEntity
  8
0
100
AcDbLine
 10
65.576
 20
159.235
 30
0.0
 11
67.65
 21
158.48
 31
0.0
  0
LINE
  5
3E8
330
1D
100
AcDbEntity
  8
0
100
AcDbLine
 10
67.65
 20
158.48
 30
0.0
 11
69.976
 21
157.634
 31
0.0
  0
LINE
  5
3E9
330
1D
100
AcDbEntity
  8
0
100
AcDbLine
 10
69.976
 20
157.634
 30
0.0
 11
72.474
 21
156.724
 31
0.0
  0
LINE
  5
3EA
330
1D
100
AcDbEntity
  8
0
100
AcDbLine
 10
72.474
 20
156.724
 30
0.0
 11
75.06
 21
155.783
 31
0.0
  0
LINE
  5
3EB
330
1D
100
AcDbEntity
  8
0
100
AcDbLine
 10
105.032
 20
155.426
 30
0.0
 11
106.734
 21
158.238
 31
0.0
  0
LINE
  5
3EC
330
1D
100
AcDbEntity
  8
0
100
AcDbLine
 10
103.312
 20
156.45
 30
0.0
 11
109.493
 21
164.507
 31
0.0
  0
LINE
  5
3ED
330
1D
100
AcDbEntity
  8
0
100
AcDbLine
 10
102.359
 20
157.0
 30
0.0
 11
104.437772205918
 21
159.708911271642
 31
0.0
  0
LINE
  5
3EE
330
1D
100
AcDbEntity
  8
0
100
AcDbLine
 10
102.359
 20
157.0
 30
0.0
 11
108.716
 21
165.284
 31
0.0
  0
LINE
  5
3EF
330
1D
100
AcDbEntity
  8
0
100
AcDbLine
 10
126.035
 20
157.231
 30
0.0
 11
126.196
 21
157.231
 31
0.0
  0
LINE
  5
3F0
330
1D
100
AcDbEntity
  8
0
100
AcDbLine
 10
126.032
 20
157.231
 30
0.0
 11
126.032
 21
482.047
 31
0.0
  0
LINE
  5
3F1
330
1D
100
AcDbEntity
  8
0
100
AcDbLine
 10
126.598
 20
157.231
 30
0.0
 11
127.233
 21
157.231
 31
0.0
  0
LINE
  5
3F2
330
1D
100
AcDbEntity
  8
0
100
AcDbLine
 10
126.196
 20
157.231
 30
0.0
 11
126.598
 21
157.231
 31
0.0
  0
LINE
  5
3F3
330
1D
100
AcDbEntity
  8
0
100
AcDbLine
 10
130.366
 20
157.231
 30
0.0
 11
131.742
 21
157.231
 31
0.0
  0
LINE
  5
3F4
330
1D
100
AcDbEntity
  8
0
100
AcDbLine
 10
130.366
 20
157.231
 30
0.0
 11
130.553
 21
157.231
 31
0.0
  0
LINE
  5
3F5
330
1D
100
AcDbEntity
  8
0
100
AcDbLine
 10
129.138
 20
157.231
 30
0.0
 11
130.366
 21
157.231
 31
0.0
  0
LINE
  5
3F6
330
1D
100
AcDbEntity
  8
0
100
AcDbLine
 10
127.233
 20
157.231
 30
0.0
 11
128.086
 21
157.231
 31
0.0
  0
LINE
  5
3F7
330
1D
100
AcDbEntity
  8
0
100
AcDbLine
 10
131.742
 20
157.231
 30
0.0
 11
133.235
 21
157.231
 31
0.0
  0
LINE
  5
3F8
330
1D
100
AcDbEntity
  8
0
100
AcDbLine
 10
134.812
 20
157.231
 30
0.0
 11
136.439
 21
157.231
 31
0.0
  0
LINE
  5
3F9
330
1D
100
AcDbEntity
  8
0
100
AcDbLine
 10
133.235
 20
157.231
 30
0.0
 11
134.812
 21
157.231
 31
0.0
  0
LINE
  5
3FA
330
1D
100
AcDbEntity
  8
0
100
AcDbLine
 10
133.235
 20
157.231
 30
0.0
 11
133.611
 21
157.231
 31
0.0
  0
LINE
  5
3FB
330
1D
100
AcDbEntity
  8
0
100
AcDbLine
 10
100.238
 20
158.768
 30
0.0
 11
102.204743943314
 21
161.58265928003
 31
0.0
  0
LINE
  5
3FC
330
1D
100
AcDbEntity
  8
0
100
AcDbLine
 10
106.734
 20
158.238
 30
0.0
 11
108.732
 21
160.754
 31
0.0
  0
LINE
  5
3FD
330
1D
100
AcDbEntity
  8
0
100
AcDbLine
 10
128.086
 20
157.231
 30
0.0
 11
129.138
 21
157.231
 31
0.0
  0
LINE
  5
3FE
330
1D
100
AcDbEntity
  8
0
100
AcDbLine
 10
139.692
 20
157.231
 30
0.0
 11
141.247
 21
157.231
 31
0.0
  0
LINE
  5
3FF
330
1D
100
AcDbEntity
  8
0
100
AcDbLine
 10
141.247
 20
157.231
 30
0.0
 11
142.707
 21
157.231
 31
0.0
  0
LINE
  5
400
330
1D
100
AcDbEntity
  8
0
100
AcDbLine
 10
168.968
 20
155.426
 30
0.0
 11
170.448
 21
152.614
 31
0.0
  0
LINE
  5
401
330
1D
100
AcDbEntity
  8
0
100
AcDbLine
 10
170.688
 20
156.45
 30
0.0
 11
174.574
 21
147.068
 31
0.0
  0
LINE
  5
402
330
1D
100
AcDbEntity
  8
0
100
AcDbLine
 10
171.641
 20
157.0
 30
0.0
 11
175.637
 21
147.353
 31
0.0
  0
LINE
  5
403
330
1D
100
AcDbEntity
  8
0
100
AcDbLine
 10
147.968
 20
157.231
 30
0.0
 11
147.968
 21
482.047
 31
0.0
  0
LINE
  5
404
330
1D
100
AcDbEntity
  8
0
100
AcDbLine
 10
147.554
 20
157.231
 30
0.0
 11
147.881
 21
157.231
 31
0.0
  0
LINE
  5
405
330
1D
100
AcDbEntity
  8
0
100
AcDbLine
 10
146.992
 20
157.231
 30
0.0
 11
147.554
 21
157.231
 31
0.0
  0
LINE
  5
406
330
1D
100
AcDbEntity
  8
0
100
AcDbLine
 10
147.881
 20
157.231
 30
0.0
 11
147.968
 21
157.231
 31
0.0
  0
LINE
  5
407
330
1D
100
AcDbEntity
  8
0
100
AcDbLine
 10
147.881
 20
157.231
 30
0.0
 11
147.965
 21
157.231
 31
0.0
  0
LINE
  5
408
330
1D
100
AcDbEntity
  8
0
100
AcDbLine
 10
145.214
 20
157.231
 30
0.0
 11
146.206
 21
157.231
 31
0.0
  0
LINE
  5
409
330
1D
100
AcDbEntity
  8
0
100
AcDbLine
 10
146.206
 20
157.231
 30
0.0
 11
146.992
 21
157.231
 31
0.0
  0
LINE
  5
40A
330
1D
100
AcDbEntity
  8
0
100
AcDbLine
 10
144.039
 20
157.231
 30
0.0
 11
145.214
 21
157.231
 31
0.0
  0
LINE
  5
40B
330
1D
100
AcDbEntity
  8
0
100
AcDbLine
 10
147.965
 20
157.231
 30
0.0
 11
147.967
 21
146.283
 31
0.0
  0
LINE
  5
40C
330
1D
100
AcDbEntity
  8
0
100
AcDbLine
 10
142.707
 20
157.231
 30
0.0
 11
144.039
 21
157.231
 31
0.0
  0
LINE
  5
40D
330
1D
100
AcDbEntity
  8
0
100
AcDbLine
 10
173.762
 20
158.768
 30
0.0
 11
175.618243906464
 21
154.817328623368
 31
0.0
  0
LINE
  5
40E
330
1D
100
AcDbEntity
  8
0
100
AcDbLine
 10
173.762
 20
158.768
 30
0.0
 11
175.618562520308
 21
154.817444594297
 31
0.0
  0
LINE
  5
40F
330
1D
100
AcDbEntity
  8
0
100
AcDbLine
 10
167.266
 20
158.238
 30
0.0
 11
168.968
 21
155.426
 31
0.0
  0
LINE
  5
410
330
1D
100
AcDbEntity
  8
0
100
AcDbLine
 10
138.077
 20
157.231
 30
0.0
 11
139.692
 21
157.231
 31
0.0
  0
LINE
  5
411
330
1D
100
AcDbEntity
  8
0
100
AcDbLine
 10
136.439
 20
157.231
 30
0.0
 11
137.0
 21
157.231
 31
0.0
  0
LINE
  5
412
330
1D
100
AcDbEntity
  8
0
100
AcDbLine
 10
136.439
 20
157.231
 30
0.0
 11
138.077
 21
157.231
 31
0.0
  0
LINE
  5
413
330
1D
100
AcDbEntity
  8
0
100
AcDbLine
 10
83.691974812994
 20
159.026206145832
 30
0.0
 11
84.6748
 21
161.399
 31
0.0
  0
LINE
  5
414
330
1D
100
AcDbEntity
  8
0
100
AcDbLine
 10
82.617924324893
 20
159.417108783163
 30
0.0
 11
83.6393
 21
161.883
 31
0.0
  0
LINE
  5
415
330
1D
100
AcDbEntity
  8
0
100
AcDbLine
 10
62.453
 20
160.372
 30
0.0
 11
63.824
 21
159.873
 31
0.0
  0
LINE
  5
416
330
1D
100
AcDbEntity
  8
0
100
AcDbLine
 10
61.51
 20
160.715
 30
0.0
 11
62.453
 21
160.372
 31
0.0
  0
LINE
  5
417
330
1D
100
AcDbEntity
  8
0
100
AcDbLine
 10
2.08134
 20
160.79
 30
0.0
 11
4.66816
 21
172.458
 31
0.0
  0
LINE
  5
418
330
1D
100
AcDbEntity
  8
0
100
AcDbLine
 10
77.112
 20
161.421
 30
0.0
 11
100.642839915554
 21
152.856907824162
 31
0.0
  0
LINE
  5
419
330
1D
100
AcDbEntity
  8
0
100
AcDbLine
 10
2.08134
 20
160.79
 30
0.0
 11
4.66816
 21
172.458
 31
0.0
  0
LINE
  5
41A
330
1D
100
AcDbEntity
  8
0
100
AcDbLine
 10
84.6748
 20
161.399
 30
0.0
 11
87.0006
 21
165.867
 31
0.0
  0
LINE
  5
41B
330
1D
100
AcDbEntity
  8
0
100
AcDbLine
 10
74.526
 20
162.363
 30
0.0
 11
77.112
 21
161.421
 31
0.0
  0
LINE
  5
41C
330
1D
100
AcDbEntity
  8
0
100
AcDbLine
 10
63.562
 20
166.353
 30
0.0
 11
64.505
 21
166.01
 31
0.0
  0
LINE
  5
41D
330
1D
100
AcDbEntity
  8
0
100
AcDbLine
 10
64.505
 20
166.01
 30
0.0
 11
65.876
 21
165.511
 31
0.0
  0
LINE
  5
41E
330
1D
100
AcDbEntity
  8
0
100
AcDbLine
 10
65.876
 20
165.511
 30
0.0
 11
67.628
 21
164.873
 31
0.0
  0
LINE
  5
41F
330
1D
100
AcDbEntity
  8
0
100
AcDbLine
 10
67.628
 20
164.873
 30
0.0
 11
69.702
 21
164.118
 31
0.0
  0
LINE
  5
420
330
1D
100
AcDbEntity
  8
0
100
AcDbLine
 10
69.702
 20
164.118
 30
0.0
 11
72.028
 21
163.272
 31
0.0
  0
LINE
  5
421
330
1D
100
AcDbEntity
  8
0
100
AcDbLine
 10
72.028
 20
163.272
 30
0.0
 11
74.526
 21
162.363
 31
0.0
  0
LINE
  5
422
330
1D
100
AcDbEntity
  8
0
100
AcDbLine
 10
83.6393
 20
161.883
 30
0.0
 11
86.0111
 21
166.439
 31
0.0
  0
LINE
  5
423
330
1D
100
AcDbEntity
  8
0
100
AcDbLine
 10
108.732
 20
160.754
 30
0.0
 11
110.878
 21
163.122
 31
0.0
  0
LINE
  5
424
330
1D
100
AcDbEntity
  8
0
100
AcDbLine
 10
110.878
 20
163.122
 30
0.0
 11
113.246
 21
165.268
 31
0.0
  0
LINE
  5
425
330
1D
100
AcDbEntity
  8
0
100
AcDbLine
 10
163.122
 20
163.122
 30
0.0
 11
165.268
 21
160.754
 31
0.0
  0
LINE
  5
426
330
1D
100
AcDbEntity
  8
0
100
AcDbLine
 10
113.246
 20
165.268
 30
0.0
 11
115.762
 21
167.266
 31
0.0
  0
LINE
  5
427
330
1D
100
AcDbEntity
  8
0
100
AcDbLine
 10
160.754
 20
165.268
 30
0.0
 11
163.122
 21
163.122
 31
0.0
  0
LINE
  5
428
330
1D
100
AcDbEntity
  8
0
100
AcDbLine
 10
109.493
 20
164.507
 30
0.0
 11
117.55
 21
170.688
 31
0.0
  0
LINE
  5
429
330
1D
100
AcDbEntity
  8
0
100
AcDbLine
 10
108.716
 20
165.284
 30
0.0
 11
114.171814144917
 21
169.470698517532
 31
0.0
  0
LINE
  5
42A
330
1D
100
AcDbEntity
  8
0
100
AcDbLine
 10
108.716
 20
165.284
 30
0.0
 11
117.0
 21
171.641
 31
0.0
  0
LINE
  5
42B
330
1D
100
AcDbEntity
  8
0
100
AcDbLine
 10
108.094304351488
 20
164.47384949626
 30
0.0
 11
108.716
 21
165.284
 31
0.0
  0
LINE
  5
42C
330
1D
100
AcDbEntity
  8
0
100
AcDbLine
 10
165.268
 20
160.754
 30
0.0
 11
167.266
 21
158.238
 31
0.0
  0
LINE
  5
42D
330
1D
100
AcDbEntity
  8
0
100
AcDbLine
 10
164.507
 20
164.507
 30
0.0
 11
170.688
 21
156.45
 31
0.0
  0
LINE
  5
42E
330
1D
100
AcDbEntity
  8
0
100
AcDbLine
 10
165.284
 20
165.284
 30
0.0
 11
171.641
 21
157.0
 31
0.0
  0
LINE
  5
42F
330
1D
100
AcDbEntity
  8
0
100
AcDbLine
 10
171.180532843952
 20
162.462405929945
 30
0.0
 11
173.762
 21
158.768
 31
0.0
  0
LINE
  5
430
330
1D
100
AcDbEntity
  8
0
100
AcDbLine
 10
168.910790455739
 20
160.557819075768
 30
0.0
 11
188.093
 21
176.654
 31
0.0
  0
LINE
  5
431
330
1D
100
AcDbEntity
  8
0
100
AcDbLine
 10
168.910790455739
 20
160.557819075768
 30
0.0
 11
171.641
 21
157.0
 31
0.0
  0
LINE
  5
432
330
1D
100
AcDbEntity
  8
0
100
AcDbLine
 10
106.048693392507
 20
166.190220452128
 30
0.0
 11
107.037
 21
167.268
 31
0.0
  0
LINE
  5
433
330
1D
100
AcDbEntity
  8
0
100
AcDbLine
 10
107.037
 20
167.268
 30
0.0
 11
111.075
 21
170.792
 31
0.0
  0
LINE
  5
434
330
1D
100
AcDbEntity
  8
0
100
AcDbLine
 10
107.037
 20
167.268
 30
0.0
 11
111.075
 21
170.793
 31
0.0
  0
LINE
  5
435
330
1D
100
AcDbEntity
  8
0
100
AcDbLine
 10
118.574
 20
168.968
 30
0.0
 11
121.386
 21
170.448
 31
0.0
  0
LINE
  5
436
330
1D
100
AcDbEntity
  8
0
100
AcDbLine
 10
115.762
 20
167.266
 30
0.0
 11
118.574
 21
168.968
 31
0.0
  0
LINE
  5
437
330
1D
100
AcDbEntity
  8
0
100
AcDbLine
 10
155.426
 20
168.968
 30
0.0
 11
158.238
 21
167.266
 31
0.0
  0
LINE
  5
438
330
1D
100
AcDbEntity
  8
0
100
AcDbLine
 10
166.962
 20
167.268
 30
0.0
 11
167.228000010171
 21
166.977998881798
 31
0.0
  0
LINE
  5
439
330
1D
100
AcDbEntity
  8
0
100
AcDbLine
 10
158.238
 20
167.266
 30
0.0
 11
160.754
 21
165.268
 31
0.0
  0
LINE
  5
43A
330
1D
100
AcDbEntity
  8
0
100
AcDbLine
 10
165.244897367164
 20
165.314006692049
 30
0.0
 11
184.237
 21
181.25
 31
0.0
  0
LINE
  5
43B
330
1D
100
AcDbEntity
  8
0
100
AcDbLine
 10
87.0006
 20
165.867
 30
0.0
 11
89.7069
 21
170.115
 31
0.0
  0
LINE
  5
43C
330
1D
100
AcDbEntity
  8
0
100
AcDbLine
 10
121.386
 20
170.448
 30
0.0
 11
124.346
 21
171.706
 31
0.0
  0
LINE
  5
43D
330
1D
100
AcDbEntity
  8
0
100
AcDbLine
 10
152.614
 20
170.448
 30
0.0
 11
155.426
 21
168.968
 31
0.0
  0
LINE
  5
43E
330
1D
100
AcDbEntity
  8
0
100
AcDbLine
 10
117.55
 20
170.688
 30
0.0
 11
126.032
 21
174.201222340652
 31
0.0
  0
LINE
  5
43F
330
1D
100
AcDbEntity
  8
0
100
AcDbLine
 10
156.45
 20
170.688
 30
0.0
 11
164.507
 21
164.507
 31
0.0
  0
LINE
  5
440
330
1D
100
AcDbEntity
  8
0
100
AcDbLine
 10
158.973311064768
 20
170.126714819082
 30
0.0
 11
171.449
 21
191.738
 31
0.0
  0
LINE
  5
441
330
1D
100
AcDbEntity
  8
0
100
AcDbLine
 10
88.7704
 20
170.77
 30
0.0
 11
89.743792312017
 21
172.038721880207
 31
0.0
  0
LINE
  5
442
330
1D
100
AcDbEntity
  8
0
100
AcDbLine
 10
88.7704
 20
170.77
 30
0.0
 11
89.743792312017
 21
172.038721880207
 31
0.0
  0
LINE
  5
443
330
1D
100
AcDbEntity
  8
0
100
AcDbLine
 10
89.7069
 20
170.115
 30
0.0
 11
90.619227625221
 21
171.304138622996
 31
0.0
  0
LINE
  5
444
330
1D
100
AcDbEntity
  8
0
100
AcDbLine
 10
86.0111
 20
166.439
 30
0.0
 11
88.7704
 21
170.77
 31
0.0
  0
LINE
  5
445
330
1D
100
AcDbEntity
  8
0
100
AcDbLine
 10
7.01212
 20
159.92
 30
0.0
 11
9.5044
 21
171.162
 31
0.0
  0
LINE
  5
446
330
1D
100
AcDbEntity
  8
0
100
AcDbLine
 10
186.999
 20
165.867
 30
0.0
 11
189.325
 21
161.399
 31
0.0
  0
LINE
  5
447
330
1D
100
AcDbEntity
  8
0
100
AcDbLine
 10
184.293
 20
170.115
 30
0.0
 11
186.999
 21
165.867
 31
0.0
  0
LINE
  5
448
330
1D
100
AcDbEntity
  8
0
100
AcDbLine
 10
111.075
 20
170.793
 30
0.0
 11
112.761054502266
 21
171.914271325678
 31
0.0
  0
LINE
  5
449
330
1D
100
AcDbEntity
  8
0
100
AcDbLine
 10
162.925
 20
170.793
 30
0.0
 11
166.962
 21
167.268
 31
0.0
  0
LINE
  5
44A
330
1D
100
AcDbEntity
  8
0
100
AcDbLine
 10
162.925
 20
170.792
 30
0.0
 11
166.962
 21
167.268
 31
0.0
  0
LINE
  5
44B
330
1D
100
AcDbEntity
  8
0
100
AcDbLine
 10
111.075
 20
170.792
 30
0.0
 11
112.761321192519
 21
171.913809392242
 31
0.0
  0
LINE
  5
44C
330
1D
100
AcDbEntity
  8
0
100
AcDbLine
 10
85.2196
 20
175.835
 30
0.0
 11
104.437772205918
 21
159.708911271642
 31
0.0
  0
LINE
  5
44D
330
1D
100
AcDbEntity
  8
0
100
AcDbLine
 10
4.66816
 20
172.458
 30
0.0
 11
8.26202
 21
183.856
 31
0.0
  0
LINE
  5
44E
330
1D
100
AcDbEntity
  8
0
100
AcDbLine
 10
16.71
 20
179.503
 30
0.0
 11
17.166
 21
180.758
 31
0.0
  0
LINE
  5
44F
330
1D
100
AcDbEntity
  8
0
100
AcDbLine
 10
17.166
 20
180.758
 30
0.0
 11
18.122
 21
181.69
 31
0.0
  0
LINE
  5
450
330
1D
100
AcDbEntity
  8
0
100
AcDbLine
 10
18.66
 20
176.311
 30
0.0
 11
18.798
 21
176.261
 31
0.0
  0
LINE
  5
452
330
1D
100
AcDbEntity
  8
0
100
AcDbLine
 10
79.1789
 20
180.904
 30
0.0
 11
81.0753
 21
179.313
 31
0.0
  0
LINE
  5
453
330
1D
100
AcDbEntity
  8
0
100
AcDbLine
 10
89.0762
 20
180.431
 30
0.0
 11
108.094304351488
 21
164.47384949626
 31
0.0
  0
LINE
  5
454
330
1D
100
AcDbEntity
  8
0
100
AcDbLine
 10
81.0753
 20
179.313
 30
0.0
 11
83.1114
 21
177.604
 31
0.0
  0
LINE
  5
455
330
1D
100
AcDbEntity
  8
0
100
AcDbLine
 10
83.1114
 20
177.604
 30
0.0
 11
85.2196
 21
175.835
 31
0.0
  0
LINE
  5
456
330
1D
100
AcDbEntity
  8
0
100
AcDbLine
 10
18.798
 20
176.261
 30
0.0
 11
19.207
 21
176.112
 31
0.0
  0
LINE
  5
457
330
1D
100
AcDbEntity
  8
0
100
AcDbLine
 10
19.207
 20
176.112
 30
0.0
 11
61.51
 21
160.715
 31
0.0
  0
LINE
  5
458
330
1D
100
AcDbEntity
  8
0
100
AcDbLine
 10
95.3679
 20
178.633
 30
0.0
 11
99.1545
 21
182.102
 31
0.0
  0
LINE
  5
459
330
1D
100
AcDbEntity
  8
0
100
AcDbLine
 10
93.564535236321
 20
176.665059948693
 30
0.0
 11
95.3679
 21
178.633
 31
0.0
  0
LINE
  5
45A
330
1D
100
AcDbEntity
  8
0
100
AcDbLine
 10
94.439937724877
 20
175.930553028178
 30
0.0
 11
96.1758
 21
177.825
 31
0.0
  0
LINE
  5
45B
330
1D
100
AcDbEntity
  8
0
100
AcDbLine
 10
117.969163577057
 20
174.894531788091
 30
0.0
 11
120.85
 21
176.183
 31
0.0
  0
LINE
  5
45C
330
1D
100
AcDbEntity
  8
0
100
AcDbLine
 10
124.346
 20
171.706
 30
0.0
 11
126.032
 21
172.240585365854
 31
0.0
  0
LINE
  5
45D
330
1D
100
AcDbEntity
  8
0
100
AcDbLine
 10
147.968
 20
172.240585365854
 30
0.0
 11
149.654
 21
171.706
 31
0.0
  0
LINE
  5
45E
330
1D
100
AcDbEntity
  8
0
100
AcDbLine
 10
117.0
 20
171.641
 30
0.0
 11
126.032
 21
175.382253446667
 31
0.0
  0
LINE
  5
45F
330
1D
100
AcDbEntity
  8
0
100
AcDbLine
 10
149.654
 20
171.706
 30
0.0
 11
152.614
 21
170.448
 31
0.0
  0
LINE
  5
460
330
1D
100
AcDbEntity
  8
0
100
AcDbLine
 10
147.968
 20
174.201222340652
 30
0.0
 11
156.45
 21
170.688
 31
0.0
  0
LINE
  5
461
330
1D
100
AcDbEntity
  8
0
100
AcDbLine
 10
148.05
 20
178.049
 30
0.0
 11
153.15
 21
176.183
 31
0.0
  0
LINE
  5
462
330
1D
100
AcDbEntity
  8
0
100
AcDbLine
 10
153.15
 20
176.183
 30
0.0
 11
155.050413181921
 21
175.333030888635
 31
0.0
  0
LINE
  5
463
330
1D
100
AcDbEntity
  8
0
100
AcDbLine
 10
147.968
 20
178.064375927602
 30
0.0
 11
148.05
 21
178.049
 31
0.0
  0
LINE
  5
464
330
1D
100
AcDbEntity
  8
0
100
AcDbLine
 10
125.95
 20
178.049
 30
0.0
 11
126.032
 21
178.064375927602
 31
0.0
  0
LINE
  5
465
330
1D
100
AcDbEntity
  8
0
100
AcDbLine
 10
120.85
 20
176.183
 30
0.0
 11
125.95
 21
178.049
 31
0.0
  0
LINE
  5
466
330
1D
100
AcDbEntity
  8
0
100
AcDbLine
 10
147.968
 20
175.382253446667
 30
0.0
 11
157.0
 21
171.641
 31
0.0
  0
LINE
  5
467
330
1D
100
AcDbEntity
  8
0
100
AcDbLine
 10
160.347467772761
 20
172.507127849088
 30
0.0
 11
162.925
 21
170.793
 31
0.0
  0
LINE
  5
468
330
1D
100
AcDbEntity
  8
0
100
AcDbLine
 10
160.34728063872
 20
172.506803682049
 30
0.0
 11
162.925
 21
170.792
 31
0.0
  0
LINE
  5
469
330
1D
100
AcDbEntity
  8
0
100
AcDbLine
 10
157.0
 20
171.641
 30
0.0
 11
165.284
 21
165.284
 31
0.0
  0
LINE
  5
46A
330
1D
100
AcDbEntity
  8
0
100
AcDbLine
 10
153.706498898064
 20
173.005240738399
 30
0.0
 11
166.253
 21
194.737
 31
0.0
  0
LINE
  5
46B
330
1D
100
AcDbEntity
  8
0
100
AcDbLine
 10
99.8895
 20
181.227
 30
0.0
 11
103.885
 21
184.293
 31
0.0
  0
LINE
  5
46C
330
1D
100
AcDbEntity
  8
0
100
AcDbLine
 10
96.1758
 20
177.825
 30
0.0
 11
99.8895
 21
181.227
 31
0.0
  0
LINE
  5
46D
330
1D
100
AcDbEntity
  8
0
100
AcDbLine
 10
9.5044
 20
171.162
 30
0.0
 11
12.967
 21
182.144
 31
0.0
  0
LINE
  5
46E
330
1D
100
AcDbEntity
  8
0
100
AcDbLine
 10
178.632
 20
178.633
 30
0.0
 11
179.712620563883
 21
177.453659920627
 31
0.0
  0
LINE
  5
46F
330
1D
100
AcDbEntity
  8
0
100
AcDbLine
 10
177.824
 20
177.825
 30
0.0
 11
178.837249868718
 21
176.719149276398
 31
0.0
  0
LINE
  5
470
330
1D
100
AcDbEntity
  8
0
100
AcDbLine
 10
18.122
 20
181.69
 30
0.0
 11
19.388
 21
182.115
 31
0.0
  0
LINE
  5
471
330
1D
100
AcDbEntity
  8
0
100
AcDbLine
 10
19.388
 20
182.115
 30
0.0
 11
20.713
 21
181.949
 31
0.0
  0
LINE
  5
472
330
1D
100
AcDbEntity
  8
0
100
AcDbLine
 10
20.713
 20
181.949
 30
0.0
 11
20.85
 21
181.899
 31
0.0
  0
LINE
  5
473
330
1D
100
AcDbEntity
  8
0
100
AcDbLine
 10
20.85
 20
181.899
 30
0.0
 11
21.259
 21
181.75
 31
0.0
  0
LINE
  5
474
330
1D
100
AcDbEntity
  8
0
100
AcDbLine
 10
21.259
 20
181.75
 30
0.0
 11
63.562
 21
166.353
 31
0.0
  0
LINE
  5
475
330
1D
100
AcDbEntity
  8
0
100
AcDbLine
 10
99.1545
 20
182.102
 30
0.0
 11
103.23
 21
185.23
 31
0.0
  0
LINE
  5
476
330
1D
100
AcDbEntity
  8
0
100
AcDbLine
 10
12.967
 20
182.144
 30
0.0
 11
17.3735
 21
192.782
 31
0.0
  0
LINE
  5
477
330
1D
100
AcDbEntity
  8
0
100
AcDbLine
 10
174.846
 20
182.102
 30
0.0
 11
178.632
 21
178.633
 31
0.0
  0
LINE
  5
478
330
1D
100
AcDbEntity
  8
0
100
AcDbLine
 10
174.111
 20
181.227
 30
0.0
 11
177.824
 21
177.825
 31
0.0
  0
LINE
  5
479
330
1D
100
AcDbEntity
  8
0
100
AcDbLine
 10
184.237
 20
181.25
 30
0.0
 11
186.344
 21
183.019
 31
0.0
  0
LINE
  5
47A
330
1D
100
AcDbEntity
  8
0
100
AcDbLine
 10
183.604747455068
 20
172.887816295762
 30
0.0
 11
185.23
 21
170.77
 31
0.0
  0
LINE
  5
47B
330
1D
100
AcDbEntity
  8
0
100
AcDbLine
 10
182.729207370163
 20
172.153132860023
 30
0.0
 11
184.293
 21
170.115
 31
0.0
  0
LINE
  5
47C
330
1D
100
AcDbEntity
  8
0
100
AcDbLine
 10
185.23
 20
170.77
 30
0.0
 11
187.989
 21
166.439
 31
0.0
  0
LINE
  5
47D
330
1D
100
AcDbEntity
  8
0
100
AcDbLine
 10
189.325
 20
161.399
 30
0.0
 11
189.898164429706
 21
160.015017596565
 31
0.0
  0
LINE
  5
47E
330
1D
100
AcDbEntity
  8
0
100
AcDbLine
 10
188.093
 20
176.654
 30
0.0
 11
190.202
 21
178.423
 31
0.0
  0
LINE
  5
47F
330
1D
100
AcDbEntity
  8
0
100
AcDbLine
 10
192.238
 20
180.131
 30
0.0
 11
194.134
 21
181.723
 31
0.0
  0
LINE
  5
480
330
1D
100
AcDbEntity
  8
0
100
AcDbLine
 10
190.202
 20
178.423
 30
0.0
 11
192.238
 21
180.131
 31
0.0
  0
LINE
  5
481
330
1D
100
AcDbEntity
  8
0
100
AcDbLine
 10
190.361
 20
161.883
 30
0.0
 11
190.972771711633
 21
160.406159438755
 31
0.0
  0
LINE
  5
482
330
1D
100
AcDbEntity
  8
0
100
AcDbLine
 10
187.989
 20
166.439
 30
0.0
 11
190.361
 21
161.883
 31
0.0
  0
LINE
  5
483
330
1D
100
AcDbEntity
  8
0
100
AcDbLine
 10
193.068744865265
 20
154.783977752546
 30
0.0
 11
193.871
 21
152.239
 31
0.0
  0
LINE
  5
484
330
1D
100
AcDbEntity
  8
0
100
AcDbLine
 10
198.574
 20
156.788
 30
0.0
 11
201.161
 21
157.728
 31
0.0
  0
LINE
  5
485
330
1D
100
AcDbEntity
  8
0
100
AcDbLine
 10
201.607
 20
164.276
 30
0.0
 11
203.932
 21
165.123
 31
0.0
  0
LINE
  5
486
330
1D
100
AcDbEntity
  8
0
100
AcDbLine
 10
199.108
 20
163.367
 30
0.0
 11
201.607
 21
164.276
 31
0.0
  0
LINE
  5
487
330
1D
100
AcDbEntity
  8
0
100
AcDbLine
 10
196.522
 20
162.426
 30
0.0
 11
199.108
 21
163.367
 31
0.0
  0
LINE
  5
488
330
1D
100
AcDbEntity
  8
0
100
AcDbLine
 10
208.058
 20
160.24
 30
0.0
 11
209.811
 21
160.877
 31
0.0
  0
LINE
  5
489
330
1D
100
AcDbEntity
  8
0
100
AcDbLine
 10
206.006
 20
165.877
 30
0.0
 11
207.759
 21
166.515
 31
0.0
  0
LINE
  5
48A
330
1D
100
AcDbEntity
  8
0
100
AcDbLine
 10
203.932
 20
165.123
 30
0.0
 11
206.006
 21
165.877
 31
0.0
  0
LINE
  5
48B
330
1D
100
AcDbEntity
  8
0
100
AcDbLine
 10
205.984
 20
159.485
 30
0.0
 11
208.058
 21
160.24
 31
0.0
  0
LINE
  5
48C
330
1D
100
AcDbEntity
  8
0
100
AcDbLine
 10
203.659
 20
158.638
 30
0.0
 11
205.984
 21
159.485
 31
0.0
  0
LINE
  5
48D
330
1D
100
AcDbEntity
  8
0
100
AcDbLine
 10
207.759
 20
166.515
 30
0.0
 11
209.13
 21
167.014
 31
0.0
  0
LINE
  5
48E
330
1D
100
AcDbEntity
  8
0
100
AcDbLine
 10
211.182
 20
161.376
 30
0.0
 11
212.125
 21
161.719
 31
0.0
  0
LINE
  5
48F
330
1D
100
AcDbEntity
  8
0
100
AcDbLine
 10
209.811
 20
160.877
 30
0.0
 11
211.182
 21
161.376
 31
0.0
  0
LINE
  5
490
330
1D
100
AcDbEntity
  8
0
100
AcDbLine
 10
209.13
 20
167.014
 30
0.0
 11
210.072
 21
167.357
 31
0.0
  0
LINE
  5
491
330
1D
100
AcDbEntity
  8
0
100
AcDbLine
 10
201.161
 20
157.728
 30
0.0
 11
203.659
 21
158.638
 31
0.0
  0
LINE
  5
492
330
1D
100
AcDbEntity
  8
0
100
AcDbLine
 10
212.125
 20
161.719
 30
0.0
 11
254.427
 21
177.116
 31
0.0
  0
LINE
  5
493
330
1D
100
AcDbEntity
  8
0
100
AcDbLine
 10
194.134
 20
181.723
 30
0.0
 11
195.825
 21
183.141
 31
0.0
  0
LINE
  5
494
330
1D
100
AcDbEntity
  8
0
100
AcDbLine
 10
256.468
 20
181.762
 30
0.0
 11
256.925
 21
180.507
 31
0.0
  0
LINE
  5
496
330
1D
100
AcDbEntity
  8
0
100
AcDbLine
 10
254.837
 20
177.265
 30
0.0
 11
254.974
 21
177.315
 31
0.0
  0
LINE
  5
497
330
1D
100
AcDbEntity
  8
0
100
AcDbLine
 10
254.427
 20
177.116
 30
0.0
 11
254.837
 21
177.265
 31
0.0
  0
LINE
  5
498
330
1D
100
AcDbEntity
  8
0
100
AcDbLine
 10
210.072
 20
167.357
 30
0.0
 11
252.375
 21
182.754
 31
0.0
  0
LINE
  5
499
330
1D
100
AcDbEntity
  8
0
100
AcDbLine
 10
194.983
 20
147.224
 30
0.0
 11
195.653
 21
142.131
 31
0.0
  0
LINE
  5
49A
330
1D
100
AcDbEntity
  8
0
100
AcDbLine
 10
193.871
 20
152.239
 30
0.0
 11
194.983
 21
147.224
 31
0.0
  0
LINE
  5
49B
330
1D
100
AcDbEntity
  8
0
100
AcDbLine
 10
195.653
 20
142.131
 30
0.0
 11
195.722710720264
 21
140.534188813954
 31
0.0
  0
LINE
  5
49C
330
1D
100
AcDbEntity
  8
0
100
AcDbLine
 10
195.653
 20
142.131
 30
0.0
 11
195.722710720264
 21
140.534188813954
 31
0.0
  0
LINE
  5
49D
330
1D
100
AcDbEntity
  8
0
100
AcDbLine
 10
265.738
 20
90.1436
 30
0.0
 11
269.332
 21
101.542
 31
0.0
  0
LINE
  5
49E
330
1D
100
AcDbEntity
  8
0
100
AcDbLine
 10
264.573
 20
138.202
 30
0.0
 11
264.573
 21
136.867
 31
0.0
  0
LINE
  5
49F
330
1D
100
AcDbEntity
  8
0
100
AcDbLine
 10
264.573
 20
136.867
 30
0.0
 11
264.573
 21
138.202
 31
0.0
  0
LINE
  5
4A0
330
1D
100
AcDbEntity
  8
0
100
AcDbLine
 10
266.988
 20
114.08
 30
0.0
 11
268.491
 21
125.496
 31
0.0
  0
LINE
  5
4A1
330
1D
100
AcDbEntity
  8
0
100
AcDbLine
 10
264.496
 20
171.162
 30
0.0
 11
266.988
 21
159.92
 31
0.0
  0
LINE
  5
4A2
330
1D
100
AcDbEntity
  8
0
100
AcDbLine
 10
76.0601
 20
183.521
 30
0.0
 11
77.4882
 21
182.323
 31
0.0
  0
LINE
  5
4A3
330
1D
100
AcDbEntity
  8
0
100
AcDbLine
 10
86.9683
 20
182.201
 30
0.0
 11
89.0762
 21
180.431
 31
0.0
  0
LINE
  5
4A4
330
1D
100
AcDbEntity
  8
0
100
AcDbLine
 10
77.4882
 20
182.323
 30
0.0
 11
79.1789
 21
180.904
 31
0.0
  0
LINE
  5
4A5
330
1D
100
AcDbEntity
  8
0
100
AcDbLine
 10
84.9318
 20
183.909
 30
0.0
 11
86.9683
 21
182.201
 31
0.0
  0
LINE
  5
4A6
330
1D
100
AcDbEntity
  8
0
100
AcDbLine
 10
8.26202
 20
183.856
 30
0.0
 11
12.8359
 21
194.899
 31
0.0
  0
LINE
  5
4A7
330
1D
100
AcDbEntity
  8
0
100
AcDbLine
 10
74.9424
 20
184.459
 30
0.0
 11
76.0601
 21
183.521
 31
0.0
  0
LINE
  5
4A8
330
1D
100
AcDbEntity
  8
0
100
AcDbLine
 10
78.0302
 20
189.7
 30
0.0
 11
78.799
 21
189.055
 31
0.0
  0
LINE
  5
4A9
330
1D
100
AcDbEntity
  8
0
100
AcDbLine
 10
78.799
 20
189.055
 30
0.0
 11
79.9166
 21
188.117
 31
0.0
  0
LINE
  5
4AA
330
1D
100
AcDbEntity
  8
0
100
AcDbLine
 10
79.9166
 20
188.117
 30
0.0
 11
81.3448
 21
186.919
 31
0.0
  0
LINE
  5
4AB
330
1D
100
AcDbEntity
  8
0
100
AcDbLine
 10
81.3448
 20
186.919
 30
0.0
 11
83.0355
 21
185.5
 31
0.0
  0
LINE
  5
4AC
330
1D
100
AcDbEntity
  8
0
100
AcDbLine
 10
101.625
 20
191.203
 30
0.0
 11
114.171814144917
 21
169.470698517532
 31
0.0
  0
LINE
  5
4AD
330
1D
100
AcDbEntity
  8
0
100
AcDbLine
 10
83.0355
 20
185.5
 30
0.0
 11
84.9318
 21
183.909
 31
0.0
  0
LINE
  5
4AE
330
1D
100
AcDbEntity
  8
0
100
AcDbLine
 10
74.1736
 20
185.104
 30
0.0
 11
74.9424
 21
184.459
 31
0.0
  0
LINE
  5
4AF
330
1D
100
AcDbEntity
  8
0
100
AcDbLine
 10
103.23
 20
185.23
 30
0.0
 11
104.577743951537
 21
186.088560508495
 31
0.0
  0
LINE
  5
4B0
330
1D
100
AcDbEntity
  8
0
100
AcDbLine
 10
109.750598396865
 20
189.128975284759
 30
0.0
 11
112.117
 21
190.361
 31
0.0
  0
LINE
  5
4B1
330
1D
100
AcDbEntity
  8
0
100
AcDbLine
 10
103.885
 20
184.293
 30
0.0
 11
105.149385957422
 21
185.098420998301
 31
0.0
  0
LINE
  5
4B2
330
1D
100
AcDbEntity
  8
0
100
AcDbLine
 10
147.968
 20
185.003149852725
 30
0.0
 11
150.651
 21
200.219
 31
0.0
  0
LINE
  5
4B3
330
1D
100
AcDbEntity
  8
0
100
AcDbLine
 10
112.117
 20
190.361
 30
0.0
 11
116.863
 21
192.327
 31
0.0
  0
LINE
  5
4B4
330
1D
100
AcDbEntity
  8
0
100
AcDbLine
 10
117.254
 20
191.252
 30
0.0
 11
122.057
 21
192.767
 31
0.0
  0
LINE
  5
4B5
330
1D
100
AcDbEntity
  8
0
100
AcDbLine
 10
112.601
 20
189.325
 30
0.0
 11
117.254
 21
191.252
 31
0.0
  0
LINE
  5
4B6
330
1D
100
AcDbEntity
  8
0
100
AcDbLine
 10
110.322329419128
 20
188.138744903512
 30
0.0
 11
112.601
 21
189.325
 31
0.0
  0
LINE
  5
4B7
330
1D
100
AcDbEntity
  8
0
100
AcDbLine
 10
116.863
 20
192.327
 30
0.0
 11
121.761
 21
193.871
 31
0.0
  0
LINE
  5
4B8
330
1D
100
AcDbEntity
  8
0
100
AcDbLine
 10
122.057
 20
192.767
 30
0.0
 11
123.520777791245
 21
193.09142411396
 31
0.0
  0
LINE
  5
4B9
330
1D
100
AcDbEntity
  8
0
100
AcDbLine
 10
157.137
 20
192.327
 30
0.0
 11
161.883
 21
190.361
 31
0.0
  0
LINE
  5
4BA
330
1D
100
AcDbEntity
  8
0
100
AcDbLine
 10
156.746
 20
191.252
 30
0.0
 11
161.399
 21
189.325
 31
0.0
  0
LINE
  5
4BB
330
1D
100
AcDbEntity
  8
0
100
AcDbLine
 10
170.77
 20
185.23
 30
0.0
 11
174.846
 21
182.102
 31
0.0
  0
LINE
  5
4BC
330
1D
100
AcDbEntity
  8
0
100
AcDbLine
 10
198.371
 20
185.278
 30
0.0
 11
199.139
 21
185.923
 31
0.0
  0
LINE
  5
4BD
330
1D
100
AcDbEntity
  8
0
100
AcDbLine
 10
197.253
 20
184.34
 30
0.0
 11
198.371
 21
185.278
 31
0.0
  0
LINE
  5
4BE
330
1D
100
AcDbEntity
  8
0
100
AcDbLine
 10
195.825
 20
183.141
 30
0.0
 11
197.253
 21
184.34
 31
0.0
  0
LINE
  5
4BF
330
1D
100
AcDbEntity
  8
0
100
AcDbLine
 10
188.382
 20
184.727
 30
0.0
 11
190.277
 21
186.319
 31
0.0
  0
LINE
  5
4C0
330
1D
100
AcDbEntity
  8
0
100
AcDbLine
 10
186.344
 20
183.019
 30
0.0
 11
188.382
 21
184.727
 31
0.0
  0
LINE
  5
4C1
330
1D
100
AcDbEntity
  8
0
100
AcDbLine
 10
170.115
 20
184.293
 30
0.0
 11
174.111
 21
181.227
 31
0.0
  0
LINE
  5
4C2
330
1D
100
AcDbEntity
  8
0
100
AcDbLine
 10
161.883
 20
190.361
 30
0.0
 11
163.300509275224
 21
189.622999121855
 31
0.0
  0
LINE
  5
4C3
330
1D
100
AcDbEntity
  8
0
100
AcDbLine
 10
191.968
 20
187.738
 30
0.0
 11
193.397
 21
188.936
 31
0.0
  0
LINE
  5
4C4
330
1D
100
AcDbEntity
  8
0
100
AcDbLine
 10
190.277
 20
186.319
 30
0.0
 11
191.968
 21
187.738
 31
0.0
  0
LINE
  5
4C5
330
1D
100
AcDbEntity
  8
0
100
AcDbLine
 10
193.397
 20
188.936
 30
0.0
 11
194.514
 21
189.874
 31
0.0
  0
LINE
  5
4C6
330
1D
100
AcDbEntity
  8
0
100
AcDbLine
 10
194.514
 20
189.874
 30
0.0
 11
195.283
 21
190.519
 31
0.0
  0
LINE
  5
4C7
330
1D
100
AcDbEntity
  8
0
100
AcDbLine
 10
199.139
 20
185.923
 30
0.0
 11
233.625
 21
214.86
 31
0.0
  0
LINE
  5
4C8
330
1D
100
AcDbEntity
  8
0
100
AcDbLine
 10
195.283
 20
190.519
 30
0.0
 11
229.768
 21
219.456
 31
0.0
  0
LINE
  5
4C9
330
1D
100
AcDbEntity
  8
0
100
AcDbLine
 10
171.449
 20
191.738
 30
0.0
 11
172.826
 21
194.121
 31
0.0
  0
LINE
  5
4CA
330
1D
100
AcDbEntity
  8
0
100
AcDbLine
 10
168.519642863743
 20
186.66355699352
 30
0.0
 11
170.77
 21
185.23
 31
0.0
  0
LINE
  5
4CB
330
1D
100
AcDbEntity
  8
0
100
AcDbLine
 10
167.948031701728
 20
185.673371048758
 30
0.0
 11
170.115
 21
184.293
 31
0.0
  0
LINE
  5
4CC
330
1D
100
AcDbEntity
  8
0
100
AcDbLine
 10
161.399
 20
189.325
 30
0.0
 11
162.728788976981
 21
188.632724001688
 31
0.0
  0
LINE
  5
4CD
330
1D
100
AcDbEntity
  8
0
100
AcDbLine
 10
12.8359
 20
194.899
 30
0.0
 11
18.3545
 21
205.5
 31
0.0
  0
LINE
  5
4CE
330
1D
100
AcDbEntity
  8
0
100
AcDbLine
 10
100.249
 20
193.586
 30
0.0
 11
101.625
 21
191.203
 31
0.0
  0
LINE
  5
4CF
330
1D
100
AcDbEntity
  8
0
100
AcDbLine
 10
22.6905
 20
202.996
 30
0.0
 11
28.8776
 21
212.708
 31
0.0
  0
LINE
  5
4D0
330
1D
100
AcDbEntity
  8
0
100
AcDbLine
 10
18.3545
 20
205.5
 30
0.0
 11
24.776
 21
215.58
 31
0.0
  0
LINE
  5
4D1
330
1D
100
AcDbEntity
  8
0
100
AcDbLine
 10
32.052
 20
225.062
 30
0.0
 11
40.1266
 21
233.874
 31
0.0
  0
LINE
  5
4D2
330
1D
100
AcDbEntity
  8
0
100
AcDbLine
 10
24.776
 20
215.58
 30
0.0
 11
32.052
 21
225.062
 31
0.0
  0
LINE
  5
4D3
330
1D
100
AcDbEntity
  8
0
100
AcDbLine
 10
38.1717
 20
216.787
 30
0.0
 11
38.5013
 21
218.081
 31
0.0
  0
LINE
  5
4D4
330
1D
100
AcDbEntity
  8
0
100
AcDbLine
 10
38.5013
 20
218.081
 30
0.0
 11
39.359
 21
219.105
 31
0.0
  0
LINE
  5
4D5
330
1D
100
AcDbEntity
  8
0
100
AcDbLine
 10
39.359
 20
219.105
 30
0.0
 11
40.5761
 21
219.654
 31
0.0
  0
LINE
  5
4D6
330
1D
100
AcDbEntity
  8
0
100
AcDbLine
 10
39.2419
 20
214.415
 30
0.0
 11
39.3545
 21
214.321
 31
0.0
  0
LINE
  5
4D8
330
1D
100
AcDbEntity
  8
0
100
AcDbLine
 10
39.3545
 20
214.321
 30
0.0
 11
39.6879
 21
214.041
 31
0.0
  0
LINE
  5
4D9
330
1D
100
AcDbEntity
  8
0
100
AcDbLine
 10
40.5761
 20
219.654
 30
0.0
 11
41.9111
 21
219.62
 31
0.0
  0
LINE
  5
4DA
330
1D
100
AcDbEntity
  8
0
100
AcDbLine
 10
41.9111
 20
219.62
 30
0.0
 11
43.0994
 21
219.011
 31
0.0
  0
LINE
  5
4DB
330
1D
100
AcDbEntity
  8
0
100
AcDbLine
 10
43.0994
 20
219.011
 30
0.0
 11
43.2111
 21
218.917
 31
0.0
  0
LINE
  5
4DC
330
1D
100
AcDbEntity
  8
0
100
AcDbLine
 10
43.2111
 20
218.917
 30
0.0
 11
43.5444
 21
218.637
 31
0.0
  0
LINE
  5
4DD
330
1D
100
AcDbEntity
  8
0
100
AcDbLine
 10
43.5444
 20
218.637
 30
0.0
 11
78.0302
 21
189.7
 31
0.0
  0
LINE
  5
4DE
330
1D
100
AcDbEntity
  8
0
100
AcDbLine
 10
39.6879
 20
214.041
 30
0.0
 11
74.1736
 21
185.104
 31
0.0
  0
LINE
  5
4DF
330
1D
100
AcDbEntity
  8
0
100
AcDbLine
 10
48.9379
 20
241.948
 30
0.0
 11
58.4203
 21
249.224
 31
0.0
  0
LINE
  5
4E0
330
1D
100
AcDbEntity
  8
0
100
AcDbLine
 10
40.1266
 20
233.874
 30
0.0
 11
48.9379
 21
241.948
 31
0.0
  0
LINE
  5
4E1
330
1D
100
AcDbEntity
  8
0
100
AcDbLine
 10
43.667
 20
230.333
 30
0.0
 11
52.1568
 21
238.113
 31
0.0
  0
LINE
  5
4E2
330
1D
100
AcDbEntity
  8
0
100
AcDbLine
 10
35.8872
 20
221.843
 30
0.0
 11
43.667
 21
230.333
 31
0.0
  0
LINE
  5
4E3
330
1D
100
AcDbEntity
  8
0
100
AcDbLine
 10
28.8776
 20
212.708
 30
0.0
 11
35.8872
 21
221.843
 31
0.0
  0
LINE
  5
4E4
330
1D
100
AcDbEntity
  8
0
100
AcDbLine
 10
68.5002
 20
255.646
 30
0.0
 11
79.1011
 21
261.164
 31
0.0
  0
LINE
  5
4E5
330
1D
100
AcDbEntity
  8
0
100
AcDbLine
 10
58.4203
 20
249.224
 30
0.0
 11
68.5002
 21
255.646
 31
0.0
  0
LINE
  5
4E6
330
1D
100
AcDbEntity
  8
0
100
AcDbLine
 10
61.2918
 20
245.122
 30
0.0
 11
71.0038
 21
251.31
 31
0.0
  0
LINE
  5
4E7
330
1D
100
AcDbEntity
  8
0
100
AcDbLine
 10
71.2216
 20
244.457
 30
0.0
 11
71.4205
 21
245.777
 31
0.0
  0
LINE
  5
4E8
330
1D
100
AcDbEntity
  8
0
100
AcDbLine
 10
71.4205
 20
245.777
 30
0.0
 11
72.1729
 21
246.88
 31
0.0
  0
LINE
  5
4E9
330
1D
100
AcDbEntity
  8
0
100
AcDbLine
 10
71.6149
 20
243.181
 30
0.0
 11
71.6885
 21
243.054
 31
0.0
  0
LINE
  5
4EB
330
1D
100
AcDbEntity
  8
0
100
AcDbLine
 10
72.1729
 20
246.88
 30
0.0
 11
73.3289
 21
247.548
 31
0.0
  0
LINE
  5
4EC
330
1D
100
AcDbEntity
  8
0
100
AcDbLine
 10
73.3289
 20
247.548
 30
0.0
 11
74.6603
 21
247.648
 31
0.0
  0
LINE
  5
4ED
330
1D
100
AcDbEntity
  8
0
100
AcDbLine
 10
74.6603
 20
247.648
 30
0.0
 11
75.9033
 21
247.16
 31
0.0
  0
LINE
  5
4EE
330
1D
100
AcDbEntity
  8
0
100
AcDbLine
 10
71.6885
 20
243.054
 30
0.0
 11
71.906
 21
242.677
 31
0.0
  0
LINE
  5
4EF
330
1D
100
AcDbEntity
  8
0
100
AcDbLine
 10
71.906
 20
242.677
 30
0.0
 11
94.415
 21
203.691
 31
0.0
  0
LINE
  5
4F0
330
1D
100
AcDbEntity
  8
0
100
AcDbLine
 10
95.6464
 20
201.558
 30
0.0
 11
96.5784
 21
199.943
 31
0.0
  0
LINE
  5
4F1
330
1D
100
AcDbEntity
  8
0
100
AcDbLine
 10
96.5784
 20
199.943
 30
0.0
 11
97.6819
 21
198.032
 31
0.0
  0
LINE
  5
4F2
330
1D
100
AcDbEntity
  8
0
100
AcDbLine
 10
97.6819
 20
198.032
 30
0.0
 11
98.9199
 21
195.889
 31
0.0
  0
LINE
  5
4F3
330
1D
100
AcDbEntity
  8
0
100
AcDbLine
 10
98.9199
 20
195.889
 30
0.0
 11
100.249
 21
193.586
 31
0.0
  0
LINE
  5
4F4
330
1D
100
AcDbEntity
  8
0
100
AcDbLine
 10
99.611
 20
206.691
 30
0.0
 11
100.113
 21
205.822
 31
0.0
  0
LINE
  5
4F5
330
1D
100
AcDbEntity
  8
0
100
AcDbLine
 10
100.113
 20
205.822
 30
0.0
 11
100.842
 21
204.558
 31
0.0
  0
LINE
  5
4F6
330
1D
100
AcDbEntity
  8
0
100
AcDbLine
 10
100.842
 20
204.558
 30
0.0
 11
101.774
 21
202.943
 31
0.0
  0
LINE
  5
4F7
330
1D
100
AcDbEntity
  8
0
100
AcDbLine
 10
101.774
 20
202.943
 30
0.0
 11
102.878
 21
201.032
 31
0.0
  0
LINE
  5
4F8
330
1D
100
AcDbEntity
  8
0
100
AcDbLine
 10
94.9169
 20
202.822
 30
0.0
 11
95.6464
 21
201.558
 31
0.0
  0
LINE
  5
4F9
330
1D
100
AcDbEntity
  8
0
100
AcDbLine
 10
94.415
 20
203.691
 30
0.0
 11
94.9169
 21
202.822
 31
0.0
  0
LINE
  5
4FA
330
1D
100
AcDbEntity
  8
0
100
AcDbLine
 10
75.9033
 20
247.16
 30
0.0
 11
76.8117
 21
246.181
 31
0.0
  0
LINE
  5
4FB
330
1D
100
AcDbEntity
  8
0
100
AcDbLine
 10
76.8117
 20
246.181
 30
0.0
 11
76.8845
 21
246.054
 31
0.0
  0
LINE
  5
4FC
330
1D
100
AcDbEntity
  8
0
100
AcDbLine
 10
76.8845
 20
246.054
 30
0.0
 11
77.102
 21
245.677
 31
0.0
  0
LINE
  5
4FD
330
1D
100
AcDbEntity
  8
0
100
AcDbLine
 10
77.102
 20
245.677
 30
0.0
 11
99.611
 21
206.691
 31
0.0
  0
LINE
  5
500
330
1D
100
AcDbEntity
  8
0
100
AcDbLine
 10
71.0038
 20
251.31
 30
0.0
 11
81.2176
 21
256.627
 31
0.0
  0
LINE
  5
501
330
1D
100
AcDbEntity
  8
0
100
AcDbLine
 10
90.1436
 20
265.738
 30
0.0
 11
101.542
 21
269.332
 31
0.0
  0
LINE
  5
502
330
1D
100
AcDbEntity
  8
0
100
AcDbLine
 10
79.1011
 20
261.164
 30
0.0
 11
90.1436
 21
265.738
 31
0.0
  0
LINE
  5
503
330
1D
100
AcDbEntity
  8
0
100
AcDbLine
 10
91.8556
 20
261.033
 30
0.0
 11
102.838
 21
264.496
 31
0.0
  0
LINE
  5
504
330
1D
100
AcDbEntity
  8
0
100
AcDbLine
 10
81.2176
 20
256.627
 30
0.0
 11
91.8556
 21
261.033
 31
0.0
  0
LINE
  5
505
330
1D
100
AcDbEntity
  8
0
100
AcDbLine
 10
102.878
 20
201.032
 30
0.0
 11
104.116
 21
198.889
 31
0.0
  0
LINE
  5
506
330
1D
100
AcDbEntity
  8
0
100
AcDbLine
 10
106.821
 20
194.203
 30
0.0
 11
119.298057250532
 21
172.592905957617
 31
0.0
  0
LINE
  5
507
330
1D
100
AcDbEntity
  8
0
100
AcDbLine
 10
122.297
 20
200.033
 30
0.0
 11
126.032
 21
178.847139200884
 31
0.0
  0
LINE
  5
508
330
1D
100
AcDbEntity
  8
0
100
AcDbLine
 10
120.221
 20
211.809
 30
0.0
 11
120.544
 21
209.973
 31
0.0
  0
LINE
  5
509
330
1D
100
AcDbEntity
  8
0
100
AcDbLine
 10
120.544
 20
209.973
 30
0.0
 11
120.927
 21
207.799
 31
0.0
  0
LINE
  5
50A
330
1D
100
AcDbEntity
  8
0
100
AcDbLine
 10
120.927
 20
207.799
 30
0.0
 11
121.358
 21
205.361
 31
0.0
  0
LINE
  5
50B
330
1D
100
AcDbEntity
  8
0
100
AcDbLine
 10
121.358
 20
205.361
 30
0.0
 11
121.818
 21
202.743
 31
0.0
  0
LINE
  5
50C
330
1D
100
AcDbEntity
  8
0
100
AcDbLine
 10
121.818
 20
202.743
 30
0.0
 11
122.297
 21
200.033
 31
0.0
  0
LINE
  5
50D
330
1D
100
AcDbEntity
  8
0
100
AcDbLine
 10
119.967
 20
213.246
 30
0.0
 11
120.221
 21
211.809
 31
0.0
  0
LINE
  5
50E
330
1D
100
AcDbEntity
  8
0
100
AcDbLine
 10
125.701
 20
215.276
 30
0.0
 11
125.876
 21
214.288
 31
0.0
  0
LINE
  5
50F
330
1D
100
AcDbEntity
  8
0
100
AcDbLine
 10
125.876
 20
214.288
 30
0.0
 11
126.032
 21
213.401944664032
 31
0.0
  0
LINE
  5
510
330
1D
100
AcDbEntity
  8
0
100
AcDbLine
 10
119.793
 20
214.234
 30
0.0
 11
119.967
 21
213.246
 31
0.0
  0
LINE
  5
511
330
1D
100
AcDbEntity
  8
0
100
AcDbLine
 10
111.941
 20
260.474
 30
0.0
 11
112.579
 21
261.646
 31
0.0
  0
LINE
  5
512
330
1D
100
AcDbEntity
  8
0
100
AcDbLine
 10
112.579
 20
261.646
 30
0.0
 11
113.664
 21
262.426
 31
0.0
  0
LINE
  5
513
330
1D
100
AcDbEntity
  8
0
100
AcDbLine
 10
113.664
 20
262.426
 30
0.0
 11
114.979
 21
262.658
 31
0.0
  0
LINE
  5
514
330
1D
100
AcDbEntity
  8
0
100
AcDbLine
 10
114.979
 20
262.658
 30
0.0
 11
116.264
 21
262.296
 31
0.0
  0
LINE
  5
515
330
1D
100
AcDbEntity
  8
0
100
AcDbLine
 10
116.264
 20
262.296
 30
0.0
 11
117.265
 21
261.412
 31
0.0
  0
LINE
  5
516
330
1D
100
AcDbEntity
  8
0
100
AcDbLine
 10
117.265
 20
261.412
 30
0.0
 11
117.783
 21
260.182
 31
0.0
  0
LINE
  5
517
330
1D
100
AcDbEntity
  8
0
100
AcDbLine
 10
117.779330993868
 20
260.107897194331
 30
0.0
 11
117.783
 21
260.182
 31
0.0
  0
LINE
  5
518
330
1D
100
AcDbEntity
  8
0
100
AcDbLine
 10
117.783
 20
260.182
 30
0.0
 11
117.809
 21
260.038
 31
0.0
  0
LINE
  5
519
330
1D
100
AcDbEntity
  8
0
100
AcDbLine
 10
111.874
 20
259.141
 30
0.0
 11
111.9
 21
258.996
 31
0.0
  0
LINE
  5
51B
330
1D
100
AcDbEntity
  8
0
100
AcDbLine
 10
111.874
 20
259.141
 30
0.0
 11
111.941
 21
260.474
 31
0.0
  0
LINE
  5
51C
330
1D
100
AcDbEntity
  8
0
100
AcDbLine
 10
117.809
 20
260.038
 30
0.0
 11
117.884
 21
259.61
 31
0.0
  0
LINE
  5
51D
330
1D
100
AcDbEntity
  8
0
100
AcDbLine
 10
111.9
 20
258.996
 30
0.0
 11
111.975
 21
258.568
 31
0.0
  0
LINE
  5
51E
330
1D
100
AcDbEntity
  8
0
100
AcDbLine
 10
117.884
 20
259.61
 30
0.0
 11
125.701
 21
215.276
 31
0.0
  0
LINE
  5
51F
330
1D
100
AcDbEntity
  8
0
100
AcDbLine
 10
111.975
 20
258.568
 30
0.0
 11
119.793
 21
214.234
 31
0.0
  0
LINE
  5
520
330
1D
100
AcDbEntity
  8
0
100
AcDbLine
 10
147.968
 20
219.555812332097
 30
0.0
 11
155.063
 21
259.795
 31
0.0
  0
LINE
  5
521
330
1D
100
AcDbEntity
  8
0
100
AcDbLine
 10
105.445
 20
196.587
 30
0.0
 11
106.821
 21
194.203
 31
0.0
  0
LINE
  5
522
330
1D
100
AcDbEntity
  8
0
100
AcDbLine
 10
104.116
 20
198.889
 30
0.0
 11
105.445
 21
196.587
 31
0.0
  0
LINE
  5
523
330
1D
100
AcDbEntity
  8
0
100
AcDbLine
 10
114.08
 20
266.988
 30
0.0
 11
125.496
 21
268.491
 31
0.0
  0
LINE
  5
524
330
1D
100
AcDbEntity
  8
0
100
AcDbLine
 10
102.838
 20
264.496
 30
0.0
 11
114.08
 21
266.988
 31
0.0
  0
LINE
  5
525
330
1D
100
AcDbEntity
  8
0
100
AcDbLine
 10
125.496
 20
268.491
 30
0.0
 11
126.032
 21
268.514389429764
 31
0.0
  0
LINE
  5
526
330
1D
100
AcDbEntity
  8
0
100
AcDbLine
 10
52.1568
 20
238.113
 30
0.0
 11
61.2918
 21
245.122
 31
0.0
  0
LINE
  5
527
330
1D
100
AcDbEntity
  8
0
100
AcDbLine
 10
121.761
 20
193.871
 30
0.0
 11
123.322307737301
 21
194.21719625202
 31
0.0
  0
LINE
  5
528
330
1D
100
AcDbEntity
  8
0
100
AcDbLine
 10
17.3735
 20
192.782
 30
0.0
 11
22.6905
 21
202.996
 31
0.0
  0
LINE
  5
529
330
1D
100
AcDbEntity
  8
0
100
AcDbLine
 10
101.542
 20
269.332
 30
0.0
 11
113.21
 21
271.919
 31
0.0
  0
LINE
  5
52A
330
1D
100
AcDbEntity
  8
0
100
AcDbLine
 10
147.968
 20
268.514389429764
 30
0.0
 11
148.504
 21
268.491
 31
0.0
  0
LINE
  5
52B
330
1D
100
AcDbEntity
  8
0
100
AcDbLine
 10
113.21
 20
271.919
 30
0.0
 11
125.06
 21
273.479
 31
0.0
  0
LINE
  5
52C
330
1D
100
AcDbEntity
  8
0
100
AcDbLine
 10
74.0
 20
547.01
 30
0.0
 11
74.0
 21
565.0
 31
0.0
  0
LINE
  5
52D
330
1D
100
AcDbEntity
  8
0
100
AcDbLine
 10
74.0
 20
547.01
 30
0.0
 11
74.2446
 21
545.466
 31
0.0
  0
LINE
  5
52E
330
1D
100
AcDbEntity
  8
0
100
AcDbLine
 10
74.0
 20
565.0
 30
0.0
 11
74.1437
 21
565.0
 31
0.0
  0
LINE
  5
52F
330
1D
100
AcDbEntity
  8
0
100
AcDbLine
 10
74.0
 20
565.0
 30
0.0
 11
74.0
 21
547.01
 31
0.0
  0
LINE
  5
530
330
1D
100
AcDbEntity
  8
0
100
AcDbLine
 10
76.0537
 20
542.967
 30
0.0
 11
77.4433
 21
542.258
 31
0.0
  0
LINE
  5
531
330
1D
100
AcDbEntity
  8
0
100
AcDbLine
 10
74.2446
 20
545.466
 30
0.0
 11
74.9514
 21
544.073
 31
0.0
  0
LINE
  5
532
330
1D
100
AcDbEntity
  8
0
100
AcDbLine
 10
74.9514
 20
544.073
 30
0.0
 11
76.0537
 21
542.967
 31
0.0
  0
LINE
  5
533
330
1D
100
AcDbEntity
  8
0
100
AcDbLine
 10
74.1437
 20
565.0
 30
0.0
 11
74.8576
 21
565.0
 31
0.0
  0
LINE
  5
534
330
1D
100
AcDbEntity
  8
0
100
AcDbLine
 10
74.8576
 20
565.0
 30
0.0
 11
76.1335
 21
565.0
 31
0.0
  0
LINE
  5
536
330
1D
100
AcDbEntity
  8
0
100
AcDbLine
 10
79.1985
 20
542.013
 30
0.0
 11
79.9822
 21
542.013
 31
0.0
  0
LINE
  5
537
330
1D
100
AcDbEntity
  8
0
100
AcDbLine
 10
78.9704
 20
542.013
 30
0.0
 11
79.1985
 21
542.013
 31
0.0
  0
LINE
  5
538
330
1D
100
AcDbEntity
  8
0
100
AcDbLine
 10
77.4433
 20
542.258
 30
0.0
 11
78.9704
 21
542.013
 31
0.0
  0
LINE
  5
539
330
1D
100
AcDbEntity
  8
0
100
AcDbLine
 10
76.1335
 20
565.0
 30
0.0
 11
77.9597
 21
565.0
 31
0.0
  0
LINE
  5
53A
330
1D
100
AcDbEntity
  8
0
100
AcDbLine
 10
77.9597
 20
565.0
 30
0.0
 11
80.3222
 21
565.0
 31
0.0
  0
LINE
  5
53E
330
1D
100
AcDbEntity
  8
0
100
AcDbLine
 10
80.3222
 20
565.0
 30
0.0
 11
83.1967
 21
565.0
 31
0.0
  0
LINE
  5
53F
330
1D
100
AcDbEntity
  8
0
100
AcDbLine
 10
83.1967
 20
565.0
 30
0.0
 11
86.5591
 21
565.0
 31
0.0
  0
LINE
  5
541
330
1D
100
AcDbEntity
  8
0
100
AcDbLine
 10
94.5
 20
565.0
 30
0.0
 11
94.5
 21
630.0
 31
0.0
  0
LINE
  5
543
330
1D
100
AcDbEntity
  8
0
100
AcDbLine
 10
86.5591
 20
565.0
 30
0.0
 11
90.3781
 21
565.0
 31
0.0
  0
LINE
  5
544
330
1D
100
AcDbEntity
  8
0
100
AcDbLine
 10
90.3781
 20
565.0
 30
0.0
 11
94.6195
 21
565.0
 31
0.0
  0
LINE
  5
547
330
1D
100
AcDbEntity
  8
0
100
AcDbLine
 10
94.6195
 20
565.0
 30
0.0
 11
99.2449
 21
565.0
 31
0.0
  0
LINE
  5
548
330
1D
100
AcDbEntity
  8
0
100
AcDbLine
 10
99.2449
 20
565.0
 30
0.0
 11
104.212
 21
565.0
 31
0.0
  0
LINE
  5
54C
330
1D
100
AcDbEntity
  8
0
100
AcDbLine
 10
104.212
 20
565.0
 30
0.0
 11
109.476
 21
565.0
 31
0.0
  0
LINE
  5
54D
330
1D
100
AcDbEntity
  8
0
100
AcDbLine
 10
109.476
 20
565.0
 30
0.0
 11
114.99
 21
565.0
 31
0.0
  0
LINE
  5
54E
330
1D
100
AcDbEntity
  8
0
100
AcDbLine
 10
126.032
 20
487.519
 30
0.0
 11
126.032
 21
482.047
 31
0.0
  0
LINE
  5
54F
330
1D
100
AcDbEntity
  8
0
100
AcDbLine
 10
126.032
 20
487.519
 30
0.0
 11
126.032
 21
492.857
 31
0.0
  0
LINE
  5
550
330
1D
100
AcDbEntity
  8
0
100
AcDbLine
 10
126.032
 20
482.047
 30
0.0
 11
126.032
 21
487.519
 31
0.0
  0
LINE
  5
551
330
1D
100
AcDbEntity
  8
0
100
AcDbLine
 10
126.032
 20
482.047
 30
0.0
 11
126.032
 21
157.231
 31
0.0
  0
LINE
  5
552
330
1D
100
AcDbEntity
  8
0
100
AcDbLine
 10
126.032
 20
492.857
 30
0.0
 11
126.032
 21
487.519
 31
0.0
  0
LINE
  5
553
330
1D
100
AcDbEntity
  8
0
100
AcDbLine
 10
126.032
 20
492.857
 30
0.0
 11
126.032
 21
497.928
 31
0.0
  0
LINE
  5
554
330
1D
100
AcDbEntity
  8
0
100
AcDbLine
 10
126.032
 20
502.607
 30
0.0
 11
126.032
 21
506.782
 31
0.0
  0
LINE
  5
555
330
1D
100
AcDbEntity
  8
0
100
AcDbLine
 10
126.032
 20
502.607
 30
0.0
 11
126.032
 21
497.928
 31
0.0
  0
LINE
  5
556
330
1D
100
AcDbEntity
  8
0
100
AcDbLine
 10
126.032
 20
497.928
 30
0.0
 11
126.032
 21
502.607
 31
0.0
  0
LINE
  5
557
330
1D
100
AcDbEntity
  8
0
100
AcDbLine
 10
126.032
 20
497.928
 30
0.0
 11
126.032
 21
492.857
 31
0.0
  0
LINE
  5
558
330
1D
100
AcDbEntity
  8
0
100
AcDbLine
 10
126.032
 20
513.214
 30
0.0
 11
126.032
 21
515.315
 31
0.0
  0
LINE
  5
559
330
1D
100
AcDbEntity
  8
0
100
AcDbLine
 10
126.032
 20
513.214
 30
0.0
 11
126.032
 21
510.346
 31
0.0
  0
LINE
  5
55A
330
1D
100
AcDbEntity
  8
0
100
AcDbLine
 10
126.032
 20
510.346
 30
0.0
 11
126.032
 21
506.782
 31
0.0
  0
LINE
  5
55B
330
1D
100
AcDbEntity
  8
0
100
AcDbLine
 10
126.032
 20
510.346
 30
0.0
 11
126.032
 21
513.214
 31
0.0
  0
LINE
  5
55C
330
1D
100
AcDbEntity
  8
0
100
AcDbLine
 10
126.032
 20
506.782
 30
0.0
 11
126.032
 21
510.346
 31
0.0
  0
LINE
  5
55D
330
1D
100
AcDbEntity
  8
0
100
AcDbLine
 10
126.032
 20
506.782
 30
0.0
 11
126.032
 21
502.607
 31
0.0
  0
LINE
  5
55E
330
1D
100
AcDbEntity
  8
0
100
AcDbLine
 10
126.032
 20
515.315
 30
0.0
 11
126.032
 21
516.596
 31
0.0
  0
LINE
  5
55F
330
1D
100
AcDbEntity
  8
0
100
AcDbLine
 10
126.032
 20
515.315
 30
0.0
 11
126.032
 21
513.214
 31
0.0
  0
LINE
  5
560
330
1D
100
AcDbEntity
  8
0
100
AcDbLine
 10
126.032
 20
516.596
 30
0.0
 11
126.032
 21
517.027
 31
0.0
  0
LINE
  5
561
330
1D
100
AcDbEntity
  8
0
100
AcDbLine
 10
126.032
 20
516.596
 30
0.0
 11
126.032
 21
515.315
 31
0.0
  0
LINE
  5
562
330
1D
100
AcDbEntity
  8
0
100
AcDbLine
 10
124.785
 20
517.027
 30
0.0
 11
125.052
 21
514.482
 31
0.0
  0
LINE
  5
563
330
1D
100
AcDbEntity
  8
0
100
AcDbLine
 10
124.785
 20
517.027
 30
0.0
 11
124.785
 21
537.815
 31
0.0
  0
LINE
  5
564
330
1D
100
AcDbEntity
  8
0
100
AcDbLine
 10
125.052
 20
514.482
 30
0.0
 11
125.841
 21
512.048
 31
0.0
  0
LINE
  5
566
330
1D
100
AcDbEntity
  8
0
100
AcDbLine
 10
126.032
 20
517.027
 30
0.0
 11
126.032
 21
516.596
 31
0.0
  0
LINE
  5
568
330
1D
100
AcDbEntity
  8
0
100
AcDbLine
 10
126.222635079234
 20
518.968159772163
 30
0.0
 11
126.032
 21
517.003602649007
 31
0.0
  0
LINE
  5
56A
330
1D
100
AcDbEntity
  8
0
100
AcDbLine
 10
126.222635079234
 20
518.968159772163
 30
0.0
 11
126.427
 21
519.846
 31
0.0
  0
LINE
  5
576
330
1D
100
AcDbEntity
  8
0
100
AcDbLine
 10
124.785
 20
537.815
 30
0.0
 11
124.785
 21
517.027
 31
0.0
  0
LINE
  5
578
330
1D
100
AcDbEntity
  8
0
100
AcDbLine
 10
122.029
 20
541.617
 30
0.0
 11
123.141
 21
541.05
 31
0.0
  0
LINE
  5
57A
330
1D
100
AcDbEntity
  8
0
100
AcDbLine
 10
123.141
 20
541.05
 30
0.0
 11
124.024
 21
540.165
 31
0.0
  0
LINE
  5
580
330
1D
100
AcDbEntity
  8
0
100
AcDbLine
 10
124.59
 20
539.051
 30
0.0
 11
124.785
 21
537.815
 31
0.0
  0
LINE
  5
581
330
1D
100
AcDbEntity
  8
0
100
AcDbLine
 10
120.797
 20
541.813
 30
0.0
 11
122.029
 21
541.617
 31
0.0
  0
LINE
  5
584
330
1D
100
AcDbEntity
  8
0
100
AcDbLine
 10
126.427
 20
519.846
 30
0.0
 11
126.528321865097
 21
520.16667481515
 31
0.0
  0
LINE
  5
585
330
1D
100
AcDbEntity
  8
0
100
AcDbLine
 10
114.99
 20
565.0
 30
0.0
 11
120.702
 21
565.0
 31
0.0
  0
LINE
  5
586
330
1D
100
AcDbEntity
  8
0
100
AcDbLine
 10
120.702
 20
565.0
 30
0.0
 11
126.562
 21
565.0
 31
0.0
  0
LINE
  5
587
330
1D
100
AcDbEntity
  8
0
100
AcDbLine
 10
126.528321865097
 20
520.16667481515
 30
0.0
 11
128.126
 21
523.49
 31
0.0
  0
LINE
  5
58E
330
1D
100
AcDbEntity
  8
0
100
AcDbLine
 10
128.126
 20
523.49
 30
0.0
 11
130.553
 21
525.921
 31
0.0
  0
LINE
  5
592
330
1D
100
AcDbEntity
  8
0
100
AcDbLine
 10
130.553
 20
525.921
 30
0.0
 11
133.611
 21
527.483
 31
0.0
  0
LINE
  5
596
330
1D
100
AcDbEntity
  8
0
100
AcDbLine
 10
133.611
 20
527.483
 30
0.0
 11
137.0
 21
528.021
 31
0.0
  0
LINE
  5
598
330
1D
100
AcDbEntity
  8
0
100
AcDbLine
 10
137.0
 20
528.021
 30
0.0
 11
140.389
 21
527.482
 31
0.0
  0
LINE
  5
5A7
330
1D
100
AcDbEntity
  8
0
100
AcDbLine
 10
126.562
 20
565.0
 30
0.0
 11
132.517
 21
565.0
 31
0.0
  0
LINE
  5
5A8
330
1D
100
AcDbEntity
  8
0
100
AcDbLine
 10
132.517
 20
565.0
 30
0.0
 11
138.512
 21
565.0
 31
0.0
  0
LINE
  5
5A9
330
1D
100
AcDbEntity
  8
0
100
AcDbLine
 10
143.447
 20
525.921
 30
0.0
 11
145.874
 21
523.49
 31
0.0
  0
LINE
  5
5AC
330
1D
100
AcDbEntity
  8
0
100
AcDbLine
 10
145.874
 20
523.49
 30
0.0
 11
147.431
 21
520.424
 31
0.0
  0
LINE
  5
5AF
330
1D
100
AcDbEntity
  8
0
100
AcDbLine
 10
147.431
 20
520.424
 30
0.0
 11
147.968
 21
517.027
 31
0.0
  0
LINE
  5
5B3
330
1D
100
AcDbEntity
  8
0
100
AcDbLine
 10
147.968
 20
482.047
 30
0.0
 11
147.968
 21
487.519
 31
0.0
  0
LINE
  5
5B4
330
1D
100
AcDbEntity
  8
0
100
AcDbLine
 10
147.968
 20
482.047
 30
0.0
 11
147.968
 21
157.231
 31
0.0
  0
LINE
  5
5B5
330
1D
100
AcDbEntity
  8
0
100
AcDbLine
 10
147.968
 20
497.928
 30
0.0
 11
147.968
 21
492.857
 31
0.0
  0
LINE
  5
5B6
330
1D
100
AcDbEntity
  8
0
100
AcDbLine
 10
147.968
 20
497.928
 30
0.0
 11
147.968
 21
502.607
 31
0.0
  0
LINE
  5
5B7
330
1D
100
AcDbEntity
  8
0
100
AcDbLine
 10
147.968
 20
492.857
 30
0.0
 11
147.968
 21
487.519
 31
0.0
  0
LINE
  5
5B8
330
1D
100
AcDbEntity
  8
0
100
AcDbLine
 10
147.968
 20
492.857
 30
0.0
 11
147.968
 21
497.928
 31
0.0
  0
LINE
  5
5B9
330
1D
100
AcDbEntity
  8
0
100
AcDbLine
 10
147.968
 20
487.519
 30
0.0
 11
147.968
 21
482.047
 31
0.0
  0
LINE
  5
5BA
330
1D
100
AcDbEntity
  8
0
100
AcDbLine
 10
147.968
 20
487.519
 30
0.0
 11
147.968
 21
492.857
 31
0.0
  0
LINE
  5
5BB
330
1D
100
AcDbEntity
  8
0
100
AcDbLine
 10
147.968
 20
502.607
 30
0.0
 11
147.968
 21
506.782
 31
0.0
  0
LINE
  5
5BC
330
1D
100
AcDbEntity
  8
0
100
AcDbLine
 10
147.968
 20
502.607
 30
0.0
 11
147.968
 21
497.928
 31
0.0
  0
LINE
  5
5BD
330
1D
100
AcDbEntity
  8
0
100
AcDbLine
 10
147.968
 20
506.782
 30
0.0
 11
147.968
 21
510.346
 31
0.0
  0
LINE
  5
5BE
330
1D
100
AcDbEntity
  8
0
100
AcDbLine
 10
147.968
 20
506.782
 30
0.0
 11
147.968
 21
502.607
 31
0.0
  0
LINE
  5
5BF
330
1D
100
AcDbEntity
  8
0
100
AcDbLine
 10
147.968
 20
515.315
 30
0.0
 11
147.968
 21
513.214
 31
0.0
  0
LINE
  5
5C0
330
1D
100
AcDbEntity
  8
0
100
AcDbLine
 10
147.968
 20
515.315
 30
0.0
 11
147.968
 21
516.596
 31
0.0
  0
LINE
  5
5C1
330
1D
100
AcDbEntity
  8
0
100
AcDbLine
 10
147.968
 20
513.214
 30
0.0
 11
147.968
 21
515.315
 31
0.0
  0
LINE
  5
5C2
330
1D
100
AcDbEntity
  8
0
100
AcDbLine
 10
147.968
 20
513.214
 30
0.0
 11
147.968
 21
510.346
 31
0.0
  0
LINE
  5
5C3
330
1D
100
AcDbEntity
  8
0
100
AcDbLine
 10
147.968
 20
510.346
 30
0.0
 11
147.968
 21
513.214
 31
0.0
  0
LINE
  5
5C4
330
1D
100
AcDbEntity
  8
0
100
AcDbLine
 10
147.968
 20
510.346
 30
0.0
 11
147.968
 21
506.782
 31
0.0
  0
LINE
  5
5C5
330
1D
100
AcDbEntity
  8
0
100
AcDbLine
 10
147.968
 20
517.027
 30
0.0
 11
147.968
 21
516.596
 31
0.0
  0
LINE
  5
5C6
330
1D
100
AcDbEntity
  8
0
100
AcDbLine
 10
147.968
 20
516.596
 30
0.0
 11
147.968
 21
517.027
 31
0.0
  0
LINE
  5
5C7
330
1D
100
AcDbEntity
  8
0
100
AcDbLine
 10
147.968
 20
516.596
 30
0.0
 11
147.968
 21
515.315
 31
0.0
  0
LINE
  5
5D4
330
1D
100
AcDbEntity
  8
0
100
AcDbLine
 10
140.389
 20
527.482
 30
0.0
 11
143.447
 21
525.921
 31
0.0
  0
LINE
  5
5DE
330
1D
100
AcDbEntity
  8
0
100
AcDbLine
 10
138.512
 20
565.0
 30
0.0
 11
144.493
 21
565.0
 31
0.0
  0
LINE
  5
5DF
330
1D
100
AcDbEntity
  8
0
100
AcDbLine
 10
79.0
 20
631.0
 30
0.0
 11
79.0
 21
631.468
 31
0.0
  0
LINE
  5
5E0
330
1D
100
AcDbEntity
  8
0
100
AcDbLine
 10
79.0
 20
631.0
 30
0.0
 11
95.0
 21
631.0
 31
0.0
  0
LINE
  5
5E1
330
1D
100
AcDbEntity
  8
0
100
AcDbLine
 10
79.0
 20
631.468
 30
0.0
 11
79.0
 21
632.716
 31
0.0
  0
LINE
  5
5E2
330
1D
100
AcDbEntity
  8
0
100
AcDbLine
 10
79.0
 20
631.468
 30
0.0
 11
79.0
 21
631.0
 31
0.0
  0
LINE
  5
5E3
330
1D
100
AcDbEntity
  8
0
100
AcDbLine
 10
79.0
 20
632.8571
 30
0.0
 11
79.0
 21
633.2583
 31
0.0
  0
LINE
  5
5E4
330
1D
100
AcDbEntity
  8
0
100
AcDbLine
 10
79.0
 20
633.2583
 30
0.0
 11
79.0
 21
632.8571
 31
0.0
  0
LINE
  5
5E5
330
1D
100
AcDbEntity
  8
0
100
AcDbLine
 10
79.0
 20
633.2583
 30
0.0
 11
79.0
 21
634.328
 31
0.0
  0
LINE
  5
5E6
330
1D
100
AcDbEntity
  8
0
100
AcDbLine
 10
79.0
 20
634.328
 30
0.0
 11
79.0
 21
633.2583
 31
0.0
  0
LINE
  5
5E7
330
1D
100
AcDbEntity
  8
0
100
AcDbLine
 10
79.0
 20
634.328
 30
0.0
 11
79.0
 21
636.1109
 31
0.0
  0
LINE
  5
5E8
330
1D
100
AcDbEntity
  8
0
100
AcDbLine
 10
79.0
 20
636.1109
 30
0.0
 11
79.0
 21
634.328
 31
0.0
  0
LINE
  5
5E9
330
1D
100
AcDbEntity
  8
0
100
AcDbLine
 10
79.0
 20
636.1109
 30
0.0
 11
79.0
 21
638.4731
 31
0.0
  0
LINE
  5
5EA
330
1D
100
AcDbEntity
  8
0
100
AcDbLine
 10
79.0
 20
632.716
 30
0.0
 11
79.0
 21
634.796
 31
0.0
  0
LINE
  5
5EB
330
1D
100
AcDbEntity
  8
0
100
AcDbLine
 10
79.0
 20
632.716
 30
0.0
 11
79.0
 21
631.468
 31
0.0
  0
LINE
  5
5EC
330
1D
100
AcDbEntity
  8
0
100
AcDbLine
 10
79.0
 20
634.796
 30
0.0
 11
79.0
 21
637.552
 31
0.0
  0
LINE
  5
5ED
330
1D
100
AcDbEntity
  8
0
100
AcDbLine
 10
79.0
 20
634.796
 30
0.0
 11
79.0
 21
632.716
 31
0.0
  0
LINE
  5
5EE
330
1D
100
AcDbEntity
  8
0
100
AcDbLine
 10
79.0
 20
638.4731
 30
0.0
 11
79.0
 21
636.1109
 31
0.0
  0
LINE
  5
5EF
330
1D
100
AcDbEntity
  8
0
100
AcDbLine
 10
79.0
 20
638.4731
 30
0.0
 11
79.0
 21
641.1474
 31
0.0
  0
LINE
  5
5F0
330
1D
100
AcDbEntity
  8
0
100
AcDbLine
 10
79.0
 20
641.1474
 30
0.0
 11
79.0
 21
638.4731
 31
0.0
  0
LINE
  5
5F1
330
1D
100
AcDbEntity
  8
0
100
AcDbLine
 10
79.0
 20
641.1474
 30
0.0
 11
79.0
 21
644.0
 31
0.0
  0
LINE
  5
5F2
330
1D
100
AcDbEntity
  8
0
100
AcDbLine
 10
79.0
 20
637.552
 30
0.0
 11
79.0
 21
640.672
 31
0.0
  0
LINE
  5
5F3
330
1D
100
AcDbEntity
  8
0
100
AcDbLine
 10
79.0
 20
637.552
 30
0.0
 11
79.0
 21
634.796
 31
0.0
  0
LINE
  5
5F4
330
1D
100
AcDbEntity
  8
0
100
AcDbLine
 10
79.0
 20
640.672
 30
0.0
 11
79.0
 21
644.0
 31
0.0
  0
LINE
  5
5F5
330
1D
100
AcDbEntity
  8
0
100
AcDbLine
 10
79.0
 20
640.672
 30
0.0
 11
79.0
 21
637.552
 31
0.0
  0
LINE
  5
5F6
330
1D
100
AcDbEntity
  8
0
100
AcDbLine
 10
79.0
 20
648.0
 30
0.0
 11
79.0
 21
647.328
 31
0.0
  0
LINE
  5
5F7
330
1D
100
AcDbEntity
  8
0
100
AcDbLine
 10
79.0
 20
648.0
 30
0.0
 11
79.0
 21
646.8526
 31
0.0
  0
LINE
  5
5F8
330
1D
100
AcDbEntity
  8
0
100
AcDbLine
 10
79.0
 20
647.328
 30
0.0
 11
79.0
 21
644.0
 31
0.0
  0
LINE
  5
5F9
330
1D
100
AcDbEntity
  8
0
100
AcDbLine
 10
79.0
 20
647.328
 30
0.0
 11
79.0
 21
648.0
 31
0.0
  0
LINE
  5
5FA
330
1D
100
AcDbEntity
  8
0
100
AcDbLine
 10
79.0
 20
646.8526
 30
0.0
 11
79.0
 21
648.0
 31
0.0
  0
LINE
  5
5FB
330
1D
100
AcDbEntity
  8
0
100
AcDbLine
 10
79.0
 20
646.8526
 30
0.0
 11
79.0
 21
644.0
 31
0.0
  0
LINE
  5
5FC
330
1D
100
AcDbEntity
  8
0
100
AcDbLine
 10
79.0
 20
644.0
 30
0.0
 11
79.0
 21
646.8526
 31
0.0
  0
LINE
  5
5FD
330
1D
100
AcDbEntity
  8
0
100
AcDbLine
 10
79.0
 20
644.0
 30
0.0
 11
79.0
 21
647.328
 31
0.0
  0
LINE
  5
5FE
330
1D
100
AcDbEntity
  8
0
100
AcDbLine
 10
79.0
 20
644.0
 30
0.0
 11
79.0
 21
641.1474
 31
0.0
  0
LINE
  5
5FF
330
1D
100
AcDbEntity
  8
0
100
AcDbLine
 10
79.0
 20
644.0
 30
0.0
 11
79.0
 21
640.672
 31
0.0
  0
LINE
  5
600
330
1D
100
AcDbEntity
  8
0
100
AcDbLine
 10
77.0
 20
648.0
 30
0.0
 11
77.324
 21
648.0
 31
0.0
  0
LINE
  5
601
330
1D
100
AcDbEntity
  8
0
100
AcDbLine
 10
77.0
 20
648.0
 30
0.0
 11
77.0
 21
658.0
 31
0.0
  0
LINE
  5
602
330
1D
100
AcDbEntity
  8
0
100
AcDbLine
 10
80.0
 20
648.0
 30
0.0
 11
80.216
 21
648.0
 31
0.0
  0
LINE
  5
603
330
1D
100
AcDbEntity
  8
0
100
AcDbLine
 10
77.324
 20
648.0
 30
0.0
 11
78.188
 21
648.0
 31
0.0
  0
LINE
  5
604
330
1D
100
AcDbEntity
  8
0
100
AcDbLine
 10
80.216
 20
648.0
 30
0.0
 11
80.792
 21
648.0
 31
0.0
  0
LINE
  5
605
330
1D
100
AcDbEntity
  8
0
100
AcDbLine
 10
78.188
 20
648.0
 30
0.0
 11
79.628
 21
648.0
 31
0.0
  0
LINE
  5
606
330
1D
100
AcDbEntity
  8
0
100
AcDbLine
 10
78.188
 20
648.0
 30
0.0
 11
79.0
 21
648.0
 31
0.0
  0
LINE
  5
607
330
1D
100
AcDbEntity
  8
0
100
AcDbLine
 10
80.792
 20
648.0
 30
0.0
 11
81.752
 21
648.0
 31
0.0
  0
LINE
  5
608
330
1D
100
AcDbEntity
  8
0
100
AcDbLine
 10
79.628
 20
648.0
 30
0.0
 11
81.536
 21
648.0
 31
0.0
  0
LINE
  5
609
330
1D
100
AcDbEntity
  8
0
100
AcDbLine
 10
81.752
 20
648.0
 30
0.0
 11
83.024
 21
648.0
 31
0.0
  0
LINE
  5
60A
330
1D
100
AcDbEntity
  8
0
100
AcDbLine
 10
81.536
 20
648.0
 30
0.0
 11
83.696
 21
648.0
 31
0.0
  0
LINE
  5
60B
330
1D
100
AcDbEntity
  8
0
100
AcDbLine
 10
83.024
 20
648.0
 30
0.0
 11
84.464
 21
648.0
 31
0.0
  0
LINE
  5
60C
330
1D
100
AcDbEntity
  8
0
100
AcDbLine
 10
83.696
 20
658.0
 30
0.0
 11
86.0
 21
658.0
 31
0.0
  0
LINE
  5
60D
330
1D
100
AcDbEntity
  8
0
100
AcDbLine
 10
81.536
 20
658.0
 30
0.0
 11
83.696
 21
658.0
 31
0.0
  0
LINE
  5
60E
330
1D
100
AcDbEntity
  8
0
100
AcDbLine
 10
79.628
 20
658.0
 30
0.0
 11
81.536
 21
658.0
 31
0.0
  0
LINE
  5
60F
330
1D
100
AcDbEntity
  8
0
100
AcDbLine
 10
78.188
 20
658.0
 30
0.0
 11
79.628
 21
658.0
 31
0.0
  0
LINE
  5
610
330
1D
100
AcDbEntity
  8
0
100
AcDbLine
 10
77.324
 20
658.0
 30
0.0
 11
78.188
 21
658.0
 31
0.0
  0
LINE
  5
611
330
1D
100
AcDbEntity
  8
0
100
AcDbLine
 10
77.0
 20
658.0
 30
0.0
 11
77.0
 21
648.0
 31
0.0
  0
LINE
  5
612
330
1D
100
AcDbEntity
  8
0
100
AcDbLine
 10
77.0
 20
658.0
 30
0.0
 11
77.324
 21
658.0
 31
0.0
  0
LINE
  5
613
330
1D
100
AcDbEntity
  8
0
100
AcDbLine
 10
83.696
 20
648.0
 30
0.0
 11
86.0
 21
648.0
 31
0.0
  0
LINE
  5
614
330
1D
100
AcDbEntity
  8
0
100
AcDbLine
 10
87.536
 20
648.0
 30
0.0
 11
88.976
 21
648.0
 31
0.0
  0
LINE
  5
615
330
1D
100
AcDbEntity
  8
0
100
AcDbLine
 10
86.0
 20
648.0
 30
0.0
 11
88.304
 21
648.0
 31
0.0
  0
LINE
  5
616
330
1D
100
AcDbEntity
  8
0
100
AcDbLine
 10
86.0
 20
648.0
 30
0.0
 11
87.536
 21
648.0
 31
0.0
  0
LINE
  5
617
330
1D
100
AcDbEntity
  8
0
100
AcDbLine
 10
86.0
 20
648.0
 30
0.0
 11
95.0
 21
648.0
 31
0.0
  0
LINE
  5
618
330
1D
100
AcDbEntity
  8
0
100
AcDbLine
 10
86.0
 20
658.0
 30
0.0
 11
88.304
 21
658.0
 31
0.0
  0
LINE
  5
619
330
1D
100
AcDbEntity
  8
0
100
AcDbLine
 10
88.976
 20
648.0
 30
0.0
 11
90.248
 21
648.0
 31
0.0
  0
LINE
  5
61A
330
1D
100
AcDbEntity
  8
0
100
AcDbLine
 10
90.248
 20
648.0
 30
0.0
 11
91.208
 21
648.0
 31
0.0
  0
LINE
  5
61B
330
1D
100
AcDbEntity
  8
0
100
AcDbLine
 10
88.304
 20
648.0
 30
0.0
 11
90.464
 21
648.0
 31
0.0
  0
LINE
  5
61C
330
1D
100
AcDbEntity
  8
0
100
AcDbLine
 10
88.304
 20
658.0
 30
0.0
 11
90.464
 21
658.0
 31
0.0
  0
LINE
  5
61D
330
1D
100
AcDbEntity
  8
0
100
AcDbLine
 10
84.464
 20
648.0
 30
0.0
 11
86.0
 21
648.0
 31
0.0
  0
LINE
  5
61E
330
1D
100
AcDbEntity
  8
0
100
AcDbLine
 10
90.464
 20
658.0
 30
0.0
 11
98.0
 21
658.0
 31
0.0
  0
LINE
  5
61F
330
1D
100
AcDbEntity
  8
0
100
AcDbLine
 10
90.464
 20
658.0
 30
0.0
 11
90.464
 21
648.0
 31
0.0
  0
LINE
  5
620
330
1D
100
AcDbEntity
  8
0
100
AcDbLine
 10
91.208
 20
648.0
 30
0.0
 11
91.784
 21
648.0
 31
0.0
  0
LINE
  5
621
330
1D
100
AcDbEntity
  8
0
100
AcDbLine
 10
91.784
 20
648.0
 30
0.0
 11
92.0
 21
648.0
 31
0.0
  0
LINE
  5
622
330
1D
100
AcDbEntity
  8
0
100
AcDbLine
 10
90.464
 20
648.0
 30
0.0
 11
90.464
 21
658.0
 31
0.0
  0
LINE
  5
623
330
1D
100
AcDbEntity
  8
0
100
AcDbLine
 10
90.464
 20
648.0
 30
0.0
 11
99.188
 21
648.0
 31
0.0
  0
LINE
  5
624
330
1D
100
AcDbEntity
  8
0
100
AcDbLine
 10
94.5
 20
597.5
 30
0.0
 11
94.932
 21
597.5
 31
0.0
  0
LINE
  5
625
330
1D
100
AcDbEntity
  8
0
100
AcDbLine
 10
94.932
 20
597.5
 30
0.0
 11
96.084
 21
597.5
 31
0.0
  0
LINE
  5
626
330
1D
100
AcDbEntity
  8
0
100
AcDbLine
 10
96.084
 20
597.5
 30
0.0
 11
98.004
 21
597.5
 31
0.0
  0
LINE
  5
627
330
1D
100
AcDbEntity
  8
0
100
AcDbLine
 10
95.0
 20
630.0
 30
0.0
 11
95.0
 21
648.0
 31
0.0
  0
LINE
  5
628
330
1D
100
AcDbEntity
  8
0
100
AcDbLine
 10
95.0
 20
630.0
 30
0.0
 11
95.0
 21
631.0
 31
0.0
  0
LINE
  5
629
330
1D
100
AcDbEntity
  8
0
100
AcDbLine
 10
98.004
 20
597.5
 30
0.0
 11
100.548
 21
597.5
 31
0.0
  0
LINE
  5
62A
330
1D
100
AcDbEntity
  8
0
100
AcDbLine
 10
94.932
 20
630.0
 30
0.0
 11
96.084
 21
630.0
 31
0.0
  0
LINE
  5
62B
330
1D
100
AcDbEntity
  8
0
100
AcDbLine
 10
96.084
 20
630.0
 30
0.0
 11
98.004
 21
630.0
 31
0.0
  0
LINE
  5
62C
330
1D
100
AcDbEntity
  8
0
100
AcDbLine
 10
100.548
 20
597.5
 30
0.0
 11
103.428
 21
597.5
 31
0.0
  0
LINE
  5
62E
330
1D
100
AcDbEntity
  8
0
100
AcDbLine
 10
98.6758
 20
630.0
 30
0.0
 11
98.6758
 21
648.0
 31
0.0
  0
LINE
  5
62F
330
1D
100
AcDbEntity
  8
0
100
AcDbLine
 10
103.428
 20
597.5
 30
0.0
 11
106.5
 21
597.5
 31
0.0
  0
LINE
  5
630
330
1D
100
AcDbEntity
  8
0
100
AcDbLine
 10
98.004
 20
630.0
 30
0.0
 11
100.548
 21
630.0
 31
0.0
  0
LINE
  5
631
330
1D
100
AcDbEntity
  8
0
100
AcDbLine
 10
100.548
 20
630.0
 30
0.0
 11
103.428
 21
630.0
 31
0.0
  0
LINE
  5
632
330
1D
100
AcDbEntity
  8
0
100
AcDbLine
 10
121.0
 20
630.0
 30
0.0
 11
121.0
 21
648.0
 31
0.0
  0
LINE
  5
633
330
1D
100
AcDbEntity
  8
0
100
AcDbLine
 10
106.5
 20
597.5
 30
0.0
 11
167.5
 21
597.5
 31
0.0
  0
LINE
  5
634
330
1D
100
AcDbEntity
  8
0
100
AcDbLine
 10
103.428
 20
630.0
 30
0.0
 11
106.5
 21
630.0
 31
0.0
  0
LINE
  5
635
330
1D
100
AcDbEntity
  8
0
100
AcDbLine
 10
95.0
 20
631.0
 30
0.0
 11
95.0
 21
630.0
 31
0.0
  0
LINE
  5
636
330
1D
100
AcDbEntity
  8
0
100
AcDbLine
 10
95.0
 20
648.0
 30
0.0
 11
97.71
 21
648.0
 31
0.0
  0
LINE
  5
637
330
1D
100
AcDbEntity
  8
0
100
AcDbLine
 10
95.0
 20
648.0
 30
0.0
 11
95.0
 21
630.0
 31
0.0
  0
LINE
  5
638
330
1D
100
AcDbEntity
  8
0
100
AcDbLine
 10
97.71
 20
648.0
 30
0.0
 11
98.6758
 21
648.0
 31
0.0
  0
LINE
  5
639
330
1D
100
AcDbEntity
  8
0
100
AcDbLine
 10
98.6758
 20
648.0
 30
0.0
 11
99.2
 21
648.0
 31
0.0
  0
LINE
  5
63A
330
1D
100
AcDbEntity
  8
0
100
AcDbLine
 10
98.6758
 20
648.0
 30
0.0
 11
98.6758
 21
630.0
 31
0.0
  0
LINE
  5
63C
330
1D
100
AcDbEntity
  8
0
100
AcDbLine
 10
99.8554
 20
648.0
 30
0.0
 11
104.8754
 21
648.0
 31
0.0
  0
LINE
  5
63D
330
1D
100
AcDbEntity
  8
0
100
AcDbLine
 10
99.2
 20
648.0
 30
0.0
 11
99.8554
 21
648.0
 31
0.0
  0
LINE
  5
63E
330
1D
100
AcDbEntity
  8
0
100
AcDbLine
 10
100.628
 20
648.0
 30
0.0
 11
102.536
 21
648.0
 31
0.0
  0
LINE
  5
63F
330
1D
100
AcDbEntity
  8
0
100
AcDbLine
 10
99.188
 20
648.0
 30
0.0
 11
100.628
 21
648.0
 31
0.0
  0
LINE
  5
640
330
1D
100
AcDbEntity
  8
0
100
AcDbLine
 10
98.324
 20
648.0
 30
0.0
 11
99.188
 21
648.0
 31
0.0
  0
LINE
  5
641
330
1D
100
AcDbEntity
  8
0
100
AcDbLine
 10
104.8754
 20
648.0
 30
0.0
 11
109.8955
 21
648.0
 31
0.0
  0
LINE
  5
642
330
1D
100
AcDbEntity
  8
0
100
AcDbLine
 10
107.0
 20
648.0
 30
0.0
 11
109.304
 21
648.0
 31
0.0
  0
LINE
  5
643
330
1D
100
AcDbEntity
  8
0
100
AcDbLine
 10
107.0
 20
648.0
 30
0.0
 11
108.536
 21
648.0
 31
0.0
  0
LINE
  5
644
330
1D
100
AcDbEntity
  8
0
100
AcDbLine
 10
108.536
 20
648.0
 30
0.0
 11
109.976
 21
648.0
 31
0.0
  0
LINE
  5
645
330
1D
100
AcDbEntity
  8
0
100
AcDbLine
 10
109.8955
 20
648.0
 30
0.0
 11
114.2397
 21
648.0
 31
0.0
  0
LINE
  5
646
330
1D
100
AcDbEntity
  8
0
100
AcDbLine
 10
109.304
 20
648.0
 30
0.0
 11
111.464
 21
648.0
 31
0.0
  0
LINE
  5
647
330
1D
100
AcDbEntity
  8
0
100
AcDbLine
 10
109.976
 20
648.0
 30
0.0
 11
111.248
 21
648.0
 31
0.0
  0
LINE
  5
648
330
1D
100
AcDbEntity
  8
0
100
AcDbLine
 10
111.464
 20
648.0
 30
0.0
 11
113.372
 21
648.0
 31
0.0
  0
LINE
  5
649
330
1D
100
AcDbEntity
  8
0
100
AcDbLine
 10
111.248
 20
648.0
 30
0.0
 11
112.208
 21
648.0
 31
0.0
  0
LINE
  5
64A
330
1D
100
AcDbEntity
  8
0
100
AcDbLine
 10
114.2397
 20
648.0
 30
0.0
 11
117.4255
 21
648.0
 31
0.0
  0
LINE
  5
64B
330
1D
100
AcDbEntity
  8
0
100
AcDbLine
 10
113.372
 20
648.0
 30
0.0
 11
114.812
 21
648.0
 31
0.0
  0
LINE
  5
64C
330
1D
100
AcDbEntity
  8
0
100
AcDbLine
 10
112.208
 20
648.0
 30
0.0
 11
112.784
 21
648.0
 31
0.0
  0
LINE
  5
64D
330
1D
100
AcDbEntity
  8
0
100
AcDbLine
 10
114.812
 20
648.0
 30
0.0
 11
115.676
 21
648.0
 31
0.0
  0
LINE
  5
64E
330
1D
100
AcDbEntity
  8
0
100
AcDbLine
 10
112.784
 20
648.0
 30
0.0
 11
113.0
 21
648.0
 31
0.0
  0
LINE
  5
650
330
1D
100
AcDbEntity
  8
0
100
AcDbLine
 10
133.724
 20
631.78
 30
0.0
 11
137.0
 21
631.312
 31
0.0
  0
LINE
  5
651
330
1D
100
AcDbEntity
  8
0
100
AcDbLine
 10
130.708
 20
633.028
 30
0.0
 11
133.724
 21
631.78
 31
0.0
  0
LINE
  5
652
330
1D
100
AcDbEntity
  8
0
100
AcDbLine
 10
128.056
 20
635.056
 30
0.0
 11
130.708
 21
633.028
 31
0.0
  0
LINE
  5
653
330
1D
100
AcDbEntity
  8
0
100
AcDbLine
 10
126.028
 20
637.708
 30
0.0
 11
128.056
 21
635.056
 31
0.0
  0
LINE
  5
654
330
1D
100
AcDbEntity
  8
0
100
AcDbLine
 10
124.78
 20
640.724
 30
0.0
 11
126.028
 21
637.708
 31
0.0
  0
LINE
  5
656
330
1D
100
AcDbEntity
  8
0
100
AcDbLine
 10
124.78
 20
647.276
 30
0.0
 11
126.028
 21
650.292
 31
0.0
  0
LINE
  5
657
330
1D
100
AcDbEntity
  8
0
100
AcDbLine
 10
124.312
 20
644.0
 30
0.0
 11
124.78
 21
640.724
 31
0.0
  0
LINE
  5
658
330
1D
100
AcDbEntity
  8
0
100
AcDbLine
 10
124.312
 20
644.0
 30
0.0
 11
124.78
 21
647.276
 31
0.0
  0
LINE
  5
659
330
1D
100
AcDbEntity
  8
0
100
AcDbLine
 10
137.0
 20
631.312
 30
0.0
 11
140.276
 21
631.78
 31
0.0
  0
LINE
  5
65A
330
1D
100
AcDbEntity
  8
0
100
AcDbLine
 10
121.0
 20
648.0
 30
0.0
 11
121.0
 21
630.0
 31
0.0
  0
LINE
  5
65B
330
1D
100
AcDbEntity
  8
0
100
AcDbLine
 10
121.0
 20
648.0
 30
0.0
 11
124.7368
 21
648.0
 31
0.0
  0
LINE
  5
65C
330
1D
100
AcDbEntity
  8
0
100
AcDbLine
 10
117.4255
 20
648.0
 30
0.0
 11
121.0
 21
648.0
 31
0.0
  0
LINE
  5
65D
330
1D
100
AcDbEntity
  8
0
100
AcDbLine
 10
116.0
 20
648.0
 30
0.0
 11
124.7368
 21
648.0
 31
0.0
  0
LINE
  5
65E
330
1D
100
AcDbEntity
  8
0
100
AcDbLine
 10
115.676
 20
648.0
 30
0.0
 11
116.0
 21
648.0
 31
0.0
  0
LINE
  5
65F
330
1D
100
AcDbEntity
  8
0
100
AcDbLine
 10
105.464
 20
648.0
 30
0.0
 11
107.0
 21
648.0
 31
0.0
  0
LINE
  5
660
330
1D
100
AcDbEntity
  8
0
100
AcDbLine
 10
104.696
 20
648.0
 30
0.0
 11
107.0
 21
648.0
 31
0.0
  0
LINE
  5
661
330
1D
100
AcDbEntity
  8
0
100
AcDbLine
 10
104.024
 20
648.0
 30
0.0
 11
105.464
 21
648.0
 31
0.0
  0
LINE
  5
662
330
1D
100
AcDbEntity
  8
0
100
AcDbLine
 10
102.536
 20
648.0
 30
0.0
 11
104.696
 21
648.0
 31
0.0
  0
LINE
  5
663
330
1D
100
AcDbEntity
  8
0
100
AcDbLine
 10
102.752
 20
648.0
 30
0.0
 11
104.024
 21
648.0
 31
0.0
  0
LINE
  5
664
330
1D
100
AcDbEntity
  8
0
100
AcDbLine
 10
101.792
 20
648.0
 30
0.0
 11
102.752
 21
648.0
 31
0.0
  0
LINE
  5
665
330
1D
100
AcDbEntity
  8
0
100
AcDbLine
 10
101.216
 20
648.0
 30
0.0
 11
101.792
 21
648.0
 31
0.0
  0
LINE
  5
666
330
1D
100
AcDbEntity
  8
0
100
AcDbLine
 10
101.0
 20
648.0
 30
0.0
 11
101.216
 21
648.0
 31
0.0
  0
LINE
  5
667
330
1D
100
AcDbEntity
  8
0
100
AcDbLine
 10
107.0
 20
658.0
 30
0.0
 11
109.304
 21
658.0
 31
0.0
  0
LINE
  5
668
330
1D
100
AcDbEntity
  8
0
100
AcDbLine
 10
109.304
 20
658.0
 30
0.0
 11
111.464
 21
658.0
 31
0.0
  0
LINE
  5
669
330
1D
100
AcDbEntity
  8
0
100
AcDbLine
 10
111.464
 20
658.0
 30
0.0
 11
113.372
 21
658.0
 31
0.0
  0
LINE
  5
66A
330
1D
100
AcDbEntity
  8
0
100
AcDbLine
 10
113.372
 20
658.0
 30
0.0
 11
114.812
 21
658.0
 31
0.0
  0
LINE
  5
66B
330
1D
100
AcDbEntity
  8
0
100
AcDbLine
 10
114.812
 20
658.0
 30
0.0
 11
115.676
 21
658.0
 31
0.0
  0
LINE
  5
670
330
1D
100
AcDbEntity
  8
0
100
AcDbLine
 10
133.724
 20
656.22
 30
0.0
 11
137.0
 21
656.688
 31
0.0
  0
LINE
  5
671
330
1D
100
AcDbEntity
  8
0
100
AcDbLine
 10
130.708
 20
654.972
 30
0.0
 11
133.724
 21
656.22
 31
0.0
  0
LINE
  5
672
330
1D
100
AcDbEntity
  8
0
100
AcDbLine
 10
128.056
 20
652.944
 30
0.0
 11
130.708
 21
654.972
 31
0.0
  0
LINE
  5
673
330
1D
100
AcDbEntity
  8
0
100
AcDbLine
 10
126.028
 20
650.292
 30
0.0
 11
128.056
 21
652.944
 31
0.0
  0
LINE
  5
675
330
1D
100
AcDbEntity
  8
0
100
AcDbLine
 10
137.0
 20
656.688
 30
0.0
 11
140.276
 21
656.22
 31
0.0
  0
LINE
  5
676
330
1D
100
AcDbEntity
  8
0
100
AcDbLine
 10
116.0
 20
658.0
 30
0.0
 11
137.0
 21
658.0
 31
0.0
  0
LINE
  5
677
330
1D
100
AcDbEntity
  8
0
100
AcDbLine
 10
115.676
 20
658.0
 30
0.0
 11
116.0
 21
658.0
 31
0.0
  0
LINE
  5
678
330
1D
100
AcDbEntity
  8
0
100
AcDbLine
 10
104.696
 20
658.0
 30
0.0
 11
107.0
 21
658.0
 31
0.0
  0
LINE
  5
679
330
1D
100
AcDbEntity
  8
0
100
AcDbLine
 10
102.536
 20
658.0
 30
0.0
 11
104.696
 21
658.0
 31
0.0
  0
LINE
  5
67A
330
1D
100
AcDbEntity
  8
0
100
AcDbLine
 10
100.628
 20
658.0
 30
0.0
 11
102.536
 21
658.0
 31
0.0
  0
LINE
  5
67B
330
1D
100
AcDbEntity
  8
0
100
AcDbLine
 10
99.188
 20
658.0
 30
0.0
 11
100.628
 21
658.0
 31
0.0
  0
LINE
  5
67C
330
1D
100
AcDbEntity
  8
0
100
AcDbLine
 10
98.324
 20
658.0
 30
0.0
 11
99.188
 21
658.0
 31
0.0
  0
LINE
  5
67D
330
1D
100
AcDbEntity
  8
0
100
AcDbLine
 10
98.0
 20
658.0
 30
0.0
 11
98.324
 21
658.0
 31
0.0
  0
LINE
  5
67E
330
1D
100
AcDbEntity
  8
0
100
AcDbLine
 10
98.0
 20
658.0
 30
0.0
 11
98.0
 21
648.0
 31
0.0
  0
LINE
  5
67F
330
1D
100
AcDbEntity
  8
0
100
AcDbLine
 10
98.0
 20
648.0
 30
0.0
 11
98.324
 21
648.0
 31
0.0
  0
LINE
  5
680
330
1D
100
AcDbEntity
  8
0
100
AcDbLine
 10
98.0
 20
648.0
 30
0.0
 11
98.0
 21
658.0
 31
0.0
  0
LINE
  5
681
330
1D
100
AcDbEntity
  8
0
100
AcDbLine
 10
140.276
 20
631.78
 30
0.0
 11
143.292
 21
633.028
 31
0.0
  0
LINE
  5
682
330
1D
100
AcDbEntity
  8
0
100
AcDbLine
 10
143.292
 20
633.028
 30
0.0
 11
145.944
 21
635.056
 31
0.0
  0
LINE
  5
683
330
1D
100
AcDbEntity
  8
0
100
AcDbLine
 10
145.944
 20
635.056
 30
0.0
 11
147.972
 21
637.708
 31
0.0
  0
LINE
  5
685
330
1D
100
AcDbEntity
  8
0
100
AcDbLine
 10
140.276
 20
656.22
 30
0.0
 11
143.292
 21
654.972
 31
0.0
  0
LINE
  5
688
330
1D
100
AcDbEntity
  8
0
100
AcDbLine
 10
143.292
 20
654.972
 30
0.0
 11
145.944
 21
652.944
 31
0.0
  0
LINE
  5
689
330
1D
100
AcDbEntity
  8
0
100
AcDbLine
 10
145.944
 20
652.944
 30
0.0
 11
147.972
 21
650.292
 31
0.0
  0
LINE
  5
68A
330
1D
100
AcDbEntity
  8
0
100
AcDbLine
 10
137.0
 20
658.0
 30
0.0
 11
158.0
 21
658.0
 31
0.0
  0
LINE
  5
68B
330
1D
100
AcDbEntity
  8
0
100
AcDbLine
 10
106.5
 20
630.0
 30
0.0
 11
167.5
 21
630.0
 31
0.0
  0
LINE
  5
68C
330
1D
100
AcDbEntity
  8
0
100
AcDbLine
 10
94.5
 20
630.0
 30
0.0
 11
94.932
 21
630.0
 31
0.0
  0
LINE
  5
68D
330
1D
100
AcDbEntity
  8
0
100
AcDbLine
 10
94.5
 20
630.0
 30
0.0
 11
94.5
 21
565.0
 31
0.0
  0
LINE
  5
68E
330
1D
100
AcDbEntity
  8
0
100
AcDbLine
 10
144.493
 20
565.0
 30
0.0
 11
150.407
 21
565.0
 31
0.0
  0
LINE
  5
690
330
1D
100
AcDbEntity
  8
0
100
AcDbLine
 10
147.972
 20
637.708
 30
0.0
 11
149.22
 21
640.724
 31
0.0
  0
LINE
  5
692
330
1D
100
AcDbEntity
  8
0
100
AcDbLine
 10
147.972
 20
650.292
 30
0.0
 11
149.22
 21
647.276
 31
0.0
  0
LINE
  5
694
330
1D
100
AcDbEntity
  8
0
100
AcDbLine
 10
147.968
 20
273.521413065327
 30
0.0
 11
148.94
 21
273.479
 31
0.0
  0
LINE
  5
695
330
1D
100
AcDbEntity
  8
0
100
AcDbLine
 10
125.06
 20
273.479
 30
0.0
 11
126.032
 21
273.521413065327
 31
0.0
  0
LINE
  5
696
330
1D
100
AcDbEntity
  8
0
100
AcDbLine
 10
149.22
 20
640.724
 30
0.0
 11
149.688
 21
644.0
 31
0.0
  0
LINE
  5
697
330
1D
100
AcDbEntity
  8
0
100
AcDbLine
 10
149.22
 20
647.276
 30
0.0
 11
149.688
 21
644.0
 31
0.0
  0
LINE
  5
698
330
1D
100
AcDbEntity
  8
0
100
AcDbLine
 10
149.2632
 20
648.0
 30
0.0
 11
158.0
 21
648.0
 31
0.0
  0
LINE
  5
699
330
1D
100
AcDbEntity
  8
0
100
AcDbLine
 10
149.2632
 20
648.0
 30
0.0
 11
153.0
 21
648.0
 31
0.0
  0
LINE
  5
69A
330
1D
100
AcDbEntity
  8
0
100
AcDbLine
 10
149.215
 20
537.815
 30
0.0
 11
149.215
 21
517.027
 31
0.0
  0
LINE
  5
69B
330
1D
100
AcDbEntity
  8
0
100
AcDbLine
 10
149.215
 20
517.027
 30
0.0
 11
149.215
 21
537.815
 31
0.0
  0
LINE
  5
69C
330
1D
100
AcDbEntity
  8
0
100
AcDbLine
 10
148.94
 20
273.479
 30
0.0
 11
160.79
 21
271.919
 31
0.0
  0
LINE
  5
69D
330
1D
100
AcDbEntity
  8
0
100
AcDbLine
 10
148.504
 20
268.491
 30
0.0
 11
159.92
 21
266.988
 31
0.0
  0
LINE
  5
69F
330
1D
100
AcDbEntity
  8
0
100
AcDbLine
 10
150.651
 20
200.219
 30
0.0
 11
151.129
 21
202.929
 31
0.0
  0
LINE
  5
6A0
330
1D
100
AcDbEntity
  8
0
100
AcDbLine
 10
151.129
 20
202.929
 30
0.0
 11
151.591
 21
205.547
 31
0.0
  0
LINE
  5
6A1
330
1D
100
AcDbEntity
  8
0
100
AcDbLine
 10
171.3
 20
203.478
 30
0.0
 11
172.232
 21
205.092
 31
0.0
  0
LINE
  5
6A2
330
1D
100
AcDbEntity
  8
0
100
AcDbLine
 10
170.196
 20
201.566
 30
0.0
 11
171.3
 21
203.478
 31
0.0
  0
LINE
  5
6A3
330
1D
100
AcDbEntity
  8
0
100
AcDbLine
 10
168.959
 20
199.423
 30
0.0
 11
170.196
 21
201.566
 31
0.0
  0
LINE
  5
6A4
330
1D
100
AcDbEntity
  8
0
100
AcDbLine
 10
167.629
 20
197.121
 30
0.0
 11
168.959
 21
199.423
 31
0.0
  0
LINE
  5
6A5
330
1D
100
AcDbEntity
  8
0
100
AcDbLine
 10
166.253
 20
194.737
 30
0.0
 11
167.629
 21
197.121
 31
0.0
  0
LINE
  5
6A6
330
1D
100
AcDbEntity
  8
0
100
AcDbLine
 10
151.591
 20
205.547
 30
0.0
 11
152.02
 21
207.985
 31
0.0
  0
LINE
  5
6A7
330
1D
100
AcDbEntity
  8
0
100
AcDbLine
 10
172.232
 20
205.092
 30
0.0
 11
172.962
 21
206.356
 31
0.0
  0
LINE
  5
6A8
330
1D
100
AcDbEntity
  8
0
100
AcDbLine
 10
178.158
 20
203.356
 30
0.0
 11
178.659
 21
204.225
 31
0.0
  0
LINE
  5
6A9
330
1D
100
AcDbEntity
  8
0
100
AcDbLine
 10
177.428
 20
202.093
 30
0.0
 11
178.158
 21
203.356
 31
0.0
  0
LINE
  5
6AA
330
1D
100
AcDbEntity
  8
0
100
AcDbLine
 10
176.496
 20
200.478
 30
0.0
 11
177.428
 21
202.093
 31
0.0
  0
LINE
  5
6AB
330
1D
100
AcDbEntity
  8
0
100
AcDbLine
 10
175.392
 20
198.567
 30
0.0
 11
176.496
 21
200.478
 31
0.0
  0
LINE
  5
6AC
330
1D
100
AcDbEntity
  8
0
100
AcDbLine
 10
174.155
 20
196.423
 30
0.0
 11
175.392
 21
198.567
 31
0.0
  0
LINE
  5
6AD
330
1D
100
AcDbEntity
  8
0
100
AcDbLine
 10
172.962
 20
206.356
 30
0.0
 11
173.463
 21
207.225
 31
0.0
  0
LINE
  5
6AE
330
1D
100
AcDbEntity
  8
0
100
AcDbLine
 10
172.826
 20
194.121
 30
0.0
 11
174.155
 21
196.423
 31
0.0
  0
LINE
  5
6AF
330
1D
100
AcDbEntity
  8
0
100
AcDbLine
 10
178.659
 20
204.225
 30
0.0
 11
201.168
 21
243.212
 31
0.0
  0
LINE
  5
6B0
330
1D
100
AcDbEntity
  8
0
100
AcDbLine
 10
152.981
 20
213.431
 30
0.0
 11
153.155
 21
214.419
 31
0.0
  0
LINE
  5
6B1
330
1D
100
AcDbEntity
  8
0
100
AcDbLine
 10
152.727
 20
211.994
 30
0.0
 11
152.981
 21
213.431
 31
0.0
  0
LINE
  5
6B2
330
1D
100
AcDbEntity
  8
0
100
AcDbLine
 10
152.403
 20
210.158
 30
0.0
 11
152.727
 21
211.994
 31
0.0
  0
LINE
  5
6B3
330
1D
100
AcDbEntity
  8
0
100
AcDbLine
 10
152.02
 20
207.985
 30
0.0
 11
152.403
 21
210.158
 31
0.0
  0
LINE
  5
6B4
330
1D
100
AcDbEntity
  8
0
100
AcDbLine
 10
153.155
 20
214.419
 30
0.0
 11
160.972
 21
258.753
 31
0.0
  0
LINE
  5
6B5
330
1D
100
AcDbEntity
  8
0
100
AcDbLine
 10
230.214
 20
219.83
 30
0.0
 11
231.402
 21
220.439
 31
0.0
  0
LINE
  5
6B6
330
1D
100
AcDbEntity
  8
0
100
AcDbLine
 10
231.402
 20
220.439
 30
0.0
 11
232.736
 21
220.472
 31
0.0
  0
LINE
  5
6B7
330
1D
100
AcDbEntity
  8
0
100
AcDbLine
 10
232.736
 20
220.472
 30
0.0
 11
233.954
 21
219.923
 31
0.0
  0
LINE
  5
6B8
330
1D
100
AcDbEntity
  8
0
100
AcDbLine
 10
233.954
 20
219.923
 30
0.0
 11
234.813
 21
218.9
 31
0.0
  0
LINE
  5
6B9
330
1D
100
AcDbEntity
  8
0
100
AcDbLine
 10
234.813
 20
218.9
 30
0.0
 11
235.142
 21
217.606
 31
0.0
  0
LINE
  5
6BB
330
1D
100
AcDbEntity
  8
0
100
AcDbLine
 10
233.959
 20
215.139
 30
0.0
 11
234.07
 21
215.233
 31
0.0
  0
LINE
  5
6BC
330
1D
100
AcDbEntity
  8
0
100
AcDbLine
 10
230.102
 20
219.735
 30
0.0
 11
230.214
 21
219.83
 31
0.0
  0
LINE
  5
6BD
330
1D
100
AcDbEntity
  8
0
100
AcDbLine
 10
233.625
 20
214.86
 30
0.0
 11
233.959
 21
215.139
 31
0.0
  0
LINE
  5
6BE
330
1D
100
AcDbEntity
  8
0
100
AcDbLine
 10
229.768
 20
219.456
 30
0.0
 11
230.102
 21
219.735
 31
0.0
  0
LINE
  5
6BF
330
1D
100
AcDbEntity
  8
0
100
AcDbLine
 10
173.463
 20
207.225
 30
0.0
 11
195.972
 21
246.212
 31
0.0
  0
LINE
  5
6C0
330
1D
100
AcDbEntity
  8
0
100
AcDbLine
 10
249.224
 20
215.58
 30
0.0
 11
255.646
 21
205.5
 31
0.0
  0
LINE
  5
6C1
330
1D
100
AcDbEntity
  8
0
100
AcDbLine
 10
245.122
 20
212.708
 30
0.0
 11
251.31
 21
202.996
 31
0.0
  0
LINE
  5
6C3
330
1D
100
AcDbEntity
  8
0
100
AcDbLine
 10
201.386
 20
243.589
 30
0.0
 11
201.459
 21
243.715
 31
0.0
  0
LINE
  5
6C4
330
1D
100
AcDbEntity
  8
0
100
AcDbLine
 10
201.168
 20
243.212
 30
0.0
 11
201.386
 21
243.589
 31
0.0
  0
LINE
  5
6C5
330
1D
100
AcDbEntity
  8
0
100
AcDbLine
 10
225.062
 20
241.948
 30
0.0
 11
233.873
 21
233.874
 31
0.0
  0
LINE
  5
6C6
330
1D
100
AcDbEntity
  8
0
100
AcDbLine
 10
221.843
 20
238.113
 30
0.0
 11
230.333
 21
230.333
 31
0.0
  0
LINE
  5
6C8
330
1D
100
AcDbEntity
  8
0
100
AcDbLine
 10
161.048
 20
259.182
 30
0.0
 11
161.073
 21
259.326
 31
0.0
  0
LINE
  5
6C9
330
1D
100
AcDbEntity
  8
0
100
AcDbLine
 10
160.972
 20
258.753
 30
0.0
 11
161.048
 21
259.182
 31
0.0
  0
LINE
  5
6CA
330
1D
100
AcDbEntity
  8
0
100
AcDbLine
 10
155.139
 20
260.224
 30
0.0
 11
155.164
 21
260.368
 31
0.0
  0
LINE
  5
6CB
330
1D
100
AcDbEntity
  8
0
100
AcDbLine
 10
155.683
 20
261.598
 30
0.0
 11
156.683
 21
262.481
 31
0.0
  0
LINE
  5
6CC
330
1D
100
AcDbEntity
  8
0
100
AcDbLine
 10
156.683
 20
262.481
 30
0.0
 11
157.969
 21
262.843
 31
0.0
  0
LINE
  5
6CD
330
1D
100
AcDbEntity
  8
0
100
AcDbLine
 10
157.969
 20
262.843
 30
0.0
 11
159.284
 21
262.612
 31
0.0
  0
LINE
  5
6CE
330
1D
100
AcDbEntity
  8
0
100
AcDbLine
 10
159.284
 20
262.612
 30
0.0
 11
160.368
 21
261.832
 31
0.0
  0
LINE
  5
6CF
330
1D
100
AcDbEntity
  8
0
100
AcDbLine
 10
160.368
 20
261.832
 30
0.0
 11
161.006
 21
260.659
 31
0.0
  0
LINE
  5
6D0
330
1D
100
AcDbEntity
  8
0
100
AcDbLine
 10
161.006
 20
260.659
 30
0.0
 11
161.073
 21
259.326
 31
0.0
  0
LINE
  5
6D2
330
1D
100
AcDbEntity
  8
0
100
AcDbLine
 10
155.164
 20
260.368
 30
0.0
 11
155.683
 21
261.598
 31
0.0
  0
LINE
  5
6D3
330
1D
100
AcDbEntity
  8
0
100
AcDbLine
 10
155.063
 20
259.795
 30
0.0
 11
155.139
 21
260.224
 31
0.0
  0
LINE
  5
6D4
330
1D
100
AcDbEntity
  8
0
100
AcDbLine
 10
171.162
 20
264.496
 30
0.0
 11
182.144
 21
261.033
 31
0.0
  0
LINE
  5
6E1
330
1D
100
AcDbEntity
  8
0
100
AcDbLine
 10
151.971
 20
541.617
 30
0.0
 11
153.203
 21
541.813
 31
0.0
  0
LINE
  5
6E4
330
1D
100
AcDbEntity
  8
0
100
AcDbLine
 10
150.407
 20
565.0
 30
0.0
 11
156.201
 21
565.0
 31
0.0
  0
LINE
  5
6E5
330
1D
100
AcDbEntity
  8
0
100
AcDbLine
 10
153.0
 20
630.0
 30
0.0
 11
153.0
 21
648.0
 31
0.0
  0
LINE
  5
6E6
330
1D
100
AcDbEntity
  8
0
100
AcDbLine
 10
153.0
 20
648.0
 30
0.0
 11
156.5745
 21
648.0
 31
0.0
  0
LINE
  5
6E7
330
1D
100
AcDbEntity
  8
0
100
AcDbLine
 10
153.0
 20
648.0
 30
0.0
 11
153.0
 21
630.0
 31
0.0
  0
LINE
  5
6E8
330
1D
100
AcDbEntity
  8
0
100
AcDbLine
 10
156.5745
 20
648.0
 30
0.0
 11
159.7603
 21
648.0
 31
0.0
  0
LINE
  5
6E9
330
1D
100
AcDbEntity
  8
0
100
AcDbLine
 10
158.0
 20
658.0
 30
0.0
 11
158.324
 21
658.0
 31
0.0
  0
LINE
  5
6EA
330
1D
100
AcDbEntity
  8
0
100
AcDbLine
 10
158.0
 20
658.0
 30
0.0
 11
158.0
 21
648.0
 31
0.0
  0
LINE
  5
6EB
330
1D
100
AcDbEntity
  8
0
100
AcDbLine
 10
159.7603
 20
648.0
 30
0.0
 11
164.1046
 21
648.0
 31
0.0
  0
LINE
  5
6EC
330
1D
100
AcDbEntity
  8
0
100
AcDbLine
 10
160.628
 20
648.0
 30
0.0
 11
162.536
 21
648.0
 31
0.0
  0
LINE
  5
6ED
330
1D
100
AcDbEntity
  8
0
100
AcDbLine
 10
159.188
 20
648.0
 30
0.0
 11
160.628
 21
648.0
 31
0.0
  0
LINE
  5
6EE
330
1D
100
AcDbEntity
  8
0
100
AcDbLine
 10
160.628
 20
658.0
 30
0.0
 11
162.536
 21
658.0
 31
0.0
  0
LINE
  5
6EF
330
1D
100
AcDbEntity
  8
0
100
AcDbLine
 10
159.188
 20
658.0
 30
0.0
 11
160.628
 21
658.0
 31
0.0
  0
LINE
  5
6F0
330
1D
100
AcDbEntity
  8
0
100
AcDbLine
 10
158.324
 20
658.0
 30
0.0
 11
159.188
 21
658.0
 31
0.0
  0
LINE
  5
6F1
330
1D
100
AcDbEntity
  8
0
100
AcDbLine
 10
158.324
 20
648.0
 30
0.0
 11
159.188
 21
648.0
 31
0.0
  0
LINE
  5
6F2
330
1D
100
AcDbEntity
  8
0
100
AcDbLine
 10
158.0
 20
648.0
 30
0.0
 11
158.324
 21
648.0
 31
0.0
  0
LINE
  5
6F3
330
1D
100
AcDbEntity
  8
0
100
AcDbLine
 10
158.0
 20
648.0
 30
0.0
 11
158.0
 21
658.0
 31
0.0
  0
LINE
  5
6F4
330
1D
100
AcDbEntity
  8
0
100
AcDbLine
 10
156.201
 20
565.0
 30
0.0
 11
161.819
 21
565.0
 31
0.0
  0
LINE
  5
6F5
330
1D
100
AcDbEntity
  8
0
100
AcDbLine
 10
161.792
 20
648.0
 30
0.0
 11
162.752
 21
648.0
 31
0.0
  0
LINE
  5
6F6
330
1D
100
AcDbEntity
  8
0
100
AcDbLine
 10
161.216
 20
648.0
 30
0.0
 11
161.792
 21
648.0
 31
0.0
  0
LINE
  5
6F7
330
1D
100
AcDbEntity
  8
0
100
AcDbLine
 10
161.0
 20
648.0
 30
0.0
 11
161.216
 21
648.0
 31
0.0
  0
LINE
  5
6F9
330
1D
100
AcDbEntity
  8
0
100
AcDbLine
 10
172.326
 20
565.0
 30
0.0
 11
177.119
 21
565.0
 31
0.0
  0
LINE
  5
6FD
330
1D
100
AcDbEntity
  8
0
100
AcDbLine
 10
181.552
 20
565.0
 30
0.0
 11
185.581
 21
565.0
 31
0.0
  0
LINE
  5
6FE
330
1D
100
AcDbEntity
  8
0
100
AcDbLine
 10
177.119
 20
565.0
 30
0.0
 11
181.552
 21
565.0
 31
0.0
  0
LINE
  5
700
330
1D
100
AcDbEntity
  8
0
100
AcDbLine
 10
181.562
 20
565.0
 30
0.0
 11
185.592
 21
565.0
 31
0.0
  0
LINE
  5
701
330
1D
100
AcDbEntity
  8
0
100
AcDbLine
 10
177.126
 20
565.0
 30
0.0
 11
181.562
 21
565.0
 31
0.0
  0
LINE
  5
702
330
1D
100
AcDbEntity
  8
0
100
AcDbLine
 10
172.33
 20
565.0
 30
0.0
 11
177.126
 21
565.0
 31
0.0
  0
LINE
  5
703
330
1D
100
AcDbEntity
  8
0
100
AcDbLine
 10
162.536
 20
658.0
 30
0.0
 11
164.696
 21
658.0
 31
0.0
  0
LINE
  5
704
330
1D
100
AcDbEntity
  8
0
100
AcDbLine
 10
162.536
 20
648.0
 30
0.0
 11
164.696
 21
648.0
 31
0.0
  0
LINE
  5
705
330
1D
100
AcDbEntity
  8
0
100
AcDbLine
 10
164.1046
 20
648.0
 30
0.0
 11
169.1246
 21
648.0
 31
0.0
  0
LINE
  5
706
330
1D
100
AcDbEntity
  8
0
100
AcDbLine
 10
167.0
 20
648.0
 30
0.0
 11
168.536
 21
648.0
 31
0.0
  0
LINE
  5
707
330
1D
100
AcDbEntity
  8
0
100
AcDbLine
 10
167.0
 20
648.0
 30
0.0
 11
169.304
 21
648.0
 31
0.0
  0
LINE
  5
708
330
1D
100
AcDbEntity
  8
0
100
AcDbLine
 10
165.464
 20
648.0
 30
0.0
 11
167.0
 21
648.0
 31
0.0
  0
LINE
  5
709
330
1D
100
AcDbEntity
  8
0
100
AcDbLine
 10
164.696
 20
648.0
 30
0.0
 11
167.0
 21
648.0
 31
0.0
  0
LINE
  5
70A
330
1D
100
AcDbEntity
  8
0
100
AcDbLine
 10
167.0
 20
658.0
 30
0.0
 11
169.304
 21
658.0
 31
0.0
  0
LINE
  5
70B
330
1D
100
AcDbEntity
  8
0
100
AcDbLine
 10
164.696
 20
658.0
 30
0.0
 11
167.0
 21
658.0
 31
0.0
  0
LINE
  5
70C
330
1D
100
AcDbEntity
  8
0
100
AcDbLine
 10
164.024
 20
648.0
 30
0.0
 11
165.464
 21
648.0
 31
0.0
  0
LINE
  5
70D
330
1D
100
AcDbEntity
  8
0
100
AcDbLine
 10
162.752
 20
648.0
 30
0.0
 11
164.024
 21
648.0
 31
0.0
  0
LINE
  5
70E
330
1D
100
AcDbEntity
  8
0
100
AcDbLine
 10
167.5
 20
597.5
 30
0.0
 11
170.572
 21
597.5
 31
0.0
  0
LINE
  5
70F
330
1D
100
AcDbEntity
  8
0
100
AcDbLine
 10
173.452
 20
597.5
 30
0.0
 11
175.996
 21
597.5
 31
0.0
  0
LINE
  5
710
330
1D
100
AcDbEntity
  8
0
100
AcDbLine
 10
170.572
 20
597.5
 30
0.0
 11
173.452
 21
597.5
 31
0.0
  0
LINE
  5
711
330
1D
100
AcDbEntity
  8
0
100
AcDbLine
 10
177.916
 20
597.5
 30
0.0
 11
179.068
 21
597.5
 31
0.0
  0
LINE
  5
712
330
1D
100
AcDbEntity
  8
0
100
AcDbLine
 10
175.3242
 20
630.0
 30
0.0
 11
175.3242
 21
648.0
 31
0.0
  0
LINE
  5
714
330
1D
100
AcDbEntity
  8
0
100
AcDbLine
 10
175.996
 20
597.5
 30
0.0
 11
177.916
 21
597.5
 31
0.0
  0
LINE
  5
715
330
1D
100
AcDbEntity
  8
0
100
AcDbLine
 10
179.0
 20
630.0
 30
0.0
 11
179.0
 21
648.0
 31
0.0
  0
LINE
  5
716
330
1D
100
AcDbEntity
  8
0
100
AcDbLine
 10
179.068
 20
597.5
 30
0.0
 11
179.5
 21
597.5
 31
0.0
  0
LINE
  5
717
330
1D
100
AcDbEntity
  8
0
100
AcDbLine
 10
179.068
 20
630.0
 30
0.0
 11
179.5
 21
630.0
 31
0.0
  0
LINE
  5
718
330
1D
100
AcDbEntity
  8
0
100
AcDbLine
 10
177.916
 20
630.0
 30
0.0
 11
179.068
 21
630.0
 31
0.0
  0
LINE
  5
719
330
1D
100
AcDbEntity
  8
0
100
AcDbLine
 10
175.996
 20
630.0
 30
0.0
 11
177.916
 21
630.0
 31
0.0
  0
LINE
  5
71A
330
1D
100
AcDbEntity
  8
0
100
AcDbLine
 10
173.452
 20
630.0
 30
0.0
 11
175.996
 21
630.0
 31
0.0
  0
LINE
  5
71B
330
1D
100
AcDbEntity
  8
0
100
AcDbLine
 10
169.1246
 20
648.0
 30
0.0
 11
174.1446
 21
648.0
 31
0.0
  0
LINE
  5
71C
330
1D
100
AcDbEntity
  8
0
100
AcDbLine
 10
169.304
 20
648.0
 30
0.0
 11
171.464
 21
648.0
 31
0.0
  0
LINE
  5
71D
330
1D
100
AcDbEntity
  8
0
100
AcDbLine
 10
171.464
 20
648.0
 30
0.0
 11
173.372
 21
648.0
 31
0.0
  0
LINE
  5
71E
330
1D
100
AcDbEntity
  8
0
100
AcDbLine
 10
174.8
 20
648.0
 30
0.0
 11
175.3242
 21
648.0
 31
0.0
  0
LINE
  5
71F
330
1D
100
AcDbEntity
  8
0
100
AcDbLine
 10
175.3242
 20
648.0
 30
0.0
 11
175.3242
 21
630.0
 31
0.0
  0
LINE
  5
720
330
1D
100
AcDbEntity
  8
0
100
AcDbLine
 10
175.3242
 20
648.0
 30
0.0
 11
176.29
 21
648.0
 31
0.0
  0
LINE
  5
721
330
1D
100
AcDbEntity
  8
0
100
AcDbLine
 10
174.1446
 20
648.0
 30
0.0
 11
174.8
 21
648.0
 31
0.0
  0
LINE
  5
723
330
1D
100
AcDbEntity
  8
0
100
AcDbLine
 10
173.372
 20
648.0
 30
0.0
 11
174.812
 21
648.0
 31
0.0
  0
LINE
  5
724
330
1D
100
AcDbEntity
  8
0
100
AcDbLine
 10
172.784
 20
648.0
 30
0.0
 11
173.0
 21
648.0
 31
0.0
  0
LINE
  5
725
330
1D
100
AcDbEntity
  8
0
100
AcDbLine
 10
172.208
 20
648.0
 30
0.0
 11
172.784
 21
648.0
 31
0.0
  0
LINE
  5
726
330
1D
100
AcDbEntity
  8
0
100
AcDbLine
 10
171.248
 20
648.0
 30
0.0
 11
172.208
 21
648.0
 31
0.0
  0
LINE
  5
727
330
1D
100
AcDbEntity
  8
0
100
AcDbLine
 10
169.976
 20
648.0
 30
0.0
 11
171.248
 21
648.0
 31
0.0
  0
LINE
  5
728
330
1D
100
AcDbEntity
  8
0
100
AcDbLine
 10
168.536
 20
648.0
 30
0.0
 11
169.976
 21
648.0
 31
0.0
  0
LINE
  5
729
330
1D
100
AcDbEntity
  8
0
100
AcDbLine
 10
175.676
 20
648.0
 30
0.0
 11
176.0
 21
648.0
 31
0.0
  0
LINE
  5
72A
330
1D
100
AcDbEntity
  8
0
100
AcDbLine
 10
179.0
 20
631.0
 30
0.0
 11
195.0
 21
631.0
 31
0.0
  0
LINE
  5
72B
330
1D
100
AcDbEntity
  8
0
100
AcDbLine
 10
176.29
 20
648.0
 30
0.0
 11
179.0
 21
648.0
 31
0.0
  0
LINE
  5
72C
330
1D
100
AcDbEntity
  8
0
100
AcDbLine
 10
179.0
 20
648.0
 30
0.0
 11
188.0
 21
648.0
 31
0.0
  0
LINE
  5
72D
330
1D
100
AcDbEntity
  8
0
100
AcDbLine
 10
179.0
 20
648.0
 30
0.0
 11
179.0
 21
630.0
 31
0.0
  0
LINE
  5
72E
330
1D
100
AcDbEntity
  8
0
100
AcDbLine
 10
176.0
 20
648.0
 30
0.0
 11
176.0
 21
658.0
 31
0.0
  0
LINE
  5
72F
330
1D
100
AcDbEntity
  8
0
100
AcDbLine
 10
175.676
 20
658.0
 30
0.0
 11
176.0
 21
658.0
 31
0.0
  0
LINE
  5
730
330
1D
100
AcDbEntity
  8
0
100
AcDbLine
 10
174.812
 20
658.0
 30
0.0
 11
175.676
 21
658.0
 31
0.0
  0
LINE
  5
731
330
1D
100
AcDbEntity
  8
0
100
AcDbLine
 10
173.372
 20
658.0
 30
0.0
 11
174.812
 21
658.0
 31
0.0
  0
LINE
  5
732
330
1D
100
AcDbEntity
  8
0
100
AcDbLine
 10
171.464
 20
658.0
 30
0.0
 11
173.372
 21
658.0
 31
0.0
  0
LINE
  5
733
330
1D
100
AcDbEntity
  8
0
100
AcDbLine
 10
169.304
 20
658.0
 30
0.0
 11
171.464
 21
658.0
 31
0.0
  0
LINE
  5
734
330
1D
100
AcDbEntity
  8
0
100
AcDbLine
 10
176.0
 20
658.0
 30
0.0
 11
183.536
 21
658.0
 31
0.0
  0
LINE
  5
735
330
1D
100
AcDbEntity
  8
0
100
AcDbLine
 10
176.0
 20
658.0
 30
0.0
 11
176.0
 21
648.0
 31
0.0
  0
LINE
  5
736
330
1D
100
AcDbEntity
  8
0
100
AcDbLine
 10
174.812
 20
648.0
 30
0.0
 11
175.676
 21
648.0
 31
0.0
  0
LINE
  5
737
330
1D
100
AcDbEntity
  8
0
100
AcDbLine
 10
174.812
 20
648.0
 30
0.0
 11
183.536
 21
648.0
 31
0.0
  0
LINE
  5
738
330
1D
100
AcDbEntity
  8
0
100
AcDbLine
 10
182.0
 20
648.0
 30
0.0
 11
182.216
 21
648.0
 31
0.0
  0
LINE
  5
739
330
1D
100
AcDbEntity
  8
0
100
AcDbLine
 10
170.572
 20
630.0
 30
0.0
 11
173.452
 21
630.0
 31
0.0
  0
LINE
  5
73A
330
1D
100
AcDbEntity
  8
0
100
AcDbLine
 10
167.5
 20
630.0
 30
0.0
 11
170.572
 21
630.0
 31
0.0
  0
LINE
  5
73B
330
1D
100
AcDbEntity
  8
0
100
AcDbLine
 10
167.212
 20
565.0
 30
0.0
 11
172.33
 21
565.0
 31
0.0
  0
LINE
  5
73C
330
1D
100
AcDbEntity
  8
0
100
AcDbLine
 10
167.212
 20
565.0
 30
0.0
 11
172.326
 21
565.0
 31
0.0
  0
LINE
  5
73D
330
1D
100
AcDbEntity
  8
0
100
AcDbLine
 10
161.819
 20
565.0
 30
0.0
 11
167.212
 21
565.0
 31
0.0
  0
LINE
  5
73E
330
1D
100
AcDbEntity
  8
0
100
AcDbLine
 10
172.458
 20
269.332
 30
0.0
 11
183.856
 21
265.738
 31
0.0
  0
LINE
  5
73F
330
1D
100
AcDbEntity
  8
0
100
AcDbLine
 10
160.79
 20
271.919
 30
0.0
 11
172.458
 21
269.332
 31
0.0
  0
LINE
  5
740
330
1D
100
AcDbEntity
  8
0
100
AcDbLine
 10
159.92
 20
266.988
 30
0.0
 11
171.162
 21
264.496
 31
0.0
  0
LINE
  5
741
330
1D
100
AcDbEntity
  8
0
100
AcDbLine
 10
196.263
 20
246.716
 30
0.0
 11
197.171
 21
247.694
 31
0.0
  0
LINE
  5
742
330
1D
100
AcDbEntity
  8
0
100
AcDbLine
 10
197.171
 20
247.694
 30
0.0
 11
198.414
 21
248.182
 31
0.0
  0
LINE
  5
743
330
1D
100
AcDbEntity
  8
0
100
AcDbLine
 10
198.414
 20
248.182
 30
0.0
 11
199.745
 21
248.082
 31
0.0
  0
LINE
  5
744
330
1D
100
AcDbEntity
  8
0
100
AcDbLine
 10
199.745
 20
248.082
 30
0.0
 11
200.902
 21
247.415
 31
0.0
  0
LINE
  5
745
330
1D
100
AcDbEntity
  8
0
100
AcDbLine
 10
200.902
 20
247.415
 30
0.0
 11
201.654
 21
246.312
 31
0.0
  0
LINE
  5
746
330
1D
100
AcDbEntity
  8
0
100
AcDbLine
 10
201.654
 20
246.312
 30
0.0
 11
201.853
 21
244.991
 31
0.0
  0
LINE
  5
747
330
1D
100
AcDbEntity
  8
0
100
AcDbLine
 10
196.19
 20
246.589
 30
0.0
 11
196.263
 21
246.716
 31
0.0
  0
LINE
  5
748
330
1D
100
AcDbEntity
  8
0
100
AcDbLine
 10
195.972
 20
246.212
 30
0.0
 11
196.19
 21
246.589
 31
0.0
  0
LINE
  5
749
330
1D
100
AcDbEntity
  8
0
100
AcDbLine
 10
215.58
 20
249.224
 30
0.0
 11
225.062
 21
241.948
 31
0.0
  0
LINE
  5
74A
330
1D
100
AcDbEntity
  8
0
100
AcDbLine
 10
205.5
 20
255.646
 30
0.0
 11
215.58
 21
249.224
 31
0.0
  0
LINE
  5
74B
330
1D
100
AcDbEntity
  8
0
100
AcDbLine
 10
202.996
 20
251.31
 30
0.0
 11
212.708
 21
245.122
 31
0.0
  0
LINE
  5
74C
330
1D
100
AcDbEntity
  8
0
100
AcDbLine
 10
183.536
 20
648.0
 30
0.0
 11
183.536
 21
658.0
 31
0.0
  0
LINE
  5
74D
330
1D
100
AcDbEntity
  8
0
100
AcDbLine
 10
183.536
 20
648.0
 30
0.0
 11
185.696
 21
648.0
 31
0.0
  0
LINE
  5
74E
330
1D
100
AcDbEntity
  8
0
100
AcDbLine
 10
185.024
 20
648.0
 30
0.0
 11
186.464
 21
648.0
 31
0.0
  0
LINE
  5
74F
330
1D
100
AcDbEntity
  8
0
100
AcDbLine
 10
183.752
 20
648.0
 30
0.0
 11
185.024
 21
648.0
 31
0.0
  0
LINE
  5
750
330
1D
100
AcDbEntity
  8
0
100
AcDbLine
 10
182.792
 20
648.0
 30
0.0
 11
183.752
 21
648.0
 31
0.0
  0
LINE
  5
751
330
1D
100
AcDbEntity
  8
0
100
AcDbLine
 10
183.536
 20
658.0
 30
0.0
 11
185.696
 21
658.0
 31
0.0
  0
LINE
  5
752
330
1D
100
AcDbEntity
  8
0
100
AcDbLine
 10
183.536
 20
658.0
 30
0.0
 11
183.536
 21
648.0
 31
0.0
  0
LINE
  5
753
330
1D
100
AcDbEntity
  8
0
100
AcDbLine
 10
182.216
 20
648.0
 30
0.0
 11
182.792
 21
648.0
 31
0.0
  0
LINE
  5
754
330
1D
100
AcDbEntity
  8
0
100
AcDbLine
 10
185.581
 20
565.0
 30
0.0
 11
189.172
 21
565.0
 31
0.0
  0
LINE
  5
757
330
1D
100
AcDbEntity
  8
0
100
AcDbLine
 10
192.291
 20
565.0
 30
0.0
 11
194.912
 21
565.0
 31
0.0
  0
LINE
  5
758
330
1D
100
AcDbEntity
  8
0
100
AcDbLine
 10
189.172
 20
565.0
 30
0.0
 11
192.291
 21
565.0
 31
0.0
  0
LINE
  5
75A
330
1D
100
AcDbEntity
  8
0
100
AcDbLine
 10
194.698
 20
542.013
 30
0.0
 11
195.03
 21
542.013
 31
0.0
  0
LINE
  5
75B
330
1D
100
AcDbEntity
  8
0
100
AcDbLine
 10
193.811
 20
542.013
 30
0.0
 11
194.698
 21
542.013
 31
0.0
  0
LINE
  5
75D
330
1D
100
AcDbEntity
  8
0
100
AcDbLine
 10
192.304
 20
565.0
 30
0.0
 11
194.925
 21
565.0
 31
0.0
  0
LINE
  5
75E
330
1D
100
AcDbEntity
  8
0
100
AcDbLine
 10
185.696
 20
648.0
 30
0.0
 11
188.0
 21
648.0
 31
0.0
  0
LINE
  5
75F
330
1D
100
AcDbEntity
  8
0
100
AcDbLine
 10
188.0
 20
658.0
 30
0.0
 11
190.304
 21
658.0
 31
0.0
  0
LINE
  5
760
330
1D
100
AcDbEntity
  8
0
100
AcDbLine
 10
185.696
 20
658.0
 30
0.0
 11
188.0
 21
658.0
 31
0.0
  0
LINE
  5
761
330
1D
100
AcDbEntity
  8
0
100
AcDbLine
 10
186.464
 20
648.0
 30
0.0
 11
188.0
 21
648.0
 31
0.0
  0
LINE
  5
762
330
1D
100
AcDbEntity
  8
0
100
AcDbLine
 10
192.248
 20
648.0
 30
0.0
 11
193.208
 21
648.0
 31
0.0
  0
LINE
  5
763
330
1D
100
AcDbEntity
  8
0
100
AcDbLine
 10
193.784
 20
648.0
 30
0.0
 11
194.0
 21
648.0
 31
0.0
  0
LINE
  5
764
330
1D
100
AcDbEntity
  8
0
100
AcDbLine
 10
193.208
 20
648.0
 30
0.0
 11
193.784
 21
648.0
 31
0.0
  0
LINE
  5
765
330
1D
100
AcDbEntity
  8
0
100
AcDbLine
 10
194.372
 20
648.0
 30
0.0
 11
195.812
 21
648.0
 31
0.0
  0
LINE
  5
766
330
1D
100
AcDbEntity
  8
0
100
AcDbLine
 10
192.464
 20
648.0
 30
0.0
 11
194.372
 21
648.0
 31
0.0
  0
LINE
  5
767
330
1D
100
AcDbEntity
  8
0
100
AcDbLine
 10
190.976
 20
648.0
 30
0.0
 11
192.248
 21
648.0
 31
0.0
  0
LINE
  5
768
330
1D
100
AcDbEntity
  8
0
100
AcDbLine
 10
190.304
 20
648.0
 30
0.0
 11
192.464
 21
648.0
 31
0.0
  0
LINE
  5
769
330
1D
100
AcDbEntity
  8
0
100
AcDbLine
 10
190.304
 20
658.0
 30
0.0
 11
192.464
 21
658.0
 31
0.0
  0
LINE
  5
76A
330
1D
100
AcDbEntity
  8
0
100
AcDbLine
 10
192.464
 20
658.0
 30
0.0
 11
194.372
 21
658.0
 31
0.0
  0
LINE
  5
76B
330
1D
100
AcDbEntity
  8
0
100
AcDbLine
 10
194.372
 20
658.0
 30
0.0
 11
195.812
 21
658.0
 31
0.0
  0
LINE
  5
76C
330
1D
100
AcDbEntity
  8
0
100
AcDbLine
 10
189.536
 20
648.0
 30
0.0
 11
190.976
 21
648.0
 31
0.0
  0
LINE
  5
76D
330
1D
100
AcDbEntity
  8
0
100
AcDbLine
 10
188.0
 20
648.0
 30
0.0
 11
189.536
 21
648.0
 31
0.0
  0
LINE
  5
76E
330
1D
100
AcDbEntity
  8
0
100
AcDbLine
 10
188.0
 20
648.0
 30
0.0
 11
190.304
 21
648.0
 31
0.0
  0
LINE
  5
76F
330
1D
100
AcDbEntity
  8
0
100
AcDbLine
 10
189.184
 20
565.0
 30
0.0
 11
192.304
 21
565.0
 31
0.0
  0
LINE
  5
770
330
1D
100
AcDbEntity
  8
0
100
AcDbLine
 10
185.592
 20
565.0
 30
0.0
 11
189.184
 21
565.0
 31
0.0
  0
LINE
  5
771
330
1D
100
AcDbEntity
  8
0
100
AcDbLine
 10
183.856
 20
265.738
 30
0.0
 11
194.899
 21
261.164
 31
0.0
  0
LINE
  5
772
330
1D
100
AcDbEntity
  8
0
100
AcDbLine
 10
196.557
 20
542.258
 30
0.0
 11
197.946
 21
542.967
 31
0.0
  0
LINE
  5
773
330
1D
100
AcDbEntity
  8
0
100
AcDbLine
 10
197.009
 20
565.0
 30
0.0
 11
198.564
 21
565.0
 31
0.0
  0
LINE
  5
774
330
1D
100
AcDbEntity
  8
0
100
AcDbLine
 10
194.912
 20
565.0
 30
0.0
 11
197.009
 21
565.0
 31
0.0
  0
LINE
  5
775
330
1D
100
AcDbEntity
  8
0
100
AcDbLine
 10
195.03
 20
542.013
 30
0.0
 11
196.557
 21
542.258
 31
0.0
  0
LINE
  5
776
330
1D
100
AcDbEntity
  8
0
100
AcDbLine
 10
199.048
 20
544.073
 30
0.0
 11
199.755
 21
545.466
 31
0.0
  0
LINE
  5
777
330
1D
100
AcDbEntity
  8
0
100
AcDbLine
 10
197.946
 20
542.967
 30
0.0
 11
199.048
 21
544.073
 31
0.0
  0
LINE
  5
778
330
1D
100
AcDbEntity
  8
0
100
AcDbLine
 10
199.564
 20
565.0
 30
0.0
 11
199.998
 21
565.0
 31
0.0
  0
LINE
  5
779
330
1D
100
AcDbEntity
  8
0
100
AcDbLine
 10
198.564
 20
565.0
 30
0.0
 11
199.564
 21
565.0
 31
0.0
  0
LINE
  5
77A
330
1D
100
AcDbEntity
  8
0
100
AcDbLine
 10
199.755
 20
545.466
 30
0.0
 11
200.0
 21
547.01
 31
0.0
  0
LINE
  5
77B
330
1D
100
AcDbEntity
  8
0
100
AcDbLine
 10
199.998
 20
565.0
 30
0.0
 11
200.0
 21
547.01
 31
0.0
  0
LINE
  5
77C
330
1D
100
AcDbEntity
  8
0
100
AcDbLine
 10
199.569
 20
565.0
 30
0.0
 11
199.999
 21
565.0
 31
0.0
  0
LINE
  5
77D
330
1D
100
AcDbEntity
  8
0
100
AcDbLine
 10
198.573
 20
565.0
 30
0.0
 11
199.569
 21
565.0
 31
0.0
  0
LINE
  5
77E
330
1D
100
AcDbEntity
  8
0
100
AcDbLine
 10
197.02
 20
565.0
 30
0.0
 11
198.573
 21
565.0
 31
0.0
  0
LINE
  5
77F
330
1D
100
AcDbEntity
  8
0
100
AcDbLine
 10
195.0
 20
631.0
 30
0.0
 11
195.0
 21
631.468
 31
0.0
  0
LINE
  5
780
330
1D
100
AcDbEntity
  8
0
100
AcDbLine
 10
195.0
 20
631.468
 30
0.0
 11
195.0
 21
632.716
 31
0.0
  0
LINE
  5
781
330
1D
100
AcDbEntity
  8
0
100
AcDbLine
 10
195.0
 20
631.468
 30
0.0
 11
195.0
 21
631.0
 31
0.0
  0
LINE
  5
782
330
1D
100
AcDbEntity
  8
0
100
AcDbLine
 10
195.0
 20
632.716
 30
0.0
 11
195.0
 21
634.796
 31
0.0
  0
LINE
  5
783
330
1D
100
AcDbEntity
  8
0
100
AcDbLine
 10
195.0
 20
632.716
 30
0.0
 11
195.0
 21
631.468
 31
0.0
  0
LINE
  5
784
330
1D
100
AcDbEntity
  8
0
100
AcDbLine
 10
195.0
 20
634.796
 30
0.0
 11
195.0
 21
637.552
 31
0.0
  0
LINE
  5
785
330
1D
100
AcDbEntity
  8
0
100
AcDbLine
 10
195.0
 20
634.796
 30
0.0
 11
195.0
 21
632.716
 31
0.0
  0
LINE
  5
786
330
1D
100
AcDbEntity
  8
0
100
AcDbLine
 10
195.0
 20
637.552
 30
0.0
 11
195.0
 21
640.672
 31
0.0
  0
LINE
  5
787
330
1D
100
AcDbEntity
  8
0
100
AcDbLine
 10
195.0
 20
637.552
 30
0.0
 11
195.0
 21
634.796
 31
0.0
  0
LINE
  5
788
330
1D
100
AcDbEntity
  8
0
100
AcDbLine
 10
195.0
 20
640.672
 30
0.0
 11
195.0
 21
644.0
 31
0.0
  0
LINE
  5
789
330
1D
100
AcDbEntity
  8
0
100
AcDbLine
 10
195.0
 20
640.672
 30
0.0
 11
195.0
 21
637.552
 31
0.0
  0
LINE
  5
78A
330
1D
100
AcDbEntity
  8
0
100
AcDbLine
 10
195.0
 20
644.0
 30
0.0
 11
195.0
 21
647.328
 31
0.0
  0
LINE
  5
78B
330
1D
100
AcDbEntity
  8
0
100
AcDbLine
 10
195.0
 20
644.0
 30
0.0
 11
195.0
 21
640.672
 31
0.0
  0
LINE
  5
78C
330
1D
100
AcDbEntity
  8
0
100
AcDbLine
 10
195.0
 20
647.328
 30
0.0
 11
195.0
 21
644.0
 31
0.0
  0
LINE
  5
78D
330
1D
100
AcDbEntity
  8
0
100
AcDbLine
 10
195.0
 20
647.328
 30
0.0
 11
195.0
 21
648.0
 31
0.0
  0
LINE
  5
78E
330
1D
100
AcDbEntity
  8
0
100
AcDbLine
 10
195.0
 20
648.0
 30
0.0
 11
195.812
 21
648.0
 31
0.0
  0
LINE
  5
78F
330
1D
100
AcDbEntity
  8
0
100
AcDbLine
 10
195.0
 20
648.0
 30
0.0
 11
195.0
 21
647.328
 31
0.0
  0
LINE
  5
790
330
1D
100
AcDbEntity
  8
0
100
AcDbLine
 10
195.812
 20
658.0
 30
0.0
 11
196.676
 21
658.0
 31
0.0
  0
LINE
  5
791
330
1D
100
AcDbEntity
  8
0
100
AcDbLine
 10
197.0
 20
648.0
 30
0.0
 11
197.0
 21
658.0
 31
0.0
  0
LINE
  5
792
330
1D
100
AcDbEntity
  8
0
100
AcDbLine
 10
196.676
 20
658.0
 30
0.0
 11
197.0
 21
658.0
 31
0.0
  0
LINE
  5
793
330
1D
100
AcDbEntity
  8
0
100
AcDbLine
 10
197.0
 20
658.0
 30
0.0
 11
197.0
 21
648.0
 31
0.0
  0
LINE
  5
794
330
1D
100
AcDbEntity
  8
0
100
AcDbLine
 10
196.676
 20
648.0
 30
0.0
 11
197.0
 21
648.0
 31
0.0
  0
LINE
  5
795
330
1D
100
AcDbEntity
  8
0
100
AcDbLine
 10
195.812
 20
648.0
 30
0.0
 11
196.676
 21
648.0
 31
0.0
  0
LINE
  5
796
330
1D
100
AcDbEntity
  8
0
100
AcDbLine
 10
194.925
 20
565.0
 30
0.0
 11
197.02
 21
565.0
 31
0.0
  0
LINE
  5
797
330
1D
100
AcDbEntity
  8
0
100
AcDbLine
 10
194.899
 20
261.164
 30
0.0
 11
205.5
 21
255.646
 31
0.0
  0
LINE
  5
798
330
1D
100
AcDbEntity
  8
0
100
AcDbLine
 10
192.782
 20
256.627
 30
0.0
 11
202.996
 21
251.31
 31
0.0
  0
LINE
  5
799
330
1D
100
AcDbEntity
  8
0
100
AcDbLine
 10
182.144
 20
261.033
 30
0.0
 11
192.782
 21
256.627
 31
0.0
  0
LINE
  5
79A
330
1D
100
AcDbEntity
  8
0
100
AcDbLine
 10
212.708
 20
245.122
 30
0.0
 11
221.843
 21
238.113
 31
0.0
  0
LINE
  5
79B
330
1D
100
AcDbEntity
  8
0
100
AcDbLine
 10
233.873
 20
233.874
 30
0.0
 11
241.948
 21
225.062
 31
0.0
  0
LINE
  5
79C
330
1D
100
AcDbEntity
  8
0
100
AcDbLine
 10
241.948
 20
225.062
 30
0.0
 11
249.224
 21
215.58
 31
0.0
  0
LINE
  5
79D
330
1D
100
AcDbEntity
  8
0
100
AcDbLine
 10
230.333
 20
230.333
 30
0.0
 11
238.113
 21
221.843
 31
0.0
  0
LINE
  5
79E
330
1D
100
AcDbEntity
  8
0
100
AcDbLine
 10
238.113
 20
221.843
 30
0.0
 11
245.122
 21
212.708
 31
0.0
  0
LINE
  5
79F
330
1D
100
AcDbEntity
  8
0
100
AcDbLine
 10
149.633531190244
 20
194.448723094008
 30
0.0
 11
152.239
 21
193.871
 31
0.0
  0
LINE
  5
7A0
330
1D
100
AcDbEntity
  8
0
100
AcDbLine
 10
152.239
 20
193.871
 30
0.0
 11
157.137
 21
192.327
 31
0.0
  0
LINE
  5
7A1
330
1D
100
AcDbEntity
  8
0
100
AcDbLine
 10
149.435008250391
 20
193.32285827716
 30
0.0
 11
151.943
 21
192.767
 31
0.0
  0
LINE
  5
7A2
330
1D
100
AcDbEntity
  8
0
100
AcDbLine
 10
151.943
 20
192.767
 30
0.0
 11
156.746
 21
191.252
 31
0.0
  0
LINE
  5
7A3
330
1D
100
AcDbEntity
  8
0
100
AcDbLine
 10
255.512
 20
182.694
 30
0.0
 11
256.468
 21
181.762
 31
0.0
  0
LINE
  5
7A4
330
1D
100
AcDbEntity
  8
0
100
AcDbLine
 10
252.922
 20
182.954
 30
0.0
 11
254.246
 21
183.119
 31
0.0
  0
LINE
  5
7A5
330
1D
100
AcDbEntity
  8
0
100
AcDbLine
 10
254.246
 20
183.119
 30
0.0
 11
255.512
 21
182.694
 31
0.0
  0
LINE
  5
7A6
330
1D
100
AcDbEntity
  8
0
100
AcDbLine
 10
252.784
 20
182.903
 30
0.0
 11
252.922
 21
182.954
 31
0.0
  0
LINE
  5
7A7
330
1D
100
AcDbEntity
  8
0
100
AcDbLine
 10
252.375
 20
182.754
 30
0.0
 11
252.784
 21
182.903
 31
0.0
  0
LINE
  5
7A8
330
1D
100
AcDbEntity
  8
0
100
AcDbLine
 10
265.738
 20
183.856
 30
0.0
 11
269.332
 21
172.458
 31
0.0
  0
LINE
  5
7A9
330
1D
100
AcDbEntity
  8
0
100
AcDbLine
 10
261.164
 20
194.899
 30
0.0
 11
265.738
 21
183.856
 31
0.0
  0
LINE
  5
7AA
330
1D
100
AcDbEntity
  8
0
100
AcDbLine
 10
255.646
 20
205.5
 30
0.0
 11
261.164
 21
194.899
 31
0.0
  0
LINE
  5
7AB
330
1D
100
AcDbEntity
  8
0
100
AcDbLine
 10
256.627
 20
192.782
 30
0.0
 11
261.033
 21
182.144
 31
0.0
  0
LINE
  5
7AC
330
1D
100
AcDbEntity
  8
0
100
AcDbLine
 10
251.31
 20
202.996
 30
0.0
 11
256.627
 21
192.782
 31
0.0
  0
LINE
  5
7AD
330
1D
100
AcDbEntity
  8
0
100
AcDbLine
 10
261.033
 20
182.144
 30
0.0
 11
264.496
 21
171.162
 31
0.0
  0
LINE
  5
7AE
330
1D
100
AcDbEntity
  8
0
100
AcDbLine
 10
269.332
 20
101.542
 30
0.0
 11
271.919
 21
113.21
 31
0.0
  0
LINE
  5
7AF
330
1D
100
AcDbEntity
  8
0
100
AcDbLine
 10
273.479
 20
125.06
 30
0.0
 11
274.0
 21
137.0
 31
0.0
  0
LINE
  5
7B0
330
1D
100
AcDbEntity
  8
0
100
AcDbLine
 10
271.919
 20
113.21
 30
0.0
 11
273.479
 21
125.06
 31
0.0
  0
LINE
  5
7B1
330
1D
100
AcDbEntity
  8
0
100
AcDbLine
 10
268.491
 20
125.496
 30
0.0
 11
268.993
 21
137.0
 31
0.0
  0
LINE
  5
7B2
330
1D
100
AcDbEntity
  8
0
100
AcDbLine
 10
269.332
 20
172.458
 30
0.0
 11
271.919
 21
160.79
 31
0.0
  0
LINE
  5
7B3
330
1D
100
AcDbEntity
  8
0
100
AcDbLine
 10
273.479
 20
148.94
 30
0.0
 11
274.0
 21
137.0
 31
0.0
  0
LINE
  5
7B4
330
1D
100
AcDbEntity
  8
0
100
AcDbLine
 10
271.919
 20
160.79
 30
0.0
 11
273.479
 21
148.94
 31
0.0
  0
LINE
  5
7B5
330
1D
100
AcDbEntity
  8
0
100
AcDbLine
 10
268.491
 20
148.504
 30
0.0
 11
268.993
 21
137.0
 31
0.0
  0
LINE
  5
7B6
330
1D
100
AcDbEntity
  8
0
100
AcDbLine
 10
266.988
 20
159.92
 30
0.0
 11
268.491
 21
148.504
 31
0.0
  0
LINE
  5
7DE
330
1D
100
AcDbEntity
  8
0
100
AcDbLine
 10
179.5
 20
630.0
 30
0.0
 11
179.5
 21
565.0
 31
0.0
  0
LINE
  5
7DF
330
1D
100
AcDbEntity
  8
0
100
AcDbLine
 10
149.215
 20
537.815
 30
0.0
 11
149.544203060352
 21
539.423187128064
 31
0.0
  0
LINE
  5
7E0
330
1D
100
AcDbEntity
  8
0
100
AcDbLine
 10
149.544203060352
 20
539.423187128064
 30
0.0
 11
150.509151067925
 21
540.698296995213
 31
0.0
  0
LINE
  5
7E1
330
1D
100
AcDbEntity
  8
0
100
AcDbLine
 10
150.509151067925
 20
540.698296995213
 30
0.0
 11
151.971
 21
541.617
 31
0.0
  0
LINE
  5
7E2
330
1D
100
AcDbEntity
  8
0
100
AcDbLine
 10
124.024
 20
540.165
 30
0.0
 11
124.59
 21
539.051
 31
0.0
  0
LINE
  5
7E3
330
1D
100
AcDbEntity
  8
0
100
AcDbLine
 10
79.9822
 20
542.013
 30
0.0
 11
120.797
 21
541.813
 31
0.0
  0
LINE
  5
7E4
330
1D
100
AcDbEntity
  8
0
100
AcDbLine
 10
120.797
 20
541.813
 30
0.0
 11
153.203
 21
541.813
 31
0.0
  0
LINE
  5
7E5
330
1D
100
AcDbEntity
  8
0
100
AcDbLine
 10
153.203
 20
541.813
 30
0.0
 11
193.811
 21
542.013
 31
0.0
  0
LINE
  5
7E6
330
1D
100
AcDbEntity
  8
0
100
AcDbLine
 10
149.215
 20
517.027
 30
0.0
 11
148.581102661297
 21
515.298992093268
 31
0.0
  0
LINE
  5
7E7
330
1D
100
AcDbEntity
  8
0
100
AcDbLine
 10
148.581102661297
 20
515.298992093268
 30
0.0
 11
147.961857110297
 21
513.839341865912
 31
0.0
  0
LINE
  5
7E8
330
1D
100
AcDbEntity
  8
0
100
AcDbLine
 10
71.2216
 20
244.457
 30
0.0
 11
71.615773189653
 21
243.180059804601
 31
0.0
  0
LINE
  5
7E9
330
1D
100
AcDbEntity
  8
0
100
AcDbLine
 10
264.573
 20
136.867
 30
0.0
 11
264.162169043034
 21
135.763616534144
 31
0.0
  0
LINE
  5
7EA
330
1D
100
AcDbEntity
  8
0
100
AcDbLine
 10
264.162169043034
 20
135.763616534144
 30
0.0
 11
263.497158041175
 21
135.030399275684
 31
0.0
  0
LINE
  5
7EB
330
1D
100
AcDbEntity
  8
0
100
AcDbLine
 10
263.497158041175
 20
135.030399275684
 30
0.0
 11
262.661631397814
 21
134.672316428529
 31
0.0
  0
LINE
  5
7EC
330
1D
100
AcDbEntity
  8
0
100
AcDbLine
 10
262.661631397814
 20
134.672316428529
 30
0.0
 11
261.647
 21
134.534
 31
0.0
  0
LINE
  5
7ED
330
1D
100
AcDbEntity
  8
0
100
AcDbLine
 10
257.29
 20
94.497
 30
0.0
 11
257.29
 21
93.479762706188
 31
0.0
  0
LINE
  5
7EE
330
1D
100
AcDbEntity
  8
0
100
AcDbLine
 10
257.29
 20
93.479762706188
 30
0.0
 11
256.792745413162
 21
92.725181861346
 31
0.0
  0
LINE
  5
7EF
330
1D
100
AcDbEntity
  8
0
100
AcDbLine
 10
256.792745413162
 20
92.725181861346
 30
0.0
 11
255.923834137283
 21
92.062065361333
 31
0.0
  0
LINE
  5
7F0
330
1D
100
AcDbEntity
  8
0
100
AcDbLine
 10
255.923834137283
 20
92.062065361333
 30
0.0
 11
254.86199025903
 21
91.903431888269
 31
0.0
  0
LINE
  5
7F1
330
1D
100
AcDbEntity
  8
0
100
AcDbLine
 10
254.86199025903
 20
91.903431888269
 30
0.0
 11
254.146196906123
 21
91.903431888269
 31
0.0
  0
LINE
  5
7F2
330
1D
100
AcDbEntity
  8
0
100
AcDbLine
 10
254.146196906123
 20
91.903431888269
 30
0.0
 11
253.287
 21
92.051
 31
0.0
  0
LINE
  5
7F3
330
1D
100
AcDbEntity
  8
0
100
AcDbLine
 10
235.828
 20
57.213
 30
0.0
 11
235.786044408863
 21
56.309387683294
 31
0.0
  0
LINE
  5
7F4
330
1D
100
AcDbEntity
  8
0
100
AcDbLine
 10
235.786044408863
 20
56.309387683294
 30
0.0
 11
235.377222160202
 21
55.396148308027
 31
0.0
  0
LINE
  5
7F5
330
1D
100
AcDbEntity
  8
0
100
AcDbLine
 10
235.377222160202
 20
55.396148308027
 30
0.0
 11
234.597737899476
 21
54.753073792928
 31
0.0
  0
LINE
  5
7F6
330
1D
100
AcDbEntity
  8
0
100
AcDbLine
 10
234.597737899476
 20
54.753073792928
 30
0.0
 11
233.40902440187
 21
54.480254301674
 31
0.0
  0
LINE
  5
7F7
330
1D
100
AcDbEntity
  8
0
100
AcDbLine
 10
233.40902440187
 20
54.480254301674
 30
0.0
 11
232.494348339675
 21
54.480254301674
 31
0.0
  0
LINE
  5
7F8
330
1D
100
AcDbEntity
  8
0
100
AcDbLine
 10
232.494348339675
 20
54.480254301674
 30
0.0
 11
231.519993013768
 21
54.630061433032
 31
0.0
  0
LINE
  5
7F9
330
1D
100
AcDbEntity
  8
0
100
AcDbLine
 10
231.519993013768
 20
54.630061433032
 30
0.0
 11
230.901
 21
54.9893
 31
0.0
  0
LINE
  5
7FA
330
1D
100
AcDbEntity
  8
0
100
AcDbLine
 10
256.925
 20
180.507
 30
0.0
 11
256.979911362686
 21
179.880976030595
 31
0.0
  0
LINE
  5
7FB
330
1D
100
AcDbEntity
  8
0
100
AcDbLine
 10
256.979911362686
 20
179.880976030595
 30
0.0
 11
256.7985087649
 21
179.427469536131
 31
0.0
  0
LINE
  5
7FC
330
1D
100
AcDbEntity
  8
0
100
AcDbLine
 10
256.7985087649
 20
179.427469536131
 30
0.0
 11
256.262585179195
 21
178.577826123265
 31
0.0
  0
LINE
  5
7FD
330
1D
100
AcDbEntity
  8
0
100
AcDbLine
 10
256.262585179195
 20
178.577826123265
 30
0.0
 11
255.627253677353
 21
177.839467891395
 31
0.0
  0
LINE
  5
7FE
330
1D
100
AcDbEntity
  8
0
100
AcDbLine
 10
255.627253677353
 20
177.839467891395
 30
0.0
 11
254.974
 21
177.315
 31
0.0
  0
LINE
  5
7FF
330
1D
100
AcDbEntity
  8
0
100
AcDbLine
 10
235.142
 20
217.606
 30
0.0
 11
234.92300330354
 21
216.402323354708
 31
0.0
  0
LINE
  5
800
330
1D
100
AcDbEntity
  8
0
100
AcDbLine
 10
234.92300330354
 20
216.402323354708
 30
0.0
 11
234.497861279573
 21
215.684896189265
 31
0.0
  0
LINE
  5
801
330
1D
100
AcDbEntity
  8
0
100
AcDbLine
 10
234.497861279573
 20
215.684896189265
 30
0.0
 11
234.07
 21
215.233
 31
0.0
  0
LINE
  5
802
330
1D
100
AcDbEntity
  8
0
100
AcDbLine
 10
201.853
 20
244.991
 30
0.0
 11
201.747751662839
 21
244.356692134423
 31
0.0
  0
LINE
  5
803
330
1D
100
AcDbEntity
  8
0
100
AcDbLine
 10
201.747751662839
 20
244.356692134423
 30
0.0
 11
201.459
 21
243.715
 31
0.0
  0
LINE
  5
804
330
1D
100
AcDbEntity
  8
0
100
AcDbLine
 10
38.1717
 20
216.787
 30
0.0
 11
38.416001572601
 21
215.756243612128
 31
0.0
  0
LINE
  5
805
330
1D
100
AcDbEntity
  8
0
100
AcDbLine
 10
38.416001572601
 20
215.756243612128
 30
0.0
 11
38.888059999628
 21
214.908959255927
 31
0.0
  0
LINE
  5
806
330
1D
100
AcDbEntity
  8
0
100
AcDbLine
 10
38.888059999628
 20
214.908959255927
 30
0.0
 11
39.2419
 21
214.415
 31
0.0
  0
LINE
  5
807
330
1D
100
AcDbEntity
  8
0
100
AcDbLine
 10
21.0777
 20
91.0465
 30
0.0
 11
20.070258810165
 21
91.087407537409
 31
0.0
  0
LINE
  5
808
330
1D
100
AcDbEntity
  8
0
100
AcDbLine
 10
20.070258810165
 20
91.087407537409
 30
0.0
 11
18.824007937746
 21
91.346063378855
 31
0.0
  0
LINE
  5
809
330
1D
100
AcDbEntity
  8
0
100
AcDbLine
 10
18.824007937746
 20
91.346063378855
 30
0.0
 11
17.812898739367
 21
91.957431731362
 31
0.0
  0
LINE
  5
80A
330
1D
100
AcDbEntity
  8
0
100
AcDbLine
 10
17.812898739367
 20
91.957431731362
 30
0.0
 11
17.20153038686
 21
92.827455925316
 31
0.0
  0
LINE
  5
80B
330
1D
100
AcDbEntity
  8
0
100
AcDbLine
 10
17.20153038686
 20
92.827455925316
 30
0.0
 11
17.0747
 21
93.4928
 31
0.0
  0
LINE
  5
80C
330
1D
100
AcDbEntity
  8
0
100
AcDbLine
 10
43.7857
 20
54.1701
 30
0.0
 11
43.106977733366
 21
54.013702734462
 31
0.0
  0
LINE
  5
80D
330
1D
100
AcDbEntity
  8
0
100
AcDbLine
 10
43.106977733366
 20
54.013702734462
 30
0.0
 11
41.94020617085
 21
53.986568512078
 31
0.0
  0
LINE
  5
80E
330
1D
100
AcDbEntity
  8
0
100
AcDbLine
 10
41.94020617085
 20
53.986568512078
 30
0.0
 11
40.949807053831
 21
54.217209402342
 31
0.0
  0
LINE
  5
80F
330
1D
100
AcDbEntity
  8
0
100
AcDbLine
 10
40.949807053831
 20
54.217209402342
 30
0.0
 11
39.864438158467
 21
54.841296517177
 31
0.0
  0
LINE
  5
810
330
1D
100
AcDbEntity
  8
0
100
AcDbLine
 10
39.864438158467
 20
54.841296517177
 30
0.0
 11
39.226783932441
 21
55.614621855123
 31
0.0
  0
LINE
  5
811
330
1D
100
AcDbEntity
  8
0
100
AcDbLine
 10
39.226783932441
 20
55.614621855123
 30
0.0
 11
38.8583
 21
56.3936
 31
0.0
  0
LINE
  5
812
330
1D
100
AcDbEntity
  8
0
100
AcDbLine
 10
72.1473
 20
29.0089
 30
0.0
 11
72.055952696534
 21
27.511493601556
 31
0.0
  0
LINE
  5
813
330
1D
100
AcDbEntity
  8
0
100
AcDbLine
 10
72.055952696534
 20
27.511493601556
 30
0.0
 11
72.516041400566
 21
26.259029907248
 31
0.0
  0
LINE
  5
814
330
1D
100
AcDbEntity
  8
0
100
AcDbLine
 10
72.516041400566
 20
26.259029907248
 30
0.0
 11
73.742944611317
 21
25.262171048513
 31
0.0
  0
LINE
  5
815
330
1D
100
AcDbEntity
  8
0
100
AcDbLine
 10
73.742944611317
 20
25.262171048513
 30
0.0
 11
75.302134108313
 21
25.134368630726
 31
0.0
  0
LINE
  5
816
330
1D
100
AcDbEntity
  8
0
100
AcDbLine
 10
75.302134108313
 20
25.134368630726
 30
0.0
 11
76.784642154637
 21
26.105667005904
 31
0.0
  0
LINE
  5
817
330
1D
100
AcDbEntity
  8
0
100
AcDbLine
 10
76.784642154637
 20
26.105667005904
 30
0.0
 11
77.7367
 21
27.2841
 31
0.0
  0
LINE
  5
818
330
1D
100
AcDbEntity
  8
0
100
AcDbLine
 10
9.42749
 20
135.798
 30
0.0
 11
9.923407729694
 21
134.685171120463
 31
0.0
  0
LINE
  5
819
330
1D
100
AcDbEntity
  8
0
100
AcDbLine
 10
9.923407729694
 20
134.685171120463
 30
0.0
 11
10.678479083317
 21
133.899896912695
 31
0.0
  0
LINE
  5
81A
330
1D
100
AcDbEntity
  8
0
100
AcDbLine
 10
10.678479083317
 20
133.899896912695
 30
0.0
 11
11.43355043694
 21
133.537462662956
 31
0.0
  0
LINE
  5
81B
330
1D
100
AcDbEntity
  8
0
100
AcDbLine
 10
11.43355043694
 20
133.537462662956
 30
0.0
 11
12.3516
 21
133.466
 31
0.0
  0
LINE
  5
81C
330
1D
100
AcDbEntity
  8
0
100
AcDbLine
 10
16.71
 20
179.503
 30
0.0
 11
16.741331137149
 21
178.411320390437
 31
0.0
  0
LINE
  5
81D
330
1D
100
AcDbEntity
  8
0
100
AcDbLine
 10
16.741331137149
 20
178.411320390437
 30
0.0
 11
17.200959340574
 21
177.360741639751
 31
0.0
  0
LINE
  5
81E
330
1D
100
AcDbEntity
  8
0
100
AcDbLine
 10
17.200959340574
 20
177.360741639751
 30
0.0
 11
17.906816938691
 21
176.687714627593
 31
0.0
  0
LINE
  5
81F
330
1D
100
AcDbEntity
  8
0
100
AcDbLine
 10
17.906816938691
 20
176.687714627593
 30
0.0
 11
18.798
 21
176.261
 31
0.0
  0
LINE
  5
820
330
1D
100
AcDbEntity
  8
0
100
AcDbLine
 10
112.920203826683
 20
14.635235595772
 30
0.0
 11
113.003376612502
 21
12.691600026012
 31
0.0
  0
LINE
  5
821
330
1D
100
AcDbEntity
  8
0
100
AcDbLine
 10
113.003376612502
 20
12.691600026012
 30
0.0
 11
113.531684985032
 21
11.247557141097
 31
0.0
  0
LINE
  5
822
330
1D
100
AcDbEntity
  8
0
100
AcDbLine
 10
113.531684985032
 20
11.247557141097
 30
0.0
 11
114.62352228826
 21
10.190940396037
 31
0.0
  0
LINE
  5
823
330
1D
100
AcDbEntity
  8
0
100
AcDbLine
 10
114.62352228826
 20
10.190940396037
 30
0.0
 11
116.067565173175
 21
10.050058163363
 31
0.0
  0
LINE
  5
824
330
1D
100
AcDbEntity
  8
0
100
AcDbLine
 10
116.067565173175
 20
10.050058163363
 30
0.0
 11
117.722931407101
 21
10.824910443073
 31
0.0
  0
LINE
  5
825
330
1D
100
AcDbEntity
  8
0
100
AcDbLine
 10
117.722931407101
 20
10.824910443073
 30
0.0
 11
118.638665919486
 21
12.128071095313
 31
0.0
  0
LINE
  5
826
330
1D
100
AcDbEntity
  8
0
100
AcDbLine
 10
118.638665919486
 20
12.128071095313
 30
0.0
 11
118.836
 21
13.6316
 31
0.0
  0
LINE
  5
827
330
1D
100
AcDbEntity
  8
0
100
AcDbLine
 10
156.217
 20
13.818
 30
0.0
 11
156.85401932718
 21
12.215963437065
 31
0.0
  0
LINE
  5
828
330
1D
100
AcDbEntity
  8
0
100
AcDbLine
 10
156.85401932718
 20
12.215963437065
 30
0.0
 11
158.183296083256
 21
11.015326367062
 31
0.0
  0
LINE
  5
829
330
1D
100
AcDbEntity
  8
0
100
AcDbLine
 10
158.183296083256
 20
11.015326367062
 30
0.0
 11
159.941371792904
 21
10.543647518132
 31
0.0
  0
LINE
  5
82A
330
1D
100
AcDbEntity
  8
0
100
AcDbLine
 10
159.941371792904
 20
10.543647518132
 30
0.0
 11
161.227768653622
 21
11.101086157776
 31
0.0
  0
LINE
  5
82B
330
1D
100
AcDbEntity
  8
0
100
AcDbLine
 10
161.227768653622
 20
11.101086157776
 30
0.0
 11
162.128246456125
 21
12.430362913852
 31
0.0
  0
LINE
  5
82C
330
1D
100
AcDbEntity
  8
0
100
AcDbLine
 10
162.128246456125
 20
12.430362913852
 30
0.0
 11
162.21400624684
 21
13.802519565285
 31
0.0
  0
LINE
  5
82D
330
1D
100
AcDbEntity
  8
0
100
AcDbLine
 10
162.21400624684
 20
13.802519565285
 30
0.0
 11
162.126
 21
14.8591
 31
0.0
  0
LINE
  5
82E
330
1D
100
AcDbEntity
  8
0
100
AcDbLine
 10
202.778
 20
29.5434
 30
0.0
 11
202.822290037537
 21
27.923966254761
 31
0.0
  0
LINE
  5
82F
330
1D
100
AcDbEntity
  8
0
100
AcDbLine
 10
202.822290037537
 20
27.923966254761
 30
0.0
 11
202.449839457982
 21
26.921214694419
 31
0.0
  0
LINE
  5
830
330
1D
100
AcDbEntity
  8
0
100
AcDbLine
 10
202.449839457982
 20
26.921214694419
 30
0.0
 11
201.561688075964
 21
26.061713356983
 31
0.0
  0
LINE
  5
831
330
1D
100
AcDbEntity
  8
0
100
AcDbLine
 10
201.561688075964
 20
26.061713356983
 30
0.0
 11
200.472986381878
 21
25.74656286659
 31
0.0
  0
LINE
  5
832
330
1D
100
AcDbEntity
  8
0
100
AcDbLine
 10
200.472986381878
 20
25.74656286659
 30
0.0
 11
199.126434286561
 21
25.918463134077
 31
0.0
  0
LINE
  5
833
330
1D
100
AcDbEntity
  8
0
100
AcDbLine
 10
199.126434286561
 20
25.918463134077
 30
0.0
 11
197.980432503313
 21
26.577414159445
 31
0.0
  0
LINE
  5
834
330
1D
100
AcDbEntity
  8
0
100
AcDbLine
 10
197.980432503313
 20
26.577414159445
 30
0.0
 11
197.188
 21
27.8192
 31
0.0
  0
ENDSEC
  0
SECTION
  2
OBJECTS
  0
DICTIONARY
  5
C
330
0
100
AcDbDictionary
281
     1
  3
ACAD_GROUP
350
D
  3
ACAD_LAYOUT
350
1A
  3
ACAD_MLEADERSTYLE
350
837
  3
ACAD_MLINESTYLE
350
17
  3
ACAD_PLOTSETTINGS
350
19
  3
ACAD_PLOTSTYLENAME
350
E
  3
ACAD_SCALELIST
350
7BC
  3
AcDbVariableDictionary
350
835
  3
DWGPROPS
350
83A
  0
DICTIONARY
  5
D
102
{ACAD_REACTORS
330
C
102
}
330
C
100
AcDbDictionary
281
     1
  0
DICTIONARY
  5
1A
102
{ACAD_REACTORS
330
C
102
}
330
C
100
AcDbDictionary
281
     1
  3
Layout1
350
1C
  3
Model
350
1E
  0
DICTIONARY
  5
837
102
{ACAD_REACTORS
330
C
102
}
330
C
100
AcDbDictionary
281
     1
  0
DICTIONARY
  5
17
102
{ACAD_REACTORS
330
C
102
}
330
C
100
AcDbDictionary
281
     1
  3
Standard
350
18
  0
DICTIONARY
  5
19
102
{ACAD_REACTORS
330
C
102
}
330
C
100
AcDbDictionary
281
     1
  0
ACDBDICTIONARYWDFLT
  5
E
102
{ACAD_REACTORS
330
C
102
}
330
C
100
AcDbDictionary
281
     1
  3
Normal
350
F
100
AcDbDictionaryWithDefault
340
F
  0
DICTIONARY
  5
7BC
102
{ACAD_REACTORS
330
C
102
}
330
C
100
AcDbDictionary
281
     1
  3
A0
350
7BD
  3
A1
350
7BE
  3
A2
350
7BF
  3
A3
350
7C0
  3
A4
350
7C1
  3
A5
350
7C2
  3
A6
350
7C3
  3
A7
350
7C4
  3
A8
350
7C5
  3
A9
350
7C6
  3
B0
350
7C7
  3
B1
350
7C8
  3
B2
350
7C9
  3
B3
350
7CA
  3
B4
350
7CB
  3
B5
350
7CC
  3
B6
350
7CD
  3
B7
350
7CE
  3
B8
350
7CF
  3
B9
350
7D0
  3
C0
350
7D1
  3
C1
350
7D2
  3
C2
350
7D3
  3
C3
350
7D4
  3
C4
350
7D5
  3
C5
350
7D6
  3
C6
350
7D7
  3
C7
350
7D8
  3
C8
350
7D9
  3
C9
350
7DA
  3
D0
350
7DB
  3
D1
350
7DC
  3
D2
350
7DD
  0
DICTIONARY
  5
835
102
{ACAD_REACTORS
330
C
102
}
330
C
100
AcDbDictionary
281
     1
  3
CANNOSCALE
350
838
  0
XRECORD
  5
83A
102
{ACAD_REACTORS
330
C
102
}
330
C
100
AcDbXrecord
280
     1
  1
DWGPROPS COOKIE
  2

  3

  4

  6

  7

  8
MARTIN
  9

300
=
301
=
302
=
303
=
304
=
305
=
306
=
307
=
308
=
309
=
 40
0.0
 41
2456647.903723044
 42
2456647.917014606
  1

 90
        0
  0
LAYOUT
  5
1C
102
{ACAD_REACTORS
330
1A
102
}
330
1A
100
AcDbPlotSettings
  1

  2
none_device
  4

  6

 40
0.0
 41
0.0
 42
0.0
 43
0.0
 44
0.0
 45
0.0
 46
0.0
 47
0.0
 48
0.0
 49
0.0
140
0.0
141
0.0
142
1.0
143
1.0
 70
   688
 72
     0
 73
     0
 74
     5
  7

 75
    16
147
1.0
148
0.0
149
0.0
100
AcDbLayout
  1
Layout1
 70
     1
 71
     1
 10
0.0
 20
0.0
 11
12.0
 21
9.0
 12
0.0
 22
0.0
 32
0.0
 14
1.000000000000E+20
 24
1.000000000000E+20
 34
1.000000000000E+20
 15
-1.000000000000E+20
 25
-1.000000000000E+20
 35
-1.000000000000E+20
146
0.0
 13
0.0
 23
0.0
 33
0.0
 16
1.0
 26
0.0
 36
0.0
 17
0.0
 27
1.0
 37
0.0
 76
     0
330
1B
  0
LAYOUT
  5
1E
102
{ACAD_REACTORS
330
1A
102
}
330
1A
100
AcDbPlotSettings
  1

  2
none_device
  4

  6

 40
0.0
 41
0.0
 42
0.0
 43
0.0
 44
0.0
 45
0.0
 46
0.0
 47
0.0
 48
0.0
 49
0.0
140
0.0
141
0.0
142
1.0
143
1.0
 70
  1712
 72
     0
 73
     0
 74
     0
  7

 75
     0
147
1.0
148
0.0
149
0.0
100
AcDbLayout
  1
Model
 70
     1
 71
     0
 10
0.0
 20
0.0
 11
12.0
 21
9.0
 12
0.0
 22
0.0
 32
0.0
 14
0.0
 24
0.0
 34
0.0
 15
274.0
 25
658.0
 35
0.0
146
0.0
 13
0.0
 23
0.0
 33
0.0
 16
1.0
 26
0.0
 36
0.0
 17
0.0
 27
1.0
 37
0.0
 76
     0
330
1D
331
7B7
  0
MLINESTYLE
  5
18
102
{ACAD_REACTORS
330
17
102
}
330
17
100
AcDbMlineStyle
  2
Standard
 70
     0
  3

 62
   256
 51
90.0
 52
90.0
 71
     2
 49
0.5
 62
   256
  6
BYLAYER
 49
-0.5
 62
   256
  6
BYLAYER
  0
ACDBPLACEHOLDER
  5
F
102
{ACAD_REACTORS
330
E
102
}
330
E
  0
SCALE
  5
7BD
102
{ACAD_REACTORS
330
7BC
102
}
330
7BC
100
AcDbScale
 70
     0
300
1:1
140
1.0
141
1.0
290
     1
  0
SCALE
  5
7BE
102
{ACAD_REACTORS
330
7BC
102
}
330
7BC
100
AcDbScale
 70
     0
300
1:2
140
1.0
141
2.0
290
     0
  0
SCALE
  5
7BF
102
{ACAD_REACTORS
330
7BC
102
}
330
7BC
100
AcDbScale
 70
     0
300
1:4
140
1.0
141
4.0
290
     0
  0
SCALE
  5
7C0
102
{ACAD_REACTORS
330
7BC
102
}
330
7BC
100
AcDbScale
 70
     0
300
1:5
140
1.0
141
5.0
290
     0
  0
SCALE
  5
7C1
102
{ACAD_REACTORS
330
7BC
102
}
330
7BC
100
AcDbScale
 70
     0
300
1:8
140
1.0
141
8.0
290
     0
  0
SCALE
  5
7C2
102
{ACAD_REACTORS
330
7BC
102
}
330
7BC
100
AcDbScale
 70
     0
300
1:10
140
1.0
141
10.0
290
     0
  0
SCALE
  5
7C3
102
{ACAD_REACTORS
330
7BC
102
}
330
7BC
100
AcDbScale
 70
     0
300
1:16
140
1.0
141
16.0
290
     0
  0
SCALE
  5
7C4
102
{ACAD_REACTORS
330
7BC
102
}
330
7BC
100
AcDbScale
 70
     0
300
1:20
140
1.0
141
20.0
290
     0
  0
SCALE
  5
7C5
102
{ACAD_REACTORS
330
7BC
102
}
330
7BC
100
AcDbScale
 70
     0
300
1:30
140
1.0
141
30.0
290
     0
  0
SCALE
  5
7C6
102
{ACAD_REACTORS
330
7BC
102
}
330
7BC
100
AcDbScale
 70
     0
300
1:40
140
1.0
141
40.0
290
     0
  0
SCALE
  5
7C7
102
{ACAD_REACTORS
330
7BC
102
}
330
7BC
100
AcDbScale
 70
     0
300
1:50
140
1.0
141
50.0
290
     0
  0
SCALE
  5
7C8
102
{ACAD_REACTORS
330
7BC
102
}
330
7BC
100
AcDbScale
 70
     0
300
1:100
140
1.0
141
100.0
290
     0
  0
SCALE
  5
7C9
102
{ACAD_REACTORS
330
7BC
102
}
330
7BC
100
AcDbScale
 70
     0
300
2:1
140
2.0
141
1.0
290
     0
  0
SCALE
  5
7CA
102
{ACAD_REACTORS
330
7BC
102
}
330
7BC
100
AcDbScale
 70
     0
300
4:1
140
4.0
141
1.0
290
     0
  0
SCALE
  5
7CB
102
{ACAD_REACTORS
330
7BC
102
}
330
7BC
100
AcDbScale
 70
     0
300
8:1
140
8.0
141
1.0
290
     0
  0
SCALE
  5
7CC
102
{ACAD_REACTORS
330
7BC
102
}
330
7BC
100
AcDbScale
 70
     0
300
10:1
140
10.0
141
1.0
290
     0
  0
SCALE
  5
7CD
102
{ACAD_REACTORS
330
7BC
102
}
330
7BC
100
AcDbScale
 70
     0
300
100:1
140
100.0
141
1.0
290
     0
  0
SCALE
  5
7CE
102
{ACAD_REACTORS
330
7BC
102
}
330
7BC
100
AcDbScale
 70
     0
300
1/128" = 1'-0"
140
0.0078125
141
12.0
290
     0
  0
SCALE
  5
7CF
102
{ACAD_REACTORS
330
7BC
102
}
330
7BC
100
AcDbScale
 70
     0
300
1/64" = 1'-0"
140
0.015625
141
12.0
290
     0
  0
SCALE
  5
7D0
102
{ACAD_REACTORS
330
7BC
102
}
330
7BC
100
AcDbScale
 70
     0
300
1/32" = 1'-0"
140
0.03125
141
12.0
290
     0
  0
SCALE
  5
7D1
102
{ACAD_REACTORS
330
7BC
102
}
330
7BC
100
AcDbScale
 70
     0
300
1/16" = 1'-0"
140
0.0625
141
12.0
290
     0
  0
SCALE
  5
7D2
102
{ACAD_REACTORS
330
7BC
102
}
330
7BC
100
AcDbScale
 70
     0
300
3/32" = 1'-0"
140
0.09375
141
12.0
290
     0
  0
SCALE
  5
7D3
102
{ACAD_REACTORS
330
7BC
102
}
330
7BC
100
AcDbScale
 70
     0
300
1/8" = 1'-0"
140
0.125
141
12.0
290
     0
  0
SCALE
  5
7D4
102
{ACAD_REACTORS
330
7BC
102
}
330
7BC
100
AcDbScale
 70
     0
300
3/16" = 1'-0"
140
0.1875
141
12.0
290
     0
  0
SCALE
  5
7D5
102
{ACAD_REACTORS
330
7BC
102
}
330
7BC
100
AcDbScale
 70
     0
300
1/4" = 1'-0"
140
0.25
141
12.0
290
     0
  0
SCALE
  5
7D6
102
{ACAD_REACTORS
330
7BC
102
}
330
7BC
100
AcDbScale
 70
     0
300
3/8" = 1'-0"
140
0.375
141
12.0
290
     0
  0
SCALE
  5
7D7
102
{ACAD_REACTORS
330
7BC
102
}
330
7BC
100
AcDbScale
 70
     0
300
1/2" = 1'-0"
140
0.5
141
12.0
290
     0
  0
SCALE
  5
7D8
102
{ACAD_REACTORS
330
7BC
102
}
330
7BC
100
AcDbScale
 70
     0
300
3/4" = 1'-0"
140
0.75
141
12.0
290
     0
  0
SCALE
  5
7D9
102
{ACAD_REACTORS
330
7BC
102
}
330
7BC
100
AcDbScale
 70
     0
300
1" = 1'-0"
140
1.0
141
12.0
290
     0
  0
SCALE
  5
7DA
102
{ACAD_REACTORS
330
7BC
102
}
330
7BC
100
AcDbScale
 70
     0
300
1-1/2" = 1'-0"
140
1.5
141
12.0
290
     0
  0
SCALE
  5
7DB
102
{ACAD_REACTORS
330
7BC
102
}
330
7BC
100
AcDbScale
 70
     0
300
3" = 1'-0"
140
3.0
141
12.0
290
     0
  0
SCALE
  5
7DC
102
{ACAD_REACTORS
330
7BC
102
}
330
7BC
100
AcDbScale
 70
     0
300
6" = 1'-0"
140
6.0
141
12.0
290
     0
  0
SCALE
  5
7DD
102
{ACAD_REACTORS
330
7BC
102
}
330
7BC
100
AcDbScale
 70
     0
300
1'-0" = 1'-0"
140
12.0
141
12.0
290
     0
  0
DICTIONARYVAR
  5
838
102
{ACAD_REACTORS
330
835
102
}
330
835
100
DictionaryVariables
280
     0
  1
1:1
  0
ENDSEC
  0
SECTION
  2
THUMBNAILIMAGE
 90
    16364
310
28000000B40000005500000001000800000000000000000000000000000000000000000000000000FFFFFF000000FF0000FFFF0000FF0000FFFF0000FF000000FF00FF000000000080808000C0C0C0000000FF007F7FFF000000A5005252A50000007F003F3F7F0000004C0026264C000000260013132600003FFF007F9FFF
310
000029A5005267A500001F7F003F4F7F0000134C00262F4C000009260013172600007FFF007FBFFF000052A500527CA500003F7F003F5F7F0000264C0026394C0000132600131C260000BFFF007FDFFF00007CA5005291A500005F7F003F6F7F0000394C0026424C00001C26001321260000FFFF007FFFFF0000A5A50052A5
310
A500007F7F003F7F7F00004C4C00264C4C00002626001326260000FFBF007FFFDF0000A57C0052A59100007F5F003F7F6F00004C3900264C420000261C001326210000FF7F007FFFBF0000A5520052A57C00007F3F003F7F5F00004C2600264C39000026130013261C0000FF3F007FFF9F0000A5290052A56700007F1F003F
310
7F4F00004C1300264C2F00002609001326170000FF00007FFF7F0000A5000052A55200007F00003F7F3F00004C0000264C260000260000132613003FFF00009FFF7F0029A5000067A552001F7F00004F7F3F00134C00002F4C260009260000172613007FFF0000BFFF7F0052A500007CA552003F7F00005F7F3F00264C0000
310
394C2600132600001C261300BFFF0000DFFF7F007CA5000091A552005F7F00006F7F3F00394C0000424C26001C26000021261300FFFF0000FFFF7F00A5A50000A5A552007F7F00007F7F3F004C4C00004C4C26002626000026261300FFBF0000FFDF7F00A57C0000A59152007F5F00007F6F3F004C3900004C422600261C00
310
0026211300FF7F0000FFBF7F00A5520000A57C52007F3F00007F5F3F004C2600004C39260026130000261C1300FF3F0000FF9F7F00A5290000A56752007F1F00007F4F3F004C1300004C2F26002609000026171300FF000000FF7F7F00A5000000A55252007F0000007F3F3F004C0000004C2626002600000026131300FF00
310
3F00FF7F9F00A5002900A55267007F001F007F3F4F004C0013004C262F002600090026131700FF007F00FF7FBF00A5005200A5527C007F003F007F3F5F004C0026004C2639002600130026131C00FF00BF00FF7FDF00A5007C00A55291007F005F007F3F6F004C0039004C26420026001C0026132100FF00FF00FF7FFF00A5
310
00A500A552A5007F007F007F3F7F004C004C004C264C002600260026132600BF00FF00DF7FFF007C00A5009152A5005F007F006F3F7F0039004C0042264C001C002600211326007F00FF00BF7FFF005200A5007C52A5003F007F005F3F7F0026004C0039264C00130026001C1326003F00FF009F7FFF002900A5006752A500
310
1F007F004F3F7F0013004C002F264C000900260017132600000000002D2D2D005B5B5B0089898900B7B7B700B3B3B30000000000000000000000000000000000000000000000000000000000000000000000000000000000000000000000000000000000000000000000000000000000000000000000000000000000000000
310
00000000000000070707070707070707000000000000000000000000000000000000000000000000000000000000000000000000000000000000000000000000000000000000000000000000000000000000000000000000000000000000000000000000000000000000000000000000000000000000000000000000000000
310
00000000000000000000000000000000000000000000000000000000000000000000000000000000000000000000000000000000000000000007070707070707000707070707070700000000000000000000000000000000000000000000000000000000000000000000000000000000000000000000000000000000000000
310
00000000000000000000000000000000000000000000000000000000000000000000000000000000000000000000000000000000000000000000000000000000000000000000000000000000000000000000000000000000000000000000000000000000000000000000000007070700000007070000000707000000070707
310
00000000000000000000000000000000000000000000000000000000000000000000000000000000000000000000000000000000000000000000000000000000000000000000000000000000000000000000000000000000000000000000000000000000000000000000000000000000000000000000000000000000000000
310
00000000000000000000000000000000000000000000000000000000000000000007070707000000070700000007070000000007070700000000000000000000000000000000000000000000000000000000000000000000000000000000000000000000000000000000000000000000000000000000000000000000000000
310
00000000000000000000000000000000000000000000000000000000000000000000000000000000000000000000000000000000000000000000000000000000000000000000000000000000000000000000000000070000070700000007070000000707000000070700000700000000000000000000000000000000000000
310
00000000000000000000000000000000000000000000000000000000000000000000000000000000000000000000000000000000000000000000000000000000000000000000000000000000000000000000000000000000000000000000000000000000000000000000000000000000000000000000000000000000000000
310
00000000000000000000070000000007070000000707000707000000000700000000070000000000000000000000000000000000000000000000000000000000000000000000000000000000000000000000000000000000000000000000000000000000000000000000000000000000000000000000000000000000000000
310
00000000000000000000000000000000000000000000000000000000000000000000000000000000000000000000000000000000000000000000000000000700000000000707000000070700070700000007070000000000070000000000000000000000000000000000000000000000000000000000000000000000000000
310
00000000000000000000000000000000000000000000000000000000000000000000000000000000000000000000000000000000000000000000000000000000000000000000000000000000000000000000000000000000000000000000000000000000000000000000000000000000000007000700000000000707000007
310
07000707000000070000000000070707000000000000000000000000000000000000000000000000000000000000000000000000000000000000000000000000000000000000000000000000000000000000000000000000000000000000000000000000000000000000000000000000000000000000000000000000000000
310
00000000000000000000000000000000000000000000000000000000000000000000000000000007070000070700000007070000070700070700000707000000000700000700000000000000000000000000000000000000000000000000000000000000000000000000000000000000000000000000000000000000000000
310
00000000000000000000000000000000000000000000000000000000000000000000000000000000000000000000000000000000000000000000000000000000000000000000000000000000000000000000000000000000000000000707000000070707000007070007070007070007070000000707000000070700000000
310
00000000000000000000000000000000000000000000000000000000000000000000000000000000000000000000000000000000000000000000000000000000000000000000000000000000000000000000000000000000000000000000000000000000000000000000000000000000000000000000000000000000000000
310
00000000000000000000000000000000000707000000000007000700070707070707070707070700000707000000000007070000000000000000000000000000000000000000000000000000000000000000000000000000000000000000000000000000000000000000000000000000000000000000000000000000000000
310
00000000000000000000000000000000000000000000000000000000000000000000000000000000000000000000000000000000000000000000000000000000000000000000070707000000000007070707070700070707000707070707070000000000000707000000000000000000000000000000000000000000000000
310
00000000000000000000000000000000000000000000000000000000000000000000000000000000000000000000000000000000000000000000000000000000000000000000000000000000000000000000000000000000000000000000000000000000000000000000000000000000000000000000000000000707070707
310
07070000000707070007070707070707000707070000000000070707070000000000000000000000000000000000000000000000000000000000000000000000000000000000000000000000000000000000000000000000000000000000000000000000000000000000000000000000000000000000000000000000000000
310
00000000000000000000000000000000000000000000000000000000000000000000000000000000000000000000000007070000070700070700000707000707070707070700070700000707070707000007070000000000000000000000000000000000000000000000000000000000000000000000000000000000000000
310
00000000000000000000000000000000000000000000000000000000000000000000000000000000000000000000000000000000000000000000000000000000000000000000000000000000000000000000000000000000000000000000000000000000000707000000000707070707070007070000000000070700070707
310
07070700000000070700000000000000000000000000000000000000000000000000000000000000000000000000000000000000000000000000000000000000000000000000000000000000000000000000000000000000000000000000000000000000000000000000000000000000000000000000000000000000000000
310
00000000000000000000000000000000000000000000000000000007000000000000000007070707070000070707000007070707070000000000000007070000000000000000000000000000000000000000000000000000000000000000000000000000000000000000000000000000000000000000000000000000000000
310
00000000000000000000000000000000000000000000000000000000000000000000000000000000000000000000000000000000000000000000000000000000000000000000000000000000000000000700000000000000000007070707000707070707000707070700000000000000000007000000000000000000000000
310
00000000000000000000000000000000000000000000000000000000000000000000000000000000000000000000000000000000000000000000000000000000000000000000000000000000000000000000000000000000000000000000000000000000000000000000000000000000000000000000000000000000000000
310
00000000000007070707070707070707070707000007070007070000070707070707070707070707000000000000000000000000000000000000000000000000000000000000000000000000000000000000000000000000000000000000000000000000000000000000000000000000000000000000000000000000000000
310
00000000000000000000000000000000000000000000000000000000000000000000000000000000000000000000000000000000000000000000000700000000000000000007000700000707070707000007070707070707070707070707000000000000000000000000000000000000000000000000000000000000000000
310
00000000000000000000000000000000000000000000000000000000000000000000000000000000000000000000000000000000000000000000000000000000000000000000000000000000000000000000000000000000000000000000000000000000000000000000000000000000070000000000000000000707070700
310
07070007070007070707000000000000000000070000000000000000000000000000000000000000000000000000000000000000000000000000000000000000000000000000000000000000000000000000000000000000000000000000000000000000000000000000000000000000000000000000000000000000000000
310
00000000000000000000000000000000000000000000000000000000000000000000000000000707000000000707070707000707070007070700070707000707070707000000000707000000000000000000000000000000000000000000000000000000000000000000000000000000000000000000000000000000000000
310
00000000000000000000000000000000000000000000000000000000000000000000000000000000000000000000000000000000000000000000000000000000000000000000000000000000000000000000000000000000000000070700000707000707070007070707070700070707070707000707070007070000070700
310
00000000000000000000000000000000000000000000000000000000000000000000000000000000000000000000000000000000000000000000000000000000000000000000000000000000000000000000000000000000000000000000000000000000000000000000000000000000000000000000000000000000000000
310
00000000000000000000000000000000000707070707070700000007070700070707000707070007070700000007070707070707000000000000000000000000000000000000000000000000000000000000000000000000000000000000000000000000000000000000000000000000000000000000000000000000000000
310
00000000000000000000000000000000000000000000000000000000000000000000000000000000000000000000000000000000000000000000000000000000000000000000000707070000000000070707070707000700070007070707070700000000000707070000000000000000000000000000000000000000000000
310
00000000000000000000000000000000000000000000000000000000000000000000000000000000000000000000000000000000000000000000000000000000000000000000000000000000000000000000000000000000000000000000000000000000000000000000000000000000000000000000000000000000070700
310
00000000070007000707070707000707070707000700070000000000070700000000000000000000000000000000000000000000000000000000000000000000000000000000000000000000000000000000000000000000000000000000000000000000000000000000000000000000000000000000000000000000000000
310
00000000000000000000000000000000000000000000000000000000000000000000000000000000000000000000000000000707000000000700070000070700070700070700070700000700070000000700070000000000000000000000000000000000000000000000000000000000000000000000000000000000000000
310
00000000000000000000000000000000000000000000000000000000000000000000000000000000000000000000000000000000000000000000000000000000000000000000000000000000000000000000000000000000000000000000000000000000000000000707000007070700000007070007070007070007070000
310
00070707000007070000000000000000000000000000000000000000000000000000000000000000000000000000000000000000000000000000000000000000000000000000000000000000000000000000000000000000000000000000000000000000000000000000000000000000000000000000000000000000000000
310
00000000000000000000000000000000000000000000000000000000000000070707070000000007000000070700070700000707000000000707000700000000000000000000000000000000000000000000000000000000000000000000000000000000000000000000000000000000000000000000000000000000000000
310
00000000000000000000000000000000000000000000000000000000000000000000000000000000000000000000000000000000000000000000000000000000000000000000000000000000000000000000000000070700000000000700000007070007070000000700000000000707000000000000000000000000000000
310
00000000000000000000000000000000000000000000000000000000000000000000000000000000000000000000000000000000000000000000000000000000000000000000000000000000000000000000000000000000000000000000000000000000000000000000000000000000000000000000000000000000000000
310
00000000000000000000000007000000000700000000070700070700000007070000000007000000000000000000000000000000000000000000000000000000000000000000000000000000000000000000000000000000000000000000000000000000000000000000000000000000000000000000000000000000000000
310
00000000000000000000000000000000000000000000000000000000000000000000000000000000000000000000000000000000000000000000000000000000000007000000070000000707070007070000000007000000070000000000000000000000000000000000000000000000000000000000000000000000000000
310
00000000000000000000000000000000000000000000000000000000000000000000000000000000000000000000000000000000000000000000000000000000000000000000000000000000000000000000000000000000000000000000000000000000000000000000000000000000000000000000000007000700000000
310
07070700070707000000070700070000000000000000000000000000000000000000000000000000000000000000000000000000000000000000000000000000000000000000000000000000000000000000000000000000000000000000000000000000000000000000000000000000000000000000000000000000000000
310
00000000000000000000000000000000000000000000000000000000000000000000000000000000000000000000000707070000000707070007070700000007070700000000000000000000000000000000000000000000000000000000000000000000000000000000000000000000000000000000000000000000000000
310
00000000000000000000000000000000000000000000000000000000000000000000000000000000000000000000000000000000000000000000000000000000000000000000000000000000000000000000000000000000000000000000000000000000000707070707070707000707070707070707000000000000000000
310
00000000000000000000000000000000000000000000000000000000000000000000000000000000000000000000000000000000000000000000000000000000000000000000000000000000000000000000000000000000000000000000000000000000000000000000000000000000000000000000000000000000000000
310
00000000000000000000000000000000000000000000000000000000000007070707070007070707070000000000000000000000000000000000000000000000000000000000000000000000000000000000000000000000000000000000000000000000000000000000000000000000000000000000000000000000000000
310
00000000000000000000000000000000000000000000000000000000000000000000000000000000000000000000000000000000000000000000000000000000000000000000000000000000000000000000000000000007000700000000000000000000000000000000000000000000000000000000000000000000000000
310
00000000000000000000000000000000000000000000000000000000000000000000000000000000000000000000000000000000000000000000000000000000000000000000000000000000000000000000000000000000000000000000000000000000000000000000000000000000000000000000000000000000000000
310
00000000000000000000000000070007000000000000000000000000000000000000000000000000000000000000000000000000000000000000000000000000000000000000000000000000000000000000000000000000000000000000000000000000000000000000000000000000000000000000000000000000000000
310
00000000000000000000000000000000000000000000000000000000000000000000000000000000000000000000000000000000000000000000000000000000000007000700000000000000000000000000000000000000000000000000000000000000000000000000000000000000000000000000000000000000000000
310
00000000000000000000000000000000000000000000000000000000000000000000000000000000000000000000000000000000000000000000000000000000000000000000000000000000000000000000000000000000000000000000000000000000000000000000000000000000000000000000000700070000000000
310
00000000000000000000000000000000000000000000000000000000000000000000000000000000000000000000000000000000000000000000000000000000000000000000000000000000000000000000000000000000000000000000000000000000000000000000000000000000000000000000000000000000000000
310
00000000000000000000000000000000000000000000000000000000000000000000000000000000000000000007000700000000000000000000000000000000000000000000000000000000000000000000000000000000000000000000000000000000000000000000000000000000000000000000000000000000000000
310
00000000000000000000000000000000000000000000000000000000000000000000000000000000000000000000000000000000000000000000000000000000000000000000000000000000000000000000000000000000000000000000000000000700070000000000000000000000000000000000000000000000000000
310
00000000000000000000000000000000000000000000000000000000000000000000000000000000000000000000000000000000000000000000000000000000000000000000000000000000000000000000000000000000000000000000000000000000000000000000000000000000000000000000000000000000000000
310
00000000000000000000000000000000000000000000000007000700000000000000000000000000000000000000000000000000000000000000000000000000000000000000000000000000000000000000000000000000000000000000000000000000000000000000000000000000000000000000000000000000000000
310
00000000000000000000000000000000000000000000000000000000000000000000000000000000000000000000000000000000000000000000000000000000000000000000000000000000000700070000000000000000000000000000000000000000000000000000000000000000000000000000000000000000000000
310
00000000000000000000000000000000000000000000000000000000000000000000000000000000000000000000000000000000000000000000000000000000000000000000000000000000000000000000000000000000000000000000000000000000000000000000000000000000000000000000000000000000000000
310
00000007000700000000000000000000000000000000000000000000000000000000000000000000000000000000000000000000000000000000000000000000000000000000000000000000000000000000000000000000000000000000000000000000000000000000000000000000000000000000000000000000000000
310
00000000000000000000000000000000000000000000000000000000000000000000000000000000000000000000000000000000000000000700070000000000000000000000000000000000000000000000000000000000000000000000000000000000000000000000000000000000000000000000000000000000000000
310
00000000000000000000000000000000000000000000000000000000000000000000000000000000000000000000000000000000000000000000000000000000000000000000000000000000000000000000000000000000000000000000000000000000000000000000000000070007000000000000000000000000000000
310
00000000000000000000000000000000000000000000000000000000000000000000000000000000000000000000000000000000000000000000000000000000000000000000000000000000000000000000000000000000000000000000000000000000000000000000000000000000000000000000000000000000000000
310
00000000000000000000000000000000000000000000000000000000000000000000000700070000000000000000000000000000000000000000000000000000000000000000000000000000000000000000000000000000000000000000000000000000000000000000000000000000000000000000000000000000000000
310
00000000000000000000000000000000000000000000000000000000000000000000000000000000000000000000000000000000000000000000000000000000000000000000000000000000000000000000000000000000070007000000000000000000000000000000000000000000000000000000000000000000000000
310
00000000000000000000000000000000000000000000000000000000000000000000000000000000000000000000000000000000000000000000000000000000000000000000000000000000000000000000000000000000000000000000000000000000000000000000000000000000000000000000000000000000000000
310
00000000000000000000000000000700070000000000000000000000000000000000000000000000000000000000000000000000000000000000000000000000000000000000000000000000000000000000000000000000000000000000000000000000000000000000000000000000000000000000000000000000000000
310
00000000000000000000000000000000000000000000000000000000000000000000000000000000000000000000000000000000000000000000000000000000000000070007000000000000000000000000000000000000000000000000000000000000000000000000000000000000000000000000000000000000000000
310
00000000000000000000000000000000000000000000000000000000000000000000000000000000000000000000000000000000000000000000000000000000000000000000000000000000000000000000000000000000000000000000000000000000000000000000000000000000000000000000000007000700000000
310
00000000000000000000000000000000000000000000000000000000000000000000000000000000000000000000000000000000000000000000000000000000000000000000000000000000000000000000000000000000000000000000000000000000000000000000000000000000000000000000000000000000000000
310
00000000000000000000000000000000000000000000000000000000000000000000000000000000000000000000070007000000000000000000000000000000000000000000000000000000000000000000000000000000000000000000000000000000000000000000000000000000000000000000000000000000000000
310
00000000000000000000000000000000000000000000000000000000000000000000000000000000000000000000000000000000000000000000000000000000000000000000000000000000000000000000000000000000000000000000000000000007000700000000000000000000000000000000000000000000000000
310
00000000000000000000000000000000000000000000000000000000000000000000000000000000000000000000000000000000000000000000000000000000000000000000000000000000000000000000000000000000000000000000000000000000000000000000000000000000000000000000000000000000000000
310
00000000000000000000000000000000000000000000000000070007000000000000000000000000000000000000000000000000000000000000000000000000000000000000000000000000000000000000000000000000000000000000000000000000000000000000000000000000000000000000000000000000000000
310
00000000000000000000000000000000000000000000000000000000000000000000000000000000000000000000000000000000000000000000000000000000000000000000000000000000000007000700000000000000000000000000000000000000000000000000000000000000000000000000000000000000000000
310
00000000000000000000000000000000000000000000000000000000000000000000000000000000000000000000000000000000000000000000000000000000000000000000000000000000000000000000000000000000000000000000000000000000000000000000000000000000000000000000000000000000000000
310
00000000070007000000000000000000000000000000000000000000000000000000000000000000000000000000000000000000000000000000000000000000000000000000000000000000000000000000000000000000000000000000000000000000000000000000000000000000000000000000000000000000000000
310
00000000000000000000000000000000000000000000000000000000000000000000000000000000000000000000000000000000000000000007000700000000000000000000000000000000000000000000000000000000000000000000000000000000000000000000000000000000000000000000000000000000000000
310
00000000000000000000000000000000000000000000000000000000000000000000000000000000000000000000000000000000000000000000000000000000000000000000000000000000000000000000000000000000000000000000000000000000000000000000000000000700070000000000000000000000000000
310
00000000000000000000000000000000000000000000000000000000000000000000000000000000000000000000000000000000000000000000000000000000000000000000000000000000000000000000000000000000000000000000000000000000000000000000000000000000000000000000000000000000000000
310
00000000000000000000000000000000000000000000000000000000000000000000000007000700000000000000000000000000000000000000000000000000000000000000000000000000000000000000000000000000000000000000000000000000000000000000000000000000000000000000000000000000000000
310
00000000000000000000000000000000000000000000000000000000000000000000000000000000000000000000000000000000000000000000000000000000000000000000000000000000000000000000000000000000000700070000000000000000000000000000000000000000000000000000000000000000000000
310
00000000000000000000000000000000000000000000000000000000000000000000000000000000000000000000000000000000000000000000000000000000000000000000000000000000000000000000000000000000000000000000000000000000000000000000000000000000000000000000000000000000000000
310
00000000000000000000000000000007000700000000000000000000000000000000000000000000000000000000000000000000000000000000000000000000000000000000000000000000000000000000000000000000000000000000000000000000000000000000000000000000000000000000000000000000000000
310
00000000000000000000000000000000000000000000000000000000000000000000000000000000000000000000000000000000000000000000000000000000000000000700070000000000000000000000000000000000000000000000000000000000000000000000000000000000000000000000000000000000000000
310
00000000000000000000000000000000000000000000000000000000000000000000000000000000000000000000000000000000000000000000000000000000000000000000000000000000000000000000000000000000000000000000000000000000000000000000000000000000000000000000000000070007000000
310
00000000000000000000000000000000000000000000000000000000000000000000000000000000000000000000000000000000000000000000000000000000000000000000000000000000000000000000000000000000000000000000000000000000000000000000000000000000000000000000000000000000000000
310
00000000000000000000000000000000000000000000000000000000000000000000000000000000000000000000000700070000000000000000000000000000000000000000000000000000000000000000000000000000000000000000000000000000000000000000000000000000000000000000000000000000000000
310
00000000000000000000000000000000000000000000000000000000000000000000000000000000000000000000000000000000000000000000000000000000000000000000000000000000000000000000000000000000000000000000000000000000070007000000000000000000000000000000000000000000000000
310
00000000000000000000000000000000000000000000000000000000000000000000000000000000000000000000000000000000000000000000000000000000000000000000000000000000000000000000000000000000000000000000000000000000000000000000000000000000000000000000000000000000000000
310
00000000000000000000000000000000000000000000000000070700070700000000000000000000000000000000000000000000000000000000000000000000000000000000000000000000000000000000000000000000000000000000000000000000000000000000000000000000000000000000000000000000000000
310
00000000000000000000000000000000000000000000000000000000000000000000000000000000000000000000000000000000000000000000000000000000000000000000000000000000000007070007070000000000000000000000000000000000000000000000000000000000000000000000000000000000000000
310
00000000000000000000000000000000000000000000000000000000000000000000000000000000000000000000000000000000000000000000000000000000000000000000000000000000000000000000000000000000000000000000000000000000000000000000000000000000000000000000000000000000000000
310
00000000070007000700000000000000000000000000000000000000000000000000000000000000000000000000000000000000000000000000000000000000000000000000000000000000000000000000000000000000000000000000000000000000000000000000000000000000000000000000000000000000000000
310
00000000000000000000000000000000000000000000000000000000000000000000000000000000000000000000000000000000070707070707070707070707070707000000000000000000000000000000000000000000000000000000000000000000000000000000000000000000000000000000000000000000000000
310
00000000000000000000000000000000000000000000000000000000000000000000000000000000000000000000000000000000000000000000000000000000000000000000000000000000000000000000000000000000000000000000000000000000000000000700000000000000000000000000000007000000000000
310
00000000000000000000000000000000000000000000000000000000000000000000000000000000000000000000000000000000000000000000000000000000000000000000000000000000000000000000000000000000000000000000000000000000000000000000000000000000000000000000000000000000000000
310
00000000000000000000000000000000000000000000000000000000000007000000000000000000000000000000070000000000000000000000000000000000000000000000000000000000000000000000000000000000000000000000000000000000000000000000000000000000000000000000000000000000000000
310
00000000000000000000000000000000000000000000000000000000000000000000000000000000000000000000000000000000000000000000000000000000000000000000000000000000000000000000000707070707070707070707070707070707000000000000000000000000000000000000000000000000000000
310
00000000000000000000000000000000000000000000000000000000000000000000000000000000000000000000000000000000000000000000000000000000000000000000000000000000000000000000000000000000000000000000000000000000000000000000000000000000000000000000000000000000000000
310
00000000000000000000000007000000000000000000070000000000000000000000000000000000000000000000000000000000000000000000000000000000000000000000000000000000000000000000000000000000000000000000000000000000000000000000000000000000000000000000000000000000000000
310
00000000000000000000000000000000000000000000000000000000000000000000000000000000000000000000000000000000000000000000000000000000000700000000000000000007000000000000000000000000000000000000000000000000000000000000000000000000000000000000000000000000000000
310
00000000000000000000000000000000000000000000000000000000000000000000000000000000000000000000000000000000000000000000000000000000000000000000000000000000000000000000000000000000000000000000000000000000000000000000000000000000000000000000070000000000000000
310
00070000000000000000000000000000000000000000000000000000000000000000000000000000000000000000000000000000000000000000000000000000000000000000000000000000000000000000000000000000000000000000000000000000000000000000000000000000000000000000000000000000000000
310
00000000000000000000000000000000000000000000000000000000000000000000000000000000000000000700000000000000000007000000000000000000000000000000000000000000000000000000000000000000000000000000000000000000000000000000000000000000000000000000000000000000000000
310
00000000000000000000000000000000000000000000000000000000000000000000000000000000000000000000000000000000000000000000000000000000000000000000000000000000000000000000000000000000000000000000000000070707070707070707070700000000000000000000000000000000000000
310
00000000000000000000000000000000000000000000000000000000000000000000000000000000000000000000000000000000000000000000000000000000000000000000000000000000000000000000000000000000000000000000000000000000000000000000000000000000000000000000000000000000000000
310
00000000000000000000000000000000000000000000000700000000000000000007000000000000000000000000000000000000000000000000000000000000000000000000000000000000000000000000000000000000000000000000000000000000000000000000000000000000000000000000000000000000000000
310
00000000000000000000000000000000000000000000000000000000000000000000000000000000000000000000000000000000000000000000000000000000000000000000000000000000070000000000000000000700000000000000000000000000000000000000000000000000000000000000000000000000000000
310
00000000000000000000000000000000000000000000000000000000000000000000000000000000000000000000000000000000000000000000000000000000000000000000000000000000000000000000000000000000000000000000000000000000000000000000000000000000000000000000000000000000000000
310
00000700000000000000000007000000000000000000000000000000000000000000000000000000000000000000000000000000000000000000000000000000000000000000000000000000000000000000000000000000000000000000000000000000000000000000000000000000000000000000000000000000000000
310
00000000000000000000000000000000000000000000000000000000000000000000000000000000000000000000000000000000000707070707070707070707070707070000000000000000000000000000000000000000000000000000000000000000000000000000000000000000000000000000000000000000000000
310
00000000000000000000000000000000000000000000000000000000000000000000000000000000000000000000000000000000000000000000000000000000000000000000000000000000000000000000000000000000000000000000000000000000000000000000070007000007070007070000070007000000000000
310
00000000000000000000000000000000000000000000000000000000000000000000000000000000000000000000000000000000000000000000000000000000000000000000000000000000000000000000000000000000000000000000000000000000000000000000000000000000000000000000000000000000000000
310
00000000000000000000000000000000000000000000000000000000000000070707070707070700070707070707070700000000000000000000000000000000000000000000000000000000000000000000000000000000000000000000000000000000000000000000000000000000000000000000000000000000000000
310
00000000000000000000000000000000000000000000000000000000000000000000000000000000000000000000000000000000000000000000000000000000000000000000000000000000000000000000000007070707070707070707070707070707070000000000000000000000000000000000000000000000000000
310
00000000000000000000000000000000000000000000000000000000000000000000000000000000000000000000000000000000000000000000000000000000000000000000000000000000000000000000000000000000000000000000000000000000000000000000000000000000000000000000000000000000000000
310
000000000000000000000000000000000000000000000000000000000000000000000000000000000000000000000000000000000000000000000000000000000000000000000000000000000000000000000000000000000000000000000000000000000000000000000000
  0
ENDSEC
  0
EOF
