  0
SECTION
  2
HEADER
  9
$ACADVER
  1
AC1015
  9
$ACADMAINTVER
 70
     6
  9
$DWGCODEPAGE
  3
ANSI_1252
  9
$INSBASE
 10
0.0
 20
0.0
 30
0.0
  9
$EXTMIN
 10
-0.1595
 20
0.378
 30
0.0
  9
$EXTMAX
 10
681.1595
 20
234.0
 30
0.0
  9
$LIMMIN
 10
0.0
 20
0.0
  9
$LIMMAX
 10
12.0
 20
9.0
  9
$ORTHOMODE
 70
     0
  9
$REGENMODE
 70
     1
  9
$FILLMODE
 70
     1
  9
$QTEXTMODE
 70
     0
  9
$MIRRTEXT
 70
     1
  9
$LTSCALE
 40
1.0
  9
$ATTMODE
 70
     1
  9
$TEXTSIZE
 40
0.2
  9
$TRACEWID
 40
0.05
  9
$TEXTSTYLE
  7
Standard
  9
$CLAYER
  8
0
  9
$CELTYPE
  6
ByBlock
  9
$CECOLOR
 62
   256
  9
$CELTSCALE
 40
1.0
  9
$DISPSILH
 70
     0
  9
$DIMSCALE
 40
1.0
  9
$DIMASZ
 40
0.18
  9
$DIMEXO
 40
0.0625
  9
$DIMDLI
 40
0.38
  9
$DIMRND
 40
0.0
  9
$DIMDLE
 40
0.0
  9
$DIMEXE
 40
0.18
  9
$DIMTP
 40
0.0
  9
$DIMTM
 40
0.0
  9
$DIMTXT
 40
0.18
  9
$DIMCEN
 40
0.09
  9
$DIMTSZ
 40
0.0
  9
$DIMTOL
 70
     0
  9
$DIMLIM
 70
     0
  9
$DIMTIH
 70
     1
  9
$DIMTOH
 70
     1
  9
$DIMSE1
 70
     0
  9
$DIMSE2
 70
     0
  9
$DIMTAD
 70
     0
  9
$DIMZIN
 70
     0
  9
$DIMBLK
  1

  9
$DIMASO
 70
     1
  9
$DIMSHO
 70
     1
  9
$DIMPOST
  1

  9
$DIMAPOST
  1

  9
$DIMALT
 70
     0
  9
$DIMALTD
 70
     2
  9
$DIMALTF
 40
25.4
  9
$DIMLFAC
 40
1.0
  9
$DIMTOFL
 70
     0
  9
$DIMTVP
 40
0.0
  9
$DIMTIX
 70
     0
  9
$DIMSOXD
 70
     0
  9
$DIMSAH
 70
     0
  9
$DIMBLK1
  1

  9
$DIMBLK2
  1

  9
$DIMSTYLE
  2
Standard
  9
$DIMCLRD
 70
     0
  9
$DIMCLRE
 70
     0
  9
$DIMCLRT
 70
     0
  9
$DIMTFAC
 40
1.0
  9
$DIMGAP
 40
0.09
  9
$DIMJUST
 70
     0
  9
$DIMSD1
 70
     0
  9
$DIMSD2
 70
     0
  9
$DIMTOLJ
 70
     1
  9
$DIMTZIN
 70
     0
  9
$DIMALTZ
 70
     0
  9
$DIMALTTZ
 70
     0
  9
$DIMUPT
 70
     0
  9
$DIMDEC
 70
     4
  9
$DIMTDEC
 70
     4
  9
$DIMALTU
 70
     2
  9
$DIMALTTD
 70
     2
  9
$DIMTXSTY
  7
Standard
  9
$DIMAUNIT
 70
     0
  9
$DIMADEC
 70
     0
  9
$DIMALTRND
 40
0.0
  9
$DIMAZIN
 70
     0
  9
$DIMDSEP
 70
    46
  9
$DIMATFIT
 70
     3
  9
$DIMFRAC
 70
     0
  9
$DIMLDRBLK
  1

  9
$DIMLUNIT
 70
     2
  9
$DIMLWD
 70
    -2
  9
$DIMLWE
 70
    -2
  9
$DIMTMOVE
 70
     2
  9
$LUNITS
 70
     2
  9
$LUPREC
 70
     4
  9
$SKETCHINC
 40
0.1
  9
$FILLETRAD
 40
0.5
  9
$AUNITS
 70
     0
  9
$AUPREC
 70
     0
  9
$MENU
  1
.
  9
$ELEVATION
 40
0.0
  9
$PELEVATION
 40
0.0
  9
$THICKNESS
 40
0.0
  9
$LIMCHECK
 70
     0
  9
$CHAMFERA
 40
0.5
  9
$CHAMFERB
 40
0.5
  9
$CHAMFERC
 40
1.0
  9
$CHAMFERD
 40
0.0
  9
$SKPOLY
 70
     0
  9
$TDCREATE
 40
2456647.923569329
  9
$TDUCREATE
 40
2456647.881902662
  9
$TDUPDATE
 40
2456647.925468565
  9
$TDUUPDATE
 40
2456647.883801898
  9
$TDINDWG
 40
0.0018990625
  9
$TDUSRTIMER
 40
0.0018990625
  9
$USRTIMER
 70
     1
  9
$ANGBASE
 50
0.0
  9
$ANGDIR
 70
     0
  9
$PDMODE
 70
     0
  9
$PDSIZE
 40
0.0
  9
$PLINEWID
 40
0.0
  9
$SPLFRAME
 70
     0
  9
$SPLINETYPE
 70
     6
  9
$SPLINESEGS
 70
     8
  9
$HANDSEED
  5
408
  9
$SURFTAB1
 70
     6
  9
$SURFTAB2
 70
     6
  9
$SURFTYPE
 70
     6
  9
$SURFU
 70
     6
  9
$SURFV
 70
     6
  9
$UCSBASE
  2

  9
$UCSNAME
  2

  9
$UCSORG
 10
0.0
 20
0.0
 30
0.0
  9
$UCSXDIR
 10
1.0
 20
0.0
 30
0.0
  9
$UCSYDIR
 10
0.0
 20
1.0
 30
0.0
  9
$UCSORTHOREF
  2

  9
$UCSORTHOVIEW
 70
     0
  9
$UCSORGTOP
 10
0.0
 20
0.0
 30
0.0
  9
$UCSORGBOTTOM
 10
0.0
 20
0.0
 30
0.0
  9
$UCSORGLEFT
 10
0.0
 20
0.0
 30
0.0
  9
$UCSORGRIGHT
 10
0.0
 20
0.0
 30
0.0
  9
$UCSORGFRONT
 10
0.0
 20
0.0
 30
0.0
  9
$UCSORGBACK
 10
0.0
 20
0.0
 30
0.0
  9
$PUCSBASE
  2

  9
$PUCSNAME
  2

  9
$PUCSORG
 10
0.0
 20
0.0
 30
0.0
  9
$PUCSXDIR
 10
1.0
 20
0.0
 30
0.0
  9
$PUCSYDIR
 10
0.0
 20
1.0
 30
0.0
  9
$PUCSORTHOREF
  2

  9
$PUCSORTHOVIEW
 70
     0
  9
$PUCSORGTOP
 10
0.0
 20
0.0
 30
0.0
  9
$PUCSORGBOTTOM
 10
0.0
 20
0.0
 30
0.0
  9
$PUCSORGLEFT
 10
0.0
 20
0.0
 30
0.0
  9
$PUCSORGRIGHT
 10
0.0
 20
0.0
 30
0.0
  9
$PUCSORGFRONT
 10
0.0
 20
0.0
 30
0.0
  9
$PUCSORGBACK
 10
0.0
 20
0.0
 30
0.0
  9
$USERI1
 70
     0
  9
$USERI2
 70
     0
  9
$USERI3
 70
     0
  9
$USERI4
 70
     0
  9
$USERI5
 70
     0
  9
$USERR1
 40
0.0
  9
$USERR2
 40
0.0
  9
$USERR3
 40
0.0
  9
$USERR4
 40
0.0
  9
$USERR5
 40
0.0
  9
$WORLDVIEW
 70
     1
  9
$SHADEDGE
 70
     3
  9
$SHADEDIF
 70
    70
  9
$TILEMODE
 70
     1
  9
$MAXACTVP
 70
    64
  9
$PINSBASE
 10
0.0
 20
0.0
 30
0.0
  9
$PLIMCHECK
 70
     0
  9
$PEXTMIN
 10
1.000000000000E+20
 20
1.000000000000E+20
 30
1.000000000000E+20
  9
$PEXTMAX
 10
-1.000000000000E+20
 20
-1.000000000000E+20
 30
-1.000000000000E+20
  9
$PLIMMIN
 10
0.0
 20
0.0
  9
$PLIMMAX
 10
12.0
 20
9.0
  9
$UNITMODE
 70
     0
  9
$VISRETAIN
 70
     1
  9
$PLINEGEN
 70
     0
  9
$PSLTSCALE
 70
     1
  9
$TREEDEPTH
 70
  3020
  9
$CMLSTYLE
  2
Standard
  9
$CMLJUST
 70
     0
  9
$CMLSCALE
 40
1.0
  9
$PROXYGRAPHICS
 70
     1
  9
$MEASUREMENT
 70
     0
  9
$CELWEIGHT
370
    -1
  9
$ENDCAPS
280
     0
  9
$JOINSTYLE
280
     0
  9
$LWDISPLAY
290
     0
  9
$INSUNITS
 70
     0
  9
$HYPERLINKBASE
  1

  9
$STYLESHEET
  1

  9
$XEDIT
290
     1
  9
$CEPSNTYPE
380
     0
  9
$PSTYLEMODE
290
     1
  9
$FINGERPRINTGUID
  2
{A2D038F9-8008-4D59-91F2-46B9C6B4B132}
  9
$VERSIONGUID
  2
{FAEB1C32-E019-11D5-929B-00C0DF256EC4}
  9
$EXTNAMES
290
     1
  9
$PSVPSCALE
 40
0.0
  9
$OLESTARTUP
290
     0
  0
ENDSEC
  0
SECTION
  2
CLASSES
  0
CLASS
  1
ACDBDICTIONARYWDFLT
  2
AcDbDictionaryWithDefault
  3
ObjectDBX Classes
 90
        0
280
     0
281
     0
  0
CLASS
  1
SCALE
  2
AcDbScale
  3
ObjectDBX Classes
 90
     1153
280
     0
281
     0
  0
CLASS
  1
DICTIONARYVAR
  2
AcDbDictionaryVar
  3
ObjectDBX Classes
 90
        0
280
     0
281
     0
  0
CLASS
  1
ACDBPLACEHOLDER
  2
AcDbPlaceHolder
  3
ObjectDBX Classes
 90
        0
280
     0
281
     0
  0
CLASS
  1
LAYOUT
  2
AcDbLayout
  3
ObjectDBX Classes
 90
        0
280
     0
281
     0
  0
ENDSEC
  0
SECTION
  2
TABLES
  0
TABLE
  2
VPORT
  5
8
330
0
100
AcDbSymbolTable
 70
     1
  0
VPORT
  5
3D5
330
8
100
AcDbSymbolTableRecord
100
AcDbViewportTableRecord
  2
*Active
 70
     0
 10
0.0
 20
0.0
 11
1.0
 21
1.0
 12
340.5
 22
117.0
 13
0.0
 23
0.0
 14
0.5
 24
0.5
 15
0.5
 25
0.5
 16
0.0
 26
0.0
 36
1.0
 17
0.0
 27
0.0
 37
0.0
 40
401.808836391339
 41
1.729542302358
 42
50.0
 43
0.0
 44
0.0
 50
0.0
 51
0.0
 71
    16
 72
   100
 73
     1
 74
     3
 75
     0
 76
     0
 77
     0
 78
     0
281
     0
 65
     1
110
0.0
120
0.0
130
0.0
111
1.0
121
0.0
131
0.0
112
0.0
122
1.0
132
0.0
 79
     0
146
0.0
  0
ENDTAB
  0
TABLE
  2
LTYPE
  5
5
330
0
100
AcDbSymbolTable
 70
     1
  0
LTYPE
  5
14
330
5
100
AcDbSymbolTableRecord
100
AcDbLinetypeTableRecord
  2
ByBlock
 70
     0
  3

 72
    65
 73
     0
 40
0.0
  0
LTYPE
  5
15
330
5
100
AcDbSymbolTableRecord
100
AcDbLinetypeTableRecord
  2
ByLayer
 70
     0
  3

 72
    65
 73
     0
 40
0.0
  0
LTYPE
  5
16
330
5
100
AcDbSymbolTableRecord
100
AcDbLinetypeTableRecord
  2
Continuous
 70
     0
  3
Solid line
 72
    65
 73
     0
 40
0.0
  0
ENDTAB
  0
TABLE
  2
LAYER
  5
2
330
0
100
AcDbSymbolTable
 70
     1
  0
LAYER
  5
10
330
2
100
AcDbSymbolTableRecord
100
AcDbLayerTableRecord
  2
0
 70
     0
 62
     7
  6
Continuous
370
    -3
390
F
  0
ENDTAB
  0
TABLE
  2
STYLE
  5
3
330
0
100
AcDbSymbolTable
 70
     1
  0
STYLE
  5
11
330
3
100
AcDbSymbolTableRecord
100
AcDbTextStyleTableRecord
  2
Standard
 70
     0
 40
0.0
 41
1.0
 50
0.0
 71
     0
 42
0.2
  3
txt
  4

  0
ENDTAB
  0
TABLE
  2
VIEW
  5
6
330
0
100
AcDbSymbolTable
 70
     0
  0
ENDTAB
  0
TABLE
  2
UCS
  5
7
330
0
100
AcDbSymbolTable
 70
     0
  0
ENDTAB
  0
TABLE
  2
APPID
  5
9
330
0
100
AcDbSymbolTable
 70
     1
  0
APPID
  5
12
330
9
100
AcDbSymbolTableRecord
100
AcDbRegAppTableRecord
  2
ACAD
 70
     0
  0
ENDTAB
  0
TABLE
  2
DIMSTYLE
  5
A
330
0
100
AcDbSymbolTable
 70
     1
100
AcDbDimStyleTable
  0
DIMSTYLE
105
20
330
A
100
AcDbSymbolTableRecord
100
AcDbDimStyleTableRecord
  2
Standard
 70
     0
340
11
  0
ENDTAB
  0
TABLE
  2
BLOCK_RECORD
  5
1
330
0
100
AcDbSymbolTable
 70
     0
  0
BLOCK_RECORD
  5
1D
330
1
100
AcDbSymbolTableRecord
100
AcDbBlockTableRecord
  2
*Model_Space
340
1E
  0
BLOCK_RECORD
  5
1B
330
1
100
AcDbSymbolTableRecord
100
AcDbBlockTableRecord
  2
*Paper_Space
340
1C
  0
ENDTAB
  0
ENDSEC
  0
SECTION
  2
BLOCKS
  0
BLOCK
  5
3D8
330
1D
100
AcDbEntity
  8
0
100
AcDbBlockBegin
  2
*Model_Space
 70
     0
 10
0.0
 20
0.0
 30
0.0
  3
*Model_Space
  1
*Model_Space
  0
ENDBLK
  5
3D9
330
1D
100
AcDbEntity
  8
0
100
AcDbBlockEnd
  0
BLOCK
  5
3D6
330
1B
100
AcDbEntity
 67
     1
  8
0
100
AcDbBlockBegin
  2
*Paper_Space
 70
     0
 10
0.0
 20
0.0
 30
0.0
  3
*Paper_Space
  1
*Paper_Space
  0
ENDBLK
  5
3D7
330
1B
100
AcDbEntity
 67
     1
  8
0
100
AcDbBlockEnd
  0
ENDSEC
  0
SECTION
  2
ENTITIES
  0
LINE
  5
22
330
1D
100
AcDbEntity
  8
0
100
AcDbLine
 10
1.3375
 20
0.378
 30
0.0
 11
3.7015
 21
0.378
 31
0.0
  0
LINE
  5
23
330
1D
100
AcDbEntity
  8
0
100
AcDbLine
 10
0.2215
 20
0.378
 30
0.0
 11
0.3635
 21
0.378
 31
0.0
  0
LINE
  5
24
330
1D
100
AcDbEntity
  8
0
100
AcDbLine
 10
0.2215
 20
0.378
 30
0.0
 11
0.352810919369
 21
0.383576911633
 31
0.0
  0
LINE
  5
25
330
1D
100
AcDbEntity
  8
0
100
AcDbLine
 10
0.2215
 20
0.378
 30
0.0
 11
1.3375
 21
0.378
 31
0.0
  0
LINE
  5
26
330
1D
100
AcDbEntity
  8
0
100
AcDbLine
 10
-0.0085
 20
0.498
 30
0.0
 11
0.2215
 21
0.378
 31
0.0
  0
LINE
  5
27
330
1D
100
AcDbEntity
  8
0
100
AcDbLine
 10
0.3635
 20
0.378
 30
0.0
 11
1.7625
 21
0.378
 31
0.0
  0
LINE
  5
28
330
1D
100
AcDbEntity
  8
0
100
AcDbLine
 10
1.7625
 20
0.378
 30
0.0
 11
4.4045
 21
0.378
 31
0.0
  0
LINE
  5
2F
330
1D
100
AcDbEntity
  8
0
100
AcDbLine
 10
-0.1465
 20
0.716
 30
0.0
 11
-0.0085
 21
0.498
 31
0.0
  0
LINE
  5
30
330
1D
100
AcDbEntity
  8
0
100
AcDbLine
 10
-0.1595
 20
0.975
 30
0.0
 11
-0.1465
 21
0.716
 31
0.0
  0
LINE
  5
31
330
1D
100
AcDbEntity
  8
0
100
AcDbLine
 10
-0.1595
 20
0.975
 30
0.0
 11
-0.0395
 21
1.204
 31
0.0
  0
LINE
  5
32
330
1D
100
AcDbEntity
  8
0
100
AcDbLine
 10
-0.0395
 20
1.204
 30
0.0
 11
117.1385
 21
129.075
 31
0.0
  0
LINE
  5
33
330
1D
100
AcDbEntity
  8
0
100
AcDbLine
 10
-0.0395
 20
1.204
 30
0.0
 11
117.1385
 21
129.075
 31
0.0
  0
LINE
  5
78
330
1D
100
AcDbEntity
  8
0
100
AcDbLine
 10
274.6185
 20
0.378
 30
0.0
 11
276.9825
 21
0.378
 31
0.0
  0
LINE
  5
79
330
1D
100
AcDbEntity
  8
0
100
AcDbLine
 10
278.0975
 20
0.378
 30
0.0
 11
278.3285
 21
0.498
 31
0.0
  0
LINE
  5
7A
330
1D
100
AcDbEntity
  8
0
100
AcDbLine
 10
276.9825
 20
0.378
 30
0.0
 11
278.0975
 21
0.378
 31
0.0
  0
LINE
  5
7B
330
1D
100
AcDbEntity
  8
0
100
AcDbLine
 10
276.5565
 20
0.378
 30
0.0
 11
277.9555
 21
0.378
 31
0.0
  0
LINE
  5
7D
330
1D
100
AcDbEntity
  8
0
100
AcDbLine
 10
273.9145
 20
0.378
 30
0.0
 11
276.5565
 21
0.378
 31
0.0
  0
LINE
  5
85
330
1D
100
AcDbEntity
  8
0
100
AcDbLine
 10
278.4655
 20
0.716
 30
0.0
 11
278.4785
 21
0.975
 31
0.0
  0
LINE
  5
86
330
1D
100
AcDbEntity
  8
0
100
AcDbLine
 10
278.3585
 20
1.204
 30
0.0
 11
278.4785
 21
0.975
 31
0.0
  0
LINE
  5
87
330
1D
100
AcDbEntity
  8
0
100
AcDbLine
 10
278.3285
 20
0.498
 30
0.0
 11
278.4655
 21
0.716
 31
0.0
  0
LINE
  5
88
330
1D
100
AcDbEntity
  8
0
100
AcDbLine
 10
568.6255
 20
28.333
 30
0.0
 11
570.1695
 21
28.088
 31
0.0
  0
LINE
  5
89
330
1D
100
AcDbEntity
  8
0
100
AcDbLine
 10
588.1595
 20
28.247
 30
0.0
 11
588.1595
 21
28.08
 31
0.0
  0
LINE
  5
8A
330
1D
100
AcDbEntity
  8
0
100
AcDbLine
 10
570.1695
 20
28.088
 30
0.0
 11
588.1595
 21
28.08
 31
0.0
  0
LINE
  5
8B
330
1D
100
AcDbEntity
  8
0
100
AcDbLine
 10
588.1595
 20
28.084
 30
0.0
 11
588.1595
 21
28.237
 31
0.0
  0
LINE
  5
8C
330
1D
100
AcDbEntity
  8
0
100
AcDbLine
 10
567.2325
 20
29.042
 30
0.0
 11
568.6255
 21
28.333
 31
0.0
  0
LINE
  5
8D
330
1D
100
AcDbEntity
  8
0
100
AcDbLine
 10
565.4175
 20
31.542
 30
0.0
 11
566.1265
 21
30.148
 31
0.0
  0
LINE
  5
8E
330
1D
100
AcDbEntity
  8
0
100
AcDbLine
 10
565.4175
 20
31.542
 30
0.0
 11
565.4175
 21
31.676
 31
0.0
  0
LINE
  5
8F
330
1D
100
AcDbEntity
  8
0
100
AcDbLine
 10
566.1265
 20
30.148
 30
0.0
 11
567.2325
 21
29.042
 31
0.0
  0
LINE
  5
90
330
1D
100
AcDbEntity
  8
0
100
AcDbLine
 10
588.1595
 20
30.275
 30
0.0
 11
588.1595
 21
28.98
 31
0.0
  0
LINE
  5
91
330
1D
100
AcDbEntity
  8
0
100
AcDbLine
 10
565.4175
 20
31.676
 30
0.0
 11
565.4175
 21
31.542
 31
0.0
  0
LINE
  5
92
330
1D
100
AcDbEntity
  8
0
100
AcDbLine
 10
588.1595
 20
28.98
 30
0.0
 11
588.1595
 21
28.247
 31
0.0
  0
LINE
  5
93
330
1D
100
AcDbEntity
  8
0
100
AcDbLine
 10
588.1595
 20
28.959
 30
0.0
 11
588.1595
 21
30.245
 31
0.0
  0
LINE
  5
94
330
1D
100
AcDbEntity
  8
0
100
AcDbLine
 10
588.1595
 20
30.245
 30
0.0
 11
588.1595
 21
32.082
 31
0.0
  0
LINE
  5
95
330
1D
100
AcDbEntity
  8
0
100
AcDbLine
 10
565.1725
 20
33.405
 30
0.0
 11
565.1725
 21
33.072
 31
0.0
  0
LINE
  5
96
330
1D
100
AcDbEntity
  8
0
100
AcDbLine
 10
565.1725
 20
33.405
 30
0.0
 11
565.1725
 21
34.294
 31
0.0
  0
LINE
  5
97
330
1D
100
AcDbEntity
  8
0
100
AcDbLine
 10
565.1725
 20
33.072
 30
0.0
 11
565.4175
 21
31.676
 31
0.0
  0
LINE
  5
98
330
1D
100
AcDbEntity
  8
0
100
AcDbLine
 10
565.1725
 20
33.072
 30
0.0
 11
565.1725
 21
33.405
 31
0.0
  0
LINE
  5
99
330
1D
100
AcDbEntity
  8
0
100
AcDbLine
 10
565.1725
 20
34.294
 30
0.0
 11
565.1725
 21
33.405
 31
0.0
  0
LINE
  5
9A
330
1D
100
AcDbEntity
  8
0
100
AcDbLine
 10
565.1725
 20
34.294
 30
0.0
 11
565.1725
 21
35.732
 31
0.0
  0
LINE
  5
9B
330
1D
100
AcDbEntity
  8
0
100
AcDbLine
 10
588.1595
 20
32.121
 30
0.0
 11
588.1595
 21
30.275
 31
0.0
  0
LINE
  5
9C
330
1D
100
AcDbEntity
  8
0
100
AcDbLine
 10
588.1595
 20
34.501
 30
0.0
 11
588.1595
 21
32.121
 31
0.0
  0
LINE
  5
9D
330
1D
100
AcDbEntity
  8
0
100
AcDbLine
 10
565.1725
 20
35.732
 30
0.0
 11
565.1725
 21
34.294
 31
0.0
  0
LINE
  5
9E
330
1D
100
AcDbEntity
  8
0
100
AcDbLine
 10
565.1725
 20
35.732
 30
0.0
 11
565.1725
 21
37.706
 31
0.0
  0
LINE
  5
9F
330
1D
100
AcDbEntity
  8
0
100
AcDbLine
 10
588.1595
 20
32.082
 30
0.0
 11
588.1595
 21
34.454
 31
0.0
  0
LINE
  5
A0
330
1D
100
AcDbEntity
  8
0
100
AcDbLine
 10
588.1595
 20
34.454
 30
0.0
 11
588.1595
 21
37.34
 31
0.0
  0
LINE
  5
A1
330
1D
100
AcDbEntity
  8
0
100
AcDbLine
 10
565.1725
 20
43.175
 30
0.0
 11
565.1725
 21
40.194
 31
0.0
  0
LINE
  5
A3
330
1D
100
AcDbEntity
  8
0
100
AcDbLine
 10
565.1725
 20
40.194
 30
0.0
 11
565.1725
 21
37.706
 31
0.0
  0
LINE
  5
A4
330
1D
100
AcDbEntity
  8
0
100
AcDbLine
 10
565.1725
 20
40.194
 30
0.0
 11
565.1725
 21
43.175
 31
0.0
  0
LINE
  5
A5
330
1D
100
AcDbEntity
  8
0
100
AcDbLine
 10
588.1595
 20
37.394
 30
0.0
 11
588.1595
 21
34.501
 31
0.0
  0
LINE
  5
A6
330
1D
100
AcDbEntity
  8
0
100
AcDbLine
 10
588.1595
 20
40.774
 30
0.0
 11
588.1595
 21
37.394
 31
0.0
  0
LINE
  5
A7
330
1D
100
AcDbEntity
  8
0
100
AcDbLine
 10
565.1725
 20
37.706
 30
0.0
 11
565.1725
 21
35.732
 31
0.0
  0
LINE
  5
A8
330
1D
100
AcDbEntity
  8
0
100
AcDbLine
 10
565.1725
 20
37.706
 30
0.0
 11
565.1725
 21
40.194
 31
0.0
  0
LINE
  5
A9
330
1D
100
AcDbEntity
  8
0
100
AcDbLine
 10
588.1595
 20
37.34
 30
0.0
 11
588.1595
 21
40.716
 31
0.0
  0
LINE
  5
AA
330
1D
100
AcDbEntity
  8
0
100
AcDbLine
 10
588.1595
 20
40.716
 30
0.0
 11
588.1595
 21
44.547
 31
0.0
  0
LINE
  5
CA
330
1D
100
AcDbEntity
  8
0
100
AcDbLine
 10
588.1595
 20
48.5
 30
0.0
 11
653.1595
 21
48.5
 31
0.0
  0
LINE
  5
CB
330
1D
100
AcDbEntity
  8
0
100
AcDbLine
 10
588.1595
 20
44.61
 30
0.0
 11
588.1595
 21
40.774
 31
0.0
  0
LINE
  5
CC
330
1D
100
AcDbEntity
  8
0
100
AcDbLine
 10
588.1595
 20
48.867
 30
0.0
 11
588.1595
 21
44.61
 31
0.0
  0
LINE
  5
CE
330
1D
100
AcDbEntity
  8
0
100
AcDbLine
 10
588.1595
 20
44.547
 30
0.0
 11
588.1595
 21
48.801
 31
0.0
  0
LINE
  5
CF
330
1D
100
AcDbEntity
  8
0
100
AcDbLine
 10
588.1595
 20
48.801
 30
0.0
 11
588.1595
 21
53.439
 31
0.0
  0
LINE
  5
D0
330
1D
100
AcDbEntity
  8
0
100
AcDbLine
 10
528.9435
 20
56.27
 30
0.0
 11
529.2245
 21
56.27
 31
0.0
  0
LINE
  5
D1
330
1D
100
AcDbEntity
  8
0
100
AcDbLine
 10
528.1435
 20
56.77
 30
0.0
 11
528.5075
 21
56.404
 31
0.0
  0
LINE
  5
D2
330
1D
100
AcDbEntity
  8
0
100
AcDbLine
 10
528.0105
 20
57.27
 30
0.0
 11
528.0105
 21
125.27
 31
0.0
  0
LINE
  5
D3
330
1D
100
AcDbEntity
  8
0
100
AcDbLine
 10
528.0105
 20
57.27
 30
0.0
 11
528.1435
 21
56.77
 31
0.0
  0
LINE
  5
D4
330
1D
100
AcDbEntity
  8
0
100
AcDbLine
 10
528.5075
 20
56.404
 30
0.0
 11
528.9435
 21
56.27
 31
0.0
  0
LINE
  5
D5
330
1D
100
AcDbEntity
  8
0
100
AcDbLine
 10
529.2245
 20
56.27
 30
0.0
 11
530.0565
 21
56.27
 31
0.0
  0
LINE
  5
D6
330
1D
100
AcDbEntity
  8
0
100
AcDbLine
 10
530.0035
 20
56.27
 30
0.0
 11
530.8995
 21
56.27
 31
0.0
  0
LINE
  5
D7
330
1D
100
AcDbEntity
  8
0
100
AcDbLine
 10
529.6175
 20
56.27
 30
0.0
 11
529.7625
 21
56.27
 31
0.0
  0
LINE
  5
D8
330
1D
100
AcDbEntity
  8
0
100
AcDbLine
 10
529.6175
 20
56.27
 30
0.0
 11
530.0035
 21
56.27
 31
0.0
  0
LINE
  5
D9
330
1D
100
AcDbEntity
  8
0
100
AcDbLine
 10
529.7625
 20
56.27
 30
0.0
 11
530.4295
 21
56.27
 31
0.0
  0
LINE
  5
DA
330
1D
100
AcDbEntity
  8
0
100
AcDbLine
 10
530.8995
 20
56.27
 30
0.0
 11
532.2615
 21
56.27
 31
0.0
  0
LINE
  5
DB
330
1D
100
AcDbEntity
  8
0
100
AcDbLine
 10
530.4295
 20
56.27
 30
0.0
 11
531.5865
 21
56.27
 31
0.0
  0
LINE
  5
DC
330
1D
100
AcDbEntity
  8
0
100
AcDbLine
 10
532.2615
 20
56.27
 30
0.0
 11
534.0205
 21
56.27
 31
0.0
  0
LINE
  5
DD
330
1D
100
AcDbEntity
  8
0
100
AcDbLine
 10
531.5865
 20
56.27
 30
0.0
 11
533.1735
 21
56.27
 31
0.0
  0
LINE
  5
DE
330
1D
100
AcDbEntity
  8
0
100
AcDbLine
 10
533.1735
 20
56.27
 30
0.0
 11
535.1125
 21
56.27
 31
0.0
  0
LINE
  5
DF
330
1D
100
AcDbEntity
  8
0
100
AcDbLine
 10
530.0565
 20
56.27
 30
0.0
 11
531.3965
 21
56.27
 31
0.0
  0
LINE
  5
E0
330
1D
100
AcDbEntity
  8
0
100
AcDbLine
 10
531.3965
 20
56.27
 30
0.0
 11
533.1765
 21
56.27
 31
0.0
  0
LINE
  5
E1
330
1D
100
AcDbEntity
  8
0
100
AcDbLine
 10
534.0205
 20
56.27
 30
0.0
 11
536.0895
 21
56.27
 31
0.0
  0
LINE
  5
E2
330
1D
100
AcDbEntity
  8
0
100
AcDbLine
 10
536.0895
 20
56.27
 30
0.0
 11
538.3625
 21
56.27
 31
0.0
  0
LINE
  5
E3
330
1D
100
AcDbEntity
  8
0
100
AcDbLine
 10
535.1125
 20
56.27
 30
0.0
 11
537.3075
 21
56.27
 31
0.0
  0
LINE
  5
E4
330
1D
100
AcDbEntity
  8
0
100
AcDbLine
 10
537.3075
 20
56.27
 30
0.0
 11
539.6455
 21
56.27
 31
0.0
  0
LINE
  5
E5
330
1D
100
AcDbEntity
  8
0
100
AcDbLine
 10
533.1765
 20
56.27
 30
0.0
 11
535.3085
 21
56.27
 31
0.0
  0
LINE
  5
E6
330
1D
100
AcDbEntity
  8
0
100
AcDbLine
 10
535.3085
 20
56.27
 30
0.0
 11
537.6855
 21
56.27
 31
0.0
  0
LINE
  5
E7
330
1D
100
AcDbEntity
  8
0
100
AcDbLine
 10
538.3625
 20
56.27
 30
0.0
 11
540.7285
 21
56.27
 31
0.0
  0
LINE
  5
E8
330
1D
100
AcDbEntity
  8
0
100
AcDbLine
 10
543.0675
 20
56.27
 30
0.0
 11
545.2605
 21
56.27
 31
0.0
  0
LINE
  5
E9
330
1D
100
AcDbEntity
  8
0
100
AcDbLine
 10
540.7285
 20
56.27
 30
0.0
 11
543.0675
 21
56.27
 31
0.0
  0
LINE
  5
EA
330
1D
100
AcDbEntity
  8
0
100
AcDbLine
 10
545.2605
 20
56.27
 30
0.0
 11
547.1995
 21
56.27
 31
0.0
  0
LINE
  5
EB
330
1D
100
AcDbEntity
  8
0
100
AcDbLine
 10
540.1865
 20
56.27
 30
0.0
 11
560.9745
 21
56.27
 31
0.0
  0
LINE
  5
EC
330
1D
100
AcDbEntity
  8
0
100
AcDbLine
 10
542.0105
 20
56.27
 30
0.0
 11
544.2845
 21
56.27
 31
0.0
  0
LINE
  5
ED
330
1D
100
AcDbEntity
  8
0
100
AcDbLine
 10
539.6455
 20
56.27
 30
0.0
 11
542.0105
 21
56.27
 31
0.0
  0
LINE
  5
EE
330
1D
100
AcDbEntity
  8
0
100
AcDbLine
 10
544.2845
 20
56.27
 30
0.0
 11
546.3535
 21
56.27
 31
0.0
  0
LINE
  5
EF
330
1D
100
AcDbEntity
  8
0
100
AcDbLine
 10
547.1995
 20
56.27
 30
0.0
 11
548.7865
 21
56.27
 31
0.0
  0
LINE
  5
F0
330
1D
100
AcDbEntity
  8
0
100
AcDbLine
 10
549.4745
 20
56.27
 30
0.0
 11
550.3695
 21
56.27
 31
0.0
  0
LINE
  5
F1
330
1D
100
AcDbEntity
  8
0
100
AcDbLine
 10
546.3535
 20
56.27
 30
0.0
 11
548.1125
 21
56.27
 31
0.0
  0
LINE
  5
F2
330
1D
100
AcDbEntity
  8
0
100
AcDbLine
 10
548.1125
 20
56.27
 30
0.0
 11
549.4745
 21
56.27
 31
0.0
  0
LINE
  5
F3
330
1D
100
AcDbEntity
  8
0
100
AcDbLine
 10
549.9445
 20
56.27
 30
0.0
 11
550.6105
 21
56.27
 31
0.0
  0
LINE
  5
F4
330
1D
100
AcDbEntity
  8
0
100
AcDbLine
 10
548.7865
 20
56.27
 30
0.0
 11
549.9445
 21
56.27
 31
0.0
  0
LINE
  5
F5
330
1D
100
AcDbEntity
  8
0
100
AcDbLine
 10
537.6855
 20
56.27
 30
0.0
 11
540.1865
 21
56.27
 31
0.0
  0
LINE
  5
F6
330
1D
100
AcDbEntity
  8
0
100
AcDbLine
 10
562.2105
 20
56.074
 30
0.0
 11
563.3245
 21
55.506
 31
0.0
  0
LINE
  5
F8
330
1D
100
AcDbEntity
  8
0
100
AcDbLine
 10
564.2095
 20
54.621
 30
0.0
 11
564.7765
 21
53.506
 31
0.0
  0
LINE
  5
F9
330
1D
100
AcDbEntity
  8
0
100
AcDbLine
 10
563.3245
 20
55.506
 30
0.0
 11
564.2095
 21
54.621
 31
0.0
  0
LINE
  5
FB
330
1D
100
AcDbEntity
  8
0
100
AcDbLine
 10
550.3695
 20
56.27
 30
0.0
 11
550.7555
 21
56.27
 31
0.0
  0
LINE
  5
FC
330
1D
100
AcDbEntity
  8
0
100
AcDbLine
 10
550.6105
 20
56.27
 30
0.0
 11
550.7555
 21
56.27
 31
0.0
  0
LINE
  5
101
330
1D
100
AcDbEntity
  8
0
100
AcDbLine
 10
560.9745
 20
56.27
 30
0.0
 11
562.2105
 21
56.074
 31
0.0
  0
LINE
  5
108
330
1D
100
AcDbEntity
  8
0
100
AcDbLine
 10
564.7765
 20
53.506
 30
0.0
 11
564.9725
 21
52.27
 31
0.0
  0
LINE
  5
109
330
1D
100
AcDbEntity
  8
0
100
AcDbLine
 10
588.1595
 20
53.506
 30
0.0
 11
588.1595
 21
48.867
 31
0.0
  0
LINE
  5
10A
330
1D
100
AcDbEntity
  8
0
100
AcDbLine
 10
588.1595
 20
58.487
 30
0.0
 11
588.1595
 21
53.506
 31
0.0
  0
LINE
  5
111
330
1D
100
AcDbEntity
  8
0
100
AcDbLine
 10
588.1595
 20
53.439
 30
0.0
 11
588.1595
 21
58.42
 31
0.0
  0
LINE
  5
112
330
1D
100
AcDbEntity
  8
0
100
AcDbLine
 10
588.1595
 20
58.42
 30
0.0
 11
588.1595
 21
63.697
 31
0.0
  0
LINE
  5
117
330
1D
100
AcDbEntity
  8
0
100
AcDbLine
 10
588.1595
 20
63.764
 30
0.0
 11
588.1595
 21
58.487
 31
0.0
  0
LINE
  5
118
330
1D
100
AcDbEntity
  8
0
100
AcDbLine
 10
588.1595
 20
69.29
 30
0.0
 11
588.1595
 21
63.764
 31
0.0
  0
LINE
  5
11A
330
1D
100
AcDbEntity
  8
0
100
AcDbLine
 10
588.1595
 20
63.697
 30
0.0
 11
588.1595
 21
69.225
 31
0.0
  0
LINE
  5
11B
330
1D
100
AcDbEntity
  8
0
100
AcDbLine
 10
588.1595
 20
69.225
 30
0.0
 11
588.1595
 21
74.95
 31
0.0
  0
LINE
  5
11F
330
1D
100
AcDbEntity
  8
0
100
AcDbLine
 10
588.1595
 20
75.013
 30
0.0
 11
588.1595
 21
69.29
 31
0.0
  0
LINE
  5
120
330
1D
100
AcDbEntity
  8
0
100
AcDbLine
 10
588.1595
 20
80.884
 30
0.0
 11
588.1595
 21
75.013
 31
0.0
  0
LINE
  5
122
330
1D
100
AcDbEntity
  8
0
100
AcDbLine
 10
588.1595
 20
74.95
 30
0.0
 11
588.1595
 21
80.825
 31
0.0
  0
LINE
  5
123
330
1D
100
AcDbEntity
  8
0
100
AcDbLine
 10
588.1595
 20
80.825
 30
0.0
 11
588.1595
 21
86.793
 31
0.0
  0
LINE
  5
124
330
1D
100
AcDbEntity
  8
0
100
AcDbLine
 10
588.1595
 20
86.848
 30
0.0
 11
588.1595
 21
80.884
 31
0.0
  0
LINE
  5
125
330
1D
100
AcDbEntity
  8
0
100
AcDbLine
 10
588.1595
 20
92.854
 30
0.0
 11
588.1595
 21
86.848
 31
0.0
  0
LINE
  5
127
330
1D
100
AcDbEntity
  8
0
100
AcDbLine
 10
588.1595
 20
86.793
 30
0.0
 11
588.1595
 21
92.803
 31
0.0
  0
LINE
  5
128
330
1D
100
AcDbEntity
  8
0
100
AcDbLine
 10
588.1595
 20
92.803
 30
0.0
 11
588.1595
 21
98.798
 31
0.0
  0
LINE
  5
12B
330
1D
100
AcDbEntity
  8
0
100
AcDbLine
 10
588.1595
 20
98.844
 30
0.0
 11
588.1595
 21
92.854
 31
0.0
  0
LINE
  5
12C
330
1D
100
AcDbEntity
  8
0
100
AcDbLine
 10
588.1595
 20
104.765
 30
0.0
 11
588.1595
 21
98.844
 31
0.0
  0
LINE
  5
12F
330
1D
100
AcDbEntity
  8
0
100
AcDbLine
 10
588.1595
 20
98.798
 30
0.0
 11
588.1595
 21
104.724
 31
0.0
  0
LINE
  5
130
330
1D
100
AcDbEntity
  8
0
100
AcDbLine
 10
588.1595
 20
104.724
 30
0.0
 11
588.1595
 21
110.53
 31
0.0
  0
LINE
  5
136
330
1D
100
AcDbEntity
  8
0
100
AcDbLine
 10
588.1595
 20
110.565
 30
0.0
 11
588.1595
 21
104.765
 31
0.0
  0
LINE
  5
137
330
1D
100
AcDbEntity
  8
0
100
AcDbLine
 10
588.1595
 20
116.191
 30
0.0
 11
588.1595
 21
110.565
 31
0.0
  0
LINE
  5
13A
330
1D
100
AcDbEntity
  8
0
100
AcDbLine
 10
588.1595
 20
110.53
 30
0.0
 11
588.1595
 21
116.161
 31
0.0
  0
LINE
  5
13B
330
1D
100
AcDbEntity
  8
0
100
AcDbLine
 10
588.1595
 20
116.161
 30
0.0
 11
588.1595
 21
121.566
 31
0.0
  0
LINE
  5
13C
330
1D
100
AcDbEntity
  8
0
100
AcDbLine
 10
528.0105
 20
125.27
 30
0.0
 11
528.1435
 21
125.77
 31
0.0
  0
LINE
  5
13D
330
1D
100
AcDbEntity
  8
0
100
AcDbLine
 10
528.0105
 20
125.27
 30
0.0
 11
528.0105
 21
57.27
 31
0.0
  0
LINE
  5
13E
330
1D
100
AcDbEntity
  8
0
100
AcDbLine
 10
528.1435
 20
125.77
 30
0.0
 11
528.5075
 21
126.136
 31
0.0
  0
LINE
  5
13F
330
1D
100
AcDbEntity
  8
0
100
AcDbLine
 10
528.5075
 20
126.136
 30
0.0
 11
528.9435
 21
126.27
 31
0.0
  0
LINE
  5
140
330
1D
100
AcDbEntity
  8
0
100
AcDbLine
 10
528.9435
 20
126.27
 30
0.0
 11
529.2245
 21
126.27
 31
0.0
  0
LINE
  5
141
330
1D
100
AcDbEntity
  8
0
100
AcDbLine
 10
531.3955
 20
126.27
 30
0.0
 11
533.1765
 21
126.27
 31
0.0
  0
LINE
  5
142
330
1D
100
AcDbEntity
  8
0
100
AcDbLine
 10
530.0565
 20
126.27
 30
0.0
 11
531.3955
 21
126.27
 31
0.0
  0
LINE
  5
143
330
1D
100
AcDbEntity
  8
0
100
AcDbLine
 10
531.0355
 20
127.0
 30
0.0
 11
531.7215
 21
127.0
 31
0.0
  0
LINE
  5
144
330
1D
100
AcDbEntity
  8
0
100
AcDbLine
 10
529.0305
 20
127.0
 30
0.0
 11
529.6955
 21
127.0
 31
0.0
  0
LINE
  5
145
330
1D
100
AcDbEntity
  8
0
100
AcDbLine
 10
529.0305
 20
127.0
 30
0.0
 11
529.0305
 21
188.0
 31
0.0
  0
LINE
  5
146
330
1D
100
AcDbEntity
  8
0
100
AcDbLine
 10
161.1795
 20
129.075
 30
0.0
 11
278.3585
 21
1.204
 31
0.0
  0
LINE
  5
147
330
1D
100
AcDbEntity
  8
0
100
AcDbLine
 10
161.1795
 20
129.075
 30
0.0
 11
278.3585
 21
1.204
 31
0.0
  0
LINE
  5
148
330
1D
100
AcDbEntity
  8
0
100
AcDbLine
 10
117.1385
 20
129.075
 30
0.0
 11
119.2805
 21
132.228
 31
0.0
  0
LINE
  5
149
330
1D
100
AcDbEntity
  8
0
100
AcDbLine
 10
529.6955
 20
127.0
 30
0.0
 11
531.6105
 21
127.0
 31
0.0
  0
LINE
  5
14A
330
1D
100
AcDbEntity
  8
0
100
AcDbLine
 10
531.7215
 20
127.0
 30
0.0
 11
533.6775
 21
127.0
 31
0.0
  0
LINE
  5
14B
330
1D
100
AcDbEntity
  8
0
100
AcDbLine
 10
531.6105
 20
127.0
 30
0.0
 11
534.5435
 21
127.0
 31
0.0
  0
LINE
  5
14C
330
1D
100
AcDbEntity
  8
0
100
AcDbLine
 10
529.2245
 20
126.27
 30
0.0
 11
530.0565
 21
126.27
 31
0.0
  0
LINE
  5
14E
330
1D
100
AcDbEntity
  8
0
100
AcDbLine
 10
540.1865
 20
126.27
 30
0.0
 11
560.9745
 21
126.27
 31
0.0
  0
LINE
  5
14F
330
1D
100
AcDbEntity
  8
0
100
AcDbLine
 10
560.9745
 20
126.27
 30
0.0
 11
562.2105
 21
126.466
 31
0.0
  0
LINE
  5
150
330
1D
100
AcDbEntity
  8
0
100
AcDbLine
 10
535.3085
 20
126.27
 30
0.0
 11
537.6855
 21
126.27
 31
0.0
  0
LINE
  5
151
330
1D
100
AcDbEntity
  8
0
100
AcDbLine
 10
562.2105
 20
126.466
 30
0.0
 11
563.3245
 21
127.034
 31
0.0
  0
LINE
  5
152
330
1D
100
AcDbEntity
  8
0
100
AcDbLine
 10
533.6775
 20
127.0
 30
0.0
 11
536.6035
 21
127.0
 31
0.0
  0
LINE
  5
153
330
1D
100
AcDbEntity
  8
0
100
AcDbLine
 10
536.6035
 20
127.0
 30
0.0
 11
540.0545
 21
127.0
 31
0.0
  0
LINE
  5
154
330
1D
100
AcDbEntity
  8
0
100
AcDbLine
 10
534.5435
 20
127.0
 30
0.0
 11
538.1405
 21
127.0
 31
0.0
  0
LINE
  5
155
330
1D
100
AcDbEntity
  8
0
100
AcDbLine
 10
551.0785
 20
127.0
 30
0.0
 11
551.0785
 21
188.0
 31
0.0
  0
LINE
  5
156
330
1D
100
AcDbEntity
  8
0
100
AcDbLine
 10
550.4145
 20
127.0
 30
0.0
 11
551.0785
 21
127.0
 31
0.0
  0
LINE
  5
157
330
1D
100
AcDbEntity
  8
0
100
AcDbLine
 10
548.3885
 20
127.0
 30
0.0
 11
549.0745
 21
127.0
 31
0.0
  0
LINE
  5
158
330
1D
100
AcDbEntity
  8
0
100
AcDbLine
 10
548.4995
 20
127.0
 30
0.0
 11
550.4145
 21
127.0
 31
0.0
  0
LINE
  5
159
330
1D
100
AcDbEntity
  8
0
100
AcDbLine
 10
546.4325
 20
127.0
 30
0.0
 11
548.3885
 21
127.0
 31
0.0
  0
LINE
  5
15A
330
1D
100
AcDbEntity
  8
0
100
AcDbLine
 10
545.5665
 20
127.0
 30
0.0
 11
548.4995
 21
127.0
 31
0.0
  0
LINE
  5
15B
330
1D
100
AcDbEntity
  8
0
100
AcDbLine
 10
543.5065
 20
127.0
 30
0.0
 11
546.4325
 21
127.0
 31
0.0
  0
LINE
  5
15C
330
1D
100
AcDbEntity
  8
0
100
AcDbLine
 10
541.9695
 20
127.0
 30
0.0
 11
545.5665
 21
127.0
 31
0.0
  0
LINE
  5
15D
330
1D
100
AcDbEntity
  8
0
100
AcDbLine
 10
540.0545
 20
127.0
 30
0.0
 11
543.5065
 21
127.0
 31
0.0
  0
LINE
  5
15E
330
1D
100
AcDbEntity
  8
0
100
AcDbLine
 10
538.1405
 20
127.0
 30
0.0
 11
541.9695
 21
127.0
 31
0.0
  0
LINE
  5
15F
330
1D
100
AcDbEntity
  8
0
100
AcDbLine
 10
563.3245
 20
127.034
 30
0.0
 11
564.2095
 21
127.919
 31
0.0
  0
LINE
  5
160
330
1D
100
AcDbEntity
  8
0
100
AcDbLine
 10
564.2095
 20
127.919
 30
0.0
 11
564.7765
 21
129.034
 31
0.0
  0
LINE
  5
16C
330
1D
100
AcDbEntity
  8
0
100
AcDbLine
 10
564.7765
 20
129.034
 30
0.0
 11
564.9725
 21
130.27
 31
0.0
  0
LINE
  5
175
330
1D
100
AcDbEntity
  8
0
100
AcDbLine
 10
537.6855
 20
126.27
 30
0.0
 11
540.1865
 21
126.27
 31
0.0
  0
LINE
  5
176
330
1D
100
AcDbEntity
  8
0
100
AcDbLine
 10
533.1765
 20
126.27
 30
0.0
 11
535.3085
 21
126.27
 31
0.0
  0
LINE
  5
178
330
1D
100
AcDbEntity
  8
0
100
AcDbLine
 10
588.1595
 20
121.591
 30
0.0
 11
588.1595
 21
116.191
 31
0.0
  0
LINE
  5
179
330
1D
100
AcDbEntity
  8
0
100
AcDbLine
 10
588.1595
 20
126.718
 30
0.0
 11
588.1595
 21
121.591
 31
0.0
  0
LINE
  5
17B
330
1D
100
AcDbEntity
  8
0
100
AcDbLine
 10
588.1595
 20
121.566
 30
0.0
 11
588.1595
 21
126.699
 31
0.0
  0
LINE
  5
17C
330
1D
100
AcDbEntity
  8
0
100
AcDbLine
 10
588.1595
 20
126.699
 30
0.0
 11
588.1595
 21
131.51
 31
0.0
  0
LINE
  5
17D
330
1D
100
AcDbEntity
  8
0
100
AcDbLine
 10
119.2805
 20
132.228
 30
0.0
 11
120.6825
 21
135.834
 31
0.0
  0
LINE
  5
17E
330
1D
100
AcDbEntity
  8
0
100
AcDbLine
 10
159.0385
 20
132.228
 30
0.0
 11
161.1795
 21
129.075
 31
0.0
  0
LINE
  5
185
330
1D
100
AcDbEntity
  8
0
100
AcDbLine
 10
120.6825
 20
135.834
 30
0.0
 11
121.1595
 21
139.6
 31
0.0
  0
LINE
  5
186
330
1D
100
AcDbEntity
  8
0
100
AcDbLine
 10
121.1595
 20
139.6
 30
0.0
 11
121.249509116958
 21
139.6
 31
0.0
  0
LINE
  5
187
330
1D
100
AcDbEntity
  8
0
100
AcDbLine
 10
121.1595
 20
139.6
 30
0.0
 11
121.1595
 21
141.475
 31
0.0
  0
LINE
  5
190
330
1D
100
AcDbEntity
  8
0
100
AcDbLine
 10
157.6365
 20
135.834
 30
0.0
 11
159.0385
 21
132.228
 31
0.0
  0
LINE
  5
191
330
1D
100
AcDbEntity
  8
0
100
AcDbLine
 10
157.070471867674
 20
139.6
 30
0.0
 11
157.6365
 21
135.834
 31
0.0
  0
LINE
  5
192
330
1D
100
AcDbEntity
  8
0
100
AcDbLine
 10
156.954715681167
 20
139.6
 30
0.0
 11
157.1595
 21
139.6
 31
0.0
  0
LINE
  5
193
330
1D
100
AcDbEntity
  8
0
100
AcDbLine
 10
157.1595
 20
139.6
 30
0.0
 11
157.1595
 21
141.475
 31
0.0
  0
LINE
  5
1BF
330
1D
100
AcDbEntity
  8
0
100
AcDbLine
 10
588.1595
 20
131.524
 30
0.0
 11
588.1595
 21
126.718
 31
0.0
  0
LINE
  5
1C0
330
1D
100
AcDbEntity
  8
0
100
AcDbLine
 10
588.1595
 20
135.968
 30
0.0
 11
588.1595
 21
131.524
 31
0.0
  0
LINE
  5
1C3
330
1D
100
AcDbEntity
  8
0
100
AcDbLine
 10
588.1595
 20
131.51
 30
0.0
 11
588.1595
 21
135.958
 31
0.0
  0
LINE
  5
1C4
330
1D
100
AcDbEntity
  8
0
100
AcDbLine
 10
588.1595
 20
135.958
 30
0.0
 11
588.1595
 21
140.002
 31
0.0
  0
LINE
  5
1C5
330
1D
100
AcDbEntity
  8
0
100
AcDbLine
 10
121.1595
 20
141.475
 30
0.0
 11
121.5915
 21
142.6
 31
0.0
  0
LINE
  5
1C6
330
1D
100
AcDbEntity
  8
0
100
AcDbLine
 10
121.1595
 20
141.475
 30
0.0
 11
121.1595
 21
139.6
 31
0.0
  0
LINE
  5
1C7
330
1D
100
AcDbEntity
  8
0
100
AcDbLine
 10
121.5915
 20
142.6
 30
0.0
 11
122.2395
 21
142.6
 31
0.0
  0
LINE
  5
1C8
330
1D
100
AcDbEntity
  8
0
100
AcDbLine
 10
122.2395
 20
142.6
 30
0.0
 11
123.9675
 21
142.6
 31
0.0
  0
LINE
  5
1C9
330
1D
100
AcDbEntity
  8
0
100
AcDbLine
 10
123.9675
 20
142.6
 30
0.0
 11
126.7755
 21
142.6
 31
0.0
  0
LINE
  5
1CA
330
1D
100
AcDbEntity
  8
0
100
AcDbLine
 10
126.7755
 20
142.6
 30
0.0
 11
130.4475
 21
142.6
 31
0.0
  0
LINE
  5
1CB
330
1D
100
AcDbEntity
  8
0
100
AcDbLine
 10
130.4475
 20
142.6
 30
0.0
 11
134.6235
 21
142.6
 31
0.0
  0
LINE
  5
1CC
330
1D
100
AcDbEntity
  8
0
100
AcDbLine
 10
134.6235
 20
142.6
 30
0.0
 11
139.1595
 21
142.6
 31
0.0
  0
LINE
  5
1CD
330
1D
100
AcDbEntity
  8
0
100
AcDbLine
 10
157.1595
 20
141.475
 30
0.0
 11
157.1595
 21
139.6
 31
0.0
  0
LINE
  5
1CE
330
1D
100
AcDbEntity
  8
0
100
AcDbLine
 10
156.7275
 20
142.6
 30
0.0
 11
157.1595
 21
141.475
 31
0.0
  0
LINE
  5
1CF
330
1D
100
AcDbEntity
  8
0
100
AcDbLine
 10
156.7275
 20
142.6
 30
0.0
 11
157.1595
 21
143.215
 31
0.0
  0
LINE
  5
1D0
330
1D
100
AcDbEntity
  8
0
100
AcDbLine
 10
156.0795
 20
142.6
 30
0.0
 11
156.7275
 21
142.6
 31
0.0
  0
LINE
  5
1D1
330
1D
100
AcDbEntity
  8
0
100
AcDbLine
 10
154.3515
 20
142.6
 30
0.0
 11
156.0795
 21
142.6
 31
0.0
  0
LINE
  5
1D2
330
1D
100
AcDbEntity
  8
0
100
AcDbLine
 10
151.5435
 20
142.6
 30
0.0
 11
154.3515
 21
142.6
 31
0.0
  0
LINE
  5
1D3
330
1D
100
AcDbEntity
  8
0
100
AcDbLine
 10
147.8715
 20
142.6
 30
0.0
 11
151.5435
 21
142.6
 31
0.0
  0
LINE
  5
1D4
330
1D
100
AcDbEntity
  8
0
100
AcDbLine
 10
143.6955
 20
142.6
 30
0.0
 11
147.8715
 21
142.6
 31
0.0
  0
LINE
  5
1D5
330
1D
100
AcDbEntity
  8
0
100
AcDbLine
 10
121.8075
 20
143.215
 30
0.0
 11
123.5355
 21
143.215
 31
0.0
  0
LINE
  5
1D6
330
1D
100
AcDbEntity
  8
0
100
AcDbLine
 10
123.5355
 20
143.215
 30
0.0
 11
126.4155
 21
143.215
 31
0.0
  0
LINE
  5
1D7
330
1D
100
AcDbEntity
  8
0
100
AcDbLine
 10
126.4155
 20
143.215
 30
0.0
 11
130.2315
 21
143.215
 31
0.0
  0
LINE
  5
1D8
330
1D
100
AcDbEntity
  8
0
100
AcDbLine
 10
156.5115
 20
143.215
 30
0.0
 11
157.1595
 21
143.215
 31
0.0
  0
LINE
  5
1D9
330
1D
100
AcDbEntity
  8
0
100
AcDbLine
 10
154.7835
 20
143.215
 30
0.0
 11
156.5115
 21
143.215
 31
0.0
  0
LINE
  5
1DA
330
1D
100
AcDbEntity
  8
0
100
AcDbLine
 10
151.9035
 20
143.215
 30
0.0
 11
154.7835
 21
143.215
 31
0.0
  0
LINE
  5
1DB
330
1D
100
AcDbEntity
  8
0
100
AcDbLine
 10
148.0875
 20
143.215
 30
0.0
 11
151.9035
 21
143.215
 31
0.0
  0
LINE
  5
1DC
330
1D
100
AcDbEntity
  8
0
100
AcDbLine
 10
143.7675
 20
143.215
 30
0.0
 11
148.0875
 21
143.215
 31
0.0
  0
LINE
  5
1DD
330
1D
100
AcDbEntity
  8
0
100
AcDbLine
 10
139.1595
 20
143.215
 30
0.0
 11
143.7675
 21
143.215
 31
0.0
  0
LINE
  5
1DE
330
1D
100
AcDbEntity
  8
0
100
AcDbLine
 10
157.1595
 20
143.215
 30
0.0
 11
157.1595
 21
169.985
 31
0.0
  0
LINE
  5
1DF
330
1D
100
AcDbEntity
  8
0
100
AcDbLine
 10
130.2315
 20
143.215
 30
0.0
 11
134.5515
 21
143.215
 31
0.0
  0
LINE
  5
1E0
330
1D
100
AcDbEntity
  8
0
100
AcDbLine
 10
134.5515
 20
143.215
 30
0.0
 11
139.1595
 21
143.215
 31
0.0
  0
LINE
  5
1E1
330
1D
100
AcDbEntity
  8
0
100
AcDbLine
 10
121.1595
 20
143.215
 30
0.0
 11
121.5915
 21
142.6
 31
0.0
  0
LINE
  5
1E2
330
1D
100
AcDbEntity
  8
0
100
AcDbLine
 10
121.1595
 20
143.215
 30
0.0
 11
121.1595
 21
169.985
 31
0.0
  0
LINE
  5
1E3
330
1D
100
AcDbEntity
  8
0
100
AcDbLine
 10
121.1595
 20
143.215
 30
0.0
 11
121.8075
 21
143.215
 31
0.0
  0
LINE
  5
1E4
330
1D
100
AcDbEntity
  8
0
100
AcDbLine
 10
139.1595
 20
142.6
 30
0.0
 11
143.6955
 21
142.6
 31
0.0
  0
LINE
  5
1E5
330
1D
100
AcDbEntity
  8
0
100
AcDbLine
 10
588.1595
 20
140.008
 30
0.0
 11
588.1595
 21
135.968
 31
0.0
  0
LINE
  5
1E6
330
1D
100
AcDbEntity
  8
0
100
AcDbLine
 10
588.1595
 20
143.607
 30
0.0
 11
588.1595
 21
140.008
 31
0.0
  0
LINE
  5
1E8
330
1D
100
AcDbEntity
  8
0
100
AcDbLine
 10
588.1595
 20
140.002
 30
0.0
 11
588.1595
 21
143.604
 31
0.0
  0
LINE
  5
1E9
330
1D
100
AcDbEntity
  8
0
100
AcDbLine
 10
588.1595
 20
143.604
 30
0.0
 11
588.1595
 21
146.734
 31
0.0
  0
LINE
  5
1EE
330
1D
100
AcDbEntity
  8
0
100
AcDbLine
 10
565.1725
 20
149.24
 30
0.0
 11
565.1725
 21
149.468
 31
0.0
  0
LINE
  5
1EF
330
1D
100
AcDbEntity
  8
0
100
AcDbLine
 10
565.1725
 20
149.468
 30
0.0
 11
565.347200214133
 21
150.463434689508
 31
0.0
  0
LINE
  5
1F0
330
1D
100
AcDbEntity
  8
0
100
AcDbLine
 10
565.1725
 20
149.468
 30
0.0
 11
565.1725
 21
149.24
 31
0.0
  0
LINE
  5
1F1
330
1D
100
AcDbEntity
  8
0
100
AcDbLine
 10
565.4175
 20
150.998
 30
0.0
 11
566.1265
 21
152.392
 31
0.0
  0
LINE
  5
1F2
330
1D
100
AcDbEntity
  8
0
100
AcDbLine
 10
565.4175
 20
150.998
 30
0.0
 11
565.347200214133
 21
150.463434689508
 31
0.0
  0
LINE
  5
1F3
330
1D
100
AcDbEntity
  8
0
100
AcDbLine
 10
565.347200214133
 20
150.463434689508
 30
0.0
 11
565.4175
 21
150.998
 31
0.0
  0
LINE
  5
1F5
330
1D
100
AcDbEntity
  8
0
100
AcDbLine
 10
567.2325
 20
153.498
 30
0.0
 11
568.6255
 21
154.207
 31
0.0
  0
LINE
  5
1F6
330
1D
100
AcDbEntity
  8
0
100
AcDbLine
 10
566.1265
 20
152.392
 30
0.0
 11
567.2325
 21
153.498
 31
0.0
  0
LINE
  5
1F7
330
1D
100
AcDbEntity
  8
0
100
AcDbLine
 10
568.6255
 20
154.207
 30
0.0
 11
570.1695
 21
154.452
 31
0.0
  0
LINE
  5
1F8
330
1D
100
AcDbEntity
  8
0
100
AcDbLine
 10
121.8075
 20
169.985
 30
0.0
 11
123.5355
 21
169.985
 31
0.0
  0
LINE
  5
1F9
330
1D
100
AcDbEntity
  8
0
100
AcDbLine
 10
123.5355
 20
169.985
 30
0.0
 11
126.4155
 21
169.985
 31
0.0
  0
LINE
  5
1FA
330
1D
100
AcDbEntity
  8
0
100
AcDbLine
 10
126.4155
 20
169.985
 30
0.0
 11
130.2315
 21
169.985
 31
0.0
  0
LINE
  5
1FB
330
1D
100
AcDbEntity
  8
0
100
AcDbLine
 10
121.5915
 20
170.6
 30
0.0
 11
122.2395
 21
170.6
 31
0.0
  0
LINE
  5
1FC
330
1D
100
AcDbEntity
  8
0
100
AcDbLine
 10
122.2395
 20
170.6
 30
0.0
 11
123.9675
 21
170.6
 31
0.0
  0
LINE
  5
1FD
330
1D
100
AcDbEntity
  8
0
100
AcDbLine
 10
123.9675
 20
170.6
 30
0.0
 11
126.7755
 21
170.6
 31
0.0
  0
LINE
  5
1FE
330
1D
100
AcDbEntity
  8
0
100
AcDbLine
 10
126.7755
 20
170.6
 30
0.0
 11
130.4475
 21
170.6
 31
0.0
  0
LINE
  5
1FF
330
1D
100
AcDbEntity
  8
0
100
AcDbLine
 10
121.1595
 20
169.985
 30
0.0
 11
121.5915
 21
170.6
 31
0.0
  0
LINE
  5
200
330
1D
100
AcDbEntity
  8
0
100
AcDbLine
 10
121.1595
 20
169.985
 30
0.0
 11
121.8075
 21
169.985
 31
0.0
  0
LINE
  5
201
330
1D
100
AcDbEntity
  8
0
100
AcDbLine
 10
130.2315
 20
169.985
 30
0.0
 11
134.5515
 21
169.985
 31
0.0
  0
LINE
  5
202
330
1D
100
AcDbEntity
  8
0
100
AcDbLine
 10
148.0875
 20
169.985
 30
0.0
 11
151.9035
 21
169.985
 31
0.0
  0
LINE
  5
203
330
1D
100
AcDbEntity
  8
0
100
AcDbLine
 10
143.7675
 20
169.985
 30
0.0
 11
148.0875
 21
169.985
 31
0.0
  0
LINE
  5
204
330
1D
100
AcDbEntity
  8
0
100
AcDbLine
 10
139.1595
 20
169.985
 30
0.0
 11
143.7675
 21
169.985
 31
0.0
  0
LINE
  5
205
330
1D
100
AcDbEntity
  8
0
100
AcDbLine
 10
147.8715
 20
170.6
 30
0.0
 11
151.5435
 21
170.6
 31
0.0
  0
LINE
  5
206
330
1D
100
AcDbEntity
  8
0
100
AcDbLine
 10
143.6955
 20
170.6
 30
0.0
 11
147.8715
 21
170.6
 31
0.0
  0
LINE
  5
207
330
1D
100
AcDbEntity
  8
0
100
AcDbLine
 10
139.1595
 20
170.6
 30
0.0
 11
143.6955
 21
170.6
 31
0.0
  0
LINE
  5
208
330
1D
100
AcDbEntity
  8
0
100
AcDbLine
 10
134.5515
 20
169.985
 30
0.0
 11
139.1595
 21
169.985
 31
0.0
  0
LINE
  5
209
330
1D
100
AcDbEntity
  8
0
100
AcDbLine
 10
130.4475
 20
170.6
 30
0.0
 11
134.6235
 21
170.6
 31
0.0
  0
LINE
  5
20A
330
1D
100
AcDbEntity
  8
0
100
AcDbLine
 10
134.6235
 20
170.6
 30
0.0
 11
139.1595
 21
170.6
 31
0.0
  0
LINE
  5
20B
330
1D
100
AcDbEntity
  8
0
100
AcDbLine
 10
128.1595
 20
170.6
 30
0.0
 11
128.1595
 21
188.0
 31
0.0
  0
LINE
  5
20C
330
1D
100
AcDbEntity
  8
0
100
AcDbLine
 10
128.1595
 20
188.0
 30
0.0
 11
128.7275
 21
195.196
 31
0.0
  0
LINE
  5
20D
330
1D
100
AcDbEntity
  8
0
100
AcDbLine
 10
128.1595
 20
188.0
 30
0.0
 11
128.1595
 21
170.6
 31
0.0
  0
LINE
  5
20E
330
1D
100
AcDbEntity
  8
0
100
AcDbLine
 10
151.5435
 20
170.6
 30
0.0
 11
154.3515
 21
170.6
 31
0.0
  0
LINE
  5
20F
330
1D
100
AcDbEntity
  8
0
100
AcDbLine
 10
156.5115
 20
169.985
 30
0.0
 11
157.1595
 21
169.985
 31
0.0
  0
LINE
  5
210
330
1D
100
AcDbEntity
  8
0
100
AcDbLine
 10
156.0795
 20
170.6
 30
0.0
 11
156.7275
 21
170.6
 31
0.0
  0
LINE
  5
211
330
1D
100
AcDbEntity
  8
0
100
AcDbLine
 10
154.3515
 20
170.6
 30
0.0
 11
156.0795
 21
170.6
 31
0.0
  0
LINE
  5
212
330
1D
100
AcDbEntity
  8
0
100
AcDbLine
 10
156.7275
 20
170.6
 30
0.0
 11
157.1595
 21
169.985
 31
0.0
  0
LINE
  5
213
330
1D
100
AcDbEntity
  8
0
100
AcDbLine
 10
154.7835
 20
169.985
 30
0.0
 11
156.5115
 21
169.985
 31
0.0
  0
LINE
  5
214
330
1D
100
AcDbEntity
  8
0
100
AcDbLine
 10
151.9035
 20
169.985
 30
0.0
 11
154.7835
 21
169.985
 31
0.0
  0
LINE
  5
215
330
1D
100
AcDbEntity
  8
0
100
AcDbLine
 10
150.2075
 20
170.6
 30
0.0
 11
150.2075
 21
188.0
 31
0.0
  0
LINE
  5
216
330
1D
100
AcDbEntity
  8
0
100
AcDbLine
 10
133.1845
 20
208.883
 30
0.0
 11
136.9635
 21
215.038
 31
0.0
  0
LINE
  5
217
330
1D
100
AcDbEntity
  8
0
100
AcDbLine
 10
130.4165
 20
202.214
 30
0.0
 11
133.1845
 21
208.883
 31
0.0
  0
LINE
  5
218
330
1D
100
AcDbEntity
  8
0
100
AcDbLine
 10
136.9635
 20
215.038
 30
0.0
 11
141.6625
 21
220.527
 31
0.0
  0
LINE
  5
219
330
1D
100
AcDbEntity
  8
0
100
AcDbLine
 10
141.6625
 20
220.527
 30
0.0
 11
147.1625
 21
225.215
 31
0.0
  0
LINE
  5
21A
330
1D
100
AcDbEntity
  8
0
100
AcDbLine
 10
147.1625
 20
225.215
 30
0.0
 11
153.3305
 21
228.986
 31
0.0
  0
LINE
  5
21B
330
1D
100
AcDbEntity
  8
0
100
AcDbLine
 10
128.7275
 20
195.196
 30
0.0
 11
130.4165
 21
202.214
 31
0.0
  0
LINE
  5
21C
330
1D
100
AcDbEntity
  8
0
100
AcDbLine
 10
153.3305
 20
228.986
 30
0.0
 11
160.0145
 21
231.748
 31
0.0
  0
LINE
  5
21D
330
1D
100
AcDbEntity
  8
0
100
AcDbLine
 10
160.0145
 20
231.748
 30
0.0
 11
167.0485
 21
233.434
 31
0.0
  0
LINE
  5
21E
330
1D
100
AcDbEntity
  8
0
100
AcDbLine
 10
167.0485
 20
233.434
 30
0.0
 11
174.2595
 21
234.0
 31
0.0
  0
LINE
  5
21F
330
1D
100
AcDbEntity
  8
0
100
AcDbLine
 10
174.2595
 20
234.0
 30
0.0
 11
504.9785
 21
234.0
 31
0.0
  0
LINE
  5
220
330
1D
100
AcDbEntity
  8
0
100
AcDbLine
 10
174.2595
 20
212.0
 30
0.0
 11
504.9785
 21
212.0
 31
0.0
  0
LINE
  5
221
330
1D
100
AcDbEntity
  8
0
100
AcDbLine
 10
504.9785
 20
234.0
 30
0.0
 11
512.1905
 21
233.434
 31
0.0
  0
LINE
  5
222
330
1D
100
AcDbEntity
  8
0
100
AcDbLine
 10
168.9085
 20
211.398
 30
0.0
 11
174.2595
 21
212.0
 31
0.0
  0
LINE
  5
223
330
1D
100
AcDbEntity
  8
0
100
AcDbLine
 10
163.8245
 20
209.623
 30
0.0
 11
168.9085
 21
211.398
 31
0.0
  0
LINE
  5
224
330
1D
100
AcDbEntity
  8
0
100
AcDbLine
 10
159.2635
 20
206.764
 30
0.0
 11
163.8245
 21
209.623
 31
0.0
  0
LINE
  5
225
330
1D
100
AcDbEntity
  8
0
100
AcDbLine
 10
155.4555
 20
202.963
 30
0.0
 11
159.2635
 21
206.764
 31
0.0
  0
LINE
  5
226
330
1D
100
AcDbEntity
  8
0
100
AcDbLine
 10
152.5895
 20
198.413
 30
0.0
 11
155.4555
 21
202.963
 31
0.0
  0
LINE
  5
227
330
1D
100
AcDbEntity
  8
0
100
AcDbLine
 10
150.8105
 20
193.34
 30
0.0
 11
152.5895
 21
198.413
 31
0.0
  0
LINE
  5
228
330
1D
100
AcDbEntity
  8
0
100
AcDbLine
 10
150.2075
 20
188.0
 30
0.0
 11
150.8105
 21
193.34
 31
0.0
  0
LINE
  5
229
330
1D
100
AcDbEntity
  8
0
100
AcDbLine
 10
150.2075
 20
188.0
 30
0.0
 11
150.2075
 21
170.6
 31
0.0
  0
LINE
  5
22A
330
1D
100
AcDbEntity
  8
0
100
AcDbLine
 10
551.0785
 20
188.0
 30
0.0
 11
551.0785
 21
127.0
 31
0.0
  0
LINE
  5
22B
330
1D
100
AcDbEntity
  8
0
100
AcDbLine
 10
529.0305
 20
188.0
 30
0.0
 11
529.0305
 21
127.0
 31
0.0
  0
LINE
  5
22C
330
1D
100
AcDbEntity
  8
0
100
AcDbLine
 10
550.5115
 20
195.196
 30
0.0
 11
551.0785
 21
188.0
 31
0.0
  0
LINE
  5
22D
330
1D
100
AcDbEntity
  8
0
100
AcDbLine
 10
528.4275
 20
193.34
 30
0.0
 11
529.0305
 21
188.0
 31
0.0
  0
LINE
  5
22E
330
1D
100
AcDbEntity
  8
0
100
AcDbLine
 10
548.8225
 20
202.215
 30
0.0
 11
550.5115
 21
195.196
 31
0.0
  0
LINE
  5
22F
330
1D
100
AcDbEntity
  8
0
100
AcDbLine
 10
526.6495
 20
198.413
 30
0.0
 11
528.4275
 21
193.34
 31
0.0
  0
LINE
  5
230
330
1D
100
AcDbEntity
  8
0
100
AcDbLine
 10
523.7835
 20
202.963
 30
0.0
 11
526.6495
 21
198.413
 31
0.0
  0
LINE
  5
231
330
1D
100
AcDbEntity
  8
0
100
AcDbLine
 10
546.0545
 20
208.883
 30
0.0
 11
548.8225
 21
202.215
 31
0.0
  0
LINE
  5
232
330
1D
100
AcDbEntity
  8
0
100
AcDbLine
 10
519.9745
 20
206.764
 30
0.0
 11
523.7835
 21
202.963
 31
0.0
  0
LINE
  5
233
330
1D
100
AcDbEntity
  8
0
100
AcDbLine
 10
515.4145
 20
209.623
 30
0.0
 11
519.9745
 21
206.764
 31
0.0
  0
LINE
  5
234
330
1D
100
AcDbEntity
  8
0
100
AcDbLine
 10
525.9075
 20
228.986
 30
0.0
 11
532.0765
 21
225.215
 31
0.0
  0
LINE
  5
235
330
1D
100
AcDbEntity
  8
0
100
AcDbLine
 10
519.2245
 20
231.748
 30
0.0
 11
525.9075
 21
228.986
 31
0.0
  0
LINE
  5
236
330
1D
100
AcDbEntity
  8
0
100
AcDbLine
 10
532.0765
 20
225.215
 30
0.0
 11
537.5765
 21
220.527
 31
0.0
  0
LINE
  5
237
330
1D
100
AcDbEntity
  8
0
100
AcDbLine
 10
537.5765
 20
220.527
 30
0.0
 11
542.2745
 21
215.038
 31
0.0
  0
LINE
  5
238
330
1D
100
AcDbEntity
  8
0
100
AcDbLine
 10
542.2745
 20
215.038
 30
0.0
 11
546.0545
 21
208.883
 31
0.0
  0
LINE
  5
239
330
1D
100
AcDbEntity
  8
0
100
AcDbLine
 10
512.1905
 20
233.434
 30
0.0
 11
519.2245
 21
231.748
 31
0.0
  0
LINE
  5
23A
330
1D
100
AcDbEntity
  8
0
100
AcDbLine
 10
510.3305
 20
211.398
 30
0.0
 11
515.4145
 21
209.623
 31
0.0
  0
LINE
  5
23B
330
1D
100
AcDbEntity
  8
0
100
AcDbLine
 10
504.9785
 20
212.0
 30
0.0
 11
510.3305
 21
211.398
 31
0.0
  0
LINE
  5
23C
330
1D
100
AcDbEntity
  8
0
100
AcDbLine
 10
570.1695
 20
154.452
 30
0.0
 11
588.1595
 21
154.452
 31
0.0
  0
LINE
  5
23D
330
1D
100
AcDbEntity
  8
0
100
AcDbLine
 10
588.1595
 20
154.452
 30
0.0
 11
588.1595
 21
154.021
 31
0.0
  0
LINE
  5
23E
330
1D
100
AcDbEntity
  8
0
100
AcDbLine
 10
588.1595
 20
154.021
 30
0.0
 11
588.1595
 21
154.452
 31
0.0
  0
LINE
  5
23F
330
1D
100
AcDbEntity
  8
0
100
AcDbLine
 10
588.1595
 20
154.021
 30
0.0
 11
588.1595
 21
153.023
 31
0.0
  0
LINE
  5
240
330
1D
100
AcDbEntity
  8
0
100
AcDbLine
 10
588.1595
 20
153.023
 30
0.0
 11
588.1595
 21
154.021
 31
0.0
  0
LINE
  5
241
330
1D
100
AcDbEntity
  8
0
100
AcDbLine
 10
588.1595
 20
153.023
 30
0.0
 11
588.1595
 21
151.465
 31
0.0
  0
LINE
  5
242
330
1D
100
AcDbEntity
  8
0
100
AcDbLine
 10
588.1595
 20
151.465
 30
0.0
 11
588.1595
 21
153.023
 31
0.0
  0
LINE
  5
243
330
1D
100
AcDbEntity
  8
0
100
AcDbLine
 10
588.1595
 20
151.465
 30
0.0
 11
588.1595
 21
149.363
 31
0.0
  0
LINE
  5
244
330
1D
100
AcDbEntity
  8
0
100
AcDbLine
 10
588.1595
 20
149.363
 30
0.0
 11
588.1595
 21
151.465
 31
0.0
  0
LINE
  5
245
330
1D
100
AcDbEntity
  8
0
100
AcDbLine
 10
588.1595
 20
149.363
 30
0.0
 11
588.1595
 21
146.734
 31
0.0
  0
LINE
  5
246
330
1D
100
AcDbEntity
  8
0
100
AcDbLine
 10
588.1595
 20
146.734
 30
0.0
 11
588.1595
 21
149.363
 31
0.0
  0
LINE
  5
247
330
1D
100
AcDbEntity
  8
0
100
AcDbLine
 10
588.1595
 20
146.734
 30
0.0
 11
588.1595
 21
143.607
 31
0.0
  0
LINE
  5
248
330
1D
100
AcDbEntity
  8
0
100
AcDbLine
 10
671.1595
 20
31.0
 30
0.0
 11
671.1595
 21
31.324
 31
0.0
  0
LINE
  5
249
330
1D
100
AcDbEntity
  8
0
100
AcDbLine
 10
671.1595
 20
31.0
 30
0.0
 11
681.1595
 21
31.0
 31
0.0
  0
LINE
  5
24A
330
1D
100
AcDbEntity
  8
0
100
AcDbLine
 10
671.1595
 20
34.0
 30
0.0
 11
671.1595
 21
34.216
 31
0.0
  0
LINE
  5
24B
330
1D
100
AcDbEntity
  8
0
100
AcDbLine
 10
671.1595
 20
31.324
 30
0.0
 11
671.1595
 21
31.0
 31
0.0
  0
LINE
  5
24C
330
1D
100
AcDbEntity
  8
0
100
AcDbLine
 10
671.1595
 20
31.324
 30
0.0
 11
671.1595
 21
32.188
 31
0.0
  0
LINE
  5
24D
330
1D
100
AcDbEntity
  8
0
100
AcDbLine
 10
671.1595
 20
34.216
 30
0.0
 11
671.1595
 21
34.792
 31
0.0
  0
LINE
  5
24E
330
1D
100
AcDbEntity
  8
0
100
AcDbLine
 10
671.1595
 20
34.216
 30
0.0
 11
671.1595
 21
34.0
 31
0.0
  0
LINE
  5
24F
330
1D
100
AcDbEntity
  8
0
100
AcDbLine
 10
671.1595
 20
32.188
 30
0.0
 11
671.1595
 21
31.324
 31
0.0
  0
LINE
  5
250
330
1D
100
AcDbEntity
  8
0
100
AcDbLine
 10
671.1595
 20
32.188
 30
0.0
 11
671.1595
 21
33.628
 31
0.0
  0
LINE
  5
251
330
1D
100
AcDbEntity
  8
0
100
AcDbLine
 10
671.1595
 20
34.792
 30
0.0
 11
671.1595
 21
35.752
 31
0.0
  0
LINE
  5
252
330
1D
100
AcDbEntity
  8
0
100
AcDbLine
 10
671.1595
 20
34.792
 30
0.0
 11
671.1595
 21
34.216
 31
0.0
  0
LINE
  5
253
330
1D
100
AcDbEntity
  8
0
100
AcDbLine
 10
671.1595
 20
33.628
 30
0.0
 11
671.1595
 21
32.188
 31
0.0
  0
LINE
  5
254
330
1D
100
AcDbEntity
  8
0
100
AcDbLine
 10
671.1595
 20
33.628
 30
0.0
 11
671.1595
 21
35.536
 31
0.0
  0
LINE
  5
255
330
1D
100
AcDbEntity
  8
0
100
AcDbLine
 10
671.1595
 20
35.752
 30
0.0
 11
671.1595
 21
37.024
 31
0.0
  0
LINE
  5
256
330
1D
100
AcDbEntity
  8
0
100
AcDbLine
 10
671.1595
 20
35.752
 30
0.0
 11
671.1595
 21
34.792
 31
0.0
  0
LINE
  5
257
330
1D
100
AcDbEntity
  8
0
100
AcDbLine
 10
671.1595
 20
35.536
 30
0.0
 11
671.1595
 21
33.628
 31
0.0
  0
LINE
  5
258
330
1D
100
AcDbEntity
  8
0
100
AcDbLine
 10
671.1595
 20
35.536
 30
0.0
 11
671.1595
 21
37.696
 31
0.0
  0
LINE
  5
259
330
1D
100
AcDbEntity
  8
0
100
AcDbLine
 10
671.1595
 20
37.024
 30
0.0
 11
671.1595
 21
38.464
 31
0.0
  0
LINE
  5
25A
330
1D
100
AcDbEntity
  8
0
100
AcDbLine
 10
671.1595
 20
37.024
 30
0.0
 11
671.1595
 21
35.752
 31
0.0
  0
LINE
  5
25B
330
1D
100
AcDbEntity
  8
0
100
AcDbLine
 10
671.1595
 20
37.696
 30
0.0
 11
671.1595
 21
35.536
 31
0.0
  0
LINE
  5
25C
330
1D
100
AcDbEntity
  8
0
100
AcDbLine
 10
671.1595
 20
37.696
 30
0.0
 11
671.1595
 21
40.0
 31
0.0
  0
LINE
  5
25D
330
1D
100
AcDbEntity
  8
0
100
AcDbLine
 10
681.1595
 20
40.0
 30
0.0
 11
681.1595
 21
37.696
 31
0.0
  0
LINE
  5
25E
330
1D
100
AcDbEntity
  8
0
100
AcDbLine
 10
681.1595
 20
40.0
 30
0.0
 11
681.1595
 21
42.304
 31
0.0
  0
LINE
  5
25F
330
1D
100
AcDbEntity
  8
0
100
AcDbLine
 10
681.1595
 20
37.696
 30
0.0
 11
681.1595
 21
35.536
 31
0.0
  0
LINE
  5
260
330
1D
100
AcDbEntity
  8
0
100
AcDbLine
 10
681.1595
 20
35.536
 30
0.0
 11
681.1595
 21
33.628
 31
0.0
  0
LINE
  5
261
330
1D
100
AcDbEntity
  8
0
100
AcDbLine
 10
681.1595
 20
33.628
 30
0.0
 11
681.1595
 21
32.188
 31
0.0
  0
LINE
  5
262
330
1D
100
AcDbEntity
  8
0
100
AcDbLine
 10
681.1595
 20
32.188
 30
0.0
 11
681.1595
 21
31.324
 31
0.0
  0
LINE
  5
263
330
1D
100
AcDbEntity
  8
0
100
AcDbLine
 10
681.1595
 20
31.324
 30
0.0
 11
681.1595
 21
31.0
 31
0.0
  0
LINE
  5
264
330
1D
100
AcDbEntity
  8
0
100
AcDbLine
 10
671.1595
 20
38.464
 30
0.0
 11
671.1595
 21
40.0
 31
0.0
  0
LINE
  5
265
330
1D
100
AcDbEntity
  8
0
100
AcDbLine
 10
671.1595
 20
38.464
 30
0.0
 11
671.1595
 21
37.024
 31
0.0
  0
LINE
  5
266
330
1D
100
AcDbEntity
  8
0
100
AcDbLine
 10
671.1595
 20
42.304
 30
0.0
 11
671.1595
 21
44.464
 31
0.0
  0
LINE
  5
267
330
1D
100
AcDbEntity
  8
0
100
AcDbLine
 10
671.1595
 20
42.304
 30
0.0
 11
671.1595
 21
40.0
 31
0.0
  0
LINE
  5
268
330
1D
100
AcDbEntity
  8
0
100
AcDbLine
 10
671.1595
 20
41.536
 30
0.0
 11
671.1595
 21
42.976
 31
0.0
  0
LINE
  5
269
330
1D
100
AcDbEntity
  8
0
100
AcDbLine
 10
671.1595
 20
41.536
 30
0.0
 11
671.1595
 21
40.0
 31
0.0
  0
LINE
  5
26A
330
1D
100
AcDbEntity
  8
0
100
AcDbLine
 10
671.1595
 20
44.464
 30
0.0
 11
671.1595
 21
53.188
 31
0.0
  0
LINE
  5
26B
330
1D
100
AcDbEntity
  8
0
100
AcDbLine
 10
671.1595
 20
44.464
 30
0.0
 11
681.1595
 21
44.464
 31
0.0
  0
LINE
  5
26C
330
1D
100
AcDbEntity
  8
0
100
AcDbLine
 10
671.1595
 20
44.464
 30
0.0
 11
671.1595
 21
42.304
 31
0.0
  0
LINE
  5
26D
330
1D
100
AcDbEntity
  8
0
100
AcDbLine
 10
671.1595
 20
44.464
 30
0.0
 11
671.1595
 21
49.0
 31
0.0
  0
LINE
  5
26E
330
1D
100
AcDbEntity
  8
0
100
AcDbLine
 10
671.1595
 20
42.976
 30
0.0
 11
671.1595
 21
44.248
 31
0.0
  0
LINE
  5
26F
330
1D
100
AcDbEntity
  8
0
100
AcDbLine
 10
671.1595
 20
42.976
 30
0.0
 11
671.1595
 21
41.536
 31
0.0
  0
LINE
  5
270
330
1D
100
AcDbEntity
  8
0
100
AcDbLine
 10
671.1595
 20
44.248
 30
0.0
 11
671.1595
 21
45.208
 31
0.0
  0
LINE
  5
271
330
1D
100
AcDbEntity
  8
0
100
AcDbLine
 10
671.1595
 20
44.248
 30
0.0
 11
671.1595
 21
42.976
 31
0.0
  0
LINE
  5
272
330
1D
100
AcDbEntity
  8
0
100
AcDbLine
 10
671.1595
 20
46.0
 30
0.0
 11
671.1595
 21
45.784
 31
0.0
  0
LINE
  5
273
330
1D
100
AcDbEntity
  8
0
100
AcDbLine
 10
671.1595
 20
45.208
 30
0.0
 11
671.1595
 21
45.784
 31
0.0
  0
LINE
  5
274
330
1D
100
AcDbEntity
  8
0
100
AcDbLine
 10
671.1595
 20
45.208
 30
0.0
 11
671.1595
 21
44.248
 31
0.0
  0
LINE
  5
275
330
1D
100
AcDbEntity
  8
0
100
AcDbLine
 10
681.1595
 20
42.304
 30
0.0
 11
681.1595
 21
40.0
 31
0.0
  0
LINE
  5
276
330
1D
100
AcDbEntity
  8
0
100
AcDbLine
 10
681.1595
 20
42.304
 30
0.0
 11
681.1595
 21
44.464
 31
0.0
  0
LINE
  5
277
330
1D
100
AcDbEntity
  8
0
100
AcDbLine
 10
681.1595
 20
44.464
 30
0.0
 11
681.1595
 21
42.304
 31
0.0
  0
LINE
  5
278
330
1D
100
AcDbEntity
  8
0
100
AcDbLine
 10
681.1595
 20
44.464
 30
0.0
 11
681.1595
 21
52.0
 31
0.0
  0
LINE
  5
279
330
1D
100
AcDbEntity
  8
0
100
AcDbLine
 10
671.1595
 20
45.784
 30
0.0
 11
671.1595
 21
46.0
 31
0.0
  0
LINE
  5
27A
330
1D
100
AcDbEntity
  8
0
100
AcDbLine
 10
671.1595
 20
45.784
 30
0.0
 11
671.1595
 21
45.208
 31
0.0
  0
LINE
  5
27B
330
1D
100
AcDbEntity
  8
0
100
AcDbLine
 10
671.1595
 20
40.0
 30
0.0
 11
671.1595
 21
37.696
 31
0.0
  0
LINE
  5
27C
330
1D
100
AcDbEntity
  8
0
100
AcDbLine
 10
671.1595
 20
40.0
 30
0.0
 11
671.1595
 21
38.464
 31
0.0
  0
LINE
  5
27D
330
1D
100
AcDbEntity
  8
0
100
AcDbLine
 10
671.1595
 20
40.0
 30
0.0
 11
671.1595
 21
41.536
 31
0.0
  0
LINE
  5
27E
330
1D
100
AcDbEntity
  8
0
100
AcDbLine
 10
671.1595
 20
40.0
 30
0.0
 11
671.1595
 21
42.304
 31
0.0
  0
LINE
  5
27F
330
1D
100
AcDbEntity
  8
0
100
AcDbLine
 10
671.1595
 20
40.0
 30
0.0
 11
671.1595
 21
49.0
 31
0.0
  0
LINE
  5
280
330
1D
100
AcDbEntity
  8
0
100
AcDbLine
 10
620.6595
 20
48.5
 30
0.0
 11
620.6595
 21
48.932
 31
0.0
  0
LINE
  5
281
330
1D
100
AcDbEntity
  8
0
100
AcDbLine
 10
620.6595
 20
50.084
 30
0.0
 11
620.6595
 21
52.004
 31
0.0
  0
LINE
  5
282
330
1D
100
AcDbEntity
  8
0
100
AcDbLine
 10
653.1595
 20
49.0
 30
0.0
 11
671.1595
 21
49.0
 31
0.0
  0
LINE
  5
283
330
1D
100
AcDbEntity
  8
0
100
AcDbLine
 10
620.6595
 20
48.932
 30
0.0
 11
620.6595
 21
50.084
 31
0.0
  0
LINE
  5
284
330
1D
100
AcDbEntity
  8
0
100
AcDbLine
 10
620.6595
 20
54.548
 30
0.0
 11
620.6595
 21
57.428
 31
0.0
  0
LINE
  5
285
330
1D
100
AcDbEntity
  8
0
100
AcDbLine
 10
653.1595
 20
52.6758
 30
0.0
 11
671.1595
 21
52.6758
 31
0.0
  0
LINE
  5
287
330
1D
100
AcDbEntity
  8
0
100
AcDbLine
 10
620.6595
 20
52.004
 30
0.0
 11
620.6595
 21
54.548
 31
0.0
  0
LINE
  5
288
330
1D
100
AcDbEntity
  8
0
100
AcDbLine
 10
620.6595
 20
57.428
 30
0.0
 11
620.6595
 21
60.5
 31
0.0
  0
LINE
  5
289
330
1D
100
AcDbEntity
  8
0
100
AcDbLine
 10
620.6595
 20
121.5
 30
0.0
 11
620.6595
 21
124.572
 31
0.0
  0
LINE
  5
28A
330
1D
100
AcDbEntity
  8
0
100
AcDbLine
 10
653.1595
 20
75.0
 30
0.0
 11
671.1595
 21
75.0
 31
0.0
  0
LINE
  5
28B
330
1D
100
AcDbEntity
  8
0
100
AcDbLine
 10
653.1595
 20
107.0
 30
0.0
 11
671.1595
 21
107.0
 31
0.0
  0
LINE
  5
28C
330
1D
100
AcDbEntity
  8
0
100
AcDbLine
 10
620.6595
 20
60.5
 30
0.0
 11
620.6595
 21
121.5
 31
0.0
  0
LINE
  5
28D
330
1D
100
AcDbEntity
  8
0
100
AcDbLine
 10
620.6595
 20
124.572
 30
0.0
 11
620.6595
 21
127.452
 31
0.0
  0
LINE
  5
28E
330
1D
100
AcDbEntity
  8
0
100
AcDbLine
 10
620.6595
 20
127.452
 30
0.0
 11
620.6595
 21
129.996
 31
0.0
  0
LINE
  5
28F
330
1D
100
AcDbEntity
  8
0
100
AcDbLine
 10
653.1595
 20
121.5
 30
0.0
 11
653.1595
 21
124.572
 31
0.0
  0
LINE
  5
290
330
1D
100
AcDbEntity
  8
0
100
AcDbLine
 10
653.1595
 20
121.5
 30
0.0
 11
653.1595
 21
60.5
 31
0.0
  0
LINE
  5
291
330
1D
100
AcDbEntity
  8
0
100
AcDbLine
 10
653.1595
 20
124.572
 30
0.0
 11
653.1595
 21
127.452
 31
0.0
  0
LINE
  5
292
330
1D
100
AcDbEntity
  8
0
100
AcDbLine
 10
653.1595
 20
124.572
 30
0.0
 11
653.1595
 21
121.5
 31
0.0
  0
LINE
  5
293
330
1D
100
AcDbEntity
  8
0
100
AcDbLine
 10
620.6595
 20
129.996
 30
0.0
 11
620.6595
 21
131.916
 31
0.0
  0
LINE
  5
295
330
1D
100
AcDbEntity
  8
0
100
AcDbLine
 10
653.1595
 20
129.3242
 30
0.0
 11
671.1595
 21
129.3242
 31
0.0
  0
LINE
  5
296
330
1D
100
AcDbEntity
  8
0
100
AcDbLine
 10
620.6595
 20
131.916
 30
0.0
 11
620.6595
 21
133.068
 31
0.0
  0
LINE
  5
297
330
1D
100
AcDbEntity
  8
0
100
AcDbLine
 10
653.1595
 20
127.452
 30
0.0
 11
653.1595
 21
129.996
 31
0.0
  0
LINE
  5
298
330
1D
100
AcDbEntity
  8
0
100
AcDbLine
 10
653.1595
 20
127.452
 30
0.0
 11
653.1595
 21
124.572
 31
0.0
  0
LINE
  5
299
330
1D
100
AcDbEntity
  8
0
100
AcDbLine
 10
653.1595
 20
129.996
 30
0.0
 11
653.1595
 21
131.916
 31
0.0
  0
LINE
  5
29A
330
1D
100
AcDbEntity
  8
0
100
AcDbLine
 10
653.1595
 20
129.996
 30
0.0
 11
653.1595
 21
127.452
 31
0.0
  0
LINE
  5
29B
330
1D
100
AcDbEntity
  8
0
100
AcDbLine
 10
653.1595
 20
133.0
 30
0.0
 11
671.1595
 21
133.0
 31
0.0
  0
LINE
  5
29C
330
1D
100
AcDbEntity
  8
0
100
AcDbLine
 10
653.1595
 20
133.5
 30
0.0
 11
653.1595
 21
133.068
 31
0.0
  0
LINE
  5
29D
330
1D
100
AcDbEntity
  8
0
100
AcDbLine
 10
620.6595
 20
133.068
 30
0.0
 11
620.6595
 21
133.5
 31
0.0
  0
LINE
  5
29E
330
1D
100
AcDbEntity
  8
0
100
AcDbLine
 10
653.1595
 20
131.916
 30
0.0
 11
653.1595
 21
133.068
 31
0.0
  0
LINE
  5
29F
330
1D
100
AcDbEntity
  8
0
100
AcDbLine
 10
653.1595
 20
131.916
 30
0.0
 11
653.1595
 21
129.996
 31
0.0
  0
LINE
  5
2A0
330
1D
100
AcDbEntity
  8
0
100
AcDbLine
 10
653.1595
 20
133.068
 30
0.0
 11
653.1595
 21
133.5
 31
0.0
  0
LINE
  5
2A1
330
1D
100
AcDbEntity
  8
0
100
AcDbLine
 10
653.1595
 20
133.068
 30
0.0
 11
653.1595
 21
131.916
 31
0.0
  0
LINE
  5
2A2
330
1D
100
AcDbEntity
  8
0
100
AcDbLine
 10
653.1595
 20
60.5
 30
0.0
 11
653.1595
 21
121.5
 31
0.0
  0
LINE
  5
2A3
330
1D
100
AcDbEntity
  8
0
100
AcDbLine
 10
653.1595
 20
60.5
 30
0.0
 11
653.1595
 21
57.428
 31
0.0
  0
LINE
  5
2A4
330
1D
100
AcDbEntity
  8
0
100
AcDbLine
 10
653.1595
 20
57.428
 30
0.0
 11
653.1595
 21
60.5
 31
0.0
  0
LINE
  5
2A5
330
1D
100
AcDbEntity
  8
0
100
AcDbLine
 10
653.1595
 20
57.428
 30
0.0
 11
653.1595
 21
54.548
 31
0.0
  0
LINE
  5
2A6
330
1D
100
AcDbEntity
  8
0
100
AcDbLine
 10
653.1595
 20
54.548
 30
0.0
 11
653.1595
 21
57.428
 31
0.0
  0
LINE
  5
2A7
330
1D
100
AcDbEntity
  8
0
100
AcDbLine
 10
653.1595
 20
54.548
 30
0.0
 11
653.1595
 21
52.004
 31
0.0
  0
LINE
  5
2A8
330
1D
100
AcDbEntity
  8
0
100
AcDbLine
 10
653.1595
 20
52.004
 30
0.0
 11
653.1595
 21
54.548
 31
0.0
  0
LINE
  5
2A9
330
1D
100
AcDbEntity
  8
0
100
AcDbLine
 10
653.1595
 20
52.004
 30
0.0
 11
653.1595
 21
50.084
 31
0.0
  0
LINE
  5
2AA
330
1D
100
AcDbEntity
  8
0
100
AcDbLine
 10
653.1595
 20
50.084
 30
0.0
 11
653.1595
 21
52.004
 31
0.0
  0
LINE
  5
2AB
330
1D
100
AcDbEntity
  8
0
100
AcDbLine
 10
653.1595
 20
50.084
 30
0.0
 11
653.1595
 21
48.932
 31
0.0
  0
LINE
  5
2AC
330
1D
100
AcDbEntity
  8
0
100
AcDbLine
 10
671.1595
 20
51.71
 30
0.0
 11
671.1595
 21
49.0
 31
0.0
  0
LINE
  5
2AD
330
1D
100
AcDbEntity
  8
0
100
AcDbLine
 10
671.1595
 20
49.0
 30
0.0
 11
671.1595
 21
40.0
 31
0.0
  0
LINE
  5
2AE
330
1D
100
AcDbEntity
  8
0
100
AcDbLine
 10
671.1595
 20
49.0
 30
0.0
 11
671.1595
 21
44.464
 31
0.0
  0
LINE
  5
2AF
330
1D
100
AcDbEntity
  8
0
100
AcDbLine
 10
671.1595
 20
52.6758
 30
0.0
 11
671.1595
 21
51.71
 31
0.0
  0
LINE
  5
2B0
330
1D
100
AcDbEntity
  8
0
100
AcDbLine
 10
671.1595
 20
52.0
 30
0.0
 11
671.1595
 21
52.324
 31
0.0
  0
LINE
  5
2B1
330
1D
100
AcDbEntity
  8
0
100
AcDbLine
 10
671.1595
 20
52.0
 30
0.0
 11
681.1595
 21
52.0
 31
0.0
  0
LINE
  5
2B2
330
1D
100
AcDbEntity
  8
0
100
AcDbLine
 10
671.1595
 20
52.324
 30
0.0
 11
671.1595
 21
53.188
 31
0.0
  0
LINE
  5
2B3
330
1D
100
AcDbEntity
  8
0
100
AcDbLine
 10
671.1595
 20
52.324
 30
0.0
 11
671.1595
 21
52.0
 31
0.0
  0
LINE
  5
2B4
330
1D
100
AcDbEntity
  8
0
100
AcDbLine
 10
671.1595
 20
53.2
 30
0.0
 11
671.1595
 21
52.6758
 31
0.0
  0
LINE
  5
2B5
330
1D
100
AcDbEntity
  8
0
100
AcDbLine
 10
671.1595
 20
53.8554
 30
0.0
 11
671.1595
 21
53.2
 31
0.0
  0
LINE
  5
2B6
330
1D
100
AcDbEntity
  8
0
100
AcDbLine
 10
671.1595
 20
55.0
 30
0.0
 11
671.1595
 21
55.216
 31
0.0
  0
LINE
  5
2B7
330
1D
100
AcDbEntity
  8
0
100
AcDbLine
 10
671.1595
 20
53.188
 30
0.0
 11
671.1595
 21
54.628
 31
0.0
  0
LINE
  5
2B8
330
1D
100
AcDbEntity
  8
0
100
AcDbLine
 10
671.1595
 20
53.188
 30
0.0
 11
671.1595
 21
52.324
 31
0.0
  0
LINE
  5
2B9
330
1D
100
AcDbEntity
  8
0
100
AcDbLine
 10
671.1595
 20
53.188
 30
0.0
 11
671.1595
 21
44.464
 31
0.0
  0
LINE
  5
2BA
330
1D
100
AcDbEntity
  8
0
100
AcDbLine
 10
671.1595
 20
54.628
 30
0.0
 11
671.1595
 21
56.536
 31
0.0
  0
LINE
  5
2BB
330
1D
100
AcDbEntity
  8
0
100
AcDbLine
 10
671.1595
 20
54.628
 30
0.0
 11
671.1595
 21
53.188
 31
0.0
  0
LINE
  5
2BC
330
1D
100
AcDbEntity
  8
0
100
AcDbLine
 10
671.1595
 20
56.536
 30
0.0
 11
671.1595
 21
58.696
 31
0.0
  0
LINE
  5
2BD
330
1D
100
AcDbEntity
  8
0
100
AcDbLine
 10
671.1595
 20
56.536
 30
0.0
 11
671.1595
 21
54.628
 31
0.0
  0
LINE
  5
2BE
330
1D
100
AcDbEntity
  8
0
100
AcDbLine
 10
671.1595
 20
55.216
 30
0.0
 11
671.1595
 21
55.0
 31
0.0
  0
LINE
  5
2BF
330
1D
100
AcDbEntity
  8
0
100
AcDbLine
 10
671.1595
 20
55.216
 30
0.0
 11
671.1595
 21
55.792
 31
0.0
  0
LINE
  5
2C0
330
1D
100
AcDbEntity
  8
0
100
AcDbLine
 10
671.1595
 20
55.792
 30
0.0
 11
671.1595
 21
55.216
 31
0.0
  0
LINE
  5
2C1
330
1D
100
AcDbEntity
  8
0
100
AcDbLine
 10
671.1595
 20
55.792
 30
0.0
 11
671.1595
 21
56.752
 31
0.0
  0
LINE
  5
2C2
330
1D
100
AcDbEntity
  8
0
100
AcDbLine
 10
671.1595
 20
58.8754
 30
0.0
 11
671.1595
 21
53.8554
 31
0.0
  0
LINE
  5
2C3
330
1D
100
AcDbEntity
  8
0
100
AcDbLine
 10
671.1595
 20
58.696
 30
0.0
 11
671.1595
 21
61.0
 31
0.0
  0
LINE
  5
2C4
330
1D
100
AcDbEntity
  8
0
100
AcDbLine
 10
671.1595
 20
58.696
 30
0.0
 11
671.1595
 21
56.536
 31
0.0
  0
LINE
  5
2C5
330
1D
100
AcDbEntity
  8
0
100
AcDbLine
 10
671.1595
 20
56.752
 30
0.0
 11
671.1595
 21
55.792
 31
0.0
  0
LINE
  5
2C6
330
1D
100
AcDbEntity
  8
0
100
AcDbLine
 10
671.1595
 20
56.752
 30
0.0
 11
671.1595
 21
58.024
 31
0.0
  0
LINE
  5
2C7
330
1D
100
AcDbEntity
  8
0
100
AcDbLine
 10
671.1595
 20
58.024
 30
0.0
 11
671.1595
 21
56.752
 31
0.0
  0
LINE
  5
2C8
330
1D
100
AcDbEntity
  8
0
100
AcDbLine
 10
671.1595
 20
58.024
 30
0.0
 11
671.1595
 21
59.464
 31
0.0
  0
LINE
  5
2C9
330
1D
100
AcDbEntity
  8
0
100
AcDbLine
 10
671.1595
 20
59.464
 30
0.0
 11
671.1595
 21
58.024
 31
0.0
  0
LINE
  5
2CA
330
1D
100
AcDbEntity
  8
0
100
AcDbLine
 10
671.1595
 20
59.464
 30
0.0
 11
671.1595
 21
61.0
 31
0.0
  0
LINE
  5
2CB
330
1D
100
AcDbEntity
  8
0
100
AcDbLine
 10
671.1595
 20
61.0
 30
0.0
 11
671.1595
 21
62.536
 31
0.0
  0
LINE
  5
2CC
330
1D
100
AcDbEntity
  8
0
100
AcDbLine
 10
671.1595
 20
61.0
 30
0.0
 11
671.1595
 21
59.464
 31
0.0
  0
LINE
  5
2CD
330
1D
100
AcDbEntity
  8
0
100
AcDbLine
 10
671.1595
 20
61.0
 30
0.0
 11
671.1595
 21
63.304
 31
0.0
  0
LINE
  5
2CE
330
1D
100
AcDbEntity
  8
0
100
AcDbLine
 10
671.1595
 20
61.0
 30
0.0
 11
671.1595
 21
58.696
 31
0.0
  0
LINE
  5
2CF
330
1D
100
AcDbEntity
  8
0
100
AcDbLine
 10
671.1595
 20
63.8955
 30
0.0
 11
671.1595
 21
58.8754
 31
0.0
  0
LINE
  5
2D0
330
1D
100
AcDbEntity
  8
0
100
AcDbLine
 10
671.1595
 20
63.304
 30
0.0
 11
671.1595
 21
61.0
 31
0.0
  0
LINE
  5
2D1
330
1D
100
AcDbEntity
  8
0
100
AcDbLine
 10
671.1595
 20
63.304
 30
0.0
 11
671.1595
 21
65.464
 31
0.0
  0
LINE
  5
2D2
330
1D
100
AcDbEntity
  8
0
100
AcDbLine
 10
671.1595
 20
62.536
 30
0.0
 11
671.1595
 21
63.976
 31
0.0
  0
LINE
  5
2D3
330
1D
100
AcDbEntity
  8
0
100
AcDbLine
 10
671.1595
 20
62.536
 30
0.0
 11
671.1595
 21
61.0
 31
0.0
  0
LINE
  5
2D4
330
1D
100
AcDbEntity
  8
0
100
AcDbLine
 10
671.1595
 20
63.976
 30
0.0
 11
671.1595
 21
65.248
 31
0.0
  0
LINE
  5
2D5
330
1D
100
AcDbEntity
  8
0
100
AcDbLine
 10
671.1595
 20
63.976
 30
0.0
 11
671.1595
 21
62.536
 31
0.0
  0
LINE
  5
2D6
330
1D
100
AcDbEntity
  8
0
100
AcDbLine
 10
671.1595
 20
65.464
 30
0.0
 11
671.1595
 21
63.304
 31
0.0
  0
LINE
  5
2D7
330
1D
100
AcDbEntity
  8
0
100
AcDbLine
 10
671.1595
 20
65.464
 30
0.0
 11
671.1595
 21
67.372
 31
0.0
  0
LINE
  5
2D8
330
1D
100
AcDbEntity
  8
0
100
AcDbLine
 10
671.1595
 20
65.248
 30
0.0
 11
671.1595
 21
66.208
 31
0.0
  0
LINE
  5
2D9
330
1D
100
AcDbEntity
  8
0
100
AcDbLine
 10
671.1595
 20
65.248
 30
0.0
 11
671.1595
 21
63.976
 31
0.0
  0
LINE
  5
2DA
330
1D
100
AcDbEntity
  8
0
100
AcDbLine
 10
671.1595
 20
66.208
 30
0.0
 11
671.1595
 21
66.784
 31
0.0
  0
LINE
  5
2DB
330
1D
100
AcDbEntity
  8
0
100
AcDbLine
 10
671.1595
 20
66.208
 30
0.0
 11
671.1595
 21
65.248
 31
0.0
  0
LINE
  5
2DC
330
1D
100
AcDbEntity
  8
0
100
AcDbLine
 10
671.1595
 20
67.0
 30
0.0
 11
671.1595
 21
66.784
 31
0.0
  0
LINE
  5
2DD
330
1D
100
AcDbEntity
  8
0
100
AcDbLine
 10
671.1595
 20
68.2397
 30
0.0
 11
671.1595
 21
63.8955
 31
0.0
  0
LINE
  5
2DE
330
1D
100
AcDbEntity
  8
0
100
AcDbLine
 10
671.1595
 20
67.372
 30
0.0
 11
671.1595
 21
65.464
 31
0.0
  0
LINE
  5
2DF
330
1D
100
AcDbEntity
  8
0
100
AcDbLine
 10
671.1595
 20
67.372
 30
0.0
 11
671.1595
 21
68.812
 31
0.0
  0
LINE
  5
2E0
330
1D
100
AcDbEntity
  8
0
100
AcDbLine
 10
671.1595
 20
68.812
 30
0.0
 11
671.1595
 21
67.372
 31
0.0
  0
LINE
  5
2E1
330
1D
100
AcDbEntity
  8
0
100
AcDbLine
 10
671.1595
 20
68.812
 30
0.0
 11
671.1595
 21
69.676
 31
0.0
  0
LINE
  5
2E2
330
1D
100
AcDbEntity
  8
0
100
AcDbLine
 10
654.1595
 20
91.0
 30
0.0
 11
654.6275
 21
94.328
 31
0.0
  0
LINE
  5
2E3
330
1D
100
AcDbEntity
  8
0
100
AcDbLine
 10
654.1595
 20
91.0
 30
0.0
 11
654.6275
 21
87.672
 31
0.0
  0
LINE
  5
2E4
330
1D
100
AcDbEntity
  8
0
100
AcDbLine
 10
654.6275
 20
87.672
 30
0.0
 11
655.8755
 21
84.552
 31
0.0
  0
LINE
  5
2E5
330
1D
100
AcDbEntity
  8
0
100
AcDbLine
 10
655.8755
 20
84.552
 30
0.0
 11
657.9555
 21
81.796
 31
0.0
  0
LINE
  5
2E6
330
1D
100
AcDbEntity
  8
0
100
AcDbLine
 10
656.4178
 20
88.1474
 30
0.0
 11
657.4875
 21
85.4731
 31
0.0
  0
LINE
  5
2E7
330
1D
100
AcDbEntity
  8
0
100
AcDbLine
 10
656.0166
 20
91.0
 30
0.0
 11
656.4178
 21
93.8526
 31
0.0
  0
LINE
  5
2E8
330
1D
100
AcDbEntity
  8
0
100
AcDbLine
 10
656.0166
 20
91.0
 30
0.0
 11
656.4178
 21
88.1474
 31
0.0
  0
LINE
  5
2E9
330
1D
100
AcDbEntity
  8
0
100
AcDbLine
 10
657.4875
 20
85.4731
 30
0.0
 11
659.2704
 21
83.1109
 31
0.0
  0
LINE
  5
2EA
330
1D
100
AcDbEntity
  8
0
100
AcDbLine
 10
656.4178
 20
93.8526
 30
0.0
 11
657.4875
 21
96.5269
 31
0.0
  0
LINE
  5
2EB
330
1D
100
AcDbEntity
  8
0
100
AcDbLine
 10
654.6275
 20
94.328
 30
0.0
 11
655.8755
 21
97.448
 31
0.0
  0
LINE
  5
2EC
330
1D
100
AcDbEntity
  8
0
100
AcDbLine
 10
657.9555
 20
81.796
 30
0.0
 11
660.7115
 21
79.716
 31
0.0
  0
LINE
  5
2ED
330
1D
100
AcDbEntity
  8
0
100
AcDbLine
 10
657.4875
 20
96.5269
 30
0.0
 11
659.2704
 21
98.8891
 31
0.0
  0
LINE
  5
2EE
330
1D
100
AcDbEntity
  8
0
100
AcDbLine
 10
655.8755
 20
97.448
 30
0.0
 11
657.9555
 21
100.204
 31
0.0
  0
LINE
  5
2EF
330
1D
100
AcDbEntity
  8
0
100
AcDbLine
 10
660.7115
 20
79.716
 30
0.0
 11
663.8315
 21
78.468
 31
0.0
  0
LINE
  5
2F0
330
1D
100
AcDbEntity
  8
0
100
AcDbLine
 10
663.8315
 20
78.468
 30
0.0
 11
667.1595
 21
78.0
 31
0.0
  0
LINE
  5
2F1
330
1D
100
AcDbEntity
  8
0
100
AcDbLine
 10
659.2704
 20
83.1109
 30
0.0
 11
661.6326
 21
81.328
 31
0.0
  0
LINE
  5
2F2
330
1D
100
AcDbEntity
  8
0
100
AcDbLine
 10
661.6326
 20
81.328
 30
0.0
 11
664.3069
 21
80.2583
 31
0.0
  0
LINE
  5
2F3
330
1D
100
AcDbEntity
  8
0
100
AcDbLine
 10
671.1595
 20
75.0
 30
0.0
 11
671.1595
 21
71.4255
 31
0.0
  0
LINE
  5
2F4
330
1D
100
AcDbEntity
  8
0
100
AcDbLine
 10
671.1595
 20
71.4255
 30
0.0
 11
671.1595
 21
68.2397
 31
0.0
  0
LINE
  5
2F5
330
1D
100
AcDbEntity
  8
0
100
AcDbLine
 10
671.1595
 20
78.7368
 30
0.0
 11
671.1595
 21
75.0
 31
0.0
  0
LINE
  5
2F6
330
1D
100
AcDbEntity
  8
0
100
AcDbLine
 10
671.1595
 20
78.7368
 30
0.0
 11
671.1595
 21
70.0
 31
0.0
  0
LINE
  5
2F7
330
1D
100
AcDbEntity
  8
0
100
AcDbLine
 10
670.4875
 20
78.468
 30
0.0
 11
673.6075
 21
79.716
 31
0.0
  0
LINE
  5
2F8
330
1D
100
AcDbEntity
  8
0
100
AcDbLine
 10
667.1595
 20
78.0
 30
0.0
 11
670.4875
 21
78.468
 31
0.0
  0
LINE
  5
2FA
330
1D
100
AcDbEntity
  8
0
100
AcDbLine
 10
670.0121
 20
80.2583
 30
0.0
 11
672.6864
 21
81.328
 31
0.0
  0
LINE
  5
2FB
330
1D
100
AcDbEntity
  8
0
100
AcDbLine
 10
667.1595
 20
79.8571
 30
0.0
 11
670.0121
 21
80.2583
 31
0.0
  0
LINE
  5
2FC
330
1D
100
AcDbEntity
  8
0
100
AcDbLine
 10
664.3069
 20
80.2583
 30
0.0
 11
667.1595
 21
79.8571
 31
0.0
  0
LINE
  5
2FD
330
1D
100
AcDbEntity
  8
0
100
AcDbLine
 10
659.2704
 20
98.8891
 30
0.0
 11
661.6326
 21
100.672
 31
0.0
  0
LINE
  5
2FE
330
1D
100
AcDbEntity
  8
0
100
AcDbLine
 10
657.9555
 20
100.204
 30
0.0
 11
660.7115
 21
102.284
 31
0.0
  0
LINE
  5
2FF
330
1D
100
AcDbEntity
  8
0
100
AcDbLine
 10
661.6326
 20
100.672
 30
0.0
 11
664.3069
 21
101.7417
 31
0.0
  0
LINE
  5
300
330
1D
100
AcDbEntity
  8
0
100
AcDbLine
 10
671.1595
 20
69.676
 30
0.0
 11
671.1595
 21
68.812
 31
0.0
  0
LINE
  5
301
330
1D
100
AcDbEntity
  8
0
100
AcDbLine
 10
671.1595
 20
69.676
 30
0.0
 11
671.1595
 21
70.0
 31
0.0
  0
LINE
  5
302
330
1D
100
AcDbEntity
  8
0
100
AcDbLine
 10
671.1595
 20
70.0
 30
0.0
 11
671.1595
 21
69.676
 31
0.0
  0
LINE
  5
303
330
1D
100
AcDbEntity
  8
0
100
AcDbLine
 10
671.1595
 20
70.0
 30
0.0
 11
671.1595
 21
78.7368
 31
0.0
  0
LINE
  5
304
330
1D
100
AcDbEntity
  8
0
100
AcDbLine
 10
671.1595
 20
66.784
 30
0.0
 11
671.1595
 21
67.0
 31
0.0
  0
LINE
  5
305
330
1D
100
AcDbEntity
  8
0
100
AcDbLine
 10
671.1595
 20
66.784
 30
0.0
 11
671.1595
 21
66.208
 31
0.0
  0
LINE
  5
308
330
1D
100
AcDbEntity
  8
0
100
AcDbLine
 10
660.7115
 20
102.284
 30
0.0
 11
663.8315
 21
103.532
 31
0.0
  0
LINE
  5
309
330
1D
100
AcDbEntity
  8
0
100
AcDbLine
 10
664.3069
 20
101.7417
 30
0.0
 11
667.1595
 21
102.1429
 31
0.0
  0
LINE
  5
30A
330
1D
100
AcDbEntity
  8
0
100
AcDbLine
 10
663.8315
 20
103.532
 30
0.0
 11
667.1595
 21
104.0
 31
0.0
  0
LINE
  5
30B
330
1D
100
AcDbEntity
  8
0
100
AcDbLine
 10
667.1595
 20
104.0
 30
0.0
 11
670.4875
 21
103.532
 31
0.0
  0
LINE
  5
30C
330
1D
100
AcDbEntity
  8
0
100
AcDbLine
 10
670.4875
 20
103.532
 30
0.0
 11
673.6075
 21
102.284
 31
0.0
  0
LINE
  5
30D
330
1D
100
AcDbEntity
  8
0
100
AcDbLine
 10
670.0121
 20
101.7417
 30
0.0
 11
672.6864
 21
100.672
 31
0.0
  0
LINE
  5
30E
330
1D
100
AcDbEntity
  8
0
100
AcDbLine
 10
667.1595
 20
102.1429
 30
0.0
 11
670.0121
 21
101.7417
 31
0.0
  0
LINE
  5
310
330
1D
100
AcDbEntity
  8
0
100
AcDbLine
 10
671.1595
 20
110.5745
 30
0.0
 11
671.1595
 21
103.2632
 31
0.0
  0
LINE
  5
311
330
1D
100
AcDbEntity
  8
0
100
AcDbLine
 10
671.1595
 20
103.2632
 30
0.0
 11
671.1595
 21
112.0
 31
0.0
  0
LINE
  5
312
330
1D
100
AcDbEntity
  8
0
100
AcDbLine
 10
671.1595
 20
103.2632
 30
0.0
 11
671.1595
 21
110.5745
 31
0.0
  0
LINE
  5
313
330
1D
100
AcDbEntity
  8
0
100
AcDbLine
 10
671.1595
 20
107.0
 30
0.0
 11
671.1595
 21
110.5745
 31
0.0
  0
LINE
  5
314
330
1D
100
AcDbEntity
  8
0
100
AcDbLine
 10
671.1595
 20
107.0
 30
0.0
 11
671.1595
 21
103.2632
 31
0.0
  0
LINE
  5
316
330
1D
100
AcDbEntity
  8
0
100
AcDbLine
 10
681.1595
 20
52.324
 30
0.0
 11
681.1595
 21
52.0
 31
0.0
  0
LINE
  5
317
330
1D
100
AcDbEntity
  8
0
100
AcDbLine
 10
681.1595
 20
53.188
 30
0.0
 11
681.1595
 21
52.324
 31
0.0
  0
LINE
  5
318
330
1D
100
AcDbEntity
  8
0
100
AcDbLine
 10
681.1595
 20
54.628
 30
0.0
 11
681.1595
 21
53.188
 31
0.0
  0
LINE
  5
319
330
1D
100
AcDbEntity
  8
0
100
AcDbLine
 10
681.1595
 20
56.536
 30
0.0
 11
681.1595
 21
54.628
 31
0.0
  0
LINE
  5
31A
330
1D
100
AcDbEntity
  8
0
100
AcDbLine
 10
681.1595
 20
58.696
 30
0.0
 11
681.1595
 21
56.536
 31
0.0
  0
LINE
  5
31B
330
1D
100
AcDbEntity
  8
0
100
AcDbLine
 10
681.1595
 20
61.0
 30
0.0
 11
681.1595
 21
63.304
 31
0.0
  0
LINE
  5
31C
330
1D
100
AcDbEntity
  8
0
100
AcDbLine
 10
681.1595
 20
61.0
 30
0.0
 11
681.1595
 21
58.696
 31
0.0
  0
LINE
  5
31D
330
1D
100
AcDbEntity
  8
0
100
AcDbLine
 10
681.1595
 20
63.304
 30
0.0
 11
681.1595
 21
65.464
 31
0.0
  0
LINE
  5
31E
330
1D
100
AcDbEntity
  8
0
100
AcDbLine
 10
681.1595
 20
63.304
 30
0.0
 11
681.1595
 21
61.0
 31
0.0
  0
LINE
  5
31F
330
1D
100
AcDbEntity
  8
0
100
AcDbLine
 10
681.1595
 20
65.464
 30
0.0
 11
681.1595
 21
67.372
 31
0.0
  0
LINE
  5
320
330
1D
100
AcDbEntity
  8
0
100
AcDbLine
 10
681.1595
 20
65.464
 30
0.0
 11
681.1595
 21
63.304
 31
0.0
  0
LINE
  5
321
330
1D
100
AcDbEntity
  8
0
100
AcDbLine
 10
681.1595
 20
67.372
 30
0.0
 11
681.1595
 21
68.812
 31
0.0
  0
LINE
  5
322
330
1D
100
AcDbEntity
  8
0
100
AcDbLine
 10
681.1595
 20
67.372
 30
0.0
 11
681.1595
 21
65.464
 31
0.0
  0
LINE
  5
323
330
1D
100
AcDbEntity
  8
0
100
AcDbLine
 10
681.1595
 20
68.812
 30
0.0
 11
681.1595
 21
69.676
 31
0.0
  0
LINE
  5
324
330
1D
100
AcDbEntity
  8
0
100
AcDbLine
 10
681.1595
 20
68.812
 30
0.0
 11
681.1595
 21
67.372
 31
0.0
  0
LINE
  5
325
330
1D
100
AcDbEntity
  8
0
100
AcDbLine
 10
673.6075
 20
79.716
 30
0.0
 11
676.3635
 21
81.796
 31
0.0
  0
LINE
  5
326
330
1D
100
AcDbEntity
  8
0
100
AcDbLine
 10
679.6915
 20
87.672
 30
0.0
 11
680.1595
 21
91.0
 31
0.0
  0
LINE
  5
327
330
1D
100
AcDbEntity
  8
0
100
AcDbLine
 10
677.9012
 20
88.1474
 30
0.0
 11
678.3024
 21
91.0
 31
0.0
  0
LINE
  5
328
330
1D
100
AcDbEntity
  8
0
100
AcDbLine
 10
678.4435
 20
84.552
 30
0.0
 11
679.6915
 21
87.672
 31
0.0
  0
LINE
  5
329
330
1D
100
AcDbEntity
  8
0
100
AcDbLine
 10
676.8315
 20
85.4731
 30
0.0
 11
677.9012
 21
88.1474
 31
0.0
  0
LINE
  5
32A
330
1D
100
AcDbEntity
  8
0
100
AcDbLine
 10
676.3635
 20
81.796
 30
0.0
 11
678.4435
 21
84.552
 31
0.0
  0
LINE
  5
32B
330
1D
100
AcDbEntity
  8
0
100
AcDbLine
 10
675.0486
 20
83.1109
 30
0.0
 11
676.8315
 21
85.4731
 31
0.0
  0
LINE
  5
32C
330
1D
100
AcDbEntity
  8
0
100
AcDbLine
 10
672.6864
 20
81.328
 30
0.0
 11
675.0486
 21
83.1109
 31
0.0
  0
LINE
  5
32D
330
1D
100
AcDbEntity
  8
0
100
AcDbLine
 10
681.1595
 20
70.0
 30
0.0
 11
681.1595
 21
69.676
 31
0.0
  0
LINE
  5
32E
330
1D
100
AcDbEntity
  8
0
100
AcDbLine
 10
681.1595
 20
70.0
 30
0.0
 11
681.1595
 21
91.0
 31
0.0
  0
LINE
  5
32F
330
1D
100
AcDbEntity
  8
0
100
AcDbLine
 10
681.1595
 20
69.676
 30
0.0
 11
681.1595
 21
70.0
 31
0.0
  0
LINE
  5
330
330
1D
100
AcDbEntity
  8
0
100
AcDbLine
 10
681.1595
 20
69.676
 30
0.0
 11
681.1595
 21
68.812
 31
0.0
  0
LINE
  5
331
330
1D
100
AcDbEntity
  8
0
100
AcDbLine
 10
681.1595
 20
52.0
 30
0.0
 11
681.1595
 21
44.464
 31
0.0
  0
LINE
  5
332
330
1D
100
AcDbEntity
  8
0
100
AcDbLine
 10
679.6915
 20
94.328
 30
0.0
 11
680.1595
 21
91.0
 31
0.0
  0
LINE
  5
333
330
1D
100
AcDbEntity
  8
0
100
AcDbLine
 10
678.4435
 20
97.448
 30
0.0
 11
679.6915
 21
94.328
 31
0.0
  0
LINE
  5
334
330
1D
100
AcDbEntity
  8
0
100
AcDbLine
 10
677.9012
 20
93.8526
 30
0.0
 11
678.3024
 21
91.0
 31
0.0
  0
LINE
  5
335
330
1D
100
AcDbEntity
  8
0
100
AcDbLine
 10
676.8315
 20
96.5269
 30
0.0
 11
677.9012
 21
93.8526
 31
0.0
  0
LINE
  5
336
330
1D
100
AcDbEntity
  8
0
100
AcDbLine
 10
676.3635
 20
100.204
 30
0.0
 11
678.4435
 21
97.448
 31
0.0
  0
LINE
  5
337
330
1D
100
AcDbEntity
  8
0
100
AcDbLine
 10
673.6075
 20
102.284
 30
0.0
 11
676.3635
 21
100.204
 31
0.0
  0
LINE
  5
338
330
1D
100
AcDbEntity
  8
0
100
AcDbLine
 10
675.0486
 20
98.8891
 30
0.0
 11
676.8315
 21
96.5269
 31
0.0
  0
LINE
  5
339
330
1D
100
AcDbEntity
  8
0
100
AcDbLine
 10
672.6864
 20
100.672
 30
0.0
 11
675.0486
 21
98.8891
 31
0.0
  0
LINE
  5
33A
330
1D
100
AcDbEntity
  8
0
100
AcDbLine
 10
681.1595
 20
91.0
 30
0.0
 11
681.1595
 21
112.0
 31
0.0
  0
LINE
  5
33B
330
1D
100
AcDbEntity
  8
0
100
AcDbLine
 10
681.1595
 20
91.0
 30
0.0
 11
681.1595
 21
70.0
 31
0.0
  0
LINE
  5
33C
330
1D
100
AcDbEntity
  8
0
100
AcDbLine
 10
671.1595
 20
112.0
 30
0.0
 11
671.1595
 21
112.324
 31
0.0
  0
LINE
  5
33D
330
1D
100
AcDbEntity
  8
0
100
AcDbLine
 10
671.1595
 20
112.0
 30
0.0
 11
671.1595
 21
103.2632
 31
0.0
  0
LINE
  5
33E
330
1D
100
AcDbEntity
  8
0
100
AcDbLine
 10
671.1595
 20
112.0
 30
0.0
 11
681.1595
 21
112.0
 31
0.0
  0
LINE
  5
33F
330
1D
100
AcDbEntity
  8
0
100
AcDbLine
 10
681.1595
 20
112.324
 30
0.0
 11
681.1595
 21
113.188
 31
0.0
  0
LINE
  5
340
330
1D
100
AcDbEntity
  8
0
100
AcDbLine
 10
681.1595
 20
112.324
 30
0.0
 11
681.1595
 21
112.0
 31
0.0
  0
LINE
  5
341
330
1D
100
AcDbEntity
  8
0
100
AcDbLine
 10
681.1595
 20
112.0
 30
0.0
 11
681.1595
 21
112.324
 31
0.0
  0
LINE
  5
342
330
1D
100
AcDbEntity
  8
0
100
AcDbLine
 10
681.1595
 20
112.0
 30
0.0
 11
681.1595
 21
91.0
 31
0.0
  0
LINE
  5
343
330
1D
100
AcDbEntity
  8
0
100
AcDbLine
 10
671.1595
 20
113.7603
 30
0.0
 11
671.1595
 21
110.5745
 31
0.0
  0
LINE
  5
344
330
1D
100
AcDbEntity
  8
0
100
AcDbLine
 10
671.1595
 20
118.1046
 30
0.0
 11
671.1595
 21
113.7603
 31
0.0
  0
LINE
  5
345
330
1D
100
AcDbEntity
  8
0
100
AcDbLine
 10
671.1595
 20
118.024
 30
0.0
 11
671.1595
 21
119.464
 31
0.0
  0
LINE
  5
346
330
1D
100
AcDbEntity
  8
0
100
AcDbLine
 10
671.1595
 20
118.024
 30
0.0
 11
671.1595
 21
116.752
 31
0.0
  0
LINE
  5
347
330
1D
100
AcDbEntity
  8
0
100
AcDbLine
 10
671.1595
 20
123.1246
 30
0.0
 11
671.1595
 21
118.1046
 31
0.0
  0
LINE
  5
348
330
1D
100
AcDbEntity
  8
0
100
AcDbLine
 10
671.1595
 20
123.304
 30
0.0
 11
671.1595
 21
121.0
 31
0.0
  0
LINE
  5
349
330
1D
100
AcDbEntity
  8
0
100
AcDbLine
 10
671.1595
 20
123.304
 30
0.0
 11
671.1595
 21
125.464
 31
0.0
  0
LINE
  5
34A
330
1D
100
AcDbEntity
  8
0
100
AcDbLine
 10
671.1595
 20
125.464
 30
0.0
 11
671.1595
 21
123.304
 31
0.0
  0
LINE
  5
34B
330
1D
100
AcDbEntity
  8
0
100
AcDbLine
 10
671.1595
 20
125.464
 30
0.0
 11
671.1595
 21
127.372
 31
0.0
  0
LINE
  5
34C
330
1D
100
AcDbEntity
  8
0
100
AcDbLine
 10
671.1595
 20
128.8
 30
0.0
 11
671.1595
 21
128.1446
 31
0.0
  0
LINE
  5
34D
330
1D
100
AcDbEntity
  8
0
100
AcDbLine
 10
671.1595
 20
128.1446
 30
0.0
 11
671.1595
 21
123.1246
 31
0.0
  0
LINE
  5
34E
330
1D
100
AcDbEntity
  8
0
100
AcDbLine
 10
671.1595
 20
129.3242
 30
0.0
 11
671.1595
 21
128.8
 31
0.0
  0
LINE
  5
34F
330
1D
100
AcDbEntity
  8
0
100
AcDbLine
 10
671.1595
 20
127.372
 30
0.0
 11
671.1595
 21
125.464
 31
0.0
  0
LINE
  5
350
330
1D
100
AcDbEntity
  8
0
100
AcDbLine
 10
671.1595
 20
127.372
 30
0.0
 11
671.1595
 21
128.812
 31
0.0
  0
LINE
  5
351
330
1D
100
AcDbEntity
  8
0
100
AcDbLine
 10
671.1595
 20
128.812
 30
0.0
 11
671.1595
 21
137.536
 31
0.0
  0
LINE
  5
352
330
1D
100
AcDbEntity
  8
0
100
AcDbLine
 10
671.1595
 20
128.812
 30
0.0
 11
671.1595
 21
127.372
 31
0.0
  0
LINE
  5
353
330
1D
100
AcDbEntity
  8
0
100
AcDbLine
 10
671.1595
 20
128.812
 30
0.0
 11
671.1595
 21
129.676
 31
0.0
  0
LINE
  5
354
330
1D
100
AcDbEntity
  8
0
100
AcDbLine
 10
654.1595
 20
133.0
 30
0.0
 11
654.1595
 21
148.4
 31
0.0
  0
LINE
  5
355
330
1D
100
AcDbEntity
  8
0
100
AcDbLine
 10
671.1595
 20
133.0
 30
0.0
 11
671.1595
 21
130.29
 31
0.0
  0
LINE
  5
356
330
1D
100
AcDbEntity
  8
0
100
AcDbLine
 10
671.1595
 20
133.0
 30
0.0
 11
671.1595
 21
142.0
 31
0.0
  0
LINE
  5
357
330
1D
100
AcDbEntity
  8
0
100
AcDbLine
 10
671.1595
 20
130.29
 30
0.0
 11
671.1595
 21
129.3242
 31
0.0
  0
LINE
  5
358
330
1D
100
AcDbEntity
  8
0
100
AcDbLine
 10
671.1595
 20
139.024
 30
0.0
 11
671.1595
 21
140.464
 31
0.0
  0
LINE
  5
359
330
1D
100
AcDbEntity
  8
0
100
AcDbLine
 10
671.1595
 20
139.024
 30
0.0
 11
671.1595
 21
137.752
 31
0.0
  0
LINE
  5
35A
330
1D
100
AcDbEntity
  8
0
100
AcDbLine
 10
671.1595
 20
137.752
 30
0.0
 11
671.1595
 21
139.024
 31
0.0
  0
LINE
  5
35B
330
1D
100
AcDbEntity
  8
0
100
AcDbLine
 10
671.1595
 20
137.752
 30
0.0
 11
671.1595
 21
136.792
 31
0.0
  0
LINE
  5
35C
330
1D
100
AcDbEntity
  8
0
100
AcDbLine
 10
671.1595
 20
136.792
 30
0.0
 11
671.1595
 21
137.752
 31
0.0
  0
LINE
  5
35D
330
1D
100
AcDbEntity
  8
0
100
AcDbLine
 10
671.1595
 20
136.792
 30
0.0
 11
671.1595
 21
136.216
 31
0.0
  0
LINE
  5
35E
330
1D
100
AcDbEntity
  8
0
100
AcDbLine
 10
671.1595
 20
136.216
 30
0.0
 11
671.1595
 21
136.792
 31
0.0
  0
LINE
  5
35F
330
1D
100
AcDbEntity
  8
0
100
AcDbLine
 10
671.1595
 20
136.216
 30
0.0
 11
671.1595
 21
136.0
 31
0.0
  0
LINE
  5
360
330
1D
100
AcDbEntity
  8
0
100
AcDbLine
 10
671.1595
 20
136.0
 30
0.0
 11
671.1595
 21
136.216
 31
0.0
  0
LINE
  5
361
330
1D
100
AcDbEntity
  8
0
100
AcDbLine
 10
671.1595
 20
140.464
 30
0.0
 11
671.1595
 21
142.0
 31
0.0
  0
LINE
  5
362
330
1D
100
AcDbEntity
  8
0
100
AcDbLine
 10
671.1595
 20
140.464
 30
0.0
 11
671.1595
 21
139.024
 31
0.0
  0
LINE
  5
363
330
1D
100
AcDbEntity
  8
0
100
AcDbLine
 10
671.1595
 20
148.0
 30
0.0
 11
671.1595
 21
147.784
 31
0.0
  0
LINE
  5
364
330
1D
100
AcDbEntity
  8
0
100
AcDbLine
 10
671.1595
 20
147.784
 30
0.0
 11
671.1595
 21
147.208
 31
0.0
  0
LINE
  5
365
330
1D
100
AcDbEntity
  8
0
100
AcDbLine
 10
671.1595
 20
147.784
 30
0.0
 11
671.1595
 21
148.0
 31
0.0
  0
LINE
  5
366
330
1D
100
AcDbEntity
  8
0
100
AcDbLine
 10
654.1595
 20
148.4
 30
0.0
 11
654.4715
 21
149.0
 31
0.0
  0
LINE
  5
367
330
1D
100
AcDbEntity
  8
0
100
AcDbLine
 10
654.1595
 20
148.4
 30
0.0
 11
654.1595
 21
133.0
 31
0.0
  0
LINE
  5
368
330
1D
100
AcDbEntity
  8
0
100
AcDbLine
 10
654.4715
 20
149.0
 30
0.0
 11
654.9395
 21
149.0
 31
0.0
  0
LINE
  5
369
330
1D
100
AcDbEntity
  8
0
100
AcDbLine
 10
654.9395
 20
149.0
 30
0.0
 11
656.1875
 21
149.0
 31
0.0
  0
LINE
  5
36A
330
1D
100
AcDbEntity
  8
0
100
AcDbLine
 10
656.1875
 20
149.0
 30
0.0
 11
658.2155
 21
149.0
 31
0.0
  0
LINE
  5
36B
330
1D
100
AcDbEntity
  8
0
100
AcDbLine
 10
658.2155
 20
149.0
 30
0.0
 11
660.8675
 21
149.0
 31
0.0
  0
LINE
  5
36C
330
1D
100
AcDbEntity
  8
0
100
AcDbLine
 10
660.8675
 20
149.0
 30
0.0
 11
663.8835
 21
149.0
 31
0.0
  0
LINE
  5
36D
330
1D
100
AcDbEntity
  8
0
100
AcDbLine
 10
663.8835
 20
149.0
 30
0.0
 11
667.1595
 21
149.0
 31
0.0
  0
LINE
  5
36E
330
1D
100
AcDbEntity
  8
0
100
AcDbLine
 10
670.4355
 20
149.0
 30
0.0
 11
671.1595
 21
149.0
 31
0.0
  0
LINE
  5
36F
330
1D
100
AcDbEntity
  8
0
100
AcDbLine
 10
667.1595
 20
149.0
 30
0.0
 11
670.4355
 21
149.0
 31
0.0
  0
LINE
  5
370
330
1D
100
AcDbEntity
  8
0
100
AcDbLine
 10
671.1595
 20
149.0
 30
0.0
 11
671.1595
 21
149.812
 31
0.0
  0
LINE
  5
371
330
1D
100
AcDbEntity
  8
0
100
AcDbLine
 10
671.1595
 20
151.0
 30
0.0
 11
671.1595
 21
150.676
 31
0.0
  0
LINE
  5
372
330
1D
100
AcDbEntity
  8
0
100
AcDbLine
 10
671.1595
 20
151.0
 30
0.0
 11
681.1595
 21
151.0
 31
0.0
  0
LINE
  5
373
330
1D
100
AcDbEntity
  8
0
100
AcDbLine
 10
671.1595
 20
150.676
 30
0.0
 11
671.1595
 21
151.0
 31
0.0
  0
LINE
  5
374
330
1D
100
AcDbEntity
  8
0
100
AcDbLine
 10
671.1595
 20
150.676
 30
0.0
 11
671.1595
 21
149.812
 31
0.0
  0
LINE
  5
375
330
1D
100
AcDbEntity
  8
0
100
AcDbLine
 10
671.1595
 20
149.812
 30
0.0
 11
671.1595
 21
150.676
 31
0.0
  0
LINE
  5
376
330
1D
100
AcDbEntity
  8
0
100
AcDbLine
 10
671.1595
 20
149.812
 30
0.0
 11
671.1595
 21
148.372
 31
0.0
  0
LINE
  5
377
330
1D
100
AcDbEntity
  8
0
100
AcDbLine
 10
671.1595
 20
149.812
 30
0.0
 11
671.1595
 21
149.0
 31
0.0
  0
LINE
  5
378
330
1D
100
AcDbEntity
  8
0
100
AcDbLine
 10
671.1595
 20
148.372
 30
0.0
 11
671.1595
 21
149.812
 31
0.0
  0
LINE
  5
379
330
1D
100
AcDbEntity
  8
0
100
AcDbLine
 10
671.1595
 20
148.372
 30
0.0
 11
671.1595
 21
146.464
 31
0.0
  0
LINE
  5
37A
330
1D
100
AcDbEntity
  8
0
100
AcDbLine
 10
671.1595
 20
147.208
 30
0.0
 11
671.1595
 21
146.248
 31
0.0
  0
LINE
  5
37B
330
1D
100
AcDbEntity
  8
0
100
AcDbLine
 10
671.1595
 20
147.208
 30
0.0
 11
671.1595
 21
147.784
 31
0.0
  0
LINE
  5
37C
330
1D
100
AcDbEntity
  8
0
100
AcDbLine
 10
671.1595
 20
146.464
 30
0.0
 11
671.1595
 21
148.372
 31
0.0
  0
LINE
  5
37D
330
1D
100
AcDbEntity
  8
0
100
AcDbLine
 10
671.1595
 20
146.464
 30
0.0
 11
671.1595
 21
144.304
 31
0.0
  0
LINE
  5
37E
330
1D
100
AcDbEntity
  8
0
100
AcDbLine
 10
671.1595
 20
146.248
 30
0.0
 11
671.1595
 21
144.976
 31
0.0
  0
LINE
  5
37F
330
1D
100
AcDbEntity
  8
0
100
AcDbLine
 10
671.1595
 20
146.248
 30
0.0
 11
671.1595
 21
147.208
 31
0.0
  0
LINE
  5
380
330
1D
100
AcDbEntity
  8
0
100
AcDbLine
 10
671.1595
 20
144.304
 30
0.0
 11
671.1595
 21
146.464
 31
0.0
  0
LINE
  5
381
330
1D
100
AcDbEntity
  8
0
100
AcDbLine
 10
671.1595
 20
144.304
 30
0.0
 11
671.1595
 21
142.0
 31
0.0
  0
LINE
  5
382
330
1D
100
AcDbEntity
  8
0
100
AcDbLine
 10
671.1595
 20
144.976
 30
0.0
 11
671.1595
 21
143.536
 31
0.0
  0
LINE
  5
383
330
1D
100
AcDbEntity
  8
0
100
AcDbLine
 10
671.1595
 20
144.976
 30
0.0
 11
671.1595
 21
146.248
 31
0.0
  0
LINE
  5
384
330
1D
100
AcDbEntity
  8
0
100
AcDbLine
 10
671.1595
 20
143.536
 30
0.0
 11
671.1595
 21
142.0
 31
0.0
  0
LINE
  5
385
330
1D
100
AcDbEntity
  8
0
100
AcDbLine
 10
671.1595
 20
143.536
 30
0.0
 11
671.1595
 21
144.976
 31
0.0
  0
LINE
  5
386
330
1D
100
AcDbEntity
  8
0
100
AcDbLine
 10
671.1595
 20
142.0
 30
0.0
 11
671.1595
 21
144.304
 31
0.0
  0
LINE
  5
387
330
1D
100
AcDbEntity
  8
0
100
AcDbLine
 10
671.1595
 20
142.0
 30
0.0
 11
671.1595
 21
133.0
 31
0.0
  0
LINE
  5
388
330
1D
100
AcDbEntity
  8
0
100
AcDbLine
 10
671.1595
 20
142.0
 30
0.0
 11
671.1595
 21
143.536
 31
0.0
  0
LINE
  5
389
330
1D
100
AcDbEntity
  8
0
100
AcDbLine
 10
671.1595
 20
142.0
 30
0.0
 11
671.1595
 21
140.464
 31
0.0
  0
LINE
  5
38A
330
1D
100
AcDbEntity
  8
0
100
AcDbLine
 10
671.1595
 20
142.0
 30
0.0
 11
671.1595
 21
139.696
 31
0.0
  0
LINE
  5
38B
330
1D
100
AcDbEntity
  8
0
100
AcDbLine
 10
671.1595
 20
139.696
 30
0.0
 11
671.1595
 21
142.0
 31
0.0
  0
LINE
  5
38C
330
1D
100
AcDbEntity
  8
0
100
AcDbLine
 10
671.1595
 20
139.696
 30
0.0
 11
671.1595
 21
137.536
 31
0.0
  0
LINE
  5
38D
330
1D
100
AcDbEntity
  8
0
100
AcDbLine
 10
671.1595
 20
137.536
 30
0.0
 11
671.1595
 21
139.696
 31
0.0
  0
LINE
  5
38E
330
1D
100
AcDbEntity
  8
0
100
AcDbLine
 10
671.1595
 20
137.536
 30
0.0
 11
681.1595
 21
137.536
 31
0.0
  0
LINE
  5
38F
330
1D
100
AcDbEntity
  8
0
100
AcDbLine
 10
671.1595
 20
137.536
 30
0.0
 11
671.1595
 21
128.812
 31
0.0
  0
LINE
  5
390
330
1D
100
AcDbEntity
  8
0
100
AcDbLine
 10
671.1595
 20
130.0
 30
0.0
 11
671.1595
 21
129.676
 31
0.0
  0
LINE
  5
391
330
1D
100
AcDbEntity
  8
0
100
AcDbLine
 10
671.1595
 20
130.0
 30
0.0
 11
681.1595
 21
130.0
 31
0.0
  0
LINE
  5
392
330
1D
100
AcDbEntity
  8
0
100
AcDbLine
 10
671.1595
 20
129.676
 30
0.0
 11
671.1595
 21
128.812
 31
0.0
  0
LINE
  5
393
330
1D
100
AcDbEntity
  8
0
100
AcDbLine
 10
671.1595
 20
129.676
 30
0.0
 11
671.1595
 21
130.0
 31
0.0
  0
LINE
  5
394
330
1D
100
AcDbEntity
  8
0
100
AcDbLine
 10
671.1595
 20
127.0
 30
0.0
 11
671.1595
 21
126.784
 31
0.0
  0
LINE
  5
395
330
1D
100
AcDbEntity
  8
0
100
AcDbLine
 10
671.1595
 20
126.784
 30
0.0
 11
671.1595
 21
127.0
 31
0.0
  0
LINE
  5
396
330
1D
100
AcDbEntity
  8
0
100
AcDbLine
 10
671.1595
 20
126.784
 30
0.0
 11
671.1595
 21
126.208
 31
0.0
  0
LINE
  5
397
330
1D
100
AcDbEntity
  8
0
100
AcDbLine
 10
671.1595
 20
126.208
 30
0.0
 11
671.1595
 21
126.784
 31
0.0
  0
LINE
  5
398
330
1D
100
AcDbEntity
  8
0
100
AcDbLine
 10
671.1595
 20
126.208
 30
0.0
 11
671.1595
 21
125.248
 31
0.0
  0
LINE
  5
399
330
1D
100
AcDbEntity
  8
0
100
AcDbLine
 10
671.1595
 20
125.248
 30
0.0
 11
671.1595
 21
126.208
 31
0.0
  0
LINE
  5
39A
330
1D
100
AcDbEntity
  8
0
100
AcDbLine
 10
671.1595
 20
125.248
 30
0.0
 11
671.1595
 21
123.976
 31
0.0
  0
LINE
  5
39B
330
1D
100
AcDbEntity
  8
0
100
AcDbLine
 10
671.1595
 20
123.976
 30
0.0
 11
671.1595
 21
125.248
 31
0.0
  0
LINE
  5
39C
330
1D
100
AcDbEntity
  8
0
100
AcDbLine
 10
671.1595
 20
123.976
 30
0.0
 11
671.1595
 21
122.536
 31
0.0
  0
LINE
  5
39D
330
1D
100
AcDbEntity
  8
0
100
AcDbLine
 10
671.1595
 20
122.536
 30
0.0
 11
671.1595
 21
123.976
 31
0.0
  0
LINE
  5
39E
330
1D
100
AcDbEntity
  8
0
100
AcDbLine
 10
671.1595
 20
122.536
 30
0.0
 11
671.1595
 21
121.0
 31
0.0
  0
LINE
  5
39F
330
1D
100
AcDbEntity
  8
0
100
AcDbLine
 10
671.1595
 20
119.464
 30
0.0
 11
671.1595
 21
121.0
 31
0.0
  0
LINE
  5
3A0
330
1D
100
AcDbEntity
  8
0
100
AcDbLine
 10
671.1595
 20
119.464
 30
0.0
 11
671.1595
 21
118.024
 31
0.0
  0
LINE
  5
3A1
330
1D
100
AcDbEntity
  8
0
100
AcDbLine
 10
671.1595
 20
121.0
 30
0.0
 11
671.1595
 21
118.696
 31
0.0
  0
LINE
  5
3A2
330
1D
100
AcDbEntity
  8
0
100
AcDbLine
 10
671.1595
 20
121.0
 30
0.0
 11
671.1595
 21
122.536
 31
0.0
  0
LINE
  5
3A3
330
1D
100
AcDbEntity
  8
0
100
AcDbLine
 10
671.1595
 20
121.0
 30
0.0
 11
671.1595
 21
119.464
 31
0.0
  0
LINE
  5
3A4
330
1D
100
AcDbEntity
  8
0
100
AcDbLine
 10
671.1595
 20
121.0
 30
0.0
 11
671.1595
 21
123.304
 31
0.0
  0
LINE
  5
3A5
330
1D
100
AcDbEntity
  8
0
100
AcDbLine
 10
671.1595
 20
118.696
 30
0.0
 11
671.1595
 21
116.536
 31
0.0
  0
LINE
  5
3A6
330
1D
100
AcDbEntity
  8
0
100
AcDbLine
 10
671.1595
 20
118.696
 30
0.0
 11
671.1595
 21
121.0
 31
0.0
  0
LINE
  5
3A7
330
1D
100
AcDbEntity
  8
0
100
AcDbLine
 10
671.1595
 20
116.752
 30
0.0
 11
671.1595
 21
118.024
 31
0.0
  0
LINE
  5
3A8
330
1D
100
AcDbEntity
  8
0
100
AcDbLine
 10
671.1595
 20
116.752
 30
0.0
 11
671.1595
 21
115.792
 31
0.0
  0
LINE
  5
3A9
330
1D
100
AcDbEntity
  8
0
100
AcDbLine
 10
671.1595
 20
116.536
 30
0.0
 11
671.1595
 21
114.628
 31
0.0
  0
LINE
  5
3AA
330
1D
100
AcDbEntity
  8
0
100
AcDbLine
 10
671.1595
 20
116.536
 30
0.0
 11
671.1595
 21
118.696
 31
0.0
  0
LINE
  5
3AB
330
1D
100
AcDbEntity
  8
0
100
AcDbLine
 10
671.1595
 20
115.792
 30
0.0
 11
671.1595
 21
116.752
 31
0.0
  0
LINE
  5
3AC
330
1D
100
AcDbEntity
  8
0
100
AcDbLine
 10
671.1595
 20
115.792
 30
0.0
 11
671.1595
 21
115.216
 31
0.0
  0
LINE
  5
3AD
330
1D
100
AcDbEntity
  8
0
100
AcDbLine
 10
671.1595
 20
114.628
 30
0.0
 11
671.1595
 21
113.188
 31
0.0
  0
LINE
  5
3AE
330
1D
100
AcDbEntity
  8
0
100
AcDbLine
 10
671.1595
 20
114.628
 30
0.0
 11
671.1595
 21
116.536
 31
0.0
  0
LINE
  5
3AF
330
1D
100
AcDbEntity
  8
0
100
AcDbLine
 10
671.1595
 20
115.216
 30
0.0
 11
671.1595
 21
115.792
 31
0.0
  0
LINE
  5
3B0
330
1D
100
AcDbEntity
  8
0
100
AcDbLine
 10
671.1595
 20
115.216
 30
0.0
 11
671.1595
 21
115.0
 31
0.0
  0
LINE
  5
3B1
330
1D
100
AcDbEntity
  8
0
100
AcDbLine
 10
671.1595
 20
113.188
 30
0.0
 11
671.1595
 21
112.324
 31
0.0
  0
LINE
  5
3B2
330
1D
100
AcDbEntity
  8
0
100
AcDbLine
 10
671.1595
 20
113.188
 30
0.0
 11
671.1595
 21
114.628
 31
0.0
  0
LINE
  5
3B3
330
1D
100
AcDbEntity
  8
0
100
AcDbLine
 10
681.1595
 20
130.0
 30
0.0
 11
681.1595
 21
129.676
 31
0.0
  0
LINE
  5
3B4
330
1D
100
AcDbEntity
  8
0
100
AcDbLine
 10
681.1595
 20
130.0
 30
0.0
 11
681.1595
 21
137.536
 31
0.0
  0
LINE
  5
3B5
330
1D
100
AcDbEntity
  8
0
100
AcDbLine
 10
681.1595
 20
129.676
 30
0.0
 11
681.1595
 21
128.812
 31
0.0
  0
LINE
  5
3B6
330
1D
100
AcDbEntity
  8
0
100
AcDbLine
 10
681.1595
 20
128.812
 30
0.0
 11
681.1595
 21
127.372
 31
0.0
  0
LINE
  5
3B7
330
1D
100
AcDbEntity
  8
0
100
AcDbLine
 10
681.1595
 20
127.372
 30
0.0
 11
681.1595
 21
125.464
 31
0.0
  0
LINE
  5
3B8
330
1D
100
AcDbEntity
  8
0
100
AcDbLine
 10
681.1595
 20
125.464
 30
0.0
 11
681.1595
 21
123.304
 31
0.0
  0
LINE
  5
3B9
330
1D
100
AcDbEntity
  8
0
100
AcDbLine
 10
681.1595
 20
123.304
 30
0.0
 11
681.1595
 21
121.0
 31
0.0
  0
LINE
  5
3BA
330
1D
100
AcDbEntity
  8
0
100
AcDbLine
 10
681.1595
 20
137.536
 30
0.0
 11
681.1595
 21
130.0
 31
0.0
  0
LINE
  5
3BB
330
1D
100
AcDbEntity
  8
0
100
AcDbLine
 10
681.1595
 20
137.536
 30
0.0
 11
681.1595
 21
139.696
 31
0.0
  0
LINE
  5
3BC
330
1D
100
AcDbEntity
  8
0
100
AcDbLine
 10
681.1595
 20
144.304
 30
0.0
 11
681.1595
 21
142.0
 31
0.0
  0
LINE
  5
3BD
330
1D
100
AcDbEntity
  8
0
100
AcDbLine
 10
681.1595
 20
146.464
 30
0.0
 11
681.1595
 21
144.304
 31
0.0
  0
LINE
  5
3BE
330
1D
100
AcDbEntity
  8
0
100
AcDbLine
 10
681.1595
 20
148.372
 30
0.0
 11
681.1595
 21
146.464
 31
0.0
  0
LINE
  5
3BF
330
1D
100
AcDbEntity
  8
0
100
AcDbLine
 10
681.1595
 20
149.812
 30
0.0
 11
681.1595
 21
148.372
 31
0.0
  0
LINE
  5
3C0
330
1D
100
AcDbEntity
  8
0
100
AcDbLine
 10
681.1595
 20
150.676
 30
0.0
 11
681.1595
 21
149.812
 31
0.0
  0
LINE
  5
3C1
330
1D
100
AcDbEntity
  8
0
100
AcDbLine
 10
681.1595
 20
151.0
 30
0.0
 11
681.1595
 21
150.676
 31
0.0
  0
LINE
  5
3C2
330
1D
100
AcDbEntity
  8
0
100
AcDbLine
 10
681.1595
 20
142.0
 30
0.0
 11
681.1595
 21
139.696
 31
0.0
  0
LINE
  5
3C3
330
1D
100
AcDbEntity
  8
0
100
AcDbLine
 10
681.1595
 20
139.696
 30
0.0
 11
681.1595
 21
137.536
 31
0.0
  0
LINE
  5
3C4
330
1D
100
AcDbEntity
  8
0
100
AcDbLine
 10
681.1595
 20
139.696
 30
0.0
 11
681.1595
 21
142.0
 31
0.0
  0
LINE
  5
3C5
330
1D
100
AcDbEntity
  8
0
100
AcDbLine
 10
681.1595
 20
121.0
 30
0.0
 11
681.1595
 21
118.696
 31
0.0
  0
LINE
  5
3C6
330
1D
100
AcDbEntity
  8
0
100
AcDbLine
 10
681.1595
 20
118.696
 30
0.0
 11
681.1595
 21
121.0
 31
0.0
  0
LINE
  5
3C7
330
1D
100
AcDbEntity
  8
0
100
AcDbLine
 10
681.1595
 20
118.696
 30
0.0
 11
681.1595
 21
116.536
 31
0.0
  0
LINE
  5
3C8
330
1D
100
AcDbEntity
  8
0
100
AcDbLine
 10
681.1595
 20
116.536
 30
0.0
 11
681.1595
 21
118.696
 31
0.0
  0
LINE
  5
3C9
330
1D
100
AcDbEntity
  8
0
100
AcDbLine
 10
681.1595
 20
116.536
 30
0.0
 11
681.1595
 21
114.628
 31
0.0
  0
LINE
  5
3CA
330
1D
100
AcDbEntity
  8
0
100
AcDbLine
 10
681.1595
 20
114.628
 30
0.0
 11
681.1595
 21
116.536
 31
0.0
  0
LINE
  5
3CB
330
1D
100
AcDbEntity
  8
0
100
AcDbLine
 10
681.1595
 20
114.628
 30
0.0
 11
681.1595
 21
113.188
 31
0.0
  0
LINE
  5
3CC
330
1D
100
AcDbEntity
  8
0
100
AcDbLine
 10
681.1595
 20
113.188
 30
0.0
 11
681.1595
 21
114.628
 31
0.0
  0
LINE
  5
3CD
330
1D
100
AcDbEntity
  8
0
100
AcDbLine
 10
681.1595
 20
113.188
 30
0.0
 11
681.1595
 21
112.324
 31
0.0
  0
LINE
  5
3CE
330
1D
100
AcDbEntity
  8
0
100
AcDbLine
 10
671.1595
 20
115.0
 30
0.0
 11
671.1595
 21
115.216
 31
0.0
  0
LINE
  5
3CF
330
1D
100
AcDbEntity
  8
0
100
AcDbLine
 10
671.1595
 20
112.324
 30
0.0
 11
671.1595
 21
112.0
 31
0.0
  0
LINE
  5
3D0
330
1D
100
AcDbEntity
  8
0
100
AcDbLine
 10
671.1595
 20
112.324
 30
0.0
 11
671.1595
 21
113.188
 31
0.0
  0
LINE
  5
3D1
330
1D
100
AcDbEntity
  8
0
100
AcDbLine
 10
653.1595
 20
48.932
 30
0.0
 11
653.1595
 21
50.084
 31
0.0
  0
LINE
  5
3D2
330
1D
100
AcDbEntity
  8
0
100
AcDbLine
 10
653.1595
 20
48.932
 30
0.0
 11
653.1595
 21
48.5
 31
0.0
  0
LINE
  5
3D3
330
1D
100
AcDbEntity
  8
0
100
AcDbLine
 10
653.1595
 20
48.5
 30
0.0
 11
653.1595
 21
48.932
 31
0.0
  0
LINE
  5
3D4
330
1D
100
AcDbEntity
  8
0
100
AcDbLine
 10
588.1595
 20
28.237
 30
0.0
 11
588.1595
 21
28.959
 31
0.0
  0
LINE
  5
3FC
330
1D
100
AcDbEntity
  8
0
100
AcDbLine
 10
4.4045
 20
0.378
 30
0.0
 11
273.9145
 21
0.378
 31
0.0
  0
LINE
  5
3FD
330
1D
100
AcDbEntity
  8
0
100
AcDbLine
 10
121.249509116958
 20
139.6
 30
0.0
 11
156.954715681167
 21
139.6
 31
0.0
  0
LINE
  5
3FE
330
1D
100
AcDbEntity
  8
0
100
AcDbLine
 10
565.1725
 20
43.175
 30
0.0
 11
564.9725
 21
52.27
 31
0.0
  0
LINE
  5
3FF
330
1D
100
AcDbEntity
  8
0
100
AcDbLine
 10
564.9725
 20
52.27
 30
0.0
 11
564.9725
 21
130.27
 31
0.0
  0
LINE
  5
400
330
1D
100
AcDbEntity
  8
0
100
AcDbLine
 10
564.9725
 20
130.27
 30
0.0
 11
565.1725
 21
149.468
 31
0.0
  0
LINE
  5
401
330
1D
100
AcDbEntity
  8
0
100
AcDbLine
 10
653.1595
 20
133.5
 30
0.0
 11
588.1595
 21
133.5
 31
0.0
  0
ENDSEC
  0
SECTION
  2
OBJECTS
  0
DICTIONARY
  5
C
330
0
100
AcDbDictionary
281
     1
  3
ACAD_GROUP
350
D
  3
ACAD_LAYOUT
350
1A
  3
ACAD_MLEADERSTYLE
350
404
  3
ACAD_MLINESTYLE
350
17
  3
ACAD_PLOTSETTINGS
350
19
  3
ACAD_PLOTSTYLENAME
350
E
  3
ACAD_SCALELIST
350
3DA
  3
AcDbVariableDictionary
350
402
  3
DWGPROPS
350
407
  0
DICTIONARY
  5
D
102
{ACAD_REACTORS
330
C
102
}
330
C
100
AcDbDictionary
281
     1
  0
DICTIONARY
  5
1A
102
{ACAD_REACTORS
330
C
102
}
330
C
100
AcDbDictionary
281
     1
  3
Layout1
350
1C
  3
Model
350
1E
  0
DICTIONARY
  5
404
102
{ACAD_REACTORS
330
C
102
}
330
C
100
AcDbDictionary
281
     1
  0
DICTIONARY
  5
17
102
{ACAD_REACTORS
330
C
102
}
330
C
100
AcDbDictionary
281
     1
  3
Standard
350
18
  0
DICTIONARY
  5
19
102
{ACAD_REACTORS
330
C
102
}
330
C
100
AcDbDictionary
281
     1
  0
ACDBDICTIONARYWDFLT
  5
E
102
{ACAD_REACTORS
330
C
102
}
330
C
100
AcDbDictionary
281
     1
  3
Normal
350
F
100
AcDbDictionaryWithDefault
340
F
  0
DICTIONARY
  5
3DA
102
{ACAD_REACTORS
330
C
102
}
330
C
100
AcDbDictionary
281
     1
  3
A0
350
3DB
  3
A1
350
3DC
  3
A2
350
3DD
  3
A3
350
3DE
  3
A4
350
3DF
  3
A5
350
3E0
  3
A6
350
3E1
  3
A7
350
3E2
  3
A8
350
3E3
  3
A9
350
3E4
  3
B0
350
3E5
  3
B1
350
3E6
  3
B2
350
3E7
  3
B3
350
3E8
  3
B4
350
3E9
  3
B5
350
3EA
  3
B6
350
3EB
  3
B7
350
3EC
  3
B8
350
3ED
  3
B9
350
3EE
  3
C0
350
3EF
  3
C1
350
3F0
  3
C2
350
3F1
  3
C3
350
3F2
  3
C4
350
3F3
  3
C5
350
3F4
  3
C6
350
3F5
  3
C7
350
3F6
  3
C8
350
3F7
  3
C9
350
3F8
  3
D0
350
3F9
  3
D1
350
3FA
  3
D2
350
3FB
  0
DICTIONARY
  5
402
102
{ACAD_REACTORS
330
C
102
}
330
C
100
AcDbDictionary
281
     1
  3
CANNOSCALE
350
405
  0
XRECORD
  5
407
102
{ACAD_REACTORS
330
C
102
}
330
C
100
AcDbXrecord
280
     1
  1
DWGPROPS COOKIE
  2

  3

  4

  6

  7

  8
MARTIN
  9

300
=
301
=
302
=
303
=
304
=
305
=
306
=
307
=
308
=
309
=
 40
0.0
 41
2456647.881902662
 42
2456647.883801898
  1

 90
        0
  0
LAYOUT
  5
1C
102
{ACAD_REACTORS
330
1A
102
}
330
1A
100
AcDbPlotSettings
  1

  2
none_device
  4

  6

 40
0.0
 41
0.0
 42
0.0
 43
0.0
 44
0.0
 45
0.0
 46
0.0
 47
0.0
 48
0.0
 49
0.0
140
0.0
141
0.0
142
1.0
143
1.0
 70
   688
 72
     0
 73
     0
 74
     5
  7

 75
    16
147
1.0
148
0.0
149
0.0
100
AcDbLayout
  1
Layout1
 70
     1
 71
     1
 10
0.0
 20
0.0
 11
12.0
 21
9.0
 12
0.0
 22
0.0
 32
0.0
 14
1.000000000000E+20
 24
1.000000000000E+20
 34
1.000000000000E+20
 15
-1.000000000000E+20
 25
-1.000000000000E+20
 35
-1.000000000000E+20
146
0.0
 13
0.0
 23
0.0
 33
0.0
 16
1.0
 26
0.0
 36
0.0
 17
0.0
 27
1.0
 37
0.0
 76
     0
330
1B
  0
LAYOUT
  5
1E
102
{ACAD_REACTORS
330
1A
102
}
330
1A
100
AcDbPlotSettings
  1

  2
none_device
  4

  6

 40
0.0
 41
0.0
 42
0.0
 43
0.0
 44
0.0
 45
0.0
 46
0.0
 47
0.0
 48
0.0
 49
0.0
140
0.0
141
0.0
142
1.0
143
1.0
 70
  1712
 72
     0
 73
     0
 74
     0
  7

 75
     0
147
1.0
148
0.0
149
0.0
100
AcDbLayout
  1
Model
 70
     1
 71
     0
 10
0.0
 20
0.0
 11
12.0
 21
9.0
 12
0.0
 22
0.0
 32
0.0
 14
-0.1595
 24
0.378
 34
0.0
 15
681.1595
 25
234.0
 35
0.0
146
0.0
 13
0.0
 23
0.0
 33
0.0
 16
1.0
 26
0.0
 36
0.0
 17
0.0
 27
1.0
 37
0.0
 76
     0
330
1D
331
3D5
  0
MLINESTYLE
  5
18
102
{ACAD_REACTORS
330
17
102
}
330
17
100
AcDbMlineStyle
  2
Standard
 70
     0
  3

 62
   256
 51
90.0
 52
90.0
 71
     2
 49
0.5
 62
   256
  6
BYLAYER
 49
-0.5
 62
   256
  6
BYLAYER
  0
ACDBPLACEHOLDER
  5
F
102
{ACAD_REACTORS
330
E
102
}
330
E
  0
SCALE
  5
3DB
102
{ACAD_REACTORS
330
3DA
102
}
330
3DA
100
AcDbScale
 70
     0
300
1:1
140
1.0
141
1.0
290
     1
  0
SCALE
  5
3DC
102
{ACAD_REACTORS
330
3DA
102
}
330
3DA
100
AcDbScale
 70
     0
300
1:2
140
1.0
141
2.0
290
     0
  0
SCALE
  5
3DD
102
{ACAD_REACTORS
330
3DA
102
}
330
3DA
100
AcDbScale
 70
     0
300
1:4
140
1.0
141
4.0
290
     0
  0
SCALE
  5
3DE
102
{ACAD_REACTORS
330
3DA
102
}
330
3DA
100
AcDbScale
 70
     0
300
1:5
140
1.0
141
5.0
290
     0
  0
SCALE
  5
3DF
102
{ACAD_REACTORS
330
3DA
102
}
330
3DA
100
AcDbScale
 70
     0
300
1:8
140
1.0
141
8.0
290
     0
  0
SCALE
  5
3E0
102
{ACAD_REACTORS
330
3DA
102
}
330
3DA
100
AcDbScale
 70
     0
300
1:10
140
1.0
141
10.0
290
     0
  0
SCALE
  5
3E1
102
{ACAD_REACTORS
330
3DA
102
}
330
3DA
100
AcDbScale
 70
     0
300
1:16
140
1.0
141
16.0
290
     0
  0
SCALE
  5
3E2
102
{ACAD_REACTORS
330
3DA
102
}
330
3DA
100
AcDbScale
 70
     0
300
1:20
140
1.0
141
20.0
290
     0
  0
SCALE
  5
3E3
102
{ACAD_REACTORS
330
3DA
102
}
330
3DA
100
AcDbScale
 70
     0
300
1:30
140
1.0
141
30.0
290
     0
  0
SCALE
  5
3E4
102
{ACAD_REACTORS
330
3DA
102
}
330
3DA
100
AcDbScale
 70
     0
300
1:40
140
1.0
141
40.0
290
     0
  0
SCALE
  5
3E5
102
{ACAD_REACTORS
330
3DA
102
}
330
3DA
100
AcDbScale
 70
     0
300
1:50
140
1.0
141
50.0
290
     0
  0
SCALE
  5
3E6
102
{ACAD_REACTORS
330
3DA
102
}
330
3DA
100
AcDbScale
 70
     0
300
1:100
140
1.0
141
100.0
290
     0
  0
SCALE
  5
3E7
102
{ACAD_REACTORS
330
3DA
102
}
330
3DA
100
AcDbScale
 70
     0
300
2:1
140
2.0
141
1.0
290
     0
  0
SCALE
  5
3E8
102
{ACAD_REACTORS
330
3DA
102
}
330
3DA
100
AcDbScale
 70
     0
300
4:1
140
4.0
141
1.0
290
     0
  0
SCALE
  5
3E9
102
{ACAD_REACTORS
330
3DA
102
}
330
3DA
100
AcDbScale
 70
     0
300
8:1
140
8.0
141
1.0
290
     0
  0
SCALE
  5
3EA
102
{ACAD_REACTORS
330
3DA
102
}
330
3DA
100
AcDbScale
 70
     0
300
10:1
140
10.0
141
1.0
290
     0
  0
SCALE
  5
3EB
102
{ACAD_REACTORS
330
3DA
102
}
330
3DA
100
AcDbScale
 70
     0
300
100:1
140
100.0
141
1.0
290
     0
  0
SCALE
  5
3EC
102
{ACAD_REACTORS
330
3DA
102
}
330
3DA
100
AcDbScale
 70
     0
300
1/128" = 1'-0"
140
0.0078125
141
12.0
290
     0
  0
SCALE
  5
3ED
102
{ACAD_REACTORS
330
3DA
102
}
330
3DA
100
AcDbScale
 70
     0
300
1/64" = 1'-0"
140
0.015625
141
12.0
290
     0
  0
SCALE
  5
3EE
102
{ACAD_REACTORS
330
3DA
102
}
330
3DA
100
AcDbScale
 70
     0
300
1/32" = 1'-0"
140
0.03125
141
12.0
290
     0
  0
SCALE
  5
3EF
102
{ACAD_REACTORS
330
3DA
102
}
330
3DA
100
AcDbScale
 70
     0
300
1/16" = 1'-0"
140
0.0625
141
12.0
290
     0
  0
SCALE
  5
3F0
102
{ACAD_REACTORS
330
3DA
102
}
330
3DA
100
AcDbScale
 70
     0
300
3/32" = 1'-0"
140
0.09375
141
12.0
290
     0
  0
SCALE
  5
3F1
102
{ACAD_REACTORS
330
3DA
102
}
330
3DA
100
AcDbScale
 70
     0
300
1/8" = 1'-0"
140
0.125
141
12.0
290
     0
  0
SCALE
  5
3F2
102
{ACAD_REACTORS
330
3DA
102
}
330
3DA
100
AcDbScale
 70
     0
300
3/16" = 1'-0"
140
0.1875
141
12.0
290
     0
  0
SCALE
  5
3F3
102
{ACAD_REACTORS
330
3DA
102
}
330
3DA
100
AcDbScale
 70
     0
300
1/4" = 1'-0"
140
0.25
141
12.0
290
     0
  0
SCALE
  5
3F4
102
{ACAD_REACTORS
330
3DA
102
}
330
3DA
100
AcDbScale
 70
     0
300
3/8" = 1'-0"
140
0.375
141
12.0
290
     0
  0
SCALE
  5
3F5
102
{ACAD_REACTORS
330
3DA
102
}
330
3DA
100
AcDbScale
 70
     0
300
1/2" = 1'-0"
140
0.5
141
12.0
290
     0
  0
SCALE
  5
3F6
102
{ACAD_REACTORS
330
3DA
102
}
330
3DA
100
AcDbScale
 70
     0
300
3/4" = 1'-0"
140
0.75
141
12.0
290
     0
  0
SCALE
  5
3F7
102
{ACAD_REACTORS
330
3DA
102
}
330
3DA
100
AcDbScale
 70
     0
300
1" = 1'-0"
140
1.0
141
12.0
290
     0
  0
SCALE
  5
3F8
102
{ACAD_REACTORS
330
3DA
102
}
330
3DA
100
AcDbScale
 70
     0
300
1-1/2" = 1'-0"
140
1.5
141
12.0
290
     0
  0
SCALE
  5
3F9
102
{ACAD_REACTORS
330
3DA
102
}
330
3DA
100
AcDbScale
 70
     0
300
3" = 1'-0"
140
3.0
141
12.0
290
     0
  0
SCALE
  5
3FA
102
{ACAD_REACTORS
330
3DA
102
}
330
3DA
100
AcDbScale
 70
     0
300
6" = 1'-0"
140
6.0
141
12.0
290
     0
  0
SCALE
  5
3FB
102
{ACAD_REACTORS
330
3DA
102
}
330
3DA
100
AcDbScale
 70
     0
300
1'-0" = 1'-0"
140
12.0
141
12.0
290
     0
  0
DICTIONARYVAR
  5
405
102
{ACAD_REACTORS
330
402
102
}
330
402
100
DictionaryVariables
280
     0
  1
1:1
  0
ENDSEC
  0
SECTION
  2
THUMBNAILIMAGE
 90
    16364
310
28000000B40000005500000001000800000000000000000000000000000000000000000000000000FFFFFF000000FF0000FFFF0000FF0000FFFF0000FF000000FF00FF000000000080808000C0C0C0000000FF007F7FFF000000A5005252A50000007F003F3F7F0000004C0026264C000000260013132600003FFF007F9FFF
310
000029A5005267A500001F7F003F4F7F0000134C00262F4C000009260013172600007FFF007FBFFF000052A500527CA500003F7F003F5F7F0000264C0026394C0000132600131C260000BFFF007FDFFF00007CA5005291A500005F7F003F6F7F0000394C0026424C00001C26001321260000FFFF007FFFFF0000A5A50052A5
310
A500007F7F003F7F7F00004C4C00264C4C00002626001326260000FFBF007FFFDF0000A57C0052A59100007F5F003F7F6F00004C3900264C420000261C001326210000FF7F007FFFBF0000A5520052A57C00007F3F003F7F5F00004C2600264C39000026130013261C0000FF3F007FFF9F0000A5290052A56700007F1F003F
310
7F4F00004C1300264C2F00002609001326170000FF00007FFF7F0000A5000052A55200007F00003F7F3F00004C0000264C260000260000132613003FFF00009FFF7F0029A5000067A552001F7F00004F7F3F00134C00002F4C260009260000172613007FFF0000BFFF7F0052A500007CA552003F7F00005F7F3F00264C0000
310
394C2600132600001C261300BFFF0000DFFF7F007CA5000091A552005F7F00006F7F3F00394C0000424C26001C26000021261300FFFF0000FFFF7F00A5A50000A5A552007F7F00007F7F3F004C4C00004C4C26002626000026261300FFBF0000FFDF7F00A57C0000A59152007F5F00007F6F3F004C3900004C422600261C00
310
0026211300FF7F0000FFBF7F00A5520000A57C52007F3F00007F5F3F004C2600004C39260026130000261C1300FF3F0000FF9F7F00A5290000A56752007F1F00007F4F3F004C1300004C2F26002609000026171300FF000000FF7F7F00A5000000A55252007F0000007F3F3F004C0000004C2626002600000026131300FF00
310
3F00FF7F9F00A5002900A55267007F001F007F3F4F004C0013004C262F002600090026131700FF007F00FF7FBF00A5005200A5527C007F003F007F3F5F004C0026004C2639002600130026131C00FF00BF00FF7FDF00A5007C00A55291007F005F007F3F6F004C0039004C26420026001C0026132100FF00FF00FF7FFF00A5
310
00A500A552A5007F007F007F3F7F004C004C004C264C002600260026132600BF00FF00DF7FFF007C00A5009152A5005F007F006F3F7F0039004C0042264C001C002600211326007F00FF00BF7FFF005200A5007C52A5003F007F005F3F7F0026004C0039264C00130026001C1326003F00FF009F7FFF002900A5006752A500
310
1F007F004F3F7F0013004C002F264C000900260017132600000000002D2D2D005B5B5B0089898900B7B7B700B3B3B30000000000000000000000000000000000000000000000000000000000000000000000000000000000000000000000000000000000000000000000000000000000000000000000000000000000000000
310
00000000000000000000000000000000000000000000000000000000000000000000000000000000000000000000000000000000000000000000000000000000000000000000000000000000000000000000000000000000000000000000000000000000000000000000000000000000000000000000000000000000000000
310
00000000000000000000000000000000000000000000000000000000000000000000000000000000000000000000000000000000000000000000000000000000000000000000000000000000000000000000000000000000000000000000000000000000000000000000000000000000000000000000000000000000000000
310
00000000000000000000000000000000000000000000000000000000000000000000000000000000000000000000000000000000000000000000000000000000000000000000000000000000000000000000000000000000000000000000000000000000000000000000000000000000000000000000000000000000000000
310
00000000000000000000000000000000000000000000000000000000000000000000000000000000000000000000000000000000000000000000000000000000000000000000000000000000000000000000000000000000000000000000000000000000000000000000000000000000000000000000000000000000000000
310
00000000000000000000000000000000000000000000000000000000000000000000000000000000000000000000000000000000000000000000000000000000000000000000000000000000000000000000000000000000000000000000000000000000000000000000000000000000000000000000000000000000000000
310
00000000000000000000000000000000000000000000000000000000000000000000000000000000000000000000000000000000000000000000000000000000000000000000000000000000000000000000000000000000000000000000000000000000000000000000000000000000000000000000000000000000000000
310
00000000000000000000000000000000000000000000000000000000000000000000000000000000000000000000000000000000000000000000000000000000000000000000000000000000000000000000000000000000000000000000000000000000000000000000000000000000000000000000000000000000000000
310
00000000000000000000000000000000000000000000000000000000000000000000000000000000000000000000000000000000000000000000000000000000000000000000000000000000000000000000000000000000000000000000000000000000000000000000000000000000000000000000000000000000000000
310
00000000000000000000000000000000000000000000000000000000000000000000000000000000000000000000000000000000000000000000000000000000000000000000000000000000000000000000000000000000000000000000000000000000000000000000000000000000000000000000000000000000000000
310
00000000000000000000000000000000000000000000000000000000000000000000000000000000000000000000000000000000000000000000000000000000000000000000000000000000000000000000000000000000000000000000000000000000000000000000000000000000000000000000000000000000000000
310
00000000000000000000000000000000000000000000000000000000000000000000000000000000000000000000000000000000000000000000000000000000000000000000000000000000000000000000000000000000000000000000000000000000000000000000000000000000000000000000000000000000000000
310
00000000000000000000000000000000000000000000000000000000000000000000000000000000000000000000000000000000000000000000000000000000000000000000000000000000000000000000000000000000000000000000000000000000000000000000000000000000000000000000000000000000000000
310
00000000000000000000000000000000000000000000000000000000000000000000000000000000000000000000000000000000000000000000000000000000000000000000000000000000000000000000000000000000000000000000000000000000000000000000000000000000000000000000000000000000000000
310
00000000000000000000000000000000000000000000000000000000000000000000000000000000000000000000000000000000000000000000000000000000000000000000000000000000000000000000000000000000000000000000000000000000000000000000000000000000000000000000000000000000000000
310
00000000000000000000000000000000000000000000000000000000000000000000000000000000000000000000000000000000000000000000000000000000000000000000000000000000000000000000000000000000000000000000000000000000000000000000000000000000000000000000000000000000000000
310
00000000000000000000000000000000000000000000000000000000000000000000000000000000000000000000000000000000000000000000000000000000000000000000000000000000000000000000000000000000000000000000000000000000000000000000000000000000000000000000000000000000000000
310
00000000000000000000000000000000000000000000000000000000000000000000000000000000000000000000000000000000000000000000000000000000000000000000000000000000000000000000000000000000000000000000000000000000000000000000000000000000000000000000000000000000000000
310
00000000000000000000000000000000000000000000000000000000000000000000000000000000000000000000000000000000000000000000000000000000000000000000000000000000000000000000000000000000000000000000000000000000000000000000000000000000000000000000000000000000000000
310
00000000000000000000000000000000000000000000000000000000000000000000000000000000000000000000000000000000000000000000000000000000000000000000000000000000000000000000000000000000000000000000000000000000000000000000000000000000000000000000000000000000000000
310
00000000000000000000000000000000000000000000000000000000000000000000000000000000000000000000000000000000000000000000000000000000000000000000000000000000000000000000000000000000000000000000000000000000000000000000000000000000000000000000000000000000000000
310
00000000000000000000000000000000000000000000000000000000000000000000000000000000000000000000000000000000000000000000000000000000000000000000000000000000000000000000000000000000000000000000000000000000000000000000000000000000000000000000000000000000000000
310
00000000000000000000000000000000000000000000000000000000000000000000000000000000000000000000000000000000000000000000000000000000000000000000000000000000000000000000000000000000000000000000000000000000000000000000000000000000000000000000000000000000000000
310
00000000000000000000000000000000000000000000000000000000000000000000000000000000000000000000000000000000000000000000000000000000000000000000000000000000000000000000000000000000000000000000000000000000000000000000000000000000000000000000000000000000000000
310
00000000000000000000000000000000000000000000000000000000000000000000000000000000000000000000000000000000000000000000000000000000000000000000000000000000000007070707070707070707070707070707070707070707070707070707070707070707070707070707070707070707070707
310
07070707070707070707070000000000000000000000000000000000000000000000000000000000000000000000000000000000000000000000000000000000000000000000000000000000000000000000000000000000000000000000000000000000000000000000000000000000000000000000000000000000000000
310
00000000000700000000000000000000000000000000000000000000000000000000000000000000000000000000000000000000000000000000000000000700000000000000000000000000000000000000000000000000000000000000000000000000000000000000000000000000000000000000000000000000000000
310
00000000000000000000000000000000000000000000000000000000000000000000000000000000000000000000000000000000000000000000000700000000000000000000000000000000000000000000000000000000000000000000000000000000000000000000000000000000000007000000000000000000000000
310
00000000000000000000000000000000000000000000000000000000000000000000000000000000000000000000000000000000000000000000000000000000000000000000000000000000000000000000000000000000000000000000000000000000000000000000000000000000000700000000000000000000000000
310
00000000000000000000000000000000000000000000000000000000000000000000000000000007000000000000000000000000000000000000000000000000000000000000000000000000000000000000000000000000000000000000000000000000000000000000000000000000000000000000000000000000000000
310
00000000000000000000000000000000000000000000000000000000000000000000000000000000070000000000000000000000000000000000000000000000000000000000000000000000000000000000000000000000000000070000000000000000000000000000000000000000000000000000000000000000000000
310
00000000000000000000000000000000000000000000000000000000000000000000000000000000000000000000000000000000000000000000000000000000000000000000000000000000000000000000000000000000000000000000070000000000000000000000000000000000000000000000000000000000000000
310
00000000000000000000000000000000070000000000000000000000000000000000000000000000000000000000000000000000000000000000000000000000000000000000000000000000000000000000000000000000000000000000000000000000000000000000000000000000000000000000000000000000000000
310
00000000000000000000000000000000000000000007000000000000000000000000000000000000000000000000000000000000000000000000000000000000000000000700000000000000000000000000000000000000000000000000000000000000000000000000000000000000000000000000000000000000000000
310
00000000000000000707070707000000000000000000000000000000000007070700000000000000000000000000000000000000000000000000000000000000000000000000000000000700000000000000000000000000000000000000000000000000000000000000000000000000000000000000000000070000000000
310
00000000000000000000000000000000000000000000000000000000000000000000000000000000000000000000000000000000000000000000000000070000000700000000000000000000000000000000000700070000000000000000000000000000000000000000000000000000000000000000000000000000000000
310
00070000000000000000000000000000000000000000000000000000000000000000000000000000000000000000070000000000000000000000000000000000000000000000000000000000000000000000000000000000000000000000000000000000000000000000000000000000000007000000070000000000000000
310
00000000000000000007000700000000000000000000000000000000000000000000000000000000000000000000000000000000000000070000000000000000000000000000000000000000000000000000000000000000000000000000000000000700000000000000000000000000000000000000000000000000000000
310
00000000000000000000000000000000000000000000000000000000000000000000000000000000070000000700000000000000000000000000000000000707070000000000000000000000000000000000000000000000000000000000000000000000000000000000000000070000000000000000000000000000000000
310
00000000000000000000000000000000000000000000000700000000000000000000000000000000000000000000000000000000000000000000000000000000000000000000000000000000000000000000000000000000000000000700000000070707070707070707070707070707070707070007000000000000000000
310
00000000000000000000000000000000000000000000000000000000000000000000000007000000000000000000000000000000000000000000000000000000000000000000000000000007000000000000000000000000000000000000000000000000000000000000000000000000000000000000000000000000000000
310
00000000000000000000000000000000000007000000000700000000000007000000000000070707070707070000000000000000000000000000000000000000000000000000000000000000000000000000000000000000000007000000000000000000000000000000000000000000000000000000000000000000000000
310
07000000000000000000000000000000000000000000000000000000000000000000000000000000000000000000000000000000000000000000000000000000070707070707070700000000070000000000000700000000000007000000070007000000000000000000000000000000000000000000000000000000000000
310
00000000000000000000000000000000000700000000000000000000000000000000000000000000000000000000000000000000070000000000000000000000000000000000000000000000000000000000000000000000000000000000000000000000000000000000000000000000000000000007000000000000070000
310
00000700000000000007000000000000070000000700070000000000000000000000000000000000000000000000000000000000000000000000000000000000000000000000000700000000000000000000000000000000000000000000000000000000000000000700000000000000000000000000000000000000000000
310
00000000000000000000000000000000000000000000000000000000000000000000000000000000000000070000000000000700000000070000000000000700000000000007000000070007000000000000000000000000000000000000000000000000000000000000000000000000000000000000000000000000000700
310
00000000000000000000000000000000000000000000000000000000000700000000000000000000000000000000000000000000000000000000000000000000000000000000000000000000000000000000000000000000000000000000000007000000000000070000000007000000000000070000000000000700000007
310
00070000000000000000000000000000000000000000000000000000000000000000000000000000000000000000000000000000070000000000000000000000000000000000000000000000000000000007000000000000000000000000000000000000000000000000000000000000000000000000000000000000000000
310
00000000000000000000000000000000000000000000070000000000000700000000070000000000000700000000000007070707070007000000000000000000000000000000000000000000000000000000000000000000000000000000000000000000000000000000070000000000000000000000000000000000000000
310
00000000000007000000000000000000000000000000000000000000000000000000000000000000000000000000000000000000000000000000000000000000000000000000000000000007000000000000070000000007000000000000070000000000000707070707070700000000000000000000000000000000000000
310
00000000000000000000000000000000000000000000000000000000000000000007000000000000000000000000000000000000000000000000070000000000000000000000000000000000000000000000000000000000000000000000000000000000000000000000000000000000000000000000000000000000000000
310
00070000000000000700000000070000000000000700000000000007070000000707000000000000000000000000000000000000000000000000000000000000000000000000000000000000000000000000000000000007000000000000000000000000000000000000000000000700000000000000000000000000000000
310
00000000000000000000000000000000000000000000000000000000000000000000000000000000000000000000000000000000000007000000000000070000000007000000000000070000000000000707000000000700000000000000000000000000000000000000000000000000000000000000000000000000000000
310
00000000000000000000000000000700000000000000000000000000000000000000000700000000000000000000000000000000000000000000000000000000000000000000000000000000000000000000000000000000000000000000000000000000000000000000000700000000000007000000000700000000000007
310
00000000000007070000000707000000000000000000000000000000000000000000000000000000000000000000000000000000000000000000000000000000000000070000000000000000000000000000000000000000070000000000000000000000000000000000000000000000000000000000000000000000000000
310
00000000000000000000000000000000000000000000000000000000000000000007000000000000070000000007000000000000070000000000000707070707070700000000000000000000000000000000000000000000000000000000000000000000000000000000000000000000000000000000000000070000000000
310
00000000000000000000000000070000000000000000000000000000000000000000000000000000000000000000000000000000000000000000000000000000000000000000000000000000000000000000000000000700000000000007000000000700000000000007000000000000070707070700070000000000000000
310
00000000000000000000000000000000000000000000000000000000000000000000000000000000000000000000000007000000000000000000000000000000000700000000000000000000000000000000000000000000000000000000000000000000000000000000000000000000000000000000000000000000000000
310
00000000000000000000000007000000000000070000000007000000000000070000000000000700000007070700000000000000000000000000000000000000000000000000000000000000000000000000000000000000000000000000000000000000000007000000000000000000000000000007000000000000000000
310
00000000000000000000000000000000000000000000000000000000000000000000000000000000000000000000000000000000000000000000000000000000000700000000000007000000000700000000000007000000000000070000000700070000000000000000000000000000000000000000000000000000000000
310
00000000000000000000000000000000000000000000000000000000000700000000000000000000000007000000000000000000000000000000000000000000000000000000000000000000000000000000000000000000000000000000000000000000000000000000000000000000000000000000070000000000000700
310
00000007000000000000070000000000000700000007000700000000000000000000000000000000000000000000000000000000000000000000000000000000000000000000000000000000000000000000000700000000000000000000070000000000000000000000000000000000000000000000000000000000000000
310
00000000000000000000000000000000000000000000000000000000000000000000000000000000000000000707070707070707000000000700000000000007000000000000070000000700070000000000000000000000000000000000000000000000000000000000000000000000000000000000000000000000000000
310
00000000000000000000070000000000000000070000000000000000000000000000000000000000000000000000000000000000000000000000000000000000000000000000000000000000000000000000000000000000000000000000000000070707070707000700000000070000000000000700000000000007070707
310
07070700000000000000000000000000000000000000000000000000000000000000000000000000000000000000000000000000000000000000000000000007000000000000000707000000000000000000000000000000000000000000000000000000000000000000000000000000000000000000000000000000000000
310
00000000000000000000000000000000000000000000000700000000070007000000000707070707070707070707070707070707070700070000000000000000000000000000000000000000000000000000000000000000000000000000000000000000000000000000000000000000000000000007070707070707070000
310
00000000000000000000000000000000000000000000000000000000000000000000000000000000000000000000000000000000000000000000000000000000000000000000000000000000070000000007000700000000070000000000000000000000000007000000070707000000000000000000000000000000000000
310
00000000000000000000000000000000000000000000000000000000000000000000000000000000000000070707070707070700000000000000000000000000000000000000000000000000000000000000000000000000000000000000000000000000000000000000000000000000000000000000000000000000000000
310
00000700000000070000070000000700000000000000000000000000070000000700070000000000000000000000000000000000000000000000000000000000000000000000000000000000000000000000000000000000000000000000000007000000000000070000000000000000000000000000000000000000000000
310
00000000000000000000000000000000000000000000000000000000000000000000000000000000000000000000000000000000000000070000000007000007000000070000000000000000000000000007070707070007000000000000000000000000000000000000000000000000000000000000000000000000000000
310
00000000000000000000000000000000000000000000070000000000000700000000000000000000000000000000000000000000000000000000000000000000000000000000000000000000000000000000000000000000000000000000000000000000000000000000000007000000000700000707070707000000000000
310
00000000000000000000000707070000000000000000000000000000000000000000000000000000000000000000000000000000000000000000000000000000000000000000000000000007000000000000070000000000000000000000000000000000000000000000000000000000000000000000000000000000000000
310
00000000000000000000000000000000000000000000000000000000000000000000070000000007000000000000000000000000000000000000000000000000000000000000000000000000000000000000000000000000000000000000000000000000000000000000000000000000000000000000000000000000000000
310
00070000000000000700000000000000000000000000000000000000000000000000000000000000000000000000000000000000000000000000000000000000000000000000000000000000000000000000000000000007000000000700000000000000000000000000000000000000000000000000000000000000000000
310
00000000000000000000000000000000000000000000000000000000000000000000000000000000000000000000000000000000000007000000000000070000000000000000000000000000000000000000000000000000000000000000000000000000000000000000000000000000000000000000000000000000000000
310
00000000000000000000000000070000000007000000000000000000000000000000000000000000000000000000000000000000000000000000000000000000000000000000000000000000000000000000000000000000000000000000000000000000000000000000000707070707070707000000000000000000000000
310
00000000000000000000000000000000000000000000000000000000000000000000000000000000000000000000000000000000000000000000000000000000000007000000000700000000000000000000000000000000000000000000000000000000000000000000000000000000000000000000000000000000000000
310
00000000000000000000000000000000000000000000000000000000000000000000070000000007000000000000000000000000000000000000000000000000000000000000000000000000000000000000000000000000000000000000000000000000000000000000000000000000000000000000000700000000070000
310
00000000000000000000000000000000000000000000000000000000000000000000000000000000000000000000000000000000000000000000000000000000000000000000000000000000000000000000000000000007000000000700000000000000000000000000000000000000000000000000000000000000000000
310
00000000000000000000000000000000000000000000000000000000000000000000000000000000000000000007000000000700000000000000000000000000000000000000000000000000000000000000000000000000000000000000000000000000000000000000000000000000000000000000000000000000000000
310
00000000000000000000000000070000000007000000000000000000000000000000000000000000000000000000000000000000000000000000000000000000000000000000000000000000000000000000000000000000000000000000000000000700000000070000000000000000000000000000000000000000000000
310
00000000000000000000000000000000000000000000000000000000000000000000000000000000000000000000000000000000000000000000000000000000000007000000000700000000000000000000000000000000000000000000000000000000000000000000000000000000000000000000000000000000000000
310
00000000000000000000000000000000000000000000000007000000000700000000000000000000000000000000000000000000000000000000000000000000000000000000000000000000000000000000000000000000000000000000000000000000000000000000000000000000000000000000000700000000070000
310
00000000000000000000000000000000000000000000000000000000000000000000000000000000000000000000000000000000000000000000000000000000000000000000000000000000000700000007000000000000000000000000000000000000000000000000000000000000000000000000000000000000000000
310
00000000000000000000000000000000000000000000000000000000000000000000000000000000000000000007000000000700000000000000000000000000000000000000000000000000000000000000000000000000000000000000000000000000000000000000000000000000000000000000000000000000000000
310
00000700000000070000000000000000000000000000000000000000000000000000000000000000000000000000000000000000000000000000000000000000000000000000000000000000000000000000000000000000000000000000000000000007000000000707000000000000000000000000000000000000000000
310
00000000000000000000000000000000000000000000000000000000000000000000000000000000000000000000000000000000000007070000000007000000000000000000000000000000000000000000000000000000000000000000000000000000000000000000000000000000000000000000000000000000000000
310
00000000000000000000000000000000000000000000000000070000000000000707000000000000000000000000000000000000000000000000000000000000000000000000000000000000000000000000000000000000000000000000000000000000000000000007070000000000070000000000000000000000000000
310
00000000000000000000000000000000000000000000000000000000000000000000000000000000000000000000000000000000000000000000000000000000000000000000000000000000000000070000000000000007070707070707070707070707070707070707070707070707070707070707070707070707070707
310
07070707070707070707070707070707070707070707070707070707070707000000000000000700000000000000000000000000000000000000000000000000000000000000000000000000000000000000000000000000000000000000000000000000000000000000000000000000000000000000000000000000000000
310
00000000000007000000000000000000000000000000000000000000000000000000000000000000000000000000000000000000000000000000000000000000000000000000000000000000000000000000000000000000000007000000000000000000000000000000000000000000000000000000000000000000000000
310
00000000000000000000000000000000000000000000000000000000000000000000000000000000000000000000000000000000000000000000000007000000000000000000000000000000000000000000000000000000000000000000000000000000000000000000000000000000000000000000000000000000000000
310
00000000000000000000000000000007000000000000000000000000000000000000000000000000000000000000000000000000000000000000000000000000000000000000000000000000000000000000000000000000000000000000000000000000000000000000000000000000000007000000000000000000000000
310
00000000000000000000000000000000000000000000000000000000000000000000000000000000000000000000000000000000000000000000000000000000000007070000000000000000000000000000000000000000000000000000000000000000000000000000000000000000000000000000000000000000000000
310
00000000000000000000000000000000000000000000000000000000000000000000000000000000000707070707070707070707070707070707070707070707070707070707070707070707070707070707070707070707070707070707070707070707070707070707070707070707070707070707070000000000000000
310
00000000000000000000000000000000000000000000000000000000000000000000000000000000000000000000000000000000000000000000000000000000000000000000000000000000000000000000000000000000000000000000000000000000000000000000000000000000000000000000000000000000000000
310
00000000000000000000000000000000000000000000000000000000000000000000000000000000000000000000000000000000000000000000000000000000000000000000000000000000000000000000000000000000000000000000000000000000000000000000000000000000000000000000000000000000000000
310
00000000000000000000000000000000000000000000000000000000000000000000000000000000000000000000000000000000000000000000000000000000000000000000000000000000000000000000000000000000000000000000000000000000000000000000000000000000000000000000000000000000000000
310
00000000000000000000000000000000000000000000000000000000000000000000000000000000000000000000000000000000000000000000000000000000000000000000000000000000000000000000000000000000000000000000000000000000000000000000000000000000000000000000000000000000000000
310
00000000000000000000000000000000000000000000000000000000000000000000000000000000000000000000000000000000000000000000000000000000000000000000000000000000000000000000000000000000000000000000000000000000000000000000000000000000000000000000000000000000000000
310
00000000000000000000000000000000000000000000000000000000000000000000000000000000000000000000000000000000000000000000000000000000000000000000000000000000000000000000000000000000000000000000000000000000000000000000000000000000000000000000000000000000000000
310
00000000000000000000000000000000000000000000000000000000000000000000000000000000000000000000000000000000000000000000000000000000000000000000000000000000000000000000000000000000000000000000000000000000000000000000000000000000000000000000000000000000000000
310
00000000000000000000000000000000000000000000000000000000000000000000000000000000000000000000000000000000000000000000000000000000000000000000000000000000000000000000000000000000000000000000000000000000000000000000000000000000000000000000000000000000000000
310
00000000000000000000000000000000000000000000000000000000000000000000000000000000000000000000000000000000000000000000000000000000000000000000000000000000000000000000000000000000000000000000000000000000000000000000000000000000000000000000000000000000000000
310
00000000000000000000000000000000000000000000000000000000000000000000000000000000000000000000000000000000000000000000000000000000000000000000000000000000000000000000000000000000000000000000000000000000000000000000000000000000000000000000000000000000000000
310
00000000000000000000000000000000000000000000000000000000000000000000000000000000000000000000000000000000000000000000000000000000000000000000000000000000000000000000000000000000000000000000000000000000000000000000000000000000000000000000000000000000000000
310
00000000000000000000000000000000000000000000000000000000000000000000000000000000000000000000000000000000000000000000000000000000000000000000000000000000000000000000000000000000000000000000000000000000000000000000000000000000000000000000000000000000000000
310
00000000000000000000000000000000000000000000000000000000000000000000000000000000000000000000000000000000000000000000000000000000000000000000000000000000000000000000000000000000000000000000000000000000000000000000000000000000000000000000000000000000000000
310
00000000000000000000000000000000000000000000000000000000000000000000000000000000000000000000000000000000000000000000000000000000000000000000000000000000000000000000000000000000000000000000000000000000000000000000000000000000000000000000000000000000000000
310
00000000000000000000000000000000000000000000000000000000000000000000000000000000000000000000000000000000000000000000000000000000000000000000000000000000000000000000000000000000000000000000000000000000000000000000000000000000000000000000000000000000000000
310
00000000000000000000000000000000000000000000000000000000000000000000000000000000000000000000000000000000000000000000000000000000000000000000000000000000000000000000000000000000000000000000000000000000000000000000000000000000000000000000000000000000000000
310
00000000000000000000000000000000000000000000000000000000000000000000000000000000000000000000000000000000000000000000000000000000000000000000000000000000000000000000000000000000000000000000000000000000000000000000000000000000000000000000000000000000000000
310
00000000000000000000000000000000000000000000000000000000000000000000000000000000000000000000000000000000000000000000000000000000000000000000000000000000000000000000000000000000000000000000000000000000000000000000000000000000000000000000000000000000000000
310
00000000000000000000000000000000000000000000000000000000000000000000000000000000000000000000000000000000000000000000000000000000000000000000000000000000000000000000000000000000000000000000000000000000000000000000000000000000000000000000000000000000000000
310
00000000000000000000000000000000000000000000000000000000000000000000000000000000000000000000000000000000000000000000000000000000000000000000000000000000000000000000000000000000000000000000000000000000000000000000000000000000000000000000000000000000000000
310
00000000000000000000000000000000000000000000000000000000000000000000000000000000000000000000000000000000000000000000000000000000000000000000000000000000000000000000000000000000000000000000000000000000000000000000000000000000000000000000000000000000000000
310
00000000000000000000000000000000000000000000000000000000000000000000000000000000000000000000000000000000000000000000000000000000000000000000000000000000000000000000000000000000000000000000000000000000000000000000000000000000000000000000000000000000000000
310
00000000000000000000000000000000000000000000000000000000000000000000000000000000000000000000000000000000000000000000000000000000000000000000000000000000000000000000000000000000000000000000000000000000000000000000000000000000000000000000000000000000000000
310
00000000000000000000000000000000000000000000000000000000000000000000000000000000000000000000000000000000000000000000000000000000000000000000000000000000000000000000000000000000000000000000000000000000000000000000000000000000000000000000000000000000000000
310
00000000000000000000000000000000000000000000000000000000000000000000000000000000000000000000000000000000000000000000000000000000000000000000000000000000000000000000000000000000000000000000000000000000000000000000000000000000000000000000000000000000000000
310
000000000000000000000000000000000000000000000000000000000000000000000000000000000000000000000000000000000000000000000000000000000000000000000000000000000000000000000000000000000000000000000000000000000000000000000000
  0
ENDSEC
  0
EOF
