  0
SECTION
  2
HEADER
  9
$ACADVER
  1
AC1015
  9
$ACADMAINTVER
 70
     6
  9
$DWGCODEPAGE
  3
ANSI_1252
  9
$INSBASE
 10
0.0
 20
0.0
 30
0.0
  9
$EXTMIN
 10
0.0905
 20
0.158
 30
0.0
  9
$EXTMAX
 10
615.9095
 20
1327.842
 30
0.0
  9
$LIMMIN
 10
0.0
 20
0.0
  9
$LIMMAX
 10
12.0
 20
9.0
  9
$ORTHOMODE
 70
     0
  9
$REGENMODE
 70
     1
  9
$FILLMODE
 70
     1
  9
$QTEXTMODE
 70
     0
  9
$MIRRTEXT
 70
     1
  9
$LTSCALE
 40
1.0
  9
$ATTMODE
 70
     1
  9
$TEXTSIZE
 40
0.2
  9
$TRACEWID
 40
0.05
  9
$TEXTSTYLE
  7
Standard
  9
$CLAYER
  8
0
  9
$CELTYPE
  6
ByBlock
  9
$CECOLOR
 62
   256
  9
$CELTSCALE
 40
1.0
  9
$DISPSILH
 70
     0
  9
$DIMSCALE
 40
1.0
  9
$DIMASZ
 40
0.18
  9
$DIMEXO
 40
0.0625
  9
$DIMDLI
 40
0.38
  9
$DIMRND
 40
0.0
  9
$DIMDLE
 40
0.0
  9
$DIMEXE
 40
0.18
  9
$DIMTP
 40
0.0
  9
$DIMTM
 40
0.0
  9
$DIMTXT
 40
0.18
  9
$DIMCEN
 40
0.09
  9
$DIMTSZ
 40
0.0
  9
$DIMTOL
 70
     0
  9
$DIMLIM
 70
     0
  9
$DIMTIH
 70
     1
  9
$DIMTOH
 70
     1
  9
$DIMSE1
 70
     0
  9
$DIMSE2
 70
     0
  9
$DIMTAD
 70
     0
  9
$DIMZIN
 70
     0
  9
$DIMBLK
  1

  9
$DIMASO
 70
     1
  9
$DIMSHO
 70
     1
  9
$DIMPOST
  1

  9
$DIMAPOST
  1

  9
$DIMALT
 70
     0
  9
$DIMALTD
 70
     2
  9
$DIMALTF
 40
25.4
  9
$DIMLFAC
 40
1.0
  9
$DIMTOFL
 70
     0
  9
$DIMTVP
 40
0.0
  9
$DIMTIX
 70
     0
  9
$DIMSOXD
 70
     0
  9
$DIMSAH
 70
     0
  9
$DIMBLK1
  1

  9
$DIMBLK2
  1

  9
$DIMSTYLE
  2
Standard
  9
$DIMCLRD
 70
     0
  9
$DIMCLRE
 70
     0
  9
$DIMCLRT
 70
     0
  9
$DIMTFAC
 40
1.0
  9
$DIMGAP
 40
0.09
  9
$DIMJUST
 70
     0
  9
$DIMSD1
 70
     0
  9
$DIMSD2
 70
     0
  9
$DIMTOLJ
 70
     1
  9
$DIMTZIN
 70
     0
  9
$DIMALTZ
 70
     0
  9
$DIMALTTZ
 70
     0
  9
$DIMUPT
 70
     0
  9
$DIMDEC
 70
     4
  9
$DIMTDEC
 70
     4
  9
$DIMALTU
 70
     2
  9
$DIMALTTD
 70
     2
  9
$DIMTXSTY
  7
Standard
  9
$DIMAUNIT
 70
     0
  9
$DIMADEC
 70
     0
  9
$DIMALTRND
 40
0.0
  9
$DIMAZIN
 70
     0
  9
$DIMDSEP
 70
    46
  9
$DIMATFIT
 70
     3
  9
$DIMFRAC
 70
     0
  9
$DIMLDRBLK
  1

  9
$DIMLUNIT
 70
     2
  9
$DIMLWD
 70
    -2
  9
$DIMLWE
 70
    -2
  9
$DIMTMOVE
 70
     2
  9
$LUNITS
 70
     2
  9
$LUPREC
 70
     4
  9
$SKETCHINC
 40
0.1
  9
$FILLETRAD
 40
0.5
  9
$AUNITS
 70
     0
  9
$AUPREC
 70
     0
  9
$MENU
  1
.
  9
$ELEVATION
 40
0.0
  9
$PELEVATION
 40
0.0
  9
$THICKNESS
 40
0.0
  9
$LIMCHECK
 70
     0
  9
$CHAMFERA
 40
0.5
  9
$CHAMFERB
 40
0.5
  9
$CHAMFERC
 40
1.0
  9
$CHAMFERD
 40
0.0
  9
$SKPOLY
 70
     0
  9
$TDCREATE
 40
2456647.964940312
  9
$TDUCREATE
 40
2456647.923273646
  9
$TDUPDATE
 40
2456647.974475903
  9
$TDUUPDATE
 40
2456647.932809236
  9
$TDINDWG
 40
0.0095352315
  9
$TDUSRTIMER
 40
0.0095352315
  9
$USRTIMER
 70
     1
  9
$ANGBASE
 50
0.0
  9
$ANGDIR
 70
     0
  9
$PDMODE
 70
     0
  9
$PDSIZE
 40
0.0
  9
$PLINEWID
 40
0.0
  9
$SPLFRAME
 70
     0
  9
$SPLINETYPE
 70
     6
  9
$SPLINESEGS
 70
     8
  9
$HANDSEED
  5
766
  9
$SURFTAB1
 70
     6
  9
$SURFTAB2
 70
     6
  9
$SURFTYPE
 70
     6
  9
$SURFU
 70
     6
  9
$SURFV
 70
     6
  9
$UCSBASE
  2

  9
$UCSNAME
  2

  9
$UCSORG
 10
0.0
 20
0.0
 30
0.0
  9
$UCSXDIR
 10
1.0
 20
0.0
 30
0.0
  9
$UCSYDIR
 10
0.0
 20
1.0
 30
0.0
  9
$UCSORTHOREF
  2

  9
$UCSORTHOVIEW
 70
     0
  9
$UCSORGTOP
 10
0.0
 20
0.0
 30
0.0
  9
$UCSORGBOTTOM
 10
0.0
 20
0.0
 30
0.0
  9
$UCSORGLEFT
 10
0.0
 20
0.0
 30
0.0
  9
$UCSORGRIGHT
 10
0.0
 20
0.0
 30
0.0
  9
$UCSORGFRONT
 10
0.0
 20
0.0
 30
0.0
  9
$UCSORGBACK
 10
0.0
 20
0.0
 30
0.0
  9
$PUCSBASE
  2

  9
$PUCSNAME
  2

  9
$PUCSORG
 10
0.0
 20
0.0
 30
0.0
  9
$PUCSXDIR
 10
1.0
 20
0.0
 30
0.0
  9
$PUCSYDIR
 10
0.0
 20
1.0
 30
0.0
  9
$PUCSORTHOREF
  2

  9
$PUCSORTHOVIEW
 70
     0
  9
$PUCSORGTOP
 10
0.0
 20
0.0
 30
0.0
  9
$PUCSORGBOTTOM
 10
0.0
 20
0.0
 30
0.0
  9
$PUCSORGLEFT
 10
0.0
 20
0.0
 30
0.0
  9
$PUCSORGRIGHT
 10
0.0
 20
0.0
 30
0.0
  9
$PUCSORGFRONT
 10
0.0
 20
0.0
 30
0.0
  9
$PUCSORGBACK
 10
0.0
 20
0.0
 30
0.0
  9
$USERI1
 70
     0
  9
$USERI2
 70
     0
  9
$USERI3
 70
     0
  9
$USERI4
 70
     0
  9
$USERI5
 70
     0
  9
$USERR1
 40
0.0
  9
$USERR2
 40
0.0
  9
$USERR3
 40
0.0
  9
$USERR4
 40
0.0
  9
$USERR5
 40
0.0
  9
$WORLDVIEW
 70
     1
  9
$SHADEDGE
 70
     3
  9
$SHADEDIF
 70
    70
  9
$TILEMODE
 70
     1
  9
$MAXACTVP
 70
    64
  9
$PINSBASE
 10
0.0
 20
0.0
 30
0.0
  9
$PLIMCHECK
 70
     0
  9
$PEXTMIN
 10
1.000000000000E+20
 20
1.000000000000E+20
 30
1.000000000000E+20
  9
$PEXTMAX
 10
-1.000000000000E+20
 20
-1.000000000000E+20
 30
-1.000000000000E+20
  9
$PLIMMIN
 10
0.0
 20
0.0
  9
$PLIMMAX
 10
12.0
 20
9.0
  9
$UNITMODE
 70
     0
  9
$VISRETAIN
 70
     1
  9
$PLINEGEN
 70
     0
  9
$PSLTSCALE
 70
     1
  9
$TREEDEPTH
 70
  3020
  9
$CMLSTYLE
  2
Standard
  9
$CMLJUST
 70
     0
  9
$CMLSCALE
 40
1.0
  9
$PROXYGRAPHICS
 70
     1
  9
$MEASUREMENT
 70
     0
  9
$CELWEIGHT
370
    -1
  9
$ENDCAPS
280
     0
  9
$JOINSTYLE
280
     0
  9
$LWDISPLAY
290
     0
  9
$INSUNITS
 70
     0
  9
$HYPERLINKBASE
  1

  9
$STYLESHEET
  1

  9
$XEDIT
290
     1
  9
$CEPSNTYPE
380
     0
  9
$PSTYLEMODE
290
     1
  9
$FINGERPRINTGUID
  2
{9F4A8877-E489-4488-99D7-9B1B58ECEC56}
  9
$VERSIONGUID
  2
{FAEB1C32-E019-11D5-929B-00C0DF256EC4}
  9
$EXTNAMES
290
     1
  9
$PSVPSCALE
 40
0.0
  9
$OLESTARTUP
290
     0
  0
ENDSEC
  0
SECTION
  2
CLASSES
  0
CLASS
  1
ACDBDICTIONARYWDFLT
  2
AcDbDictionaryWithDefault
  3
ObjectDBX Classes
 90
        0
280
     0
281
     0
  0
CLASS
  1
SCALE
  2
AcDbScale
  3
ObjectDBX Classes
 90
     1153
280
     0
281
     0
  0
CLASS
  1
DICTIONARYVAR
  2
AcDbDictionaryVar
  3
ObjectDBX Classes
 90
        0
280
     0
281
     0
  0
CLASS
  1
ACDBPLACEHOLDER
  2
AcDbPlaceHolder
  3
ObjectDBX Classes
 90
        0
280
     0
281
     0
  0
CLASS
  1
LAYOUT
  2
AcDbLayout
  3
ObjectDBX Classes
 90
        0
280
     0
281
     0
  0
ENDSEC
  0
SECTION
  2
TABLES
  0
TABLE
  2
VPORT
  5
8
330
0
100
AcDbSymbolTable
 70
     1
  0
VPORT
  5
704
330
8
100
AcDbSymbolTableRecord
100
AcDbViewportTableRecord
  2
*Active
 70
     0
 10
0.0
 20
0.0
 11
1.0
 21
1.0
 12
307.95475
 22
663.921
 13
0.0
 23
0.0
 14
0.5
 24
0.5
 15
0.5
 25
0.5
 16
0.0
 26
0.0
 36
1.0
 17
0.0
 27
0.0
 37
0.0
 40
1354.39884
 41
1.729542302358
 42
50.0
 43
0.0
 44
0.0
 50
0.0
 51
0.0
 71
    16
 72
   100
 73
     1
 74
     3
 75
     0
 76
     0
 77
     0
 78
     0
281
     0
 65
     1
110
0.0
120
0.0
130
0.0
111
1.0
121
0.0
131
0.0
112
0.0
122
1.0
132
0.0
 79
     0
146
0.0
  0
ENDTAB
  0
TABLE
  2
LTYPE
  5
5
330
0
100
AcDbSymbolTable
 70
     1
  0
LTYPE
  5
14
330
5
100
AcDbSymbolTableRecord
100
AcDbLinetypeTableRecord
  2
ByBlock
 70
     0
  3

 72
    65
 73
     0
 40
0.0
  0
LTYPE
  5
15
330
5
100
AcDbSymbolTableRecord
100
AcDbLinetypeTableRecord
  2
ByLayer
 70
     0
  3

 72
    65
 73
     0
 40
0.0
  0
LTYPE
  5
16
330
5
100
AcDbSymbolTableRecord
100
AcDbLinetypeTableRecord
  2
Continuous
 70
     0
  3
Solid line
 72
    65
 73
     0
 40
0.0
  0
ENDTAB
  0
TABLE
  2
LAYER
  5
2
330
0
100
AcDbSymbolTable
 70
     1
  0
LAYER
  5
10
330
2
100
AcDbSymbolTableRecord
100
AcDbLayerTableRecord
  2
0
 70
     0
 62
     7
  6
Continuous
370
    -3
390
F
  0
ENDTAB
  0
TABLE
  2
STYLE
  5
3
330
0
100
AcDbSymbolTable
 70
     1
  0
STYLE
  5
11
330
3
100
AcDbSymbolTableRecord
100
AcDbTextStyleTableRecord
  2
Standard
 70
     0
 40
0.0
 41
1.0
 50
0.0
 71
     0
 42
0.2
  3
txt
  4

  0
ENDTAB
  0
TABLE
  2
VIEW
  5
6
330
0
100
AcDbSymbolTable
 70
     0
  0
ENDTAB
  0
TABLE
  2
UCS
  5
7
330
0
100
AcDbSymbolTable
 70
     0
  0
ENDTAB
  0
TABLE
  2
APPID
  5
9
330
0
100
AcDbSymbolTable
 70
     1
  0
APPID
  5
12
330
9
100
AcDbSymbolTableRecord
100
AcDbRegAppTableRecord
  2
ACAD
 70
     0
  0
ENDTAB
  0
TABLE
  2
DIMSTYLE
  5
A
330
0
100
AcDbSymbolTable
 70
     1
100
AcDbDimStyleTable
  0
DIMSTYLE
105
20
330
A
100
AcDbSymbolTableRecord
100
AcDbDimStyleTableRecord
  2
Standard
 70
     0
340
11
  0
ENDTAB
  0
TABLE
  2
BLOCK_RECORD
  5
1
330
0
100
AcDbSymbolTable
 70
     0
  0
BLOCK_RECORD
  5
1D
330
1
100
AcDbSymbolTableRecord
100
AcDbBlockTableRecord
  2
*Model_Space
340
1E
  0
BLOCK_RECORD
  5
1B
330
1
100
AcDbSymbolTableRecord
100
AcDbBlockTableRecord
  2
*Paper_Space
340
1C
  0
ENDTAB
  0
ENDSEC
  0
SECTION
  2
BLOCKS
  0
BLOCK
  5
707
330
1D
100
AcDbEntity
  8
0
100
AcDbBlockBegin
  2
*Model_Space
 70
     0
 10
0.0
 20
0.0
 30
0.0
  3
*Model_Space
  1
*Model_Space
  0
ENDBLK
  5
708
330
1D
100
AcDbEntity
  8
0
100
AcDbBlockEnd
  0
BLOCK
  5
705
330
1B
100
AcDbEntity
 67
     1
  8
0
100
AcDbBlockBegin
  2
*Paper_Space
 70
     0
 10
0.0
 20
0.0
 30
0.0
  3
*Paper_Space
  1
*Paper_Space
  0
ENDBLK
  5
706
330
1B
100
AcDbEntity
 67
     1
  8
0
100
AcDbBlockEnd
  0
ENDSEC
  0
SECTION
  2
ENTITIES
  0
LINE
  5
21
330
1D
100
AcDbEntity
  8
0
100
AcDbLine
 10
2.0125
 20
1085.92
 30
0.0
 11
4.6545
 21
1085.92
 31
0.0
  0
LINE
  5
22
330
1D
100
AcDbEntity
  8
0
100
AcDbLine
 10
0.6135
 20
1085.92
 30
0.0
 11
2.0125
 21
1085.92
 31
0.0
  0
LINE
  5
23
330
1D
100
AcDbEntity
  8
0
100
AcDbLine
 10
0.4715
 20
1085.92
 30
0.0
 11
1.5875
 21
1085.92
 31
0.0
  0
LINE
  5
24
330
1D
100
AcDbEntity
  8
0
100
AcDbLine
 10
0.4715
 20
1085.92
 30
0.0
 11
0.6135
 21
1085.92
 31
0.0
  0
LINE
  5
25
330
1D
100
AcDbEntity
  8
0
100
AcDbLine
 10
0.4715
 20
1085.92
 30
0.0
 11
0.602810919369
 21
1085.92557691163
 31
0.0
  0
LINE
  5
26
330
1D
100
AcDbEntity
  8
0
100
AcDbLine
 10
1.5875
 20
1085.92
 30
0.0
 11
3.9515
 21
1085.92
 31
0.0
  0
LINE
  5
28
330
1D
100
AcDbEntity
  8
0
100
AcDbLine
 10
4.6545
 20
1085.92
 30
0.0
 11
8.5145
 21
1085.92
 31
0.0
  0
LINE
  5
29
330
1D
100
AcDbEntity
  8
0
100
AcDbLine
 10
3.9515
 20
1085.92
 30
0.0
 11
7.5425
 21
1085.92
 31
0.0
  0
LINE
  5
3E
330
1D
100
AcDbEntity
  8
0
100
AcDbLine
 10
0.2105
 20
1086.746
 30
0.0
 11
117.3885
 21
1214.612
 31
0.0
  0
LINE
  5
3F
330
1D
100
AcDbEntity
  8
0
100
AcDbLine
 10
0.2105
 20
1086.746
 30
0.0
 11
117.3885
 21
1214.612
 31
0.0
  0
LINE
  5
40
330
1D
100
AcDbEntity
  8
0
100
AcDbLine
 10
0.0905
 20
1086.517
 30
0.0
 11
0.2105
 21
1086.746
 31
0.0
  0
LINE
  5
41
330
1D
100
AcDbEntity
  8
0
100
AcDbLine
 10
0.0905
 20
1086.517
 30
0.0
 11
0.1035
 21
1086.258
 31
0.0
  0
LINE
  5
42
330
1D
100
AcDbEntity
  8
0
100
AcDbLine
 10
0.1035
 20
1086.258
 30
0.0
 11
0.2415
 21
1086.04
 31
0.0
  0
LINE
  5
43
330
1D
100
AcDbEntity
  8
0
100
AcDbLine
 10
0.2415
 20
1086.04
 30
0.0
 11
0.4715
 21
1085.92
 31
0.0
  0
LINE
  5
51
330
1D
100
AcDbEntity
  8
0
100
AcDbLine
 10
117.3885
 20
1214.612
 30
0.0
 11
119.5305
 21
1217.772
 31
0.0
  0
LINE
  5
52
330
1D
100
AcDbEntity
  8
0
100
AcDbLine
 10
121.4095
 20
1227.012
 30
0.0
 11
121.4095
 21
1225.142
 31
0.0
  0
LINE
  5
53
330
1D
100
AcDbEntity
  8
0
100
AcDbLine
 10
121.4095
 20
1227.012
 30
0.0
 11
121.8415
 21
1228.142
 31
0.0
  0
LINE
  5
54
330
1D
100
AcDbEntity
  8
0
100
AcDbLine
 10
121.4095
 20
1225.142
 30
0.0
 11
121.499963541667
 21
1225.142
 31
0.0
  0
LINE
  5
55
330
1D
100
AcDbEntity
  8
0
100
AcDbLine
 10
121.4095
 20
1225.142
 30
0.0
 11
121.4095
 21
1227.012
 31
0.0
  0
LINE
  5
56
330
1D
100
AcDbEntity
  8
0
100
AcDbLine
 10
121.4095
 20
1228.752
 30
0.0
 11
121.4095
 21
1255.522
 31
0.0
  0
LINE
  5
57
330
1D
100
AcDbEntity
  8
0
100
AcDbLine
 10
121.4095
 20
1228.752
 30
0.0
 11
122.0575
 21
1228.752
 31
0.0
  0
LINE
  5
58
330
1D
100
AcDbEntity
  8
0
100
AcDbLine
 10
121.4095
 20
1228.752
 30
0.0
 11
121.8415
 21
1228.142
 31
0.0
  0
LINE
  5
59
330
1D
100
AcDbEntity
  8
0
100
AcDbLine
 10
120.9325
 20
1221.372
 30
0.0
 11
121.5105
 21
1225.212
 31
0.0
  0
LINE
  5
5A
330
1D
100
AcDbEntity
  8
0
100
AcDbLine
 10
119.5305
 20
1217.772
 30
0.0
 11
120.9325
 21
1221.372
 31
0.0
  0
LINE
  5
5F
330
1D
100
AcDbEntity
  8
0
100
AcDbLine
 10
121.8415
 20
1228.142
 30
0.0
 11
122.4895
 21
1228.142
 31
0.0
  0
LINE
  5
60
330
1D
100
AcDbEntity
  8
0
100
AcDbLine
 10
124.2175
 20
1228.142
 30
0.0
 11
127.0255
 21
1228.142
 31
0.0
  0
LINE
  5
61
330
1D
100
AcDbEntity
  8
0
100
AcDbLine
 10
122.4895
 20
1228.142
 30
0.0
 11
124.2175
 21
1228.142
 31
0.0
  0
LINE
  5
62
330
1D
100
AcDbEntity
  8
0
100
AcDbLine
 10
123.7855
 20
1228.752
 30
0.0
 11
126.6655
 21
1228.752
 31
0.0
  0
LINE
  5
63
330
1D
100
AcDbEntity
  8
0
100
AcDbLine
 10
122.0575
 20
1228.752
 30
0.0
 11
123.7855
 21
1228.752
 31
0.0
  0
LINE
  5
8B
330
1D
100
AcDbEntity
  8
0
100
AcDbLine
 10
134.8735
 20
1228.142
 30
0.0
 11
139.4095
 21
1228.142
 31
0.0
  0
LINE
  5
8C
330
1D
100
AcDbEntity
  8
0
100
AcDbLine
 10
130.6975
 20
1228.142
 30
0.0
 11
134.8735
 21
1228.142
 31
0.0
  0
LINE
  5
8D
330
1D
100
AcDbEntity
  8
0
100
AcDbLine
 10
127.0255
 20
1228.142
 30
0.0
 11
130.6975
 21
1228.142
 31
0.0
  0
LINE
  5
8E
330
1D
100
AcDbEntity
  8
0
100
AcDbLine
 10
134.8015
 20
1228.752
 30
0.0
 11
139.4095
 21
1228.752
 31
0.0
  0
LINE
  5
8F
330
1D
100
AcDbEntity
  8
0
100
AcDbLine
 10
130.4815
 20
1228.752
 30
0.0
 11
134.8015
 21
1228.752
 31
0.0
  0
LINE
  5
90
330
1D
100
AcDbEntity
  8
0
100
AcDbLine
 10
126.6655
 20
1228.752
 30
0.0
 11
130.4815
 21
1228.752
 31
0.0
  0
LINE
  5
91
330
1D
100
AcDbEntity
  8
0
100
AcDbLine
 10
139.4095
 20
1228.142
 30
0.0
 11
143.9455
 21
1228.142
 31
0.0
  0
LINE
  5
92
330
1D
100
AcDbEntity
  8
0
100
AcDbLine
 10
143.9455
 20
1228.142
 30
0.0
 11
148.1215
 21
1228.142
 31
0.0
  0
LINE
  5
93
330
1D
100
AcDbEntity
  8
0
100
AcDbLine
 10
139.4095
 20
1228.752
 30
0.0
 11
144.0175
 21
1228.752
 31
0.0
  0
LINE
  5
94
330
1D
100
AcDbEntity
  8
0
100
AcDbLine
 10
144.0175
 20
1228.752
 30
0.0
 11
148.3375
 21
1228.752
 31
0.0
  0
LINE
  5
98
330
1D
100
AcDbEntity
  8
0
100
AcDbLine
 10
148.1215
 20
1228.142
 30
0.0
 11
151.7935
 21
1228.142
 31
0.0
  0
LINE
  5
99
330
1D
100
AcDbEntity
  8
0
100
AcDbLine
 10
148.3375
 20
1228.752
 30
0.0
 11
152.1535
 21
1228.752
 31
0.0
  0
LINE
  5
9C
330
1D
100
AcDbEntity
  8
0
100
AcDbLine
 10
126.6655
 20
1255.522
 30
0.0
 11
130.4815
 21
1255.522
 31
0.0
  0
LINE
  5
9D
330
1D
100
AcDbEntity
  8
0
100
AcDbLine
 10
123.7855
 20
1255.522
 30
0.0
 11
126.6655
 21
1255.522
 31
0.0
  0
LINE
  5
9E
330
1D
100
AcDbEntity
  8
0
100
AcDbLine
 10
122.0575
 20
1255.522
 30
0.0
 11
123.7855
 21
1255.522
 31
0.0
  0
LINE
  5
9F
330
1D
100
AcDbEntity
  8
0
100
AcDbLine
 10
127.0255
 20
1256.142
 30
0.0
 11
130.6975
 21
1256.142
 31
0.0
  0
LINE
  5
A0
330
1D
100
AcDbEntity
  8
0
100
AcDbLine
 10
124.2175
 20
1256.142
 30
0.0
 11
127.0255
 21
1256.142
 31
0.0
  0
LINE
  5
A1
330
1D
100
AcDbEntity
  8
0
100
AcDbLine
 10
122.4895
 20
1256.142
 30
0.0
 11
124.2175
 21
1256.142
 31
0.0
  0
LINE
  5
A2
330
1D
100
AcDbEntity
  8
0
100
AcDbLine
 10
121.8415
 20
1256.142
 30
0.0
 11
122.4895
 21
1256.142
 31
0.0
  0
LINE
  5
A3
330
1D
100
AcDbEntity
  8
0
100
AcDbLine
 10
121.4095
 20
1255.522
 30
0.0
 11
122.0575
 21
1255.522
 31
0.0
  0
LINE
  5
A4
330
1D
100
AcDbEntity
  8
0
100
AcDbLine
 10
121.4095
 20
1255.522
 30
0.0
 11
121.4095
 21
1228.752
 31
0.0
  0
LINE
  5
A5
330
1D
100
AcDbEntity
  8
0
100
AcDbLine
 10
121.4095
 20
1255.522
 30
0.0
 11
121.8415
 21
1256.142
 31
0.0
  0
LINE
  5
A6
330
1D
100
AcDbEntity
  8
0
100
AcDbLine
 10
128.8135
 20
1264.152
 30
0.0
 11
128.9925
 21
1264.152
 31
0.0
  0
LINE
  5
A7
330
1D
100
AcDbEntity
  8
0
100
AcDbLine
 10
128.8135
 20
1264.152
 30
0.0
 11
128.8965
 21
1264.152
 31
0.0
  0
LINE
  5
A8
330
1D
100
AcDbEntity
  8
0
100
AcDbLine
 10
128.9925
 20
1264.152
 30
0.0
 11
129.4265
 21
1264.152
 31
0.0
  0
LINE
  5
A9
330
1D
100
AcDbEntity
  8
0
100
AcDbLine
 10
129.4265
 20
1264.152
 30
0.0
 11
130.1075
 21
1264.152
 31
0.0
  0
LINE
  5
AA
330
1D
100
AcDbEntity
  8
0
100
AcDbLine
 10
130.6975
 20
1256.142
 30
0.0
 11
134.8735
 21
1256.142
 31
0.0
  0
LINE
  5
AB
330
1D
100
AcDbEntity
  8
0
100
AcDbLine
 10
130.4815
 20
1255.522
 30
0.0
 11
134.8015
 21
1255.522
 31
0.0
  0
LINE
  5
AC
330
1D
100
AcDbEntity
  8
0
100
AcDbLine
 10
130.1075
 20
1264.152
 30
0.0
 11
131.0165
 21
1264.152
 31
0.0
  0
LINE
  5
AD
330
1D
100
AcDbEntity
  8
0
100
AcDbLine
 10
129.9415
 20
1264.152
 30
0.0
 11
130.7595
 21
1264.152
 31
0.0
  0
LINE
  5
AE
330
1D
100
AcDbEntity
  8
0
100
AcDbLine
 10
129.3555
 20
1264.152
 30
0.0
 11
129.9415
 21
1264.152
 31
0.0
  0
LINE
  5
AF
330
1D
100
AcDbEntity
  8
0
100
AcDbLine
 10
129.0185
 20
1264.152
 30
0.0
 11
129.3555
 21
1264.152
 31
0.0
  0
LINE
  5
B0
330
1D
100
AcDbEntity
  8
0
100
AcDbLine
 10
128.9365
 20
1264.152
 30
0.0
 11
129.0185
 21
1264.152
 31
0.0
  0
LINE
  5
B1
330
1D
100
AcDbEntity
  8
0
100
AcDbLine
 10
128.9365
 20
1264.152
 30
0.0
 11
128.954426754832
 21
1256.142
 31
0.0
  0
LINE
  5
B2
330
1D
100
AcDbEntity
  8
0
100
AcDbLine
 10
128.8095
 20
1271.942
 30
0.0
 11
128.8095
 21
1282.242
 31
0.0
  0
LINE
  5
B3
330
1D
100
AcDbEntity
  8
0
100
AcDbLine
 10
128.8095
 20
1271.942
 30
0.0
 11
128.8135
 21
1264.152
 31
0.0
  0
LINE
  5
B4
330
1D
100
AcDbEntity
  8
0
100
AcDbLine
 10
129.9525
 20
1292.392
 30
0.0
 11
133.3255
 21
1302.022
 31
0.0
  0
LINE
  5
B5
330
1D
100
AcDbEntity
  8
0
100
AcDbLine
 10
128.8095
 20
1282.242
 30
0.0
 11
129.9525
 21
1292.392
 31
0.0
  0
LINE
  5
B6
330
1D
100
AcDbEntity
  8
0
100
AcDbLine
 10
128.8095
 20
1282.242
 30
0.0
 11
128.8095
 21
1271.942
 31
0.0
  0
LINE
  5
B7
330
1D
100
AcDbEntity
  8
0
100
AcDbLine
 10
131.0165
 20
1264.152
 30
0.0
 11
132.1325
 21
1264.152
 31
0.0
  0
LINE
  5
B8
330
1D
100
AcDbEntity
  8
0
100
AcDbLine
 10
132.1325
 20
1264.152
 30
0.0
 11
133.4285
 21
1264.152
 31
0.0
  0
LINE
  5
B9
330
1D
100
AcDbEntity
  8
0
100
AcDbLine
 10
131.7905
 20
1264.152
 30
0.0
 11
133.0095
 21
1264.152
 31
0.0
  0
LINE
  5
BA
330
1D
100
AcDbEntity
  8
0
100
AcDbLine
 10
134.8735
 20
1256.142
 30
0.0
 11
139.4095
 21
1256.142
 31
0.0
  0
LINE
  5
BB
330
1D
100
AcDbEntity
  8
0
100
AcDbLine
 10
134.8015
 20
1255.522
 30
0.0
 11
139.4095
 21
1255.522
 31
0.0
  0
LINE
  5
BC
330
1D
100
AcDbEntity
  8
0
100
AcDbLine
 10
133.4285
 20
1264.152
 30
0.0
 11
134.8705
 21
1264.152
 31
0.0
  0
LINE
  5
BD
330
1D
100
AcDbEntity
  8
0
100
AcDbLine
 10
139.4095
 20
1256.142
 30
0.0
 11
143.9455
 21
1256.142
 31
0.0
  0
LINE
  5
BE
330
1D
100
AcDbEntity
  8
0
100
AcDbLine
 10
139.4095
 20
1255.522
 30
0.0
 11
144.0175
 21
1255.522
 31
0.0
  0
LINE
  5
BF
330
1D
100
AcDbEntity
  8
0
100
AcDbLine
 10
136.4245
 20
1264.152
 30
0.0
 11
138.0535
 21
1264.152
 31
0.0
  0
LINE
  5
C0
330
1D
100
AcDbEntity
  8
0
100
AcDbLine
 10
138.0535
 20
1264.152
 30
0.0
 11
139.7145
 21
1264.152
 31
0.0
  0
LINE
  5
C1
330
1D
100
AcDbEntity
  8
0
100
AcDbLine
 10
139.7145
 20
1264.152
 30
0.0
 11
141.3685
 21
1264.152
 31
0.0
  0
LINE
  5
C2
330
1D
100
AcDbEntity
  8
0
100
AcDbLine
 10
139.1085
 20
1264.152
 30
0.0
 11
140.7505
 21
1264.152
 31
0.0
  0
LINE
  5
C3
330
1D
100
AcDbEntity
  8
0
100
AcDbLine
 10
143.9455
 20
1256.142
 30
0.0
 11
148.1215
 21
1256.142
 31
0.0
  0
LINE
  5
C4
330
1D
100
AcDbEntity
  8
0
100
AcDbLine
 10
144.0175
 20
1255.522
 30
0.0
 11
148.3375
 21
1255.522
 31
0.0
  0
LINE
  5
C5
330
1D
100
AcDbEntity
  8
0
100
AcDbLine
 10
144.4915
 20
1264.152
 30
0.0
 11
145.8845
 21
1264.152
 31
0.0
  0
LINE
  5
C6
330
1D
100
AcDbEntity
  8
0
100
AcDbLine
 10
142.9735
 20
1264.152
 30
0.0
 11
144.4915
 21
1264.152
 31
0.0
  0
LINE
  5
C7
330
1D
100
AcDbEntity
  8
0
100
AcDbLine
 10
141.3685
 20
1264.152
 30
0.0
 11
142.9735
 21
1264.152
 31
0.0
  0
LINE
  5
C8
330
1D
100
AcDbEntity
  8
0
100
AcDbLine
 10
147.1175
 20
1264.152
 30
0.0
 11
148.1605
 21
1264.152
 31
0.0
  0
LINE
  5
C9
330
1D
100
AcDbEntity
  8
0
100
AcDbLine
 10
145.8845
 20
1264.152
 30
0.0
 11
147.1175
 21
1264.152
 31
0.0
  0
LINE
  5
CA
330
1D
100
AcDbEntity
  8
0
100
AcDbLine
 10
146.6025
 20
1264.152
 30
0.0
 11
147.7055
 21
1264.152
 31
0.0
  0
LINE
  5
CB
330
1D
100
AcDbEntity
  8
0
100
AcDbLine
 10
145.3215
 20
1264.152
 30
0.0
 11
146.6025
 21
1264.152
 31
0.0
  0
LINE
  5
CC
330
1D
100
AcDbEntity
  8
0
100
AcDbLine
 10
142.3595
 20
1264.152
 30
0.0
 11
143.8955
 21
1264.152
 31
0.0
  0
LINE
  5
CD
330
1D
100
AcDbEntity
  8
0
100
AcDbLine
 10
140.7505
 20
1264.152
 30
0.0
 11
142.3595
 21
1264.152
 31
0.0
  0
LINE
  5
CE
330
1D
100
AcDbEntity
  8
0
100
AcDbLine
 10
137.4735
 20
1264.152
 30
0.0
 11
139.1085
 21
1264.152
 31
0.0
  0
LINE
  5
CF
330
1D
100
AcDbEntity
  8
0
100
AcDbLine
 10
135.8865
 20
1264.152
 30
0.0
 11
137.4735
 21
1264.152
 31
0.0
  0
LINE
  5
D0
330
1D
100
AcDbEntity
  8
0
100
AcDbLine
 10
134.3865
 20
1264.152
 30
0.0
 11
135.8865
 21
1264.152
 31
0.0
  0
LINE
  5
D1
330
1D
100
AcDbEntity
  8
0
100
AcDbLine
 10
133.0095
 20
1264.152
 30
0.0
 11
134.3865
 21
1264.152
 31
0.0
  0
LINE
  5
D2
330
1D
100
AcDbEntity
  8
0
100
AcDbLine
 10
134.8705
 20
1264.152
 30
0.0
 11
136.4245
 21
1264.152
 31
0.0
  0
LINE
  5
D3
330
1D
100
AcDbEntity
  8
0
100
AcDbLine
 10
148.1215
 20
1256.142
 30
0.0
 11
151.7935
 21
1256.142
 31
0.0
  0
LINE
  5
D4
330
1D
100
AcDbEntity
  8
0
100
AcDbLine
 10
148.3375
 20
1255.522
 30
0.0
 11
152.1535
 21
1255.522
 31
0.0
  0
LINE
  5
D5
330
1D
100
AcDbEntity
  8
0
100
AcDbLine
 10
148.1605
 20
1264.152
 30
0.0
 11
148.9885
 21
1264.152
 31
0.0
  0
LINE
  5
D6
330
1D
100
AcDbEntity
  8
0
100
AcDbLine
 10
148.6045
 20
1264.152
 30
0.0
 11
149.2765
 21
1264.152
 31
0.0
  0
LINE
  5
D7
330
1D
100
AcDbEntity
  8
0
100
AcDbLine
 10
147.7055
 20
1264.152
 30
0.0
 11
148.6045
 21
1264.152
 31
0.0
  0
LINE
  5
D8
330
1D
100
AcDbEntity
  8
0
100
AcDbLine
 10
145.9785
 20
1317.892
 30
0.0
 11
154.6245
 21
1323.322
 31
0.0
  0
LINE
  5
D9
330
1D
100
AcDbEntity
  8
0
100
AcDbLine
 10
138.7585
 20
1310.672
 30
0.0
 11
145.9785
 21
1317.892
 31
0.0
  0
LINE
  5
DA
330
1D
100
AcDbEntity
  8
0
100
AcDbLine
 10
133.3255
 20
1302.022
 30
0.0
 11
138.7585
 21
1310.672
 31
0.0
  0
LINE
  5
DB
330
1D
100
AcDbEntity
  8
0
100
AcDbLine
 10
143.8955
 20
1264.152
 30
0.0
 11
145.3215
 21
1264.152
 31
0.0
  0
LINE
  5
DC
330
1D
100
AcDbEntity
  8
0
100
AcDbLine
 10
130.7595
 20
1264.152
 30
0.0
 11
131.7905
 21
1264.152
 31
0.0
  0
LINE
  5
DE
330
1D
100
AcDbEntity
  8
0
100
AcDbLine
 10
148.9885
 20
1264.152
 30
0.0
 11
149.5805
 21
1264.152
 31
0.0
  0
LINE
  5
DF
330
1D
100
AcDbEntity
  8
0
100
AcDbLine
 10
149.2765
 20
1264.152
 30
0.0
 11
149.7065
 21
1264.152
 31
0.0
  0
LINE
  5
E1
330
1D
100
AcDbEntity
  8
0
100
AcDbLine
 10
149.8825
 20
1264.152
 30
0.0
 11
150.0055
 21
1264.152
 31
0.0
  0
LINE
  5
E2
330
1D
100
AcDbEntity
  8
0
100
AcDbLine
 10
150.0055
 20
1264.152
 30
0.0
 11
150.0095
 21
1271.942
 31
0.0
  0
LINE
  5
E3
330
1D
100
AcDbEntity
  8
0
100
AcDbLine
 10
149.9225
 20
1264.152
 30
0.0
 11
150.0055
 21
1264.152
 31
0.0
  0
LINE
  5
E4
330
1D
100
AcDbEntity
  8
0
100
AcDbLine
 10
149.864573245168
 20
1256.142
 30
0.0
 11
149.8825
 21
1264.152
 31
0.0
  0
LINE
  5
E5
330
1D
100
AcDbEntity
  8
0
100
AcDbLine
 10
149.7065
 20
1264.152
 30
0.0
 11
149.8825
 21
1264.152
 31
0.0
  0
LINE
  5
E6
330
1D
100
AcDbEntity
  8
0
100
AcDbLine
 10
149.5805
 20
1264.152
 30
0.0
 11
149.9225
 21
1264.152
 31
0.0
  0
LINE
  5
EE
330
1D
100
AcDbEntity
  8
0
100
AcDbLine
 10
151.7935
 20
1228.142
 30
0.0
 11
154.6015
 21
1228.142
 31
0.0
  0
LINE
  5
EF
330
1D
100
AcDbEntity
  8
0
100
AcDbLine
 10
152.1535
 20
1228.752
 30
0.0
 11
155.0335
 21
1228.752
 31
0.0
  0
LINE
  5
F0
330
1D
100
AcDbEntity
  8
0
100
AcDbLine
 10
151.7935
 20
1256.142
 30
0.0
 11
154.6015
 21
1256.142
 31
0.0
  0
LINE
  5
F1
330
1D
100
AcDbEntity
  8
0
100
AcDbLine
 10
152.1535
 20
1255.522
 30
0.0
 11
155.0335
 21
1255.522
 31
0.0
  0
LINE
  5
F4
330
1D
100
AcDbEntity
  8
0
100
AcDbLine
 10
154.6015
 20
1228.142
 30
0.0
 11
156.3295
 21
1228.142
 31
0.0
  0
LINE
  5
F5
330
1D
100
AcDbEntity
  8
0
100
AcDbLine
 10
154.6015
 20
1256.142
 30
0.0
 11
156.3295
 21
1256.142
 31
0.0
  0
LINE
  5
F7
330
1D
100
AcDbEntity
  8
0
100
AcDbLine
 10
150.0095
 20
1271.942
 30
0.0
 11
150.0095
 21
1282.242
 31
0.0
  0
LINE
  5
F8
330
1D
100
AcDbEntity
  8
0
100
AcDbLine
 10
151.2035
 20
1289.782
 30
0.0
 11
154.6695
 21
1296.582
 31
0.0
  0
LINE
  5
F9
330
1D
100
AcDbEntity
  8
0
100
AcDbLine
 10
150.0095
 20
1282.242
 30
0.0
 11
150.0095
 21
1271.942
 31
0.0
  0
LINE
  5
FA
330
1D
100
AcDbEntity
  8
0
100
AcDbLine
 10
150.0095
 20
1282.242
 30
0.0
 11
151.2035
 21
1289.782
 31
0.0
  0
LINE
  5
106
330
1D
100
AcDbEntity
  8
0
100
AcDbLine
 10
155.0335
 20
1228.752
 30
0.0
 11
156.7615
 21
1228.752
 31
0.0
  0
LINE
  5
107
330
1D
100
AcDbEntity
  8
0
100
AcDbLine
 10
155.0335
 20
1255.522
 30
0.0
 11
156.7615
 21
1255.522
 31
0.0
  0
LINE
  5
108
330
1D
100
AcDbEntity
  8
0
100
AcDbLine
 10
159.2885
 20
1217.772
 30
0.0
 11
161.4295
 21
1214.612
 31
0.0
  0
LINE
  5
10A
330
1D
100
AcDbEntity
  8
0
100
AcDbLine
 10
157.204169270833
 20
1225.142
 30
0.0
 11
157.4095
 21
1225.142
 31
0.0
  0
LINE
  5
10C
330
1D
100
AcDbEntity
  8
0
100
AcDbLine
 10
156.3295
 20
1228.142
 30
0.0
 11
156.9775
 21
1228.142
 31
0.0
  0
LINE
  5
10D
330
1D
100
AcDbEntity
  8
0
100
AcDbLine
 10
156.7615
 20
1228.752
 30
0.0
 11
157.4095
 21
1228.752
 31
0.0
  0
LINE
  5
10E
330
1D
100
AcDbEntity
  8
0
100
AcDbLine
 10
156.3295
 20
1256.142
 30
0.0
 11
156.9775
 21
1256.142
 31
0.0
  0
LINE
  5
10F
330
1D
100
AcDbEntity
  8
0
100
AcDbLine
 10
156.9775
 20
1228.142
 30
0.0
 11
157.4095
 21
1228.752
 31
0.0
  0
LINE
  5
110
330
1D
100
AcDbEntity
  8
0
100
AcDbLine
 10
156.9775
 20
1228.142
 30
0.0
 11
157.4095
 21
1227.012
 31
0.0
  0
LINE
  5
111
330
1D
100
AcDbEntity
  8
0
100
AcDbLine
 10
156.9775
 20
1256.142
 30
0.0
 11
157.4095
 21
1255.522
 31
0.0
  0
LINE
  5
112
330
1D
100
AcDbEntity
  8
0
100
AcDbLine
 10
156.7615
 20
1255.522
 30
0.0
 11
157.4095
 21
1255.522
 31
0.0
  0
LINE
  5
114
330
1D
100
AcDbEntity
  8
0
100
AcDbLine
 10
157.4095
 20
1227.012
 30
0.0
 11
157.4095
 21
1225.142
 31
0.0
  0
LINE
  5
115
330
1D
100
AcDbEntity
  8
0
100
AcDbLine
 10
157.4095
 20
1225.142
 30
0.0
 11
157.4095
 21
1227.012
 31
0.0
  0
LINE
  5
116
330
1D
100
AcDbEntity
  8
0
100
AcDbLine
 10
157.4095
 20
1228.752
 30
0.0
 11
157.4095
 21
1255.522
 31
0.0
  0
LINE
  5
117
330
1D
100
AcDbEntity
  8
0
100
AcDbLine
 10
157.4095
 20
1255.522
 30
0.0
 11
157.4095
 21
1228.752
 31
0.0
  0
LINE
  5
118
330
1D
100
AcDbEntity
  8
0
100
AcDbLine
 10
157.320018229167
 20
1225.142
 30
0.0
 11
157.8865
 21
1221.372
 31
0.0
  0
LINE
  5
119
330
1D
100
AcDbEntity
  8
0
100
AcDbLine
 10
157.8865
 20
1221.372
 30
0.0
 11
159.2885
 21
1217.772
 31
0.0
  0
LINE
  5
11D
330
1D
100
AcDbEntity
  8
0
100
AcDbLine
 10
161.4295
 20
1214.612
 30
0.0
 11
278.6085
 21
1086.746
 31
0.0
  0
LINE
  5
11E
330
1D
100
AcDbEntity
  8
0
100
AcDbLine
 10
160.0675
 20
1301.982
 30
0.0
 11
166.8695
 21
1305.452
 31
0.0
  0
LINE
  5
11F
330
1D
100
AcDbEntity
  8
0
100
AcDbLine
 10
166.8695
 20
1305.452
 30
0.0
 11
174.4095
 21
1306.642
 31
0.0
  0
LINE
  5
120
330
1D
100
AcDbEntity
  8
0
100
AcDbLine
 10
154.6695
 20
1296.582
 30
0.0
 11
160.0675
 21
1301.982
 31
0.0
  0
LINE
  5
121
330
1D
100
AcDbEntity
  8
0
100
AcDbLine
 10
164.2625
 20
1326.702
 30
0.0
 11
174.4095
 21
1327.842
 31
0.0
  0
LINE
  5
122
330
1D
100
AcDbEntity
  8
0
100
AcDbLine
 10
154.6245
 20
1323.322
 30
0.0
 11
164.2625
 21
1326.702
 31
0.0
  0
LINE
  5
12F
330
1D
100
AcDbEntity
  8
0
100
AcDbLine
 10
270.3045
 20
1085.92
 30
0.0
 11
274.1645
 21
1085.92
 31
0.0
  0
LINE
  5
130
330
1D
100
AcDbEntity
  8
0
100
AcDbLine
 10
274.1645
 20
1085.92
 30
0.0
 11
276.8065
 21
1085.92
 31
0.0
  0
LINE
  5
131
330
1D
100
AcDbEntity
  8
0
100
AcDbLine
 10
276.8065
 20
1085.92
 30
0.0
 11
278.2055
 21
1085.92
 31
0.0
  0
LINE
  5
18C
330
1D
100
AcDbEntity
  8
0
100
AcDbLine
 10
484.4445
 20
179.725
 30
0.0
 11
484.7265
 21
179.495
 31
0.0
  0
LINE
  5
193
330
1D
100
AcDbEntity
  8
0
100
AcDbLine
 10
484.7265
 20
179.495
 30
0.0
 11
490.1745
 21
179.471
 31
0.0
  0
LINE
  5
19D
330
1D
100
AcDbEntity
  8
0
100
AcDbLine
 10
484.4265
 20
225.051
 30
0.0
 11
484.426579060559
 21
225.13932382065
 31
0.0
  0
LINE
  5
1A1
330
1D
100
AcDbEntity
  8
0
100
AcDbLine
 10
484.4195
 20
234.024
 30
0.0
 11
484.6895
 21
234.188
 31
0.0
  0
LINE
  5
1A3
330
1D
100
AcDbEntity
  8
0
100
AcDbLine
 10
484.6895
 20
234.188
 30
0.0
 11
490.1555
 21
234.251
 31
0.0
  0
LINE
  5
1B0
330
1D
100
AcDbEntity
  8
0
100
AcDbLine
 10
490.1745
 20
179.471
 30
0.0
 11
491.6445
 21
184.802
 31
0.0
  0
LINE
  5
1D6
330
1D
100
AcDbEntity
  8
0
100
AcDbLine
 10
491.642011836171
 20
193.378842294827
 30
0.0
 11
506.7845
 21
193.423
 31
0.0
  0
LINE
  5
1DD
330
1D
100
AcDbEntity
  8
0
100
AcDbLine
 10
490.1555
 20
234.251
 30
0.0
 11
490.3495
 21
233.677
 31
0.0
  0
LINE
  5
1DE
330
1D
100
AcDbEntity
  8
0
100
AcDbLine
 10
490.3495
 20
233.677
 30
0.0
 11
491.6495
 21
228.88
 31
0.0
  0
LINE
  5
1E1
330
1D
100
AcDbEntity
  8
0
100
AcDbLine
 10
491.646671823186
 20
220.422694668858
 30
0.0
 11
506.7585
 21
220.256
 31
0.0
  0
LINE
  5
1F6
330
1D
100
AcDbEntity
  8
0
100
AcDbLine
 10
497.7465
 20
506.013
 30
0.0
 11
498.0635
 21
501.674
 31
0.0
  0
LINE
  5
1F7
330
1D
100
AcDbEntity
  8
0
100
AcDbLine
 10
498.0635
 20
501.674
 30
0.0
 11
498.2655
 21
500.268
 31
0.0
  0
LINE
  5
1F8
330
1D
100
AcDbEntity
  8
0
100
AcDbLine
 10
498.2655
 20
500.268
 30
0.0
 11
498.8975
 21
497.092
 31
0.0
  0
LINE
  5
1FB
330
1D
100
AcDbEntity
  8
0
100
AcDbLine
 10
497.7335
 20
506.939
 30
0.0
 11
498.0135
 21
511.774
 31
0.0
  0
LINE
  5
1FC
330
1D
100
AcDbEntity
  8
0
100
AcDbLine
 10
497.7335
 20
506.939
 30
0.0
 11
497.7465
 21
506.013
 31
0.0
  0
LINE
  5
1FD
330
1D
100
AcDbEntity
  8
0
100
AcDbLine
 10
498.0135
 20
511.774
 30
0.0
 11
498.1035
 21
512.517
 31
0.0
  0
LINE
  5
1FF
330
1D
100
AcDbEntity
  8
0
100
AcDbLine
 10
498.8975
 20
497.092
 30
0.0
 11
499.5625
 21
494.649
 31
0.0
  0
LINE
  5
201
330
1D
100
AcDbEntity
  8
0
100
AcDbLine
 10
498.1035
 20
512.517
 30
0.0
 11
499.0625
 21
517.445
 31
0.0
  0
LINE
  5
270
330
1D
100
AcDbEntity
  8
0
100
AcDbLine
 10
506.8635
 20
193.476
 30
0.0
 11
507.0705
 21
193.763
 31
0.0
  0
LINE
  5
274
330
1D
100
AcDbEntity
  8
0
100
AcDbLine
 10
506.7845
 20
193.423
 30
0.0
 11
506.8635
 21
193.476
 31
0.0
  0
LINE
  5
279
330
1D
100
AcDbEntity
  8
0
100
AcDbLine
 10
507.6105
 20
193.711
 30
0.0
 11
507.7775
 21
193.491
 31
0.0
  0
LINE
  5
27A
330
1D
100
AcDbEntity
  8
0
100
AcDbLine
 10
507.7775
 20
193.491
 30
0.0
 11
507.8995
 21
193.425
 31
0.0
  0
LINE
  5
27D
330
1D
100
AcDbEntity
  8
0
100
AcDbLine
 10
507.8995
 20
193.425
 30
0.0
 11
518.5875
 21
193.314
 31
0.0
  0
LINE
  5
284
330
1D
100
AcDbEntity
  8
0
100
AcDbLine
 10
513.1035
 20
108.33
 30
0.0
 11
515.3655
 21
108.11
 31
0.0
  0
LINE
  5
285
330
1D
100
AcDbEntity
  8
0
100
AcDbLine
 10
513.0795
 20
135.342
 30
0.0
 11
515.3775
 21
135.582
 31
0.0
  0
LINE
  5
28B
330
1D
100
AcDbEntity
  8
0
100
AcDbLine
 10
506.7585
 20
220.256
 30
0.0
 11
507.0555
 21
219.919
 31
0.0
  0
LINE
  5
2D4
330
1D
100
AcDbEntity
  8
0
100
AcDbLine
 10
507.6615
 20
220.105
 30
0.0
 11
508.0905
 21
220.289
 31
0.0
  0
LINE
  5
2DA
330
1D
100
AcDbEntity
  8
0
100
AcDbLine
 10
508.0905
 20
220.264
 30
0.0
 11
518.6235
 21
220.331
 31
0.0
  0
LINE
  5
2E2
330
1D
100
AcDbEntity
  8
0
100
AcDbLine
 10
507.0245
 20
480.501
 30
0.0
 11
507.8065
 21
479.559
 31
0.0
  0
LINE
  5
2E3
330
1D
100
AcDbEntity
  8
0
100
AcDbLine
 10
507.8065
 20
479.559
 30
0.0
 11
510.1275
 21
477.04
 31
0.0
  0
LINE
  5
2E4
330
1D
100
AcDbEntity
  8
0
100
AcDbLine
 10
510.1275
 20
477.04
 30
0.0
 11
511.8355
 21
475.43
 31
0.0
  0
LINE
  5
2E5
330
1D
100
AcDbEntity
  8
0
100
AcDbLine
 10
511.8355
 20
475.43
 30
0.0
 11
513.5905
 21
473.943
 31
0.0
  0
LINE
  5
2E6
330
1D
100
AcDbEntity
  8
0
100
AcDbLine
 10
513.5905
 20
473.943
 30
0.0
 11
516.3875
 21
471.89
 31
0.0
  0
LINE
  5
2E7
330
1D
100
AcDbEntity
  8
0
100
AcDbLine
 10
504.3775
 20
484.196
 30
0.0
 11
507.0245
 21
480.501
 31
0.0
  0
LINE
  5
2E8
330
1D
100
AcDbEntity
  8
0
100
AcDbLine
 10
504.3205
 20
484.283
 30
0.0
 11
504.3775
 21
484.196
 31
0.0
  0
LINE
  5
2E9
330
1D
100
AcDbEntity
  8
0
100
AcDbLine
 10
500.2305
 20
492.63
 30
0.0
 11
501.6125
 21
489.257
 31
0.0
  0
LINE
  5
2EA
330
1D
100
AcDbEntity
  8
0
100
AcDbLine
 10
501.6125
 20
489.257
 30
0.0
 11
502.0455
 21
488.344
 31
0.0
  0
LINE
  5
2EB
330
1D
100
AcDbEntity
  8
0
100
AcDbLine
 10
502.0455
 20
488.344
 30
0.0
 11
504.3205
 21
484.283
 31
0.0
  0
LINE
  5
2EC
330
1D
100
AcDbEntity
  8
0
100
AcDbLine
 10
499.5625
 20
494.649
 30
0.0
 11
500.2305
 21
492.63
 31
0.0
  0
LINE
  5
2ED
330
1D
100
AcDbEntity
  8
0
100
AcDbLine
 10
499.0625
 20
517.445
 30
0.0
 11
499.2055
 21
517.996
 31
0.0
  0
LINE
  5
2EE
330
1D
100
AcDbEntity
  8
0
100
AcDbLine
 10
499.2055
 20
517.996
 30
0.0
 11
500.8745
 21
522.922
 31
0.0
  0
LINE
  5
2F0
330
1D
100
AcDbEntity
  8
0
100
AcDbLine
 10
501.0215
 20
523.281
 30
0.0
 11
503.4155
 21
528.099
 31
0.0
  0
LINE
  5
2F1
330
1D
100
AcDbEntity
  8
0
100
AcDbLine
 10
500.8745
 20
522.922
 30
0.0
 11
501.0215
 21
523.281
 31
0.0
  0
LINE
  5
2F5
330
1D
100
AcDbEntity
  8
0
100
AcDbLine
 10
503.5175
 20
528.279
 30
0.0
 11
506.6365
 21
532.883
 31
0.0
  0
LINE
  5
2F6
330
1D
100
AcDbEntity
  8
0
100
AcDbLine
 10
503.4155
 20
528.099
 30
0.0
 11
503.5175
 21
528.279
 31
0.0
  0
LINE
  5
304
330
1D
100
AcDbEntity
  8
0
100
AcDbLine
 10
510.4915
 20
537.198
 30
0.0
 11
514.8805
 21
540.928
 31
0.0
  0
LINE
  5
305
330
1D
100
AcDbEntity
  8
0
100
AcDbLine
 10
506.6495
 20
532.902
 30
0.0
 11
510.4915
 21
537.198
 31
0.0
  0
LINE
  5
307
330
1D
100
AcDbEntity
  8
0
100
AcDbLine
 10
278.2055
 20
1085.92
 30
0.0
 11
278.3475
 21
1085.92
 31
0.0
  0
LINE
  5
308
330
1D
100
AcDbEntity
  8
0
100
AcDbLine
 10
277.2325
 20
1085.92
 30
0.0
 11
278.3475
 21
1085.92
 31
0.0
  0
LINE
  5
309
330
1D
100
AcDbEntity
  8
0
100
AcDbLine
 10
278.3475
 20
1085.92
 30
0.0
 11
278.5785
 21
1086.04
 31
0.0
  0
LINE
  5
30A
330
1D
100
AcDbEntity
  8
0
100
AcDbLine
 10
274.8685
 20
1085.92
 30
0.0
 11
277.2325
 21
1085.92
 31
0.0
  0
LINE
  5
30B
330
1D
100
AcDbEntity
  8
0
100
AcDbLine
 10
271.2765
 20
1085.92
 30
0.0
 11
274.8685
 21
1085.92
 31
0.0
  0
LINE
  5
313
330
1D
100
AcDbEntity
  8
0
100
AcDbLine
 10
278.6085
 20
1086.746
 30
0.0
 11
278.7285
 21
1086.517
 31
0.0
  0
LINE
  5
314
330
1D
100
AcDbEntity
  8
0
100
AcDbLine
 10
278.7155
 20
1086.258
 30
0.0
 11
278.7285
 21
1086.517
 31
0.0
  0
LINE
  5
315
330
1D
100
AcDbEntity
  8
0
100
AcDbLine
 10
278.5785
 20
1086.04
 30
0.0
 11
278.7155
 21
1086.258
 31
0.0
  0
LINE
  5
318
330
1D
100
AcDbEntity
  8
0
100
AcDbLine
 10
504.4095
 20
1306.642
 30
0.0
 11
511.9495
 21
1305.452
 31
0.0
  0
LINE
  5
319
330
1D
100
AcDbEntity
  8
0
100
AcDbLine
 10
511.9495
 20
1305.452
 30
0.0
 11
518.7515
 21
1301.982
 31
0.0
  0
LINE
  5
31A
330
1D
100
AcDbEntity
  8
0
100
AcDbLine
 10
174.4095
 20
1306.642
 30
0.0
 11
504.4095
 21
1306.642
 31
0.0
  0
LINE
  5
31B
330
1D
100
AcDbEntity
  8
0
100
AcDbLine
 10
174.4095
 20
1327.842
 30
0.0
 11
504.4095
 21
1327.842
 31
0.0
  0
LINE
  5
31C
330
1D
100
AcDbEntity
  8
0
100
AcDbLine
 10
523.2215
 20
102.946
 30
0.0
 11
523.4615
 21
102.74
 31
0.0
  0
LINE
  5
31D
330
1D
100
AcDbEntity
  8
0
100
AcDbLine
 10
523.4615
 20
102.74
 30
0.0
 11
525.0065
 21
101.536
 31
0.0
  0
LINE
  5
321
330
1D
100
AcDbEntity
  8
0
100
AcDbLine
 10
522.171967883672
 20
103.956042566641
 30
0.0
 11
523.2215
 21
102.946
 31
0.0
  0
LINE
  5
322
330
1D
100
AcDbEntity
  8
0
100
AcDbLine
 10
521.3345
 20
104.762
 30
0.0
 11
521.483168204193
 21
104.618925565016
 31
0.0
  0
LINE
  5
323
330
1D
100
AcDbEntity
  8
0
100
AcDbLine
 10
515.3655
 20
108.11
 30
0.0
 11
517.5465
 21
107.444
 31
0.0
  0
LINE
  5
328
330
1D
100
AcDbEntity
  8
0
100
AcDbLine
 10
517.5465
 20
107.444
 30
0.0
 11
519.6675
 21
106.195
 31
0.0
  0
LINE
  5
32C
330
1D
100
AcDbEntity
  8
0
100
AcDbLine
 10
516.6545
 20
111.816
 30
0.0
 11
517.9065
 21
109.468
 31
0.0
  0
LINE
  5
32E
330
1D
100
AcDbEntity
  8
0
100
AcDbLine
 10
516.2435
 20
113.018
 30
0.0
 11
516.6545
 21
111.816
 31
0.0
  0
LINE
  5
332
330
1D
100
AcDbEntity
  8
0
100
AcDbLine
 10
514.6095
 20
121.61
 30
0.0
 11
514.8995
 21
125.456
 31
0.0
  0
LINE
  5
333
330
1D
100
AcDbEntity
  8
0
100
AcDbLine
 10
514.6095
 20
121.61
 30
0.0
 11
514.9505
 21
117.898
 31
0.0
  0
LINE
  5
339
330
1D
100
AcDbEntity
  8
0
100
AcDbLine
 10
514.9505
 20
117.898
 30
0.0
 11
515.4765
 21
115.425
 31
0.0
  0
LINE
  5
33A
330
1D
100
AcDbEntity
  8
0
100
AcDbLine
 10
514.8995
 20
125.456
 30
0.0
 11
515.0575
 21
126.484
 31
0.0
  0
LINE
  5
33C
330
1D
100
AcDbEntity
  8
0
100
AcDbLine
 10
515.0575
 20
126.484
 30
0.0
 11
515.6485
 21
129.177
 31
0.0
  0
LINE
  5
340
330
1D
100
AcDbEntity
  8
0
100
AcDbLine
 10
516.1055
 20
130.361
 30
0.0
 11
517.1135
 21
132.681
 31
0.0
  0
LINE
  5
341
330
1D
100
AcDbEntity
  8
0
100
AcDbLine
 10
515.6485
 20
129.177
 30
0.0
 11
516.1055
 21
130.361
 31
0.0
  0
LINE
  5
342
330
1D
100
AcDbEntity
  8
0
100
AcDbLine
 10
515.3775
 20
135.582
 30
0.0
 11
517.5605
 21
136.256
 31
0.0
  0
LINE
  5
344
330
1D
100
AcDbEntity
  8
0
100
AcDbLine
 10
517.1135
 20
132.681
 30
0.0
 11
518.8055
 21
135.667
 31
0.0
  0
LINE
  5
347
330
1D
100
AcDbEntity
  8
0
100
AcDbLine
 10
517.5605
 20
136.256
 30
0.0
 11
519.5855
 21
137.393
 31
0.0
  0
LINE
  5
350
330
1D
100
AcDbEntity
  8
0
100
AcDbLine
 10
517.9065
 20
109.468
 30
0.0
 11
519.1395
 21
107.407
 31
0.0
  0
LINE
  5
353
330
1D
100
AcDbEntity
  8
0
100
AcDbLine
 10
518.8055
 20
135.667
 30
0.0
 11
520.6265
 21
138.125
 31
0.0
  0
LINE
  5
355
330
1D
100
AcDbEntity
  8
0
100
AcDbLine
 10
519.6675
 20
106.195
 30
0.0
 11
521.2475
 21
104.856
 31
0.0
  0
LINE
  5
35E
330
1D
100
AcDbEntity
  8
0
100
AcDbLine
 10
519.5855
 20
137.393
 30
0.0
 11
521.2775
 21
138.861
 31
0.0
  0
LINE
  5
362
330
1D
100
AcDbEntity
  8
0
100
AcDbLine
 10
519.1395
 20
107.407
 30
0.0
 11
521.5865
 21
104.496
 31
0.0
  0
LINE
  5
364
330
1D
100
AcDbEntity
  8
0
100
AcDbLine
 10
520.6265
 20
138.125
 30
0.0
 11
523.2095
 21
140.666
 31
0.0
  0
LINE
  5
366
330
1D
100
AcDbEntity
  8
0
100
AcDbLine
 10
521.2775
 20
138.861
 30
0.0
 11
521.3355
 21
138.923
 31
0.0
  0
LINE
  5
367
330
1D
100
AcDbEntity
  8
0
100
AcDbLine
 10
521.5475
 20
192.404
 30
0.0
 11
522.6265
 21
191.272
 31
0.0
  0
LINE
  5
368
330
1D
100
AcDbEntity
  8
0
100
AcDbLine
 10
520.1165
 20
220.602
 30
0.0
 11
521.5525
 21
221.273
 31
0.0
  0
LINE
  5
369
330
1D
100
AcDbEntity
  8
0
100
AcDbLine
 10
518.6235
 20
220.331
 30
0.0
 11
520.1165
 21
220.602
 31
0.0
  0
LINE
  5
36A
330
1D
100
AcDbEntity
  8
0
100
AcDbLine
 10
520.1615
 20
193.113
 30
0.0
 11
521.5475
 21
192.404
 31
0.0
  0
LINE
  5
36B
330
1D
100
AcDbEntity
  8
0
100
AcDbLine
 10
518.5875
 20
193.314
 30
0.0
 11
520.1615
 21
193.113
 31
0.0
  0
LINE
  5
36C
330
1D
100
AcDbEntity
  8
0
100
AcDbLine
 10
521.5525
 20
221.273
 30
0.0
 11
522.6565
 21
222.377
 31
0.0
  0
LINE
  5
36E
330
1D
100
AcDbEntity
  8
0
100
AcDbLine
 10
523.2095
 20
140.666
 30
0.0
 11
524.2935
 21
141.574
 31
0.0
  0
LINE
  5
36F
330
1D
100
AcDbEntity
  8
0
100
AcDbLine
 10
524.1385
 20
180.957
 30
0.0
 11
524.2395
 21
180.958
 31
0.0
  0
LINE
  5
370
330
1D
100
AcDbEntity
  8
0
100
AcDbLine
 10
524.1385
 20
180.957
 30
0.0
 11
524.245502389672
 21
180.956748820682
 31
0.0
  0
LINE
  5
371
330
1D
100
AcDbEntity
  8
0
100
AcDbLine
 10
524.1385
 20
180.957
 30
0.0
 11
525.5835
 21
180.649
 31
0.0
  0
LINE
  5
373
330
1D
100
AcDbEntity
  8
0
100
AcDbLine
 10
523.6745
 20
181.458
 30
0.0
 11
524.1385
 21
180.957
 31
0.0
  0
LINE
  5
375
330
1D
100
AcDbEntity
  8
0
100
AcDbLine
 10
524.2395
 20
180.958
 30
0.0
 11
524.8675
 21
180.959
 31
0.0
  0
LINE
  5
376
330
1D
100
AcDbEntity
  8
0
100
AcDbLine
 10
523.3365
 20
189.879
 30
0.0
 11
523.5655
 21
188.337
 31
0.0
  0
LINE
  5
377
330
1D
100
AcDbEntity
  8
0
100
AcDbLine
 10
523.5655
 20
188.337
 30
0.0
 11
523.6745
 21
181.458
 31
0.0
  0
LINE
  5
379
330
1D
100
AcDbEntity
  8
0
100
AcDbLine
 10
522.6565
 20
222.377
 30
0.0
 11
523.3675
 21
223.765
 31
0.0
  0
LINE
  5
37A
330
1D
100
AcDbEntity
  8
0
100
AcDbLine
 10
523.63919241697
 20
226.233180623878
 30
0.0
 11
523.6735
 21
232.225
 31
0.0
  0
LINE
  5
37C
330
1D
100
AcDbEntity
  8
0
100
AcDbLine
 10
523.63919241697
 20
226.233180623878
 30
0.0
 11
523.6735
 21
232.225
 31
0.0
  0
LINE
  5
37D
330
1D
100
AcDbEntity
  8
0
100
AcDbLine
 10
524.1135
 20
232.708
 30
0.0
 11
524.3025
 21
232.807
 31
0.0
  0
LINE
  5
381
330
1D
100
AcDbEntity
  8
0
100
AcDbLine
 10
523.6735
 20
232.225
 30
0.0
 11
524.1135
 21
232.708
 31
0.0
  0
LINE
  5
384
330
1D
100
AcDbEntity
  8
0
100
AcDbLine
 10
523.3675
 20
223.765
 30
0.0
 11
523.6165
 21
225.304
 31
0.0
  0
LINE
  5
385
330
1D
100
AcDbEntity
  8
0
100
AcDbLine
 10
522.6265
 20
191.272
 30
0.0
 11
523.3365
 21
189.879
 31
0.0
  0
LINE
  5
386
330
1D
100
AcDbEntity
  8
0
100
AcDbLine
 10
524.2935
 20
141.574
 30
0.0
 11
525.1715
 21
142.265
 31
0.0
  0
LINE
  5
388
330
1D
100
AcDbEntity
  8
0
100
AcDbLine
 10
522.0585
 20
139.664
 30
0.0
 11
522.838370673803
 21
140.300905296994
 31
0.0
  0
LINE
  5
389
330
1D
100
AcDbEntity
  8
0
100
AcDbLine
 10
521.3355
 20
138.923
 30
0.0
 11
522.0585
 21
139.664
 31
0.0
  0
LINE
  5
38A
330
1D
100
AcDbEntity
  8
0
100
AcDbLine
 10
521.2475
 20
104.856
 30
0.0
 11
521.3345
 21
104.762
 31
0.0
  0
LINE
  5
38B
330
1D
100
AcDbEntity
  8
0
100
AcDbLine
 10
525.6825
 20
101.125
 30
0.0
 11
527.6045
 21
99.902
 31
0.0
  0
LINE
  5
38D
330
1D
100
AcDbEntity
  8
0
100
AcDbLine
 10
525.0065
 20
101.536
 30
0.0
 11
526.082226243361
 21
100.600421189753
 31
0.0
  0
LINE
  5
38E
330
1D
100
AcDbEntity
  8
0
100
AcDbLine
 10
525.0065
 20
101.536
 30
0.0
 11
526.082226243361
 21
100.600421189753
 31
0.0
  0
LINE
  5
390
330
1D
100
AcDbEntity
  8
0
100
AcDbLine
 10
524.4285
 20
101.993
 30
0.0
 11
525.6825
 21
101.125
 31
0.0
  0
LINE
  5
394
330
1D
100
AcDbEntity
  8
0
100
AcDbLine
 10
525.1715
 20
142.265
 30
0.0
 11
527.3345
 21
143.579
 31
0.0
  0
LINE
  5
395
330
1D
100
AcDbEntity
  8
0
100
AcDbLine
 10
525.5835
 20
180.649
 30
0.0
 11
526.3615
 21
180.11
 31
0.0
  0
LINE
  5
39C
330
1D
100
AcDbEntity
  8
0
100
AcDbLine
 10
526.8495
 20
99.88
 30
0.0
 11
527.9835
 21
98.052
 31
0.0
  0
LINE
  5
39F
330
1D
100
AcDbEntity
  8
0
100
AcDbLine
 10
526.3615
 20
180.11
 30
0.0
 11
526.9035
 21
179.299
 31
0.0
  0
LINE
  5
3A2
330
1D
100
AcDbEntity
  8
0
100
AcDbLine
 10
525.9055
 20
283.542
 30
0.0
 11
526.8795
 21
283.542
 31
0.0
  0
LINE
  5
3A3
330
1D
100
AcDbEntity
  8
0
100
AcDbLine
 10
525.9055
 20
283.542
 30
0.0
 11
528.4015
 21
283.542
 31
0.0
  0
LINE
  5
3A4
330
1D
100
AcDbEntity
  8
0
100
AcDbLine
 10
524.3695
 20
283.542
 30
0.0
 11
525.9055
 21
283.542
 31
0.0
  0
LINE
  5
3A5
330
1D
100
AcDbEntity
  8
0
100
AcDbLine
 10
523.7935
 20
283.542
 30
0.0
 11
524.3695
 21
283.542
 31
0.0
  0
LINE
  5
3A6
330
1D
100
AcDbEntity
  8
0
100
AcDbLine
 10
523.4095
 20
335.927
 30
0.0
 11
523.4095
 21
284.157
 31
0.0
  0
LINE
  5
3A7
330
1D
100
AcDbEntity
  8
0
100
AcDbLine
 10
523.4095
 20
335.927
 30
0.0
 11
523.7935
 21
336.542
 31
0.0
  0
LINE
  5
3A8
330
1D
100
AcDbEntity
  8
0
100
AcDbLine
 10
524.3695
 20
336.542
 30
0.0
 11
525.9055
 21
336.542
 31
0.0
  0
LINE
  5
3A9
330
1D
100
AcDbEntity
  8
0
100
AcDbLine
 10
523.7935
 20
336.542
 30
0.0
 11
524.3695
 21
336.542
 31
0.0
  0
LINE
  5
3AA
330
1D
100
AcDbEntity
  8
0
100
AcDbLine
 10
525.9055
 20
336.542
 30
0.0
 11
528.4015
 21
336.542
 31
0.0
  0
LINE
  5
3AD
330
1D
100
AcDbEntity
  8
0
100
AcDbLine
 10
523.4095
 20
284.157
 30
0.0
 11
523.4095
 21
335.927
 31
0.0
  0
LINE
  5
3AE
330
1D
100
AcDbEntity
  8
0
100
AcDbLine
 10
523.4095
 20
284.157
 30
0.0
 11
523.7935
 21
283.542
 31
0.0
  0
LINE
  5
3AF
330
1D
100
AcDbEntity
  8
0
100
AcDbLine
 10
526.8795
 20
283.542
 30
0.0
 11
526.8795
 21
232.795700049212
 31
0.0
  0
LINE
  5
3B0
330
1D
100
AcDbEntity
  8
0
100
AcDbLine
 10
526.8795
 20
232.795700049213
 30
0.0
 11
526.8795
 21
283.542
 31
0.0
  0
LINE
  5
3B1
330
1D
100
AcDbEntity
  8
0
100
AcDbLine
 10
516.3875
 20
471.89
 30
0.0
 11
517.3715
 21
471.243
 31
0.0
  0
LINE
  5
3B2
330
1D
100
AcDbEntity
  8
0
100
AcDbLine
 10
517.3715
 20
471.243
 30
0.0
 11
521.4175
 21
468.98
 31
0.0
  0
LINE
  5
3B7
330
1D
100
AcDbEntity
  8
0
100
AcDbLine
 10
514.8805
 20
540.928
 30
0.0
 11
519.7335
 21
544.027
 31
0.0
  0
LINE
  5
3B8
330
1D
100
AcDbEntity
  8
0
100
AcDbLine
 10
519.7335
 20
544.027
 30
0.0
 11
524.3935
 21
546.216
 31
0.0
  0
LINE
  5
3B9
330
1D
100
AcDbEntity
  8
0
100
AcDbLine
 10
521.4175
 20
468.98
 30
0.0
 11
525.6855
 21
467.174
 31
0.0
  0
LINE
  5
3BA
330
1D
100
AcDbEntity
  8
0
100
AcDbLine
 10
523.3885
 20
709.388
 30
0.0
 11
523.3885
 21
757.388
 31
0.0
  0
LINE
  5
3BB
330
1D
100
AcDbEntity
  8
0
100
AcDbLine
 10
523.3885
 20
709.388
 30
0.0
 11
523.7725
 21
707.388
 31
0.0
  0
LINE
  5
3BC
330
1D
100
AcDbEntity
  8
0
100
AcDbLine
 10
525.6855
 20
467.174
 30
0.0
 11
526.7195
 21
466.819
 31
0.0
  0
LINE
  5
3BD
330
1D
100
AcDbEntity
  8
0
100
AcDbLine
 10
524.9725
 20
546.438
 30
0.0
 11
526.8795
 21
547.049478886311
 31
0.0
  0
LINE
  5
3BE
330
1D
100
AcDbEntity
  8
0
100
AcDbLine
 10
524.3935
 20
546.216
 30
0.0
 11
524.9725
 21
546.438
 31
0.0
  0
LINE
  5
3BF
330
1D
100
AcDbEntity
  8
0
100
AcDbLine
 10
523.7725
 20
707.388
 30
0.0
 11
524.3485
 21
707.388
 31
0.0
  0
LINE
  5
3C0
330
1D
100
AcDbEntity
  8
0
100
AcDbLine
 10
524.3485
 20
707.388
 30
0.0
 11
525.8845
 21
707.388
 31
0.0
  0
LINE
  5
3C1
330
1D
100
AcDbEntity
  8
0
100
AcDbLine
 10
525.8845
 20
707.388
 30
0.0
 11
528.3805
 21
707.388
 31
0.0
  0
LINE
  5
3C2
330
1D
100
AcDbEntity
  8
0
100
AcDbLine
 10
525.8845
 20
707.388
 30
0.0
 11
526.8795
 21
707.388
 31
0.0
  0
LINE
  5
3C3
330
1D
100
AcDbEntity
  8
0
100
AcDbLine
 10
523.7725
 20
759.388
 30
0.0
 11
524.3485
 21
759.388
 31
0.0
  0
LINE
  5
3C4
330
1D
100
AcDbEntity
  8
0
100
AcDbLine
 10
523.3885
 20
757.388
 30
0.0
 11
523.7725
 21
759.388
 31
0.0
  0
LINE
  5
3C5
330
1D
100
AcDbEntity
  8
0
100
AcDbLine
 10
523.3885
 20
757.388
 30
0.0
 11
523.3885
 21
709.388
 31
0.0
  0
LINE
  5
3C6
330
1D
100
AcDbEntity
  8
0
100
AcDbLine
 10
524.8695
 20
895.542
 30
0.0
 11
526.4055
 21
895.542
 31
0.0
  0
LINE
  5
3C7
330
1D
100
AcDbEntity
  8
0
100
AcDbLine
 10
524.2935
 20
895.542
 30
0.0
 11
524.8695
 21
895.542
 31
0.0
  0
LINE
  5
3C8
330
1D
100
AcDbEntity
  8
0
100
AcDbLine
 10
524.3485
 20
759.388
 30
0.0
 11
525.8845
 21
759.388
 31
0.0
  0
LINE
  5
3C9
330
1D
100
AcDbEntity
  8
0
100
AcDbLine
 10
526.7195
 20
466.819
 30
0.0
 11
526.8795
 21
466.773325991189
 31
0.0
  0
LINE
  5
3CD
330
1D
100
AcDbEntity
  8
0
100
AcDbLine
 10
526.4055
 20
895.542
 30
0.0
 11
528.9015
 21
895.542
 31
0.0
  0
LINE
  5
3CE
330
1D
100
AcDbEntity
  8
0
100
AcDbLine
 10
526.4055
 20
895.542
 30
0.0
 11
528.8095
 21
895.542
 31
0.0
  0
LINE
  5
3CF
330
1D
100
AcDbEntity
  8
0
100
AcDbLine
 10
525.8845
 20
759.388
 30
0.0
 11
528.3805
 21
759.388
 31
0.0
  0
LINE
  5
3D0
330
1D
100
AcDbEntity
  8
0
100
AcDbLine
 10
526.8795
 20
336.542
 30
0.0
 11
526.8795
 21
707.388
 31
0.0
  0
LINE
  5
3D3
330
1D
100
AcDbEntity
  8
0
100
AcDbLine
 10
526.9035
 20
179.299
 30
0.0
 11
527.0935
 21
178.332
 31
0.0
  0
LINE
  5
3D4
330
1D
100
AcDbEntity
  8
0
100
AcDbLine
 10
527.0915
 20
145.455
 30
0.0
 11
527.0935
 21
178.332
 31
0.0
  0
LINE
  5
3D5
330
1D
100
AcDbEntity
  8
0
100
AcDbLine
 10
527.091302446312
 20
143.431260015929
 30
0.0
 11
527.0915
 21
145.455
 31
0.0
  0
LINE
  5
3D8
330
1D
100
AcDbEntity
  8
0
100
AcDbLine
 10
527.9835
 20
98.052
 30
0.0
 11
528.7745
 21
95.865
 31
0.0
  0
LINE
  5
3DA
330
1D
100
AcDbEntity
  8
0
100
AcDbLine
 10
527.6045
 20
99.902
 30
0.0
 11
529.8865
 21
98.802
 31
0.0
  0
LINE
  5
3DF
330
1D
100
AcDbEntity
  8
0
100
AcDbLine
 10
527.3345
 20
143.579
 30
0.0
 11
529.8455
 21
144.739
 31
0.0
  0
LINE
  5
3E2
330
1D
100
AcDbEntity
  8
0
100
AcDbLine
 10
528.7745
 20
95.865
 30
0.0
 11
529.1345
 21
93.602
 31
0.0
  0
LINE
  5
3E5
330
1D
100
AcDbEntity
  8
0
100
AcDbLine
 10
528.4015
 20
336.542
 30
0.0
 11
531.6655
 21
336.542
 31
0.0
  0
LINE
  5
3E6
330
1D
100
AcDbEntity
  8
0
100
AcDbLine
 10
528.4015
 20
283.542
 30
0.0
 11
531.6655
 21
283.542
 31
0.0
  0
LINE
  5
3E7
330
1D
100
AcDbEntity
  8
0
100
AcDbLine
 10
528.3805
 20
707.388
 30
0.0
 11
531.6445
 21
707.388
 31
0.0
  0
LINE
  5
3E8
330
1D
100
AcDbEntity
  8
0
100
AcDbLine
 10
528.3805
 20
759.388
 30
0.0
 11
531.6445
 21
759.388
 31
0.0
  0
LINE
  5
3E9
330
1D
100
AcDbEntity
  8
0
100
AcDbLine
 10
523.9095
 20
946.742
 30
0.0
 11
523.9095
 21
896.342
 31
0.0
  0
LINE
  5
3EA
330
1D
100
AcDbEntity
  8
0
100
AcDbLine
 10
523.9095
 20
946.742
 30
0.0
 11
524.2935
 21
947.542
 31
0.0
  0
LINE
  5
3EB
330
1D
100
AcDbEntity
  8
0
100
AcDbLine
 10
526.4055
 20
947.542
 30
0.0
 11
528.9015
 21
947.542
 31
0.0
  0
LINE
  5
3EC
330
1D
100
AcDbEntity
  8
0
100
AcDbLine
 10
524.8695
 20
947.542
 30
0.0
 11
526.4055
 21
947.542
 31
0.0
  0
LINE
  5
3ED
330
1D
100
AcDbEntity
  8
0
100
AcDbLine
 10
524.2935
 20
947.542
 30
0.0
 11
524.8695
 21
947.542
 31
0.0
  0
LINE
  5
3EE
330
1D
100
AcDbEntity
  8
0
100
AcDbLine
 10
523.9095
 20
896.342
 30
0.0
 11
523.9095
 21
946.742
 31
0.0
  0
LINE
  5
3EF
330
1D
100
AcDbEntity
  8
0
100
AcDbLine
 10
523.9095
 20
896.342
 30
0.0
 11
524.2935
 21
895.542
 31
0.0
  0
LINE
  5
3F0
330
1D
100
AcDbEntity
  8
0
100
AcDbLine
 10
524.1495
 20
1296.582
 30
0.0
 11
527.6155
 21
1289.782
 31
0.0
  0
LINE
  5
3F1
330
1D
100
AcDbEntity
  8
0
100
AcDbLine
 10
527.6155
 20
1289.782
 30
0.0
 11
528.8095
 21
1282.242
 31
0.0
  0
LINE
  5
3F2
330
1D
100
AcDbEntity
  8
0
100
AcDbLine
 10
528.8095
 20
895.542
 30
0.0
 11
528.8095
 21
759.388
 31
0.0
  0
LINE
  5
3F3
330
1D
100
AcDbEntity
  8
0
100
AcDbLine
 10
530.6145
 20
90.1576
 30
0.0
 11
531.7145
 21
90.1576
 31
0.0
  0
LINE
  5
3F4
330
1D
100
AcDbEntity
  8
0
100
AcDbLine
 10
529.1345
 20
93.602
 30
0.0
 11
529.1495
 21
90.669
 31
0.0
  0
LINE
  5
3F5
330
1D
100
AcDbEntity
  8
0
100
AcDbLine
 10
529.1495
 20
90.669
 30
0.0
 11
529.5095
 21
90.361
 31
0.0
  0
LINE
  5
3F6
330
1D
100
AcDbEntity
  8
0
100
AcDbLine
 10
529.1495
 20
90.669
 30
0.0
 11
529.3075
 21
90.545
 31
0.0
  0
LINE
  5
3F9
330
1D
100
AcDbEntity
  8
0
100
AcDbLine
 10
529.5095
 20
90.361
 30
0.0
 11
530.840691243159
 21
90.345521032056
 31
0.0
  0
LINE
  5
3FA
330
1D
100
AcDbEntity
  8
0
100
AcDbLine
 10
530.2145
 20
90.1576
 30
0.0
 11
531.2145
 21
60.1576
 31
0.0
  0
LINE
  5
3FB
330
1D
100
AcDbEntity
  8
0
100
AcDbLine
 10
530.2145
 20
90.1576
 30
0.0
 11
530.6145
 21
90.1576
 31
0.0
  0
LINE
  5
3FC
330
1D
100
AcDbEntity
  8
0
100
AcDbLine
 10
530.8435
 20
90.342
 30
0.0
 11
531.2755
 21
90.342
 31
0.0
  0
LINE
  5
3FE
330
1D
100
AcDbEntity
  8
0
100
AcDbLine
 10
531.2755
 20
90.342
 30
0.0
 11
532.4105
 21
90.342
 31
0.0
  0
LINE
  5
3FF
330
1D
100
AcDbEntity
  8
0
100
AcDbLine
 10
531.2145
 20
60.1576
 30
0.0
 11
531.6145
 21
60.1576
 31
0.0
  0
LINE
  5
400
330
1D
100
AcDbEntity
  8
0
100
AcDbLine
 10
530.828509593664
 20
90.362132372276
 30
0.0
 11
530.9785
 21
90.1576
 31
0.0
  0
LINE
  5
405
330
1D
100
AcDbEntity
  8
0
100
AcDbLine
 10
529.8865
 20
98.802
 30
0.0
 11
531.4425
 21
98.207
 31
0.0
  0
LINE
  5
406
330
1D
100
AcDbEntity
  8
0
100
AcDbLine
 10
529.8455
 20
144.739
 30
0.0
 11
531.9465
 21
145.645
 31
0.0
  0
LINE
  5
40C
330
1D
100
AcDbEntity
  8
0
100
AcDbLine
 10
531.4425
 20
98.207
 30
0.0
 11
531.5265
 21
98.178
 31
0.0
  0
LINE
  5
40F
330
1D
100
AcDbEntity
  8
0
100
AcDbLine
 10
531.5265
 20
98.178
 30
0.0
 11
532.0015
 21
98.022
 31
0.0
  0
LINE
  5
410
330
1D
100
AcDbEntity
  8
0
100
AcDbLine
 10
531.6145
 20
60.1576
 30
0.0
 11
532.6145
 21
60.1576
 31
0.0
  0
LINE
  5
411
330
1D
100
AcDbEntity
  8
0
100
AcDbLine
 10
528.9015
 20
947.542
 30
0.0
 11
532.1655
 21
947.542
 31
0.0
  0
LINE
  5
412
330
1D
100
AcDbEntity
  8
0
100
AcDbLine
 10
528.9015
 20
895.542
 30
0.0
 11
532.1655
 21
895.542
 31
0.0
  0
LINE
  5
413
330
1D
100
AcDbEntity
  8
0
100
AcDbLine
 10
531.6445
 20
707.388
 30
0.0
 11
535.3565
 21
707.388
 31
0.0
  0
LINE
  5
414
330
1D
100
AcDbEntity
  8
0
100
AcDbLine
 10
531.6655
 20
336.542
 30
0.0
 11
535.3775
 21
336.542
 31
0.0
  0
LINE
  5
415
330
1D
100
AcDbEntity
  8
0
100
AcDbLine
 10
531.6655
 20
283.542
 30
0.0
 11
535.3775
 21
283.542
 31
0.0
  0
LINE
  5
416
330
1D
100
AcDbEntity
  8
0
100
AcDbLine
 10
532.0015
 20
98.022
 30
0.0
 11
532.2985
 21
97.929
 31
0.0
  0
LINE
  5
418
330
1D
100
AcDbEntity
  8
0
100
AcDbLine
 10
532.2985
 20
97.929
 30
0.0
 11
533.7355
 21
97.534
 31
0.0
  0
LINE
  5
419
330
1D
100
AcDbEntity
  8
0
100
AcDbLine
 10
531.9465
 20
145.645
 30
0.0
 11
533.1805
 21
146.023
 31
0.0
  0
LINE
  5
41E
330
1D
100
AcDbEntity
  8
0
100
AcDbLine
 10
532.4105
 20
90.342
 30
0.0
 11
534.1705
 21
90.342
 31
0.0
  0
LINE
  5
41F
330
1D
100
AcDbEntity
  8
0
100
AcDbLine
 10
532.1655
 20
947.542
 30
0.0
 11
535.8775
 21
947.542
 31
0.0
  0
LINE
  5
420
330
1D
100
AcDbEntity
  8
0
100
AcDbLine
 10
532.1655
 20
895.542
 30
0.0
 11
535.8775
 21
895.542
 31
0.0
  0
LINE
  5
421
330
1D
100
AcDbEntity
  8
0
100
AcDbLine
 10
531.7145
 20
90.1576
 30
0.0
 11
533.6145
 21
90.1576
 31
0.0
  0
LINE
  5
422
330
1D
100
AcDbEntity
  8
0
100
AcDbLine
 10
532.6145
 20
60.1576
 30
0.0
 11
534.2145
 21
60.1576
 31
0.0
  0
LINE
  5
423
330
1D
100
AcDbEntity
  8
0
100
AcDbLine
 10
532.6145
 20
60.1576
 30
0.0
 11
534.3145
 21
60.1576
 31
0.0
  0
LINE
  5
424
330
1D
100
AcDbEntity
  8
0
100
AcDbLine
 10
531.6445
 20
759.388
 30
0.0
 11
535.3565
 21
759.388
 31
0.0
  0
LINE
  5
425
330
1D
100
AcDbEntity
  8
0
100
AcDbLine
 10
528.8095
 20
1282.242
 30
0.0
 11
528.8095
 21
1193.242
 31
0.0
  0
LINE
  5
426
330
1D
100
AcDbEntity
  8
0
100
AcDbLine
 10
528.8095
 20
1193.242
 30
0.0
 11
528.8095
 21
1282.242
 31
0.0
  0
LINE
  5
427
330
1D
100
AcDbEntity
  8
0
100
AcDbLine
 10
528.8095
 20
1193.242
 30
0.0
 11
528.8095
 21
947.542
 31
0.0
  0
LINE
  5
428
330
1D
100
AcDbEntity
  8
0
100
AcDbLine
 10
528.8095
 20
947.542
 30
0.0
 11
528.8095
 21
1193.242
 31
0.0
  0
LINE
  5
429
330
1D
100
AcDbEntity
  8
0
100
AcDbLine
 10
528.8095
 20
759.388
 30
0.0
 11
528.8095
 21
895.542
 31
0.0
  0
LINE
  5
42A
330
1D
100
AcDbEntity
  8
0
100
AcDbLine
 10
518.7515
 20
1301.982
 30
0.0
 11
524.1495
 21
1296.582
 31
0.0
  0
LINE
  5
42B
330
1D
100
AcDbEntity
  8
0
100
AcDbLine
 10
534.3145
 20
60.1576
 30
0.0
 11
536.5145
 21
60.1576
 31
0.0
  0
LINE
  5
42C
330
1D
100
AcDbEntity
  8
0
100
AcDbLine
 10
534.2145
 20
60.1576
 30
0.0
 11
534.2145
 21
4.419
 31
0.0
  0
LINE
  5
42D
330
1D
100
AcDbEntity
  8
0
100
AcDbLine
 10
534.2145
 20
60.1576
 30
0.0
 11
534.5145
 21
60.1576
 31
0.0
  0
LINE
  5
432
330
1D
100
AcDbEntity
  8
0
100
AcDbLine
 10
533.7355
 20
97.534
 30
0.0
 11
535.9565
 21
97.074
 31
0.0
  0
LINE
  5
437
330
1D
100
AcDbEntity
  8
0
100
AcDbLine
 10
534.4045
 20
146.251
 30
0.0
 11
538.1825
 21
146.789
 31
0.0
  0
LINE
  5
438
330
1D
100
AcDbEntity
  8
0
100
AcDbLine
 10
534.1705
 20
90.342
 30
0.0
 11
536.4365
 21
90.342
 31
0.0
  0
LINE
  5
439
330
1D
100
AcDbEntity
  8
0
100
AcDbLine
 10
533.6145
 20
90.1576
 30
0.0
 11
536.0145
 21
90.1576
 31
0.0
  0
LINE
  5
43A
330
1D
100
AcDbEntity
  8
0
100
AcDbLine
 10
534.5145
 20
60.1576
 30
0.0
 11
535.2145
 21
60.1576
 31
0.0
  0
LINE
  5
43B
330
1D
100
AcDbEntity
  8
0
100
AcDbLine
 10
534.5145
 20
5.769
 30
0.0
 11
535.2145
 21
6.968
 31
0.0
  0
LINE
  5
43C
330
1D
100
AcDbEntity
  8
0
100
AcDbLine
 10
534.2145
 20
4.419
 30
0.0
 11
534.5145
 21
2.433
 31
0.0
  0
LINE
  5
43D
330
1D
100
AcDbEntity
  8
0
100
AcDbLine
 10
534.2145
 20
4.419
 30
0.0
 11
534.2145
 21
60.1576
 31
0.0
  0
LINE
  5
43E
330
1D
100
AcDbEntity
  8
0
100
AcDbLine
 10
534.2145
 20
4.419
 30
0.0
 11
534.5145
 21
5.769
 31
0.0
  0
LINE
  5
43F
330
1D
100
AcDbEntity
  8
0
100
AcDbLine
 10
535.2145
 20
6.968
 30
0.0
 11
536.4145
 21
8.168
 31
0.0
  0
LINE
  5
440
330
1D
100
AcDbEntity
  8
0
100
AcDbLine
 10
534.813887343682
 20
97.310650977896
 30
0.0
 11
534.8485
 21
95.466
 31
0.0
  0
LINE
  5
442
330
1D
100
AcDbEntity
  8
0
100
AcDbLine
 10
535.9565
 20
97.074
 30
0.0
 11
538.1495
 21
96.89
 31
0.0
  0
LINE
  5
443
330
1D
100
AcDbEntity
  8
0
100
AcDbLine
 10
534.8485
 20
95.466
 30
0.0
 11
536.0935
 21
95.273
 31
0.0
  0
LINE
  5
445
330
1D
100
AcDbEntity
  8
0
100
AcDbLine
 10
535.3775
 20
336.542
 30
0.0
 11
539.4095
 21
336.542
 31
0.0
  0
LINE
  5
446
330
1D
100
AcDbEntity
  8
0
100
AcDbLine
 10
535.3775
 20
283.542
 30
0.0
 11
539.4095
 21
283.542
 31
0.0
  0
LINE
  5
448
330
1D
100
AcDbEntity
  8
0
100
AcDbLine
 10
536.0935
 20
95.273
 30
0.0
 11
538.1885
 21
95.001
 31
0.0
  0
LINE
  5
449
330
1D
100
AcDbEntity
  8
0
100
AcDbLine
 10
536.0145
 20
90.1576
 30
0.0
 11
538.7145
 21
90.1576
 31
0.0
  0
LINE
  5
44A
330
1D
100
AcDbEntity
  8
0
100
AcDbLine
 10
535.2145
 20
60.1576
 30
0.0
 11
536.4145
 21
60.1576
 31
0.0
  0
LINE
  5
44B
330
1D
100
AcDbEntity
  8
0
100
AcDbLine
 10
536.4145
 20
60.1576
 30
0.0
 11
538.0145
 21
60.1576
 31
0.0
  0
LINE
  5
44C
330
1D
100
AcDbEntity
  8
0
100
AcDbLine
 10
536.4145
 20
8.168
 30
0.0
 11
538.0145
 21
9.217
 31
0.0
  0
LINE
  5
44D
330
1D
100
AcDbEntity
  8
0
100
AcDbLine
 10
534.5145
 20
2.433
 30
0.0
 11
535.2145
 21
1.308
 31
0.0
  0
LINE
  5
44E
330
1D
100
AcDbEntity
  8
0
100
AcDbLine
 10
535.2145
 20
1.308
 30
0.0
 11
536.4145
 21
0.634
 31
0.0
  0
LINE
  5
454
330
1D
100
AcDbEntity
  8
0
100
AcDbLine
 10
536.4365
 20
90.342
 30
0.0
 11
539.0535
 21
90.342
 31
0.0
  0
LINE
  5
455
330
1D
100
AcDbEntity
  8
0
100
AcDbLine
 10
536.5145
 20
60.1576
 30
0.0
 11
539.0145
 21
60.1576
 31
0.0
  0
LINE
  5
456
330
1D
100
AcDbEntity
  8
0
100
AcDbLine
 10
539.0145
 20
60.1576
 30
0.0
 11
541.7145
 21
60.1576
 31
0.0
  0
LINE
  5
457
330
1D
100
AcDbEntity
  8
0
100
AcDbLine
 10
538.1495
 20
96.89
 30
0.0
 11
540.6325
 21
96.918
 31
0.0
  0
LINE
  5
459
330
1D
100
AcDbEntity
  8
0
100
AcDbLine
 10
538.1825
 20
146.789
 30
0.0
 11
541.9485
 21
146.684
 31
0.0
  0
LINE
  5
462
330
1D
100
AcDbEntity
  8
0
100
AcDbLine
 10
539.0535
 20
90.342
 30
0.0
 11
541.8445
 21
90.342
 31
0.0
  0
LINE
  5
463
330
1D
100
AcDbEntity
  8
0
100
AcDbLine
 10
538.7145
 20
90.1576
 30
0.0
 11
541.7145
 21
90.1576
 31
0.0
  0
LINE
  5
464
330
1D
100
AcDbEntity
  8
0
100
AcDbLine
 10
538.0145
 20
60.1576
 30
0.0
 11
539.8145
 21
60.1576
 31
0.0
  0
LINE
  5
465
330
1D
100
AcDbEntity
  8
0
100
AcDbLine
 10
538.0145
 20
9.217
 30
0.0
 11
539.8145
 21
9.929
 31
0.0
  0
LINE
  5
466
330
1D
100
AcDbEntity
  8
0
100
AcDbLine
 10
536.4145
 20
0.634
 30
0.0
 11
538.0145
 21
0.259
 31
0.0
  0
LINE
  5
467
330
1D
100
AcDbEntity
  8
0
100
AcDbLine
 10
538.0145
 20
0.259
 30
0.0
 11
539.8145
 21
0.184
 31
0.0
  0
LINE
  5
468
330
1D
100
AcDbEntity
  8
0
100
AcDbLine
 10
539.3885
 20
707.388
 30
0.0
 11
543.4205
 21
707.388
 31
0.0
  0
LINE
  5
469
330
1D
100
AcDbEntity
  8
0
100
AcDbLine
 10
535.3565
 20
707.388
 30
0.0
 11
539.3885
 21
707.388
 31
0.0
  0
LINE
  5
46A
330
1D
100
AcDbEntity
  8
0
100
AcDbLine
 10
539.8145
 20
60.1576
 30
0.0
 11
541.7145
 21
60.1576
 31
0.0
  0
LINE
  5
46B
330
1D
100
AcDbEntity
  8
0
100
AcDbLine
 10
539.8145
 20
9.929
 30
0.0
 11
541.7145
 21
10.158
 31
0.0
  0
LINE
  5
46C
330
1D
100
AcDbEntity
  8
0
100
AcDbLine
 10
541.7145
 20
0.158
 30
0.0
 11
543.6145
 21
0.184
 31
0.0
  0
LINE
  5
46D
330
1D
100
AcDbEntity
  8
0
100
AcDbLine
 10
541.7145
 20
10.158
 30
0.0
 11
543.6145
 21
9.929
 31
0.0
  0
LINE
  5
46E
330
1D
100
AcDbEntity
  8
0
100
AcDbLine
 10
545.4145
 20
0.259
 30
0.0
 11
547.0145
 21
0.634
 31
0.0
  0
LINE
  5
46F
330
1D
100
AcDbEntity
  8
0
100
AcDbLine
 10
543.6145
 20
0.184
 30
0.0
 11
545.4145
 21
0.259
 31
0.0
  0
LINE
  5
470
330
1D
100
AcDbEntity
  8
0
100
AcDbLine
 10
545.4145
 20
9.217
 30
0.0
 11
547.0145
 21
8.168
 31
0.0
  0
LINE
  5
471
330
1D
100
AcDbEntity
  8
0
100
AcDbLine
 10
545.4145
 20
60.1576
 30
0.0
 11
547.0145
 21
60.1576
 31
0.0
  0
LINE
  5
472
330
1D
100
AcDbEntity
  8
0
100
AcDbLine
 10
543.6145
 20
60.1576
 30
0.0
 11
545.4145
 21
60.1576
 31
0.0
  0
LINE
  5
473
330
1D
100
AcDbEntity
  8
0
100
AcDbLine
 10
543.6145
 20
9.929
 30
0.0
 11
545.4145
 21
9.217
 31
0.0
  0
LINE
  5
474
330
1D
100
AcDbEntity
  8
0
100
AcDbLine
 10
547.0145
 20
0.634
 30
0.0
 11
548.2145
 21
1.308
 31
0.0
  0
LINE
  5
475
330
1D
100
AcDbEntity
  8
0
100
AcDbLine
 10
547.0145
 20
60.1576
 30
0.0
 11
548.2145
 21
60.1576
 31
0.0
  0
LINE
  5
476
330
1D
100
AcDbEntity
  8
0
100
AcDbLine
 10
547.0145
 20
8.168
 30
0.0
 11
548.2145
 21
6.968
 31
0.0
  0
LINE
  5
477
330
1D
100
AcDbEntity
  8
0
100
AcDbLine
 10
546.9145
 20
60.1576
 30
0.0
 11
549.1145
 21
60.1576
 31
0.0
  0
LINE
  5
478
330
1D
100
AcDbEntity
  8
0
100
AcDbLine
 10
544.7145
 20
90.1576
 30
0.0
 11
547.4145
 21
90.1576
 31
0.0
  0
LINE
  5
479
330
1D
100
AcDbEntity
  8
0
100
AcDbLine
 10
544.4145
 20
60.1576
 30
0.0
 11
546.9145
 21
60.1576
 31
0.0
  0
LINE
  5
47A
330
1D
100
AcDbEntity
  8
0
100
AcDbLine
 10
541.7145
 20
60.1576
 30
0.0
 11
544.4145
 21
60.1576
 31
0.0
  0
LINE
  5
47B
330
1D
100
AcDbEntity
  8
0
100
AcDbLine
 10
541.7145
 20
60.1576
 30
0.0
 11
543.6145
 21
60.1576
 31
0.0
  0
LINE
  5
47E
330
1D
100
AcDbEntity
  8
0
100
AcDbLine
 10
544.4825
 20
90.339
 30
0.0
 11
547.1835
 21
90.342
 31
0.0
  0
LINE
  5
47F
330
1D
100
AcDbEntity
  8
0
100
AcDbLine
 10
541.8445
 20
90.342
 30
0.0
 11
544.226390410961
 21
90.342
 31
0.0
  0
LINE
  5
480
330
1D
100
AcDbEntity
  8
0
100
AcDbLine
 10
541.8445
 20
90.342
 30
0.0
 11
544.4825
 21
90.339
 31
0.0
  0
LINE
  5
481
330
1D
100
AcDbEntity
  8
0
100
AcDbLine
 10
541.7145
 20
90.1576
 30
0.0
 11
544.7145
 21
90.1576
 31
0.0
  0
LINE
  5
482
330
1D
100
AcDbEntity
  8
0
100
AcDbLine
 10
539.8145
 20
0.184
 30
0.0
 11
541.7145
 21
0.158
 31
0.0
  0
LINE
  5
483
330
1D
100
AcDbEntity
  8
0
100
AcDbLine
 10
539.968136397239
 20
95.063038398931
 30
0.0
 11
540.1705
 21
95.064
 31
0.0
  0
LINE
  5
486
330
1D
100
AcDbEntity
  8
0
100
AcDbLine
 10
540.1705
 20
95.064
 30
0.0
 11
542.0055
 21
95.144
 31
0.0
  0
LINE
  5
487
330
1D
100
AcDbEntity
  8
0
100
AcDbLine
 10
540.6325
 20
96.918
 30
0.0
 11
543.5485
 21
97.125
 31
0.0
  0
LINE
  5
490
330
1D
100
AcDbEntity
  8
0
100
AcDbLine
 10
542.124320342982
 20
146.657448688867
 30
0.0
 11
542.5455
 21
146.611
 31
0.0
  0
LINE
  5
493
330
1D
100
AcDbEntity
  8
0
100
AcDbLine
 10
543.1105
 20
95.244
 30
0.0
 11
544.4345
 21
95.473
 31
0.0
  0
LINE
  5
496
330
1D
100
AcDbEntity
  8
0
100
AcDbLine
 10
542.5455
 20
146.611
 30
0.0
 11
544.4585
 21
146.364
 31
0.0
  0
LINE
  5
49D
330
1D
100
AcDbEntity
  8
0
100
AcDbLine
 10
542.0055
 20
95.144
 30
0.0
 11
543.1105
 21
95.244
 31
0.0
  0
LINE
  5
49F
330
1D
100
AcDbEntity
  8
0
100
AcDbLine
 10
539.4095
 20
283.542
 30
0.0
 11
543.4415
 21
283.542
 31
0.0
  0
LINE
  5
4A0
330
1D
100
AcDbEntity
  8
0
100
AcDbLine
 10
543.4415
 20
283.542
 30
0.0
 11
547.1535
 21
283.542
 31
0.0
  0
LINE
  5
4A1
330
1D
100
AcDbEntity
  8
0
100
AcDbLine
 10
539.4095
 20
336.542
 30
0.0
 11
543.4415
 21
336.542
 31
0.0
  0
LINE
  5
4A5
330
1D
100
AcDbEntity
  8
0
100
AcDbLine
 10
544.475668833827
 20
97.304032894953
 30
0.0
 11
545.6975
 21
97.548
 31
0.0
  0
LINE
  5
4AC
330
1D
100
AcDbEntity
  8
0
100
AcDbLine
 10
545.6975
 20
97.548
 30
0.0
 11
547.5215
 21
98.094
 31
0.0
  0
LINE
  5
4B0
330
1D
100
AcDbEntity
  8
0
100
AcDbLine
 10
544.457145018105
 20
96.480164138586
 30
0.0
 11
547.8065
 21
96.006
 31
0.0
  0
LINE
  5
4B7
330
1D
100
AcDbEntity
  8
0
100
AcDbLine
 10
544.4345
 20
95.473
 30
0.0
 11
544.475668833827
 21
97.304032894953
 31
0.0
  0
LINE
  5
4B9
330
1D
100
AcDbEntity
  8
0
100
AcDbLine
 10
545.6965
 20
146.118
 30
0.0
 11
548.3335
 21
145.23
 31
0.0
  0
LINE
  5
4BF
330
1D
100
AcDbEntity
  8
0
100
AcDbLine
 10
544.4585
 20
146.364
 30
0.0
 11
545.6965
 21
146.118
 31
0.0
  0
LINE
  5
4C2
330
1D
100
AcDbEntity
  8
0
100
AcDbLine
 10
543.4415
 20
336.542
 30
0.0
 11
547.1535
 21
336.542
 31
0.0
  0
LINE
  5
4C3
330
1D
100
AcDbEntity
  8
0
100
AcDbLine
 10
547.1325
 20
707.388
 30
0.0
 11
550.3965
 21
707.388
 31
0.0
  0
LINE
  5
4C4
330
1D
100
AcDbEntity
  8
0
100
AcDbLine
 10
543.4205
 20
707.388
 30
0.0
 11
547.1325
 21
707.388
 31
0.0
  0
LINE
  5
4C5
330
1D
100
AcDbEntity
  8
0
100
AcDbLine
 10
548.2145
 20
1.308
 30
0.0
 11
548.9145
 21
2.433
 31
0.0
  0
LINE
  5
4C6
330
1D
100
AcDbEntity
  8
0
100
AcDbLine
 10
548.2145
 20
60.1576
 30
0.0
 11
548.9145
 21
60.1576
 31
0.0
  0
LINE
  5
4C7
330
1D
100
AcDbEntity
  8
0
100
AcDbLine
 10
548.2145
 20
6.968
 30
0.0
 11
548.9145
 21
5.769
 31
0.0
  0
LINE
  5
4C9
330
1D
100
AcDbEntity
  8
0
100
AcDbLine
 10
547.1835
 20
90.342
 30
0.0
 11
549.3685
 21
90.342
 31
0.0
  0
LINE
  5
4CA
330
1D
100
AcDbEntity
  8
0
100
AcDbLine
 10
547.1535
 20
283.542
 30
0.0
 11
550.4175
 21
283.542
 31
0.0
  0
LINE
  5
4CC
330
1D
100
AcDbEntity
  8
0
100
AcDbLine
 10
547.1535
 20
336.542
 30
0.0
 11
550.4175
 21
336.542
 31
0.0
  0
LINE
  5
4D0
330
1D
100
AcDbEntity
  8
0
100
AcDbLine
 10
547.5215
 20
98.094
 30
0.0
 11
548.330482970391
 21
98.406342431614
 31
0.0
  0
LINE
  5
4D5
330
1D
100
AcDbEntity
  8
0
100
AcDbLine
 10
547.8065
 20
96.006
 30
0.0
 11
556.6845
 21
94.102
 31
0.0
  0
LINE
  5
4D9
330
1D
100
AcDbEntity
  8
0
100
AcDbLine
 10
548.606362592895
 20
98.512857544144
 30
0.0
 11
549.0315
 21
98.677
 31
0.0
  0
LINE
  5
4DD
330
1D
100
AcDbEntity
  8
0
100
AcDbLine
 10
548.3335
 20
145.23
 30
0.0
 11
548.896918033254
 21
144.974929722276
 31
0.0
  0
LINE
  5
4E5
330
1D
100
AcDbEntity
  8
0
100
AcDbLine
 10
547.4145
 20
90.1576
 30
0.0
 11
549.8145
 21
90.1576
 31
0.0
  0
LINE
  5
4E6
330
1D
100
AcDbEntity
  8
0
100
AcDbLine
 10
547.1325
 20
759.388
 30
0.0
 11
550.3965
 21
759.388
 31
0.0
  0
LINE
  5
4E7
330
1D
100
AcDbEntity
  8
0
100
AcDbLine
 10
543.4205
 20
759.388
 30
0.0
 11
547.1325
 21
759.388
 31
0.0
  0
LINE
  5
4E8
330
1D
100
AcDbEntity
  8
0
100
AcDbLine
 10
539.3885
 20
759.388
 30
0.0
 11
543.4205
 21
759.388
 31
0.0
  0
LINE
  5
4E9
330
1D
100
AcDbEntity
  8
0
100
AcDbLine
 10
535.8775
 20
895.542
 30
0.0
 11
539.9095
 21
895.542
 31
0.0
  0
LINE
  5
4EA
330
1D
100
AcDbEntity
  8
0
100
AcDbLine
 10
535.8775
 20
947.542
 30
0.0
 11
539.9095
 21
947.542
 31
0.0
  0
LINE
  5
4EB
330
1D
100
AcDbEntity
  8
0
100
AcDbLine
 10
539.9095
 20
895.542
 30
0.0
 11
543.9415
 21
895.542
 31
0.0
  0
LINE
  5
4EC
330
1D
100
AcDbEntity
  8
0
100
AcDbLine
 10
543.9415
 20
895.542
 30
0.0
 11
547.6535
 21
895.542
 31
0.0
  0
LINE
  5
4ED
330
1D
100
AcDbEntity
  8
0
100
AcDbLine
 10
547.6535
 20
895.542
 30
0.0
 11
550.9175
 21
895.542
 31
0.0
  0
LINE
  5
4EE
330
1D
100
AcDbEntity
  8
0
100
AcDbLine
 10
539.9095
 20
947.542
 30
0.0
 11
543.9415
 21
947.542
 31
0.0
  0
LINE
  5
4EF
330
1D
100
AcDbEntity
  8
0
100
AcDbLine
 10
543.9415
 20
947.542
 30
0.0
 11
547.6535
 21
947.542
 31
0.0
  0
LINE
  5
4F0
330
1D
100
AcDbEntity
  8
0
100
AcDbLine
 10
547.6535
 20
947.542
 30
0.0
 11
550.9175
 21
947.542
 31
0.0
  0
LINE
  5
4F1
330
1D
100
AcDbEntity
  8
0
100
AcDbLine
 10
535.3565
 20
759.388
 30
0.0
 11
539.3885
 21
759.388
 31
0.0
  0
LINE
  5
4F2
330
1D
100
AcDbEntity
  8
0
100
AcDbLine
 10
548.9145
 20
2.433
 30
0.0
 11
549.2145
 21
4.419
 31
0.0
  0
LINE
  5
4F3
330
1D
100
AcDbEntity
  8
0
100
AcDbLine
 10
548.9145
 20
60.1576
 30
0.0
 11
549.2145
 21
60.1576
 31
0.0
  0
LINE
  5
4F4
330
1D
100
AcDbEntity
  8
0
100
AcDbLine
 10
548.9145
 20
5.769
 30
0.0
 11
549.2145
 21
4.419
 31
0.0
  0
LINE
  5
4F5
330
1D
100
AcDbEntity
  8
0
100
AcDbLine
 10
549.2145
 20
4.419
 30
0.0
 11
549.2145
 21
60.1576
 31
0.0
  0
LINE
  5
4F6
330
1D
100
AcDbEntity
  8
0
100
AcDbLine
 10
549.1145
 20
60.1576
 30
0.0
 11
550.8145
 21
60.1576
 31
0.0
  0
LINE
  5
4F7
330
1D
100
AcDbEntity
  8
0
100
AcDbLine
 10
549.0315
 20
98.677
 30
0.0
 11
549.402655730215
 21
98.856577143721
 31
0.0
  0
LINE
  5
4FA
330
1D
100
AcDbEntity
  8
0
100
AcDbLine
 10
549.6035
 20
98.935
 30
0.0
 11
553.29746327033
 21
100.962509747701
 31
0.0
  0
LINE
  5
4FC
330
1D
100
AcDbEntity
  8
0
100
AcDbLine
 10
549.3685
 20
90.342
 30
0.0
 11
551.0245
 21
90.342
 31
0.0
  0
LINE
  5
4FD
330
1D
100
AcDbEntity
  8
0
100
AcDbLine
 10
549.979052264549
 20
144.485026555141
 30
0.0
 11
551.5695
 21
143.765
 31
0.0
  0
LINE
  5
4FE
330
1D
100
AcDbEntity
  8
0
100
AcDbLine
 10
549.8145
 20
90.1576
 30
0.0
 11
551.7145
 21
90.1576
 31
0.0
  0
LINE
  5
4FF
330
1D
100
AcDbEntity
  8
0
100
AcDbLine
 10
549.2145
 20
60.1576
 30
0.0
 11
550.8145
 21
60.1576
 31
0.0
  0
LINE
  5
500
330
1D
100
AcDbEntity
  8
0
100
AcDbLine
 10
549.2145
 20
60.1576
 30
0.0
 11
549.2145
 21
4.419
 31
0.0
  0
LINE
  5
501
330
1D
100
AcDbEntity
  8
0
100
AcDbLine
 10
550.0095
 20
759.388
 30
0.0
 11
550.0095
 21
895.542
 31
0.0
  0
LINE
  5
502
330
1D
100
AcDbEntity
  8
0
100
AcDbLine
 10
550.0095
 20
947.542
 30
0.0
 11
550.0095
 21
1193.242
 31
0.0
  0
LINE
  5
503
330
1D
100
AcDbEntity
  8
0
100
AcDbLine
 10
550.0095
 20
895.542
 30
0.0
 11
550.0095
 21
759.388
 31
0.0
  0
LINE
  5
504
330
1D
100
AcDbEntity
  8
0
100
AcDbLine
 10
550.0095
 20
895.542
 30
0.0
 11
550.9175
 21
895.542
 31
0.0
  0
LINE
  5
50D
330
1D
100
AcDbEntity
  8
0
100
AcDbLine
 10
551.5695
 20
143.765
 30
0.0
 11
552.6785
 21
143.123
 31
0.0
  0
LINE
  5
510
330
1D
100
AcDbEntity
  8
0
100
AcDbLine
 10
551.0245
 20
90.342
 30
0.0
 11
552.394049967779
 21
90.342809073334
 31
0.0
  0
LINE
  5
511
330
1D
100
AcDbEntity
  8
0
100
AcDbLine
 10
551.7145
 20
90.1576
 30
0.0
 11
552.8145
 21
90.1576
 31
0.0
  0
LINE
  5
512
330
1D
100
AcDbEntity
  8
0
100
AcDbLine
 10
551.8145
 20
60.1576
 30
0.0
 11
552.2145
 21
60.1576
 31
0.0
  0
LINE
  5
513
330
1D
100
AcDbEntity
  8
0
100
AcDbLine
 10
550.8145
 20
60.1576
 30
0.0
 11
551.8145
 21
60.1576
 31
0.0
  0
LINE
  5
515
330
1D
100
AcDbEntity
  8
0
100
AcDbLine
 10
550.4175
 20
283.542
 30
0.0
 11
552.9135
 21
283.542
 31
0.0
  0
LINE
  5
517
330
1D
100
AcDbEntity
  8
0
100
AcDbLine
 10
550.4175
 20
336.542
 30
0.0
 11
552.9135
 21
336.542
 31
0.0
  0
LINE
  5
51A
330
1D
100
AcDbEntity
  8
0
100
AcDbLine
 10
551.8795
 20
283.542
 30
0.0
 11
552.9135
 21
283.542
 31
0.0
  0
LINE
  5
51C
330
1D
100
AcDbEntity
  8
0
100
AcDbLine
 10
551.8795
 20
232.797254237288
 30
0.0
 11
551.8795
 21
283.542
 31
0.0
  0
LINE
  5
526
330
1D
100
AcDbEntity
  8
0
100
AcDbLine
 10
595.4095
 20
84.022
 30
0.0
 11
596.0095
 21
83.242
 31
0.0
  0
LINE
  5
528
330
1D
100
AcDbEntity
  8
0
100
AcDbLine
 10
615.4095
 20
83.242
 30
0.0
 11
615.4095
 21
84.412
 31
0.0
  0
LINE
  5
529
330
1D
100
AcDbEntity
  8
0
100
AcDbLine
 10
615.4095
 20
87.532
 30
0.0
 11
615.4095
 21
84.412
 31
0.0
  0
LINE
  5
52A
330
1D
100
AcDbEntity
  8
0
100
AcDbLine
 10
615.4095
 20
87.532
 30
0.0
 11
615.4095
 21
92.732
 31
0.0
  0
LINE
  5
52B
330
1D
100
AcDbEntity
  8
0
100
AcDbLine
 10
615.4095
 20
84.412
 30
0.0
 11
615.4095
 21
83.242
 31
0.0
  0
LINE
  5
52C
330
1D
100
AcDbEntity
  8
0
100
AcDbLine
 10
615.4095
 20
84.412
 30
0.0
 11
615.4095
 21
87.532
 31
0.0
  0
LINE
  5
52D
330
1D
100
AcDbEntity
  8
0
100
AcDbLine
 10
596.0095
 20
83.242
 30
0.0
 11
615.4095
 21
83.242
 31
0.0
  0
LINE
  5
52F
330
1D
100
AcDbEntity
  8
0
100
AcDbLine
 10
552.8145
 20
90.1576
 30
0.0
 11
553.2145
 21
90.1576
 31
0.0
  0
LINE
  5
530
330
1D
100
AcDbEntity
  8
0
100
AcDbLine
 10
552.2145
 20
60.1576
 30
0.0
 11
553.2145
 21
90.1576
 31
0.0
  0
LINE
  5
531
330
1D
100
AcDbEntity
  8
0
100
AcDbLine
 10
552.0845
 20
178.326
 30
0.0
 11
552.0895
 21
145.288
 31
0.0
  0
LINE
  5
532
330
1D
100
AcDbEntity
  8
0
100
AcDbLine
 10
552.0845
 20
178.326
 30
0.0
 11
552.2775
 21
179.299
 31
0.0
  0
LINE
  5
533
330
1D
100
AcDbEntity
  8
0
100
AcDbLine
 10
552.0895
 20
145.288
 30
0.0
 11
552.08965292626
 21
143.473835777095
 31
0.0
  0
LINE
  5
534
330
1D
100
AcDbEntity
  8
0
100
AcDbLine
 10
552.2775
 20
179.299
 30
0.0
 11
552.8195
 21
180.11
 31
0.0
  0
LINE
  5
536
330
1D
100
AcDbEntity
  8
0
100
AcDbLine
 10
552.394049967779
 20
90.342809073334
 30
0.0
 11
553.6655
 21
90.361
 31
0.0
  0
LINE
  5
538
330
1D
100
AcDbEntity
  8
0
100
AcDbLine
 10
552.6785
 20
143.123
 30
0.0
 11
553.5775
 21
142.486
 31
0.0
  0
LINE
  5
539
330
1D
100
AcDbEntity
  8
0
100
AcDbLine
 10
552.8195
 20
180.11
 30
0.0
 11
553.6305
 21
180.652
 31
0.0
  0
LINE
  5
541
330
1D
100
AcDbEntity
  8
0
100
AcDbLine
 10
552.9135
 20
283.542
 30
0.0
 11
554.4495
 21
283.542
 31
0.0
  0
LINE
  5
545
330
1D
100
AcDbEntity
  8
0
100
AcDbLine
 10
554.0045
 20
90.562
 30
0.0
 11
554.07207576184
 21
94.654087800331
 31
0.0
  0
LINE
  5
547
330
1D
100
AcDbEntity
  8
0
100
AcDbLine
 10
553.6655
 20
90.361
 30
0.0
 11
554.0045
 21
90.562
 31
0.0
  0
LINE
  5
548
330
1D
100
AcDbEntity
  8
0
100
AcDbLine
 10
553.29746327033
 20
100.962509747701
 30
0.0
 11
555.9955
 21
102.989
 31
0.0
  0
LINE
  5
54A
330
1D
100
AcDbEntity
  8
0
100
AcDbLine
 10
553.6305
 20
180.652
 30
0.0
 11
555.0425
 21
180.957
 31
0.0
  0
LINE
  5
54B
330
1D
100
AcDbEntity
  8
0
100
AcDbLine
 10
553.5775
 20
142.486
 30
0.0
 11
556.7575
 21
140.027
 31
0.0
  0
LINE
  5
551
330
1D
100
AcDbEntity
  8
0
100
AcDbLine
 10
554.8845
 20
232.816
 30
0.0
 11
555.5075
 21
232.222
 31
0.0
  0
LINE
  5
556
330
1D
100
AcDbEntity
  8
0
100
AcDbLine
 10
555.0255
 20
283.542
 30
0.0
 11
555.4095
 21
284.157
 31
0.0
  0
LINE
  5
557
330
1D
100
AcDbEntity
  8
0
100
AcDbLine
 10
554.4495
 20
283.542
 30
0.0
 11
555.0255
 21
283.542
 31
0.0
  0
LINE
  5
558
330
1D
100
AcDbEntity
  8
0
100
AcDbLine
 10
552.9135
 20
336.542
 30
0.0
 11
554.4495
 21
336.542
 31
0.0
  0
LINE
  5
559
330
1D
100
AcDbEntity
  8
0
100
AcDbLine
 10
554.4495
 20
336.542
 30
0.0
 11
555.0255
 21
336.542
 31
0.0
  0
LINE
  5
55C
330
1D
100
AcDbEntity
  8
0
100
AcDbLine
 10
555.0425
 20
180.957
 30
0.0
 11
555.5075
 21
181.462
 31
0.0
  0
LINE
  5
55F
330
1D
100
AcDbEntity
  8
0
100
AcDbLine
 10
615.4095
 20
92.732
 30
0.0
 11
615.4095
 21
87.532
 31
0.0
  0
LINE
  5
560
330
1D
100
AcDbEntity
  8
0
100
AcDbLine
 10
615.4095
 20
92.732
 30
0.0
 11
615.4095
 21
99.622
 31
0.0
  0
LINE
  5
56D
330
1D
100
AcDbEntity
  8
0
100
AcDbLine
 10
557.235950200198
 20
104.278339019043
 30
0.0
 11
558.9895
 21
106.101
 31
0.0
  0
LINE
  5
56E
330
1D
100
AcDbEntity
  8
0
100
AcDbLine
 10
555.9955
 20
102.989
 30
0.0
 11
557.235950200198
 21
104.278339019043
 31
0.0
  0
LINE
  5
56F
330
1D
100
AcDbEntity
  8
0
100
AcDbLine
 10
560.2265
 20
107.665
 30
0.0
 11
561.4935
 21
109.738
 31
0.0
  0
LINE
  5
572
330
1D
100
AcDbEntity
  8
0
100
AcDbLine
 10
558.9895
 20
106.101
 30
0.0
 11
560.2265
 21
107.665
 31
0.0
  0
LINE
  5
575
330
1D
100
AcDbEntity
  8
0
100
AcDbLine
 10
560.0405
 20
136.277
 30
0.0
 11
561.4455
 21
134.02
 31
0.0
  0
LINE
  5
590
330
1D
100
AcDbEntity
  8
0
100
AcDbLine
 10
561.4455
 20
134.02
 30
0.0
 11
562.4895
 21
131.869
 31
0.0
  0
LINE
  5
593
330
1D
100
AcDbEntity
  8
0
100
AcDbLine
 10
562.4895
 20
131.869
 30
0.0
 11
563.4395
 21
129.167
 31
0.0
  0
LINE
  5
596
330
1D
100
AcDbEntity
  8
0
100
AcDbLine
 10
562.0895
 20
110.992
 30
0.0
 11
563.5585
 21
114.595
 31
0.0
  0
LINE
  5
598
330
1D
100
AcDbEntity
  8
0
100
AcDbLine
 10
561.4935
 20
109.738
 30
0.0
 11
562.0895
 21
110.992
 31
0.0
  0
LINE
  5
59E
330
1D
100
AcDbEntity
  8
0
100
AcDbLine
 10
563.4395
 20
129.167
 30
0.0
 11
564.0535
 21
127.029
 31
0.0
  0
LINE
  5
5A1
330
1D
100
AcDbEntity
  8
0
100
AcDbLine
 10
564.0535
 20
127.029
 30
0.0
 11
564.4665
 21
124.327
 31
0.0
  0
LINE
  5
5AE
330
1D
100
AcDbEntity
  8
0
100
AcDbLine
 10
564.4665
 20
124.327
 30
0.0
 11
564.5495
 21
123.276
 31
0.0
  0
LINE
  5
5AF
330
1D
100
AcDbEntity
  8
0
100
AcDbLine
 10
564.4665
 20
119.755
 30
0.0
 11
564.5495
 21
123.276
 31
0.0
  0
LINE
  5
5B0
330
1D
100
AcDbEntity
  8
0
100
AcDbLine
 10
564.2815
 20
118.228
 30
0.0
 11
564.4665
 21
119.755
 31
0.0
  0
LINE
  5
5B2
330
1D
100
AcDbEntity
  8
0
100
AcDbLine
 10
563.5585
 20
114.595
 30
0.0
 11
564.2815
 21
118.228
 31
0.0
  0
LINE
  5
5B5
330
1D
100
AcDbEntity
  8
0
100
AcDbLine
 10
560.5765
 20
138.291
 30
0.0
 11
595.4095
 21
138.309704246726
 31
0.0
  0
LINE
  5
5B7
330
1D
100
AcDbEntity
  8
0
100
AcDbLine
 10
557.0925
 20
139.694
 30
0.0
 11
558.7005
 21
138.64
 31
0.0
  0
LINE
  5
5BA
330
1D
100
AcDbEntity
  8
0
100
AcDbLine
 10
558.7005
 20
138.64
 30
0.0
 11
560.5925
 21
138.278
 31
0.0
  0
LINE
  5
5BC
330
1D
100
AcDbEntity
  8
0
100
AcDbLine
 10
556.7575
 20
140.027
 30
0.0
 11
557.765790163986
 21
138.859765338583
 31
0.0
  0
LINE
  5
5C7
330
1D
100
AcDbEntity
  8
0
100
AcDbLine
 10
555.5075
 20
181.462
 30
0.0
 11
555.5075
 21
232.222
 31
0.0
  0
LINE
  5
5C8
330
1D
100
AcDbEntity
  8
0
100
AcDbLine
 10
555.5075
 20
232.222
 30
0.0
 11
555.5075
 21
181.462
 31
0.0
  0
LINE
  5
5D7
330
1D
100
AcDbEntity
  8
0
100
AcDbLine
 10
615.4095
 20
124.062
 30
0.0
 11
615.4095
 21
115.742
 31
0.0
  0
LINE
  5
5D8
330
1D
100
AcDbEntity
  8
0
100
AcDbLine
 10
615.4095
 20
124.062
 30
0.0
 11
615.4095
 21
131.862
 31
0.0
  0
LINE
  5
5D9
330
1D
100
AcDbEntity
  8
0
100
AcDbLine
 10
615.4095
 20
131.862
 30
0.0
 11
615.4095
 21
124.062
 31
0.0
  0
LINE
  5
5DA
330
1D
100
AcDbEntity
  8
0
100
AcDbLine
 10
615.4095
 20
131.862
 30
0.0
 11
615.4095
 21
138.752
 31
0.0
  0
LINE
  5
5DF
330
1D
100
AcDbEntity
  8
0
100
AcDbLine
 10
615.4095
 20
138.752
 30
0.0
 11
615.4095
 21
131.862
 31
0.0
  0
LINE
  5
5E0
330
1D
100
AcDbEntity
  8
0
100
AcDbLine
 10
615.4095
 20
138.752
 30
0.0
 11
615.4095
 21
143.952
 31
0.0
  0
LINE
  5
5E1
330
1D
100
AcDbEntity
  8
0
100
AcDbLine
 10
615.4095
 20
143.952
 30
0.0
 11
615.4095
 21
138.752
 31
0.0
  0
LINE
  5
5E2
330
1D
100
AcDbEntity
  8
0
100
AcDbLine
 10
615.4095
 20
143.952
 30
0.0
 11
615.4095
 21
147.072
 31
0.0
  0
LINE
  5
5E4
330
1D
100
AcDbEntity
  8
0
100
AcDbLine
 10
596.0095
 20
148.242
 30
0.0
 11
615.4095
 21
148.242
 31
0.0
  0
LINE
  5
5E5
330
1D
100
AcDbEntity
  8
0
100
AcDbLine
 10
615.4095
 20
147.072
 30
0.0
 11
615.4095
 21
143.952
 31
0.0
  0
LINE
  5
5E6
330
1D
100
AcDbEntity
  8
0
100
AcDbLine
 10
615.4095
 20
147.072
 30
0.0
 11
615.4095
 21
148.242
 31
0.0
  0
LINE
  5
5E7
330
1D
100
AcDbEntity
  8
0
100
AcDbLine
 10
615.4095
 20
148.242
 30
0.0
 11
615.4095
 21
147.072
 31
0.0
  0
LINE
  5
5E8
330
1D
100
AcDbEntity
  8
0
100
AcDbLine
 10
615.4095
 20
115.742
 30
0.0
 11
615.4095
 21
107.422
 31
0.0
  0
LINE
  5
5E9
330
1D
100
AcDbEntity
  8
0
100
AcDbLine
 10
615.4095
 20
115.742
 30
0.0
 11
615.4095
 21
124.062
 31
0.0
  0
LINE
  5
5EA
330
1D
100
AcDbEntity
  8
0
100
AcDbLine
 10
615.4095
 20
107.422
 30
0.0
 11
615.4095
 21
99.622
 31
0.0
  0
LINE
  5
5EB
330
1D
100
AcDbEntity
  8
0
100
AcDbLine
 10
615.4095
 20
107.422
 30
0.0
 11
615.4095
 21
115.742
 31
0.0
  0
LINE
  5
5EC
330
1D
100
AcDbEntity
  8
0
100
AcDbLine
 10
615.4095
 20
99.622
 30
0.0
 11
615.4095
 21
92.732
 31
0.0
  0
LINE
  5
5ED
330
1D
100
AcDbEntity
  8
0
100
AcDbLine
 10
615.4095
 20
99.622
 30
0.0
 11
615.4095
 21
107.422
 31
0.0
  0
LINE
  5
5EF
330
1D
100
AcDbEntity
  8
0
100
AcDbLine
 10
595.4095
 20
147.462
 30
0.0
 11
596.0095
 21
148.242
 31
0.0
  0
LINE
  5
5F1
330
1D
100
AcDbEntity
  8
0
100
AcDbLine
 10
555.4095
 20
284.157
 30
0.0
 11
555.4095
 21
335.927
 31
0.0
  0
LINE
  5
5F2
330
1D
100
AcDbEntity
  8
0
100
AcDbLine
 10
555.4095
 20
335.927
 30
0.0
 11
555.4095
 21
284.157
 31
0.0
  0
LINE
  5
5F3
330
1D
100
AcDbEntity
  8
0
100
AcDbLine
 10
555.0255
 20
336.542
 30
0.0
 11
555.4095
 21
335.927
 31
0.0
  0
LINE
  5
5F4
330
1D
100
AcDbEntity
  8
0
100
AcDbLine
 10
552.4505
 20
90.1576
 30
0.0
 11
552.59966
 21
90.361
 31
0.0
  0
LINE
  5
5F5
330
1D
100
AcDbEntity
  8
0
100
AcDbLine
 10
551.8795
 20
283.542
 30
0.0
 11
551.8795
 21
232.797254237288
 31
0.0
  0
LINE
  5
5F6
330
1D
100
AcDbEntity
  8
0
100
AcDbLine
 10
550.3965
 20
707.388
 30
0.0
 11
552.8925
 21
707.388
 31
0.0
  0
LINE
  5
5F8
330
1D
100
AcDbEntity
  8
0
100
AcDbLine
 10
551.8795
 20
547.448695777603
 30
0.0
 11
553.2695
 21
547.059
 31
0.0
  0
LINE
  5
5FA
330
1D
100
AcDbEntity
  8
0
100
AcDbLine
 10
552.395400251639
 20
466.599545277904
 30
0.0
 11
555.0165
 21
467.44
 31
0.0
  0
LINE
  5
604
330
1D
100
AcDbEntity
  8
0
100
AcDbLine
 10
551.8795
 20
707.388
 30
0.0
 11
552.8925
 21
707.388
 31
0.0
  0
LINE
  5
60A
330
1D
100
AcDbEntity
  8
0
100
AcDbLine
 10
553.2695
 20
547.059
 30
0.0
 11
553.7665
 21
546.894
 31
0.0
  0
LINE
  5
60B
330
1D
100
AcDbEntity
  8
0
100
AcDbLine
 10
553.7665
 20
546.894
 30
0.0
 11
557.9215
 21
545.209
 31
0.0
  0
LINE
  5
60C
330
1D
100
AcDbEntity
  8
0
100
AcDbLine
 10
555.0045
 20
707.388
 30
0.0
 11
555.3885
 21
709.388
 31
0.0
  0
LINE
  5
60D
330
1D
100
AcDbEntity
  8
0
100
AcDbLine
 10
554.4285
 20
707.388
 30
0.0
 11
555.0045
 21
707.388
 31
0.0
  0
LINE
  5
60E
330
1D
100
AcDbEntity
  8
0
100
AcDbLine
 10
552.8925
 20
707.388
 30
0.0
 11
554.4285
 21
707.388
 31
0.0
  0
LINE
  5
60F
330
1D
100
AcDbEntity
  8
0
100
AcDbLine
 10
554.4285
 20
759.388
 30
0.0
 11
555.0045
 21
759.388
 31
0.0
  0
LINE
  5
610
330
1D
100
AcDbEntity
  8
0
100
AcDbLine
 10
555.0165
 20
467.44
 30
0.0
 11
555.5965
 21
467.664
 31
0.0
  0
LINE
  5
611
330
1D
100
AcDbEntity
  8
0
100
AcDbLine
 10
555.5965
 20
467.664
 30
0.0
 11
560.2555
 21
469.851
 31
0.0
  0
LINE
  5
614
330
1D
100
AcDbEntity
  8
0
100
AcDbLine
 10
560.2555
 20
469.851
 30
0.0
 11
565.1085
 21
472.95
 31
0.0
  0
LINE
  5
61B
330
1D
100
AcDbEntity
  8
0
100
AcDbLine
 10
565.1085
 20
472.95
 30
0.0
 11
569.4975
 21
476.68
 31
0.0
  0
LINE
  5
61E
330
1D
100
AcDbEntity
  8
0
100
AcDbLine
 10
573.3395
 20
480.976
 30
0.0
 11
576.4125
 21
485.5
 31
0.0
  0
LINE
  5
624
330
1D
100
AcDbEntity
  8
0
100
AcDbLine
 10
576.4125
 20
485.5
 30
0.0
 11
576.5745
 21
485.779
 31
0.0
  0
LINE
  5
625
330
1D
100
AcDbEntity
  8
0
100
AcDbLine
 10
576.5745
 20
485.779
 30
0.0
 11
578.8775
 21
490.383
 31
0.0
  0
LINE
  5
626
330
1D
100
AcDbEntity
  8
0
100
AcDbLine
 10
578.8775
 20
490.383
 30
0.0
 11
579.1145
 21
490.957
 31
0.0
  0
LINE
  5
629
330
1D
100
AcDbEntity
  8
0
100
AcDbLine
 10
579.1145
 20
490.957
 30
0.0
 11
580.6905
 21
495.544
 31
0.0
  0
LINE
  5
62B
330
1D
100
AcDbEntity
  8
0
100
AcDbLine
 10
580.6905
 20
495.544
 30
0.0
 11
580.9265
 21
496.433
 31
0.0
  0
LINE
  5
62C
330
1D
100
AcDbEntity
  8
0
100
AcDbLine
 10
580.9265
 20
496.433
 30
0.0
 11
581.8215
 21
500.899
 31
0.0
  0
LINE
  5
62F
330
1D
100
AcDbEntity
  8
0
100
AcDbLine
 10
581.6865
 20
513.85
 30
0.0
 11
581.7235
 21
513.61
 31
0.0
  0
LINE
  5
630
330
1D
100
AcDbEntity
  8
0
100
AcDbLine
 10
581.9755
 20
502.105
 30
0.0
 11
582.2515
 21
506.357
 31
0.0
  0
LINE
  5
631
330
1D
100
AcDbEntity
  8
0
100
AcDbLine
 10
581.8215
 20
500.899
 30
0.0
 11
581.9755
 21
502.105
 31
0.0
  0
LINE
  5
632
330
1D
100
AcDbEntity
  8
0
100
AcDbLine
 10
582.2435
 20
507.865
 30
0.0
 11
582.2555
 21
506.939
 31
0.0
  0
LINE
  5
633
330
1D
100
AcDbEntity
  8
0
100
AcDbLine
 10
582.2335
 20
508.29
 30
0.0
 11
582.2435
 21
507.865
 31
0.0
  0
LINE
  5
634
330
1D
100
AcDbEntity
  8
0
100
AcDbLine
 10
582.2515
 20
506.357
 30
0.0
 11
582.2555
 21
506.939
 31
0.0
  0
LINE
  5
636
330
1D
100
AcDbEntity
  8
0
100
AcDbLine
 10
581.7235
 20
513.61
 30
0.0
 11
582.2335
 21
508.29
 31
0.0
  0
LINE
  5
639
330
1D
100
AcDbEntity
  8
0
100
AcDbLine
 10
569.4975
 20
476.68
 30
0.0
 11
573.3395
 21
480.976
 31
0.0
  0
LINE
  5
63B
330
1D
100
AcDbEntity
  8
0
100
AcDbLine
 10
575.6105
 20
529.682
 30
0.0
 11
575.7775
 21
529.424
 31
0.0
  0
LINE
  5
63E
330
1D
100
AcDbEntity
  8
0
100
AcDbLine
 10
575.7775
 20
529.424
 30
0.0
 11
578.3765
 21
524.621
 31
0.0
  0
LINE
  5
63F
330
1D
100
AcDbEntity
  8
0
100
AcDbLine
 10
572.1825
 20
534.321
 30
0.0
 11
572.5025
 21
533.944
 31
0.0
  0
LINE
  5
640
330
1D
100
AcDbEntity
  8
0
100
AcDbLine
 10
569.3425
 20
537.347
 30
0.0
 11
572.1825
 21
534.321
 31
0.0
  0
LINE
  5
641
330
1D
100
AcDbEntity
  8
0
100
AcDbLine
 10
568.1535
 20
538.449
 30
0.0
 11
569.3425
 21
537.347
 31
0.0
  0
LINE
  5
642
330
1D
100
AcDbEntity
  8
0
100
AcDbLine
 10
565.8305
 20
540.383
 30
0.0
 11
568.1535
 21
538.449
 31
0.0
  0
LINE
  5
643
330
1D
100
AcDbEntity
  8
0
100
AcDbLine
 10
563.6015
 20
541.989
 30
0.0
 11
565.8305
 21
540.383
 31
0.0
  0
LINE
  5
644
330
1D
100
AcDbEntity
  8
0
100
AcDbLine
 10
562.0085
 20
543.014
 30
0.0
 11
563.6015
 21
541.989
 31
0.0
  0
LINE
  5
645
330
1D
100
AcDbEntity
  8
0
100
AcDbLine
 10
558.6085
 20
544.877
 30
0.0
 11
562.0085
 21
543.014
 31
0.0
  0
LINE
  5
648
330
1D
100
AcDbEntity
  8
0
100
AcDbLine
 10
572.5025
 20
533.944
 30
0.0
 11
575.6105
 21
529.682
 31
0.0
  0
LINE
  5
64B
330
1D
100
AcDbEntity
  8
0
100
AcDbLine
 10
557.9215
 20
545.209
 30
0.0
 11
558.6085
 21
544.877
 31
0.0
  0
LINE
  5
64C
330
1D
100
AcDbEntity
  8
0
100
AcDbLine
 10
578.3765
 20
524.621
 30
0.0
 11
578.4295
 21
524.511
 31
0.0
  0
LINE
  5
64D
330
1D
100
AcDbEntity
  8
0
100
AcDbLine
 10
578.4295
 20
524.511
 30
0.0
 11
580.4105
 21
519.288
 31
0.0
  0
LINE
  5
650
330
1D
100
AcDbEntity
  8
0
100
AcDbLine
 10
580.4265
 20
519.23
 30
0.0
 11
581.6865
 21
513.85
 31
0.0
  0
LINE
  5
652
330
1D
100
AcDbEntity
  8
0
100
AcDbLine
 10
580.4105
 20
519.288
 30
0.0
 11
580.4265
 21
519.23
 31
0.0
  0
LINE
  5
655
330
1D
100
AcDbEntity
  8
0
100
AcDbLine
 10
555.3885
 20
709.388
 30
0.0
 11
555.3885
 21
757.388
 31
0.0
  0
LINE
  5
656
330
1D
100
AcDbEntity
  8
0
100
AcDbLine
 10
555.3885
 20
757.388
 30
0.0
 11
555.3885
 21
709.388
 31
0.0
  0
LINE
  5
657
330
1D
100
AcDbEntity
  8
0
100
AcDbLine
 10
555.0045
 20
759.388
 30
0.0
 11
555.3885
 21
757.388
 31
0.0
  0
LINE
  5
658
330
1D
100
AcDbEntity
  8
0
100
AcDbLine
 10
603.9095
 20
893.342
 30
0.0
 11
603.9095
 21
892.262
 31
0.0
  0
LINE
  5
659
330
1D
100
AcDbEntity
  8
0
100
AcDbLine
 10
603.9095
 20
893.342
 30
0.0
 11
603.9095
 21
896.222
 31
0.0
  0
LINE
  5
65A
330
1D
100
AcDbEntity
  8
0
100
AcDbLine
 10
603.9095
 20
892.262
 30
0.0
 11
604.5095
 21
891.542
 31
0.0
  0
LINE
  5
65B
330
1D
100
AcDbEntity
  8
0
100
AcDbLine
 10
603.9095
 20
892.262
 30
0.0
 11
603.9095
 21
893.342
 31
0.0
  0
LINE
  5
65C
330
1D
100
AcDbEntity
  8
0
100
AcDbLine
 10
604.5095
 20
895.502
 30
0.0
 11
604.5095
 21
892.622
 31
0.0
  0
LINE
  5
65D
330
1D
100
AcDbEntity
  8
0
100
AcDbLine
 10
604.5095
 20
895.502
 30
0.0
 11
604.5095
 21
900.302
 31
0.0
  0
LINE
  5
65E
330
1D
100
AcDbEntity
  8
0
100
AcDbLine
 10
604.5095
 20
891.542
 30
0.0
 11
615.9095
 21
891.542
 31
0.0
  0
LINE
  5
65F
330
1D
100
AcDbEntity
  8
0
100
AcDbLine
 10
604.5095
 20
891.542
 30
0.0
 11
604.5095
 21
892.622
 31
0.0
  0
LINE
  5
660
330
1D
100
AcDbEntity
  8
0
100
AcDbLine
 10
615.9095
 20
891.542
 30
0.0
 11
615.9095
 21
892.622
 31
0.0
  0
LINE
  5
661
330
1D
100
AcDbEntity
  8
0
100
AcDbLine
 10
604.5095
 20
892.622
 30
0.0
 11
604.5095
 21
891.542
 31
0.0
  0
LINE
  5
662
330
1D
100
AcDbEntity
  8
0
100
AcDbLine
 10
604.5095
 20
892.622
 30
0.0
 11
604.5095
 21
895.502
 31
0.0
  0
LINE
  5
663
330
1D
100
AcDbEntity
  8
0
100
AcDbLine
 10
550.9175
 20
895.542
 30
0.0
 11
553.4135
 21
895.542
 31
0.0
  0
LINE
  5
664
330
1D
100
AcDbEntity
  8
0
100
AcDbLine
 10
553.4135
 20
895.542
 30
0.0
 11
554.9495
 21
895.542
 31
0.0
  0
LINE
  5
665
330
1D
100
AcDbEntity
  8
0
100
AcDbLine
 10
555.9095
 20
896.342
 30
0.0
 11
555.9095
 21
908.152983459095
 31
0.0
  0
LINE
  5
666
330
1D
100
AcDbEntity
  8
0
100
AcDbLine
 10
555.5255
 20
895.542
 30
0.0
 11
555.9095
 21
896.342
 31
0.0
  0
LINE
  5
667
330
1D
100
AcDbEntity
  8
0
100
AcDbLine
 10
554.9495
 20
895.542
 30
0.0
 11
555.5255
 21
895.542
 31
0.0
  0
LINE
  5
668
330
1D
100
AcDbEntity
  8
0
100
AcDbLine
 10
603.9095
 20
900.902
 30
0.0
 11
603.9095
 21
896.222
 31
0.0
  0
LINE
  5
669
330
1D
100
AcDbEntity
  8
0
100
AcDbLine
 10
603.9095
 20
900.902
 30
0.0
 11
603.9095
 21
907.022
 31
0.0
  0
LINE
  5
66A
330
1D
100
AcDbEntity
  8
0
100
AcDbLine
 10
603.9095
 20
896.222
 30
0.0
 11
603.9095
 21
893.342
 31
0.0
  0
LINE
  5
66B
330
1D
100
AcDbEntity
  8
0
100
AcDbLine
 10
603.9095
 20
896.222
 30
0.0
 11
603.9095
 21
900.902
 31
0.0
  0
LINE
  5
66C
330
1D
100
AcDbEntity
  8
0
100
AcDbLine
 10
604.5095
 20
906.662
 30
0.0
 11
604.5095
 21
900.302
 31
0.0
  0
LINE
  5
66D
330
1D
100
AcDbEntity
  8
0
100
AcDbLine
 10
604.5095
 20
906.662
 30
0.0
 11
604.5095
 21
913.862
 31
0.0
  0
LINE
  5
66E
330
1D
100
AcDbEntity
  8
0
100
AcDbLine
 10
604.5095
 20
900.302
 30
0.0
 11
604.5095
 21
895.502
 31
0.0
  0
LINE
  5
66F
330
1D
100
AcDbEntity
  8
0
100
AcDbLine
 10
604.5095
 20
900.302
 30
0.0
 11
604.5095
 21
906.662
 31
0.0
  0
LINE
  5
670
330
1D
100
AcDbEntity
  8
0
100
AcDbLine
 10
555.9095
 20
908.106373108241
 30
0.0
 11
569.3665
 21
908.193
 31
0.0
  0
LINE
  5
671
330
1D
100
AcDbEntity
  8
0
100
AcDbLine
 10
569.3665
 20
908.193
 30
0.0
 11
569.5135
 21
908.235
 31
0.0
  0
LINE
  5
672
330
1D
100
AcDbEntity
  8
0
100
AcDbLine
 10
569.6215
 20
908.344
 30
0.0
 11
569.6595
 21
908.503
 31
0.0
  0
LINE
  5
673
330
1D
100
AcDbEntity
  8
0
100
AcDbLine
 10
569.5135
 20
908.235
 30
0.0
 11
569.6215
 21
908.344
 31
0.0
  0
LINE
  5
674
330
1D
100
AcDbEntity
  8
0
100
AcDbLine
 10
569.6595
 20
908.824
 30
0.0
 11
569.6595
 21
908.542
 31
0.0
  0
LINE
  5
675
330
1D
100
AcDbEntity
  8
0
100
AcDbLine
 10
569.6595
 20
909.342
 30
0.0
 11
569.6595
 21
908.824
 31
0.0
  0
LINE
  5
676
330
1D
100
AcDbEntity
  8
0
100
AcDbLine
 10
569.6595
 20
908.768
 30
0.0
 11
569.6595
 21
908.612
 31
0.0
  0
LINE
  5
677
330
1D
100
AcDbEntity
  8
0
100
AcDbLine
 10
569.6595
 20
908.612
 30
0.0
 11
569.6995
 21
908.461
 31
0.0
  0
LINE
  5
678
330
1D
100
AcDbEntity
  8
0
100
AcDbLine
 10
569.6595
 20
909.084
 30
0.0
 11
569.6595
 21
908.768
 31
0.0
  0
LINE
  5
679
330
1D
100
AcDbEntity
  8
0
100
AcDbLine
 10
569.6595
 20
909.557
 30
0.0
 11
569.6595
 21
909.084
 31
0.0
  0
LINE
  5
67A
330
1D
100
AcDbEntity
  8
0
100
AcDbLine
 10
569.6595
 20
910.18
 30
0.0
 11
569.6595
 21
909.557
 31
0.0
  0
LINE
  5
67B
330
1D
100
AcDbEntity
  8
0
100
AcDbLine
 10
569.6595
 20
912.202
 30
0.0
 11
569.6595
 21
911.047
 31
0.0
  0
LINE
  5
67C
330
1D
100
AcDbEntity
  8
0
100
AcDbLine
 10
569.6595
 20
911.047
 30
0.0
 11
569.6595
 21
910.088
 31
0.0
  0
LINE
  5
67D
330
1D
100
AcDbEntity
  8
0
100
AcDbLine
 10
569.6595
 20
910.947
 30
0.0
 11
569.6595
 21
910.18
 31
0.0
  0
LINE
  5
67E
330
1D
100
AcDbEntity
  8
0
100
AcDbLine
 10
569.6595
 20
911.847
 30
0.0
 11
569.6595
 21
910.947
 31
0.0
  0
LINE
  5
67F
330
1D
100
AcDbEntity
  8
0
100
AcDbLine
 10
569.6595
 20
913.53
 30
0.0
 11
569.6595
 21
912.202
 31
0.0
  0
LINE
  5
680
330
1D
100
AcDbEntity
  8
0
100
AcDbLine
 10
569.6595
 20
912.869
 30
0.0
 11
569.6595
 21
911.847
 31
0.0
  0
LINE
  5
681
330
1D
100
AcDbEntity
  8
0
100
AcDbLine
 10
580.2382058823
 20
908.316235294118
 30
0.0
 11
603.9095
 21
908.312171668908
 31
0.0
  0
LINE
  5
682
330
1D
100
AcDbEntity
  8
0
100
AcDbLine
 10
580.88068749992
 20
908.3164375
 30
0.0
 11
603.9095
 21
908.313143057423
 31
0.0
  0
LINE
  5
683
330
1D
100
AcDbEntity
  8
0
100
AcDbLine
 10
569.9585
 20
908.313
 30
0.0
 11
603.9095
 21
908.312028611485
 31
0.0
  0
LINE
  5
684
330
1D
100
AcDbEntity
  8
0
100
AcDbLine
 10
569.6995
 20
908.461
 30
0.0
 11
569.8085
 21
908.352
 31
0.0
  0
LINE
  5
685
330
1D
100
AcDbEntity
  8
0
100
AcDbLine
 10
569.8085
 20
908.352
 30
0.0
 11
569.9585
 21
908.313
 31
0.0
  0
LINE
  5
686
330
1D
100
AcDbEntity
  8
0
100
AcDbLine
 10
569.6595
 20
910.088
 30
0.0
 11
569.6595
 21
909.342
 31
0.0
  0
LINE
  5
687
330
1D
100
AcDbEntity
  8
0
100
AcDbLine
 10
555.9095
 20
908.152983459095
 30
0.0
 11
555.9095
 21
896.342
 31
0.0
  0
LINE
  5
688
330
1D
100
AcDbEntity
  8
0
100
AcDbLine
 10
603.9095
 20
908.312028611485
 30
0.0
 11
603.9095
 21
907.022
 31
0.0
  0
LINE
  5
689
330
1D
100
AcDbEntity
  8
0
100
AcDbLine
 10
569.6595
 20
915.008
 30
0.0
 11
569.6595
 21
913.53
 31
0.0
  0
LINE
  5
68A
330
1D
100
AcDbEntity
  8
0
100
AcDbLine
 10
569.6595
 20
914.0
 30
0.0
 11
569.6595
 21
912.869
 31
0.0
  0
LINE
  5
68B
330
1D
100
AcDbEntity
  8
0
100
AcDbLine
 10
569.6595
 20
916.609
 30
0.0
 11
569.6595
 21
915.008
 31
0.0
  0
LINE
  5
68C
330
1D
100
AcDbEntity
  8
0
100
AcDbLine
 10
569.6595
 20
915.226
 30
0.0
 11
569.6595
 21
914.0
 31
0.0
  0
LINE
  5
68D
330
1D
100
AcDbEntity
  8
0
100
AcDbLine
 10
569.6595
 20
916.532
 30
0.0
 11
569.6595
 21
915.226
 31
0.0
  0
LINE
  5
68E
330
1D
100
AcDbEntity
  8
0
100
AcDbLine
 10
569.6595
 20
918.3
 30
0.0
 11
569.6595
 21
916.609
 31
0.0
  0
LINE
  5
68F
330
1D
100
AcDbEntity
  8
0
100
AcDbLine
 10
569.6595
 20
920.052
 30
0.0
 11
569.6595
 21
918.3
 31
0.0
  0
LINE
  5
690
330
1D
100
AcDbEntity
  8
0
100
AcDbLine
 10
569.6595
 20
917.9
 30
0.0
 11
569.6595
 21
916.532
 31
0.0
  0
LINE
  5
691
330
1D
100
AcDbEntity
  8
0
100
AcDbLine
 10
569.6595
 20
919.314
 30
0.0
 11
569.6595
 21
917.9
 31
0.0
  0
LINE
  5
692
330
1D
100
AcDbEntity
  8
0
100
AcDbLine
 10
569.6595
 20
920.756
 30
0.0
 11
569.6595
 21
919.314
 31
0.0
  0
LINE
  5
693
330
1D
100
AcDbEntity
  8
0
100
AcDbLine
 10
603.9095
 20
921.542
 30
0.0
 11
603.9095
 21
913.982
 31
0.0
  0
LINE
  5
694
330
1D
100
AcDbEntity
  8
0
100
AcDbLine
 10
603.9095
 20
921.542
 30
0.0
 11
603.9095
 21
929.102
 31
0.0
  0
LINE
  5
695
330
1D
100
AcDbEntity
  8
0
100
AcDbLine
 10
603.9095
 20
913.982
 30
0.0
 11
603.9095
 21
907.022
 31
0.0
  0
LINE
  5
696
330
1D
100
AcDbEntity
  8
0
100
AcDbLine
 10
603.9095
 20
913.982
 30
0.0
 11
603.9095
 21
921.542
 31
0.0
  0
LINE
  5
697
330
1D
100
AcDbEntity
  8
0
100
AcDbLine
 10
603.9095
 20
907.022
 30
0.0
 11
603.9095
 21
900.902
 31
0.0
  0
LINE
  5
698
330
1D
100
AcDbEntity
  8
0
100
AcDbLine
 10
603.9095
 20
907.022
 30
0.0
 11
603.9095
 21
913.982
 31
0.0
  0
LINE
  5
699
330
1D
100
AcDbEntity
  8
0
100
AcDbLine
 10
603.9095
 20
907.022
 30
0.0
 11
603.9095
 21
908.312028611485
 31
0.0
  0
LINE
  5
69A
330
1D
100
AcDbEntity
  8
0
100
AcDbLine
 10
604.5095
 20
921.542
 30
0.0
 11
604.5095
 21
913.862
 31
0.0
  0
LINE
  5
69B
330
1D
100
AcDbEntity
  8
0
100
AcDbLine
 10
604.5095
 20
921.542
 30
0.0
 11
604.5095
 21
929.222
 31
0.0
  0
LINE
  5
69C
330
1D
100
AcDbEntity
  8
0
100
AcDbLine
 10
604.5095
 20
913.862
 30
0.0
 11
604.5095
 21
906.662
 31
0.0
  0
LINE
  5
69D
330
1D
100
AcDbEntity
  8
0
100
AcDbLine
 10
604.5095
 20
913.862
 30
0.0
 11
604.5095
 21
921.542
 31
0.0
  0
LINE
  5
69E
330
1D
100
AcDbEntity
  8
0
100
AcDbLine
 10
569.6595
 20
921.833
 30
0.0
 11
569.6595
 21
920.052
 31
0.0
  0
LINE
  5
69F
330
1D
100
AcDbEntity
  8
0
100
AcDbLine
 10
569.6595
 20
923.608
 30
0.0
 11
569.6595
 21
921.833
 31
0.0
  0
LINE
  5
6A0
330
1D
100
AcDbEntity
  8
0
100
AcDbLine
 10
569.6595
 20
922.21
 30
0.0
 11
569.6595
 21
920.756
 31
0.0
  0
LINE
  5
6A1
330
1D
100
AcDbEntity
  8
0
100
AcDbLine
 10
569.6595
 20
923.654
 30
0.0
 11
569.6595
 21
922.21
 31
0.0
  0
LINE
  5
6A2
330
1D
100
AcDbEntity
  8
0
100
AcDbLine
 10
569.6595
 20
925.344
 30
0.0
 11
569.6595
 21
923.608
 31
0.0
  0
LINE
  5
6A3
330
1D
100
AcDbEntity
  8
0
100
AcDbLine
 10
569.6595
 20
927.009
 30
0.0
 11
569.6595
 21
925.344
 31
0.0
  0
LINE
  5
6A4
330
1D
100
AcDbEntity
  8
0
100
AcDbLine
 10
569.6595
 20
925.071
 30
0.0
 11
569.6595
 21
923.654
 31
0.0
  0
LINE
  5
6A5
330
1D
100
AcDbEntity
  8
0
100
AcDbLine
 10
569.6595
 20
926.444
 30
0.0
 11
569.6595
 21
925.071
 31
0.0
  0
LINE
  5
6A6
330
1D
100
AcDbEntity
  8
0
100
AcDbLine
 10
569.6595
 20
928.574
 30
0.0
 11
569.6595
 21
927.009
 31
0.0
  0
LINE
  5
6A7
330
1D
100
AcDbEntity
  8
0
100
AcDbLine
 10
569.6595
 20
927.756
 30
0.0
 11
569.6595
 21
926.444
 31
0.0
  0
LINE
  5
6A8
330
1D
100
AcDbEntity
  8
0
100
AcDbLine
 10
569.6595
 20
928.99
 30
0.0
 11
569.6595
 21
927.756
 31
0.0
  0
LINE
  5
6A9
330
1D
100
AcDbEntity
  8
0
100
AcDbLine
 10
603.9095
 20
929.102
 30
0.0
 11
603.9095
 21
921.542
 31
0.0
  0
LINE
  5
6AA
330
1D
100
AcDbEntity
  8
0
100
AcDbLine
 10
603.9095
 20
929.102
 30
0.0
 11
603.9095
 21
936.062
 31
0.0
  0
LINE
  5
6AB
330
1D
100
AcDbEntity
  8
0
100
AcDbLine
 10
604.5095
 20
929.222
 30
0.0
 11
604.5095
 21
921.542
 31
0.0
  0
LINE
  5
6AC
330
1D
100
AcDbEntity
  8
0
100
AcDbLine
 10
604.5095
 20
929.222
 30
0.0
 11
604.5095
 21
936.422
 31
0.0
  0
LINE
  5
6AD
330
1D
100
AcDbEntity
  8
0
100
AcDbLine
 10
569.6595
 20
930.007
 30
0.0
 11
569.6595
 21
928.574
 31
0.0
  0
LINE
  5
6AE
330
1D
100
AcDbEntity
  8
0
100
AcDbLine
 10
569.6595
 20
930.13
 30
0.0
 11
569.6595
 21
928.99
 31
0.0
  0
LINE
  5
6AF
330
1D
100
AcDbEntity
  8
0
100
AcDbLine
 10
569.6595
 20
931.282
 30
0.0
 11
569.6595
 21
930.007
 31
0.0
  0
LINE
  5
6B0
330
1D
100
AcDbEntity
  8
0
100
AcDbLine
 10
569.6595
 20
932.376
 30
0.0
 11
569.6595
 21
931.282
 31
0.0
  0
LINE
  5
6B1
330
1D
100
AcDbEntity
  8
0
100
AcDbLine
 10
569.6595
 20
931.162
 30
0.0
 11
569.6595
 21
930.13
 31
0.0
  0
LINE
  5
6B2
330
1D
100
AcDbEntity
  8
0
100
AcDbLine
 10
569.6595
 20
932.073
 30
0.0
 11
569.6595
 21
931.162
 31
0.0
  0
LINE
  5
6B3
330
1D
100
AcDbEntity
  8
0
100
AcDbLine
 10
569.6595
 20
933.269
 30
0.0
 11
569.6595
 21
932.376
 31
0.0
  0
LINE
  5
6B4
330
1D
100
AcDbEntity
  8
0
100
AcDbLine
 10
569.6595
 20
933.942
 30
0.0
 11
569.6595
 21
933.269
 31
0.0
  0
LINE
  5
6B5
330
1D
100
AcDbEntity
  8
0
100
AcDbLine
 10
569.6595
 20
932.851
 30
0.0
 11
569.6595
 21
932.073
 31
0.0
  0
LINE
  5
6B6
330
1D
100
AcDbEntity
  8
0
100
AcDbLine
 10
569.6595
 20
933.488
 30
0.0
 11
569.6595
 21
932.851
 31
0.0
  0
LINE
  5
6B7
330
1D
100
AcDbEntity
  8
0
100
AcDbLine
 10
569.6595
 20
934.385
 30
0.0
 11
569.6595
 21
933.942
 31
0.0
  0
LINE
  5
6B8
330
1D
100
AcDbEntity
  8
0
100
AcDbLine
 10
569.6595
 20
933.974
 30
0.0
 11
569.6595
 21
933.488
 31
0.0
  0
LINE
  5
6B9
330
1D
100
AcDbEntity
  8
0
100
AcDbLine
 10
569.6595
 20
934.304
 30
0.0
 11
569.6595
 21
933.974
 31
0.0
  0
LINE
  5
6BA
330
1D
100
AcDbEntity
  8
0
100
AcDbLine
 10
569.6595
 20
934.589
 30
0.0
 11
569.6595
 21
934.385
 31
0.0
  0
LINE
  5
6BB
330
1D
100
AcDbEntity
  8
0
100
AcDbLine
 10
569.6215
 20
934.748
 30
0.0
 11
569.6595
 21
934.589
 31
0.0
  0
LINE
  5
6BC
330
1D
100
AcDbEntity
  8
0
100
AcDbLine
 10
569.6595
 20
934.474
 30
0.0
 11
569.6595
 21
934.304
 31
0.0
  0
LINE
  5
6BD
330
1D
100
AcDbEntity
  8
0
100
AcDbLine
 10
569.6995
 20
934.631
 30
0.0
 11
569.8085
 21
934.74
 31
0.0
  0
LINE
  5
6BE
330
1D
100
AcDbEntity
  8
0
100
AcDbLine
 10
569.9585
 20
934.782
 30
0.0
 11
603.9095
 21
934.785885554062
 31
0.0
  0
LINE
  5
6BF
330
1D
100
AcDbEntity
  8
0
100
AcDbLine
 10
569.8085
 20
934.74
 30
0.0
 11
569.9585
 21
934.782
 31
0.0
  0
LINE
  5
6C0
330
1D
100
AcDbEntity
  8
0
100
AcDbLine
 10
569.6595
 20
934.481
 30
0.0
 11
569.6995
 21
934.631
 31
0.0
  0
LINE
  5
6C1
330
1D
100
AcDbEntity
  8
0
100
AcDbLine
 10
555.9095
 20
934.985626891759
 30
0.0
 11
569.3665
 21
934.899
 31
0.0
  0
LINE
  5
6C2
330
1D
100
AcDbEntity
  8
0
100
AcDbLine
 10
569.3665
 20
934.899
 30
0.0
 11
569.5135
 21
934.857
 31
0.0
  0
LINE
  5
6C3
330
1D
100
AcDbEntity
  8
0
100
AcDbLine
 10
569.5135
 20
934.857
 30
0.0
 11
569.6215
 21
934.748
 31
0.0
  0
LINE
  5
6C4
330
1D
100
AcDbEntity
  8
0
100
AcDbLine
 10
555.9095
 20
934.919974847593
 30
0.0
 11
555.9095
 21
946.742
 31
0.0
  0
LINE
  5
6C5
330
1D
100
AcDbEntity
  8
0
100
AcDbLine
 10
603.9095
 20
934.785885554062
 30
0.0
 11
603.9095
 21
936.062
 31
0.0
  0
LINE
  5
6C6
330
1D
100
AcDbEntity
  8
0
100
AcDbLine
 10
603.9095
 20
936.062
 30
0.0
 11
603.9095
 21
929.102
 31
0.0
  0
LINE
  5
6C7
330
1D
100
AcDbEntity
  8
0
100
AcDbLine
 10
603.9095
 20
936.062
 30
0.0
 11
603.9095
 21
942.182
 31
0.0
  0
LINE
  5
6C8
330
1D
100
AcDbEntity
  8
0
100
AcDbLine
 10
603.9095
 20
936.062
 30
0.0
 11
603.9095
 21
934.785885554062
 31
0.0
  0
LINE
  5
6C9
330
1D
100
AcDbEntity
  8
0
100
AcDbLine
 10
603.9095
 20
942.182
 30
0.0
 11
603.9095
 21
936.062
 31
0.0
  0
LINE
  5
6CA
330
1D
100
AcDbEntity
  8
0
100
AcDbLine
 10
603.9095
 20
942.182
 30
0.0
 11
603.9095
 21
946.862
 31
0.0
  0
LINE
  5
6CB
330
1D
100
AcDbEntity
  8
0
100
AcDbLine
 10
604.5095
 20
936.422
 30
0.0
 11
604.5095
 21
929.222
 31
0.0
  0
LINE
  5
6CC
330
1D
100
AcDbEntity
  8
0
100
AcDbLine
 10
604.5095
 20
936.422
 30
0.0
 11
604.5095
 21
942.782
 31
0.0
  0
LINE
  5
6CD
330
1D
100
AcDbEntity
  8
0
100
AcDbLine
 10
604.5095
 20
942.782
 30
0.0
 11
604.5095
 21
936.422
 31
0.0
  0
LINE
  5
6CE
330
1D
100
AcDbEntity
  8
0
100
AcDbLine
 10
604.5095
 20
942.782
 30
0.0
 11
604.5095
 21
947.582
 31
0.0
  0
LINE
  5
6CF
330
1D
100
AcDbEntity
  8
0
100
AcDbLine
 10
615.9095
 20
929.222
 30
0.0
 11
615.9095
 21
921.542
 31
0.0
  0
LINE
  5
6D0
330
1D
100
AcDbEntity
  8
0
100
AcDbLine
 10
615.9095
 20
929.222
 30
0.0
 11
615.9095
 21
936.422
 31
0.0
  0
LINE
  5
6D1
330
1D
100
AcDbEntity
  8
0
100
AcDbLine
 10
615.9095
 20
936.422
 30
0.0
 11
615.9095
 21
929.222
 31
0.0
  0
LINE
  5
6D2
330
1D
100
AcDbEntity
  8
0
100
AcDbLine
 10
615.9095
 20
936.422
 30
0.0
 11
615.9095
 21
942.782
 31
0.0
  0
LINE
  5
6D3
330
1D
100
AcDbEntity
  8
0
100
AcDbLine
 10
550.9175
 20
947.542
 30
0.0
 11
553.4135
 21
947.542
 31
0.0
  0
LINE
  5
6D4
330
1D
100
AcDbEntity
  8
0
100
AcDbLine
 10
553.4135
 20
947.542
 30
0.0
 11
554.9495
 21
947.542
 31
0.0
  0
LINE
  5
6D5
330
1D
100
AcDbEntity
  8
0
100
AcDbLine
 10
555.9095
 20
946.742
 30
0.0
 11
555.9095
 21
934.919974847593
 31
0.0
  0
LINE
  5
6D6
330
1D
100
AcDbEntity
  8
0
100
AcDbLine
 10
554.9495
 20
947.542
 30
0.0
 11
555.5255
 21
947.542
 31
0.0
  0
LINE
  5
6D7
330
1D
100
AcDbEntity
  8
0
100
AcDbLine
 10
555.5255
 20
947.542
 30
0.0
 11
555.9095
 21
946.742
 31
0.0
  0
LINE
  5
6D8
330
1D
100
AcDbEntity
  8
0
100
AcDbLine
 10
603.9095
 20
946.862
 30
0.0
 11
603.9095
 21
942.182
 31
0.0
  0
LINE
  5
6D9
330
1D
100
AcDbEntity
  8
0
100
AcDbLine
 10
603.9095
 20
946.862
 30
0.0
 11
603.9095
 21
949.742
 31
0.0
  0
LINE
  5
6DA
330
1D
100
AcDbEntity
  8
0
100
AcDbLine
 10
603.9095
 20
949.742
 30
0.0
 11
603.9095
 21
946.862
 31
0.0
  0
LINE
  5
6DB
330
1D
100
AcDbEntity
  8
0
100
AcDbLine
 10
603.9095
 20
949.742
 30
0.0
 11
603.9095
 21
950.822
 31
0.0
  0
LINE
  5
6DC
330
1D
100
AcDbEntity
  8
0
100
AcDbLine
 10
604.5095
 20
947.582
 30
0.0
 11
604.5095
 21
942.782
 31
0.0
  0
LINE
  5
6DD
330
1D
100
AcDbEntity
  8
0
100
AcDbLine
 10
604.5095
 20
947.582
 30
0.0
 11
604.5095
 21
950.462
 31
0.0
  0
LINE
  5
6DE
330
1D
100
AcDbEntity
  8
0
100
AcDbLine
 10
604.5095
 20
950.462
 30
0.0
 11
604.5095
 21
947.582
 31
0.0
  0
LINE
  5
6DF
330
1D
100
AcDbEntity
  8
0
100
AcDbLine
 10
604.5095
 20
950.462
 30
0.0
 11
604.5095
 21
951.542
 31
0.0
  0
LINE
  5
6E0
330
1D
100
AcDbEntity
  8
0
100
AcDbLine
 10
615.9095
 20
942.782
 30
0.0
 11
615.9095
 21
936.422
 31
0.0
  0
LINE
  5
6E1
330
1D
100
AcDbEntity
  8
0
100
AcDbLine
 10
615.9095
 20
942.782
 30
0.0
 11
615.9095
 21
947.582
 31
0.0
  0
LINE
  5
6E2
330
1D
100
AcDbEntity
  8
0
100
AcDbLine
 10
615.9095
 20
947.582
 30
0.0
 11
615.9095
 21
942.782
 31
0.0
  0
LINE
  5
6E3
330
1D
100
AcDbEntity
  8
0
100
AcDbLine
 10
615.9095
 20
947.582
 30
0.0
 11
615.9095
 21
950.462
 31
0.0
  0
LINE
  5
6E4
330
1D
100
AcDbEntity
  8
0
100
AcDbLine
 10
603.9095
 20
950.822
 30
0.0
 11
603.9095
 21
949.742
 31
0.0
  0
LINE
  5
6E5
330
1D
100
AcDbEntity
  8
0
100
AcDbLine
 10
603.9095
 20
950.822
 30
0.0
 11
604.5095
 21
951.542
 31
0.0
  0
LINE
  5
6E6
330
1D
100
AcDbEntity
  8
0
100
AcDbLine
 10
604.5095
 20
951.542
 30
0.0
 11
604.5095
 21
950.462
 31
0.0
  0
LINE
  5
6E7
330
1D
100
AcDbEntity
  8
0
100
AcDbLine
 10
604.5095
 20
951.542
 30
0.0
 11
615.9095
 21
951.542
 31
0.0
  0
LINE
  5
6E8
330
1D
100
AcDbEntity
  8
0
100
AcDbLine
 10
615.9095
 20
950.462
 30
0.0
 11
615.9095
 21
947.582
 31
0.0
  0
LINE
  5
6E9
330
1D
100
AcDbEntity
  8
0
100
AcDbLine
 10
615.9095
 20
950.462
 30
0.0
 11
615.9095
 21
951.542
 31
0.0
  0
LINE
  5
6EA
330
1D
100
AcDbEntity
  8
0
100
AcDbLine
 10
615.9095
 20
951.542
 30
0.0
 11
615.9095
 21
950.462
 31
0.0
  0
LINE
  5
6EB
330
1D
100
AcDbEntity
  8
0
100
AcDbLine
 10
615.9095
 20
921.542
 30
0.0
 11
615.9095
 21
913.862
 31
0.0
  0
LINE
  5
6EC
330
1D
100
AcDbEntity
  8
0
100
AcDbLine
 10
615.9095
 20
921.542
 30
0.0
 11
615.9095
 21
929.222
 31
0.0
  0
LINE
  5
6ED
330
1D
100
AcDbEntity
  8
0
100
AcDbLine
 10
615.9095
 20
913.862
 30
0.0
 11
615.9095
 21
906.662
 31
0.0
  0
LINE
  5
6EE
330
1D
100
AcDbEntity
  8
0
100
AcDbLine
 10
615.9095
 20
913.862
 30
0.0
 11
615.9095
 21
921.542
 31
0.0
  0
LINE
  5
6EF
330
1D
100
AcDbEntity
  8
0
100
AcDbLine
 10
615.9095
 20
906.662
 30
0.0
 11
615.9095
 21
900.302
 31
0.0
  0
LINE
  5
6F0
330
1D
100
AcDbEntity
  8
0
100
AcDbLine
 10
615.9095
 20
906.662
 30
0.0
 11
615.9095
 21
913.862
 31
0.0
  0
LINE
  5
6F1
330
1D
100
AcDbEntity
  8
0
100
AcDbLine
 10
615.9095
 20
900.302
 30
0.0
 11
615.9095
 21
895.502
 31
0.0
  0
LINE
  5
6F2
330
1D
100
AcDbEntity
  8
0
100
AcDbLine
 10
615.9095
 20
900.302
 30
0.0
 11
615.9095
 21
906.662
 31
0.0
  0
LINE
  5
6F3
330
1D
100
AcDbEntity
  8
0
100
AcDbLine
 10
615.9095
 20
895.502
 30
0.0
 11
615.9095
 21
892.622
 31
0.0
  0
LINE
  5
6F4
330
1D
100
AcDbEntity
  8
0
100
AcDbLine
 10
615.9095
 20
895.502
 30
0.0
 11
615.9095
 21
900.302
 31
0.0
  0
LINE
  5
6F5
330
1D
100
AcDbEntity
  8
0
100
AcDbLine
 10
615.9095
 20
892.622
 30
0.0
 11
615.9095
 21
891.542
 31
0.0
  0
LINE
  5
6F6
330
1D
100
AcDbEntity
  8
0
100
AcDbLine
 10
615.9095
 20
892.622
 30
0.0
 11
615.9095
 21
895.502
 31
0.0
  0
LINE
  5
6F7
330
1D
100
AcDbEntity
  8
0
100
AcDbLine
 10
552.8925
 20
759.388
 30
0.0
 11
554.4285
 21
759.388
 31
0.0
  0
LINE
  5
6F8
330
1D
100
AcDbEntity
  8
0
100
AcDbLine
 10
550.3965
 20
759.388
 30
0.0
 11
552.8925
 21
759.388
 31
0.0
  0
LINE
  5
6F9
330
1D
100
AcDbEntity
  8
0
100
AcDbLine
 10
551.8795
 20
336.542
 30
0.0
 11
551.8795
 21
707.388
 31
0.0
  0
LINE
  5
6FA
330
1D
100
AcDbEntity
  8
0
100
AcDbLine
 10
550.0095
 20
1193.242
 30
0.0
 11
550.0095
 21
947.542
 31
0.0
  0
LINE
  5
6FB
330
1D
100
AcDbEntity
  8
0
100
AcDbLine
 10
550.0095
 20
1193.242
 30
0.0
 11
550.0095
 21
1282.242
 31
0.0
  0
LINE
  5
6FC
330
1D
100
AcDbEntity
  8
0
100
AcDbLine
 10
550.0095
 20
1282.242
 30
0.0
 11
550.0095
 21
1193.242
 31
0.0
  0
LINE
  5
6FD
330
1D
100
AcDbEntity
  8
0
100
AcDbLine
 10
548.8665
 20
1292.392
 30
0.0
 11
550.0095
 21
1282.242
 31
0.0
  0
LINE
  5
6FE
330
1D
100
AcDbEntity
  8
0
100
AcDbLine
 10
540.0605
 20
1310.672
 30
0.0
 11
545.4935
 21
1302.022
 31
0.0
  0
LINE
  5
6FF
330
1D
100
AcDbEntity
  8
0
100
AcDbLine
 10
545.4935
 20
1302.022
 30
0.0
 11
548.8665
 21
1292.392
 31
0.0
  0
LINE
  5
700
330
1D
100
AcDbEntity
  8
0
100
AcDbLine
 10
532.8405
 20
1317.892
 30
0.0
 11
540.0605
 21
1310.672
 31
0.0
  0
LINE
  5
701
330
1D
100
AcDbEntity
  8
0
100
AcDbLine
 10
524.1945
 20
1323.322
 30
0.0
 11
532.8405
 21
1317.892
 31
0.0
  0
LINE
  5
702
330
1D
100
AcDbEntity
  8
0
100
AcDbLine
 10
514.5565
 20
1326.702
 30
0.0
 11
524.1945
 21
1323.322
 31
0.0
  0
LINE
  5
703
330
1D
100
AcDbEntity
  8
0
100
AcDbLine
 10
504.4095
 20
1327.842
 30
0.0
 11
514.5565
 21
1326.702
 31
0.0
  0
LINE
  5
72B
330
1D
100
AcDbEntity
  8
0
100
AcDbLine
 10
8.5145
 20
1085.92
 30
0.0
 11
270.3045
 21
1085.92
 31
0.0
  0
LINE
  5
72C
330
1D
100
AcDbEntity
  8
0
100
AcDbLine
 10
157.204169270833
 20
1225.142
 30
0.0
 11
121.499963541667
 21
1225.142
 31
0.0
  0
LINE
  5
72D
330
1D
100
AcDbEntity
  8
0
100
AcDbLine
 10
524.3025
 20
232.807
 30
0.0
 11
554.8845
 21
232.816
 31
0.0
  0
LINE
  5
72E
330
1D
100
AcDbEntity
  8
0
100
AcDbLine
 10
524.8675
 20
180.959
 30
0.0
 11
555.0425
 21
180.957
 31
0.0
  0
LINE
  5
72F
330
1D
100
AcDbEntity
  8
0
100
AcDbLine
 10
507.0705
 20
193.763
 30
0.0
 11
507.574212513061
 21
193.763
 31
0.0
  0
LINE
  5
730
330
1D
100
AcDbEntity
  8
0
100
AcDbLine
 10
507.574212513061
 20
193.763
 30
0.0
 11
507.6105
 21
193.711
 31
0.0
  0
LINE
  5
731
330
1D
100
AcDbEntity
  8
0
100
AcDbLine
 10
507.574212513061
 20
193.763
 30
0.0
 11
507.6615
 21
220.105
 31
0.0
  0
LINE
  5
732
330
1D
100
AcDbEntity
  8
0
100
AcDbLine
 10
507.0555
 20
219.919
 30
0.0
 11
507.660883665911
 21
219.919
 31
0.0
  0
LINE
  5
733
330
1D
100
AcDbEntity
  8
0
100
AcDbLine
 10
507.0555
 20
219.919
 30
0.0
 11
507.0705
 21
193.763
 31
0.0
  0
LINE
  5
734
330
1D
100
AcDbEntity
  8
0
100
AcDbLine
 10
484.4445
 20
179.725
 30
0.0
 11
484.4195
 21
234.024
 31
0.0
  0
LINE
  5
735
330
1D
100
AcDbEntity
  8
0
100
AcDbLine
 10
491.6495
 20
228.88
 30
0.0
 11
491.6445
 21
184.802
 31
0.0
  0
LINE
  5
736
330
1D
100
AcDbEntity
  8
0
100
AcDbLine
 10
490.632011836171
 20
108.187842294827
 30
0.0
 11
505.7745
 21
108.232
 31
0.0
  0
LINE
  5
737
330
1D
100
AcDbEntity
  8
0
100
AcDbLine
 10
490.636671823186
 20
135.231694668858
 30
0.0
 11
505.7485
 21
135.065
 31
0.0
  0
LINE
  5
738
330
1D
100
AcDbEntity
  8
0
100
AcDbLine
 10
483.4345
 20
94.534
 30
0.0
 11
483.4095
 21
148.833
 31
0.0
  0
LINE
  5
739
330
1D
100
AcDbEntity
  8
0
100
AcDbLine
 10
490.6395
 20
143.689
 30
0.0
 11
490.6345
 21
99.611
 31
0.0
  0
LINE
  5
73A
330
1D
100
AcDbEntity
  8
0
100
AcDbLine
 10
483.4345
 20
94.534
 30
0.0
 11
483.7165
 21
94.304
 31
0.0
  0
LINE
  5
73B
330
1D
100
AcDbEntity
  8
0
100
AcDbLine
 10
483.7165
 20
94.304
 30
0.0
 11
489.1645
 21
94.28
 31
0.0
  0
LINE
  5
73C
330
1D
100
AcDbEntity
  8
0
100
AcDbLine
 10
489.1645
 20
94.28
 30
0.0
 11
490.6345
 21
99.611
 31
0.0
  0
LINE
  5
73D
330
1D
100
AcDbEntity
  8
0
100
AcDbLine
 10
483.4165
 20
139.86
 30
0.0
 11
483.416579060559
 21
139.94832382065
 31
0.0
  0
LINE
  5
73E
330
1D
100
AcDbEntity
  8
0
100
AcDbLine
 10
483.4095
 20
148.833
 30
0.0
 11
483.6795
 21
148.997
 31
0.0
  0
LINE
  5
73F
330
1D
100
AcDbEntity
  8
0
100
AcDbLine
 10
483.6795
 20
148.997
 30
0.0
 11
489.1455
 21
149.06
 31
0.0
  0
LINE
  5
740
330
1D
100
AcDbEntity
  8
0
100
AcDbLine
 10
489.1455
 20
149.06
 30
0.0
 11
489.3395
 21
148.486
 31
0.0
  0
LINE
  5
741
330
1D
100
AcDbEntity
  8
0
100
AcDbLine
 10
489.3395
 20
148.486
 30
0.0
 11
490.6395
 21
143.689
 31
0.0
  0
LINE
  5
742
330
1D
100
AcDbEntity
  8
0
100
AcDbLine
 10
506.56421251306
 20
108.572
 30
0.0
 11
506.6515
 21
134.914
 31
0.0
  0
LINE
  5
743
330
1D
100
AcDbEntity
  8
0
100
AcDbLine
 10
506.0455
 20
134.728
 30
0.0
 11
506.0605
 21
108.572
 31
0.0
  0
LINE
  5
744
330
1D
100
AcDbEntity
  8
0
100
AcDbLine
 10
506.8895
 20
108.234
 30
0.0
 11
513.1035
 21
108.33
 31
0.0
  0
LINE
  5
745
330
1D
100
AcDbEntity
  8
0
100
AcDbLine
 10
505.8535
 20
108.285
 30
0.0
 11
506.0605
 21
108.572
 31
0.0
  0
LINE
  5
746
330
1D
100
AcDbEntity
  8
0
100
AcDbLine
 10
505.7745
 20
108.232
 30
0.0
 11
505.8535
 21
108.285
 31
0.0
  0
LINE
  5
747
330
1D
100
AcDbEntity
  8
0
100
AcDbLine
 10
506.6005
 20
108.52
 30
0.0
 11
506.7675
 21
108.3
 31
0.0
  0
LINE
  5
748
330
1D
100
AcDbEntity
  8
0
100
AcDbLine
 10
506.7675
 20
108.3
 30
0.0
 11
506.8895
 21
108.234
 31
0.0
  0
LINE
  5
749
330
1D
100
AcDbEntity
  8
0
100
AcDbLine
 10
506.0605
 20
108.572
 30
0.0
 11
506.56421251306
 21
108.572
 31
0.0
  0
LINE
  5
74A
330
1D
100
AcDbEntity
  8
0
100
AcDbLine
 10
506.56421251306
 20
108.572
 30
0.0
 11
506.6005
 21
108.52
 31
0.0
  0
LINE
  5
74B
330
1D
100
AcDbEntity
  8
0
100
AcDbLine
 10
507.0805
 20
135.073
 30
0.0
 11
513.0795
 21
135.342
 31
0.0
  0
LINE
  5
74C
330
1D
100
AcDbEntity
  8
0
100
AcDbLine
 10
505.7485
 20
135.065
 30
0.0
 11
506.0455
 21
134.728
 31
0.0
  0
LINE
  5
74D
330
1D
100
AcDbEntity
  8
0
100
AcDbLine
 10
506.6515
 20
134.914
 30
0.0
 11
507.0805
 21
135.098
 31
0.0
  0
LINE
  5
74E
330
1D
100
AcDbEntity
  8
0
100
AcDbLine
 10
506.0455
 20
134.728
 30
0.0
 11
506.650883665911
 21
134.728
 31
0.0
  0
LINE
  5
74F
330
1D
100
AcDbEntity
  8
0
100
AcDbLine
 10
556.6845
 20
94.102
 30
0.0
 11
559.718851033798
 21
93.683691991658
 31
0.0
  0
LINE
  5
750
330
1D
100
AcDbEntity
  8
0
100
AcDbLine
 10
559.718851033798
 20
93.683691991658
 30
0.0
 11
563.2145
 21
93.332
 31
0.0
  0
LINE
  5
751
330
1D
100
AcDbEntity
  8
0
100
AcDbLine
 10
595.4095
 20
93.334803395945
 30
0.0
 11
563.186635594872
 21
93.334803395945
 31
0.0
  0
LINE
  5
752
330
1D
100
AcDbEntity
  8
0
100
AcDbLine
 10
557.765790163986
 20
138.859765338583
 30
0.0
 11
559.061861590601
 21
137.56647479341
 31
0.0
  0
LINE
  5
753
330
1D
100
AcDbEntity
  8
0
100
AcDbLine
 10
559.061861590601
 20
137.56647479341
 30
0.0
 11
560.0405
 21
136.277
 31
0.0
  0
LINE
  5
754
330
1D
100
AcDbEntity
  8
0
100
AcDbLine
 10
595.4095
 20
84.022
 30
0.0
 11
595.4095
 21
147.462
 31
0.0
  0
LINE
  5
755
330
1D
100
AcDbEntity
  8
0
100
AcDbLine
 10
548.330482970391
 20
98.406342431614
 30
0.0
 11
548.606362592895
 21
98.512857544144
 31
0.0
  0
LINE
  5
756
330
1D
100
AcDbEntity
  8
0
100
AcDbLine
 10
549.402655730215
 20
98.856577143721
 30
0.0
 11
549.6035
 21
98.935
 31
0.0
  0
LINE
  5
757
330
1D
100
AcDbEntity
  8
0
100
AcDbLine
 10
543.5485
 20
97.125
 30
0.0
 11
544.475668833827
 21
97.304032894953
 31
0.0
  0
LINE
  5
758
330
1D
100
AcDbEntity
  8
0
100
AcDbLine
 10
538.1885
 20
95.001
 30
0.0
 11
539.968136397239
 21
95.063038398931
 31
0.0
  0
LINE
  5
759
330
1D
100
AcDbEntity
  8
0
100
AcDbLine
 10
526.082226243361
 20
100.600421189753
 30
0.0
 11
526.8495
 21
99.88
 31
0.0
  0
LINE
  5
75A
330
1D
100
AcDbEntity
  8
0
100
AcDbLine
 10
521.5865
 20
104.496
 30
0.0
 11
522.171967883672
 21
103.956042566641
 31
0.0
  0
LINE
  5
75B
330
1D
100
AcDbEntity
  8
0
100
AcDbLine
 10
515.4765
 20
115.425
 30
0.0
 11
516.2435
 21
113.018
 31
0.0
  0
LINE
  5
75C
330
1D
100
AcDbEntity
  8
0
100
AcDbLine
 10
556.7575
 20
140.027
 30
0.0
 11
557.0925
 21
139.694
 31
0.0
  0
LINE
  5
75D
330
1D
100
AcDbEntity
  8
0
100
AcDbLine
 10
541.9485
 20
146.684
 30
0.0
 11
542.124320342982
 21
146.657448688867
 31
0.0
  0
LINE
  5
75E
330
1D
100
AcDbEntity
  8
0
100
AcDbLine
 10
549.979052264549
 20
144.485026555141
 30
0.0
 11
548.896918033254
 21
144.974929722276
 31
0.0
  0
LINE
  5
75F
330
1D
100
AcDbEntity
  8
0
100
AcDbLine
 10
533.1805
 20
146.023
 30
0.0
 11
534.4045
 21
146.251
 31
0.0
  0
ENDSEC
  0
SECTION
  2
OBJECTS
  0
DICTIONARY
  5
C
330
0
100
AcDbDictionary
281
     1
  3
ACAD_GROUP
350
D
  3
ACAD_LAYOUT
350
1A
  3
ACAD_MLEADERSTYLE
350
762
  3
ACAD_MLINESTYLE
350
17
  3
ACAD_PLOTSETTINGS
350
19
  3
ACAD_PLOTSTYLENAME
350
E
  3
ACAD_SCALELIST
350
709
  3
AcDbVariableDictionary
350
760
  3
DWGPROPS
350
765
  0
DICTIONARY
  5
D
102
{ACAD_REACTORS
330
C
102
}
330
C
100
AcDbDictionary
281
     1
  0
DICTIONARY
  5
1A
102
{ACAD_REACTORS
330
C
102
}
330
C
100
AcDbDictionary
281
     1
  3
Layout1
350
1C
  3
Model
350
1E
  0
DICTIONARY
  5
762
102
{ACAD_REACTORS
330
C
102
}
330
C
100
AcDbDictionary
281
     1
  0
DICTIONARY
  5
17
102
{ACAD_REACTORS
330
C
102
}
330
C
100
AcDbDictionary
281
     1
  3
Standard
350
18
  0
DICTIONARY
  5
19
102
{ACAD_REACTORS
330
C
102
}
330
C
100
AcDbDictionary
281
     1
  0
ACDBDICTIONARYWDFLT
  5
E
102
{ACAD_REACTORS
330
C
102
}
330
C
100
AcDbDictionary
281
     1
  3
Normal
350
F
100
AcDbDictionaryWithDefault
340
F
  0
DICTIONARY
  5
709
102
{ACAD_REACTORS
330
C
102
}
330
C
100
AcDbDictionary
281
     1
  3
A0
350
70A
  3
A1
350
70B
  3
A2
350
70C
  3
A3
350
70D
  3
A4
350
70E
  3
A5
350
70F
  3
A6
350
710
  3
A7
350
711
  3
A8
350
712
  3
A9
350
713
  3
B0
350
714
  3
B1
350
715
  3
B2
350
716
  3
B3
350
717
  3
B4
350
718
  3
B5
350
719
  3
B6
350
71A
  3
B7
350
71B
  3
B8
350
71C
  3
B9
350
71D
  3
C0
350
71E
  3
C1
350
71F
  3
C2
350
720
  3
C3
350
721
  3
C4
350
722
  3
C5
350
723
  3
C6
350
724
  3
C7
350
725
  3
C8
350
726
  3
C9
350
727
  3
D0
350
728
  3
D1
350
729
  3
D2
350
72A
  0
DICTIONARY
  5
760
102
{ACAD_REACTORS
330
C
102
}
330
C
100
AcDbDictionary
281
     1
  3
CANNOSCALE
350
763
  0
XRECORD
  5
765
102
{ACAD_REACTORS
330
C
102
}
330
C
100
AcDbXrecord
280
     1
  1
DWGPROPS COOKIE
  2

  3

  4

  6

  7

  8
MARTIN
  9

300
=
301
=
302
=
303
=
304
=
305
=
306
=
307
=
308
=
309
=
 40
0.0
 41
2456647.923273646
 42
2456647.932809236
  1

 90
        0
  0
LAYOUT
  5
1C
102
{ACAD_REACTORS
330
1A
102
}
330
1A
100
AcDbPlotSettings
  1

  2
none_device
  4

  6

 40
0.0
 41
0.0
 42
0.0
 43
0.0
 44
0.0
 45
0.0
 46
0.0
 47
0.0
 48
0.0
 49
0.0
140
0.0
141
0.0
142
1.0
143
1.0
 70
   688
 72
     0
 73
     0
 74
     5
  7

 75
    16
147
1.0
148
0.0
149
0.0
100
AcDbLayout
  1
Layout1
 70
     1
 71
     1
 10
0.0
 20
0.0
 11
12.0
 21
9.0
 12
0.0
 22
0.0
 32
0.0
 14
1.000000000000E+20
 24
1.000000000000E+20
 34
1.000000000000E+20
 15
-1.000000000000E+20
 25
-1.000000000000E+20
 35
-1.000000000000E+20
146
0.0
 13
0.0
 23
0.0
 33
0.0
 16
1.0
 26
0.0
 36
0.0
 17
0.0
 27
1.0
 37
0.0
 76
     0
330
1B
  0
LAYOUT
  5
1E
102
{ACAD_REACTORS
330
1A
102
}
330
1A
100
AcDbPlotSettings
  1

  2
none_device
  4

  6

 40
0.0
 41
0.0
 42
0.0
 43
0.0
 44
0.0
 45
0.0
 46
0.0
 47
0.0
 48
0.0
 49
0.0
140
0.0
141
0.0
142
1.0
143
1.0
 70
  1712
 72
     0
 73
     0
 74
     0
  7

 75
     0
147
1.0
148
0.0
149
0.0
100
AcDbLayout
  1
Model
 70
     1
 71
     0
 10
0.0
 20
0.0
 11
12.0
 21
9.0
 12
0.0
 22
0.0
 32
0.0
 14
0.0905
 24
0.158
 34
0.0
 15
615.9095
 25
1327.842
 35
0.0
146
0.0
 13
0.0
 23
0.0
 33
0.0
 16
1.0
 26
0.0
 36
0.0
 17
0.0
 27
1.0
 37
0.0
 76
     0
330
1D
331
704
  0
MLINESTYLE
  5
18
102
{ACAD_REACTORS
330
17
102
}
330
17
100
AcDbMlineStyle
  2
Standard
 70
     0
  3

 62
   256
 51
90.0
 52
90.0
 71
     2
 49
0.5
 62
   256
  6
BYLAYER
 49
-0.5
 62
   256
  6
BYLAYER
  0
ACDBPLACEHOLDER
  5
F
102
{ACAD_REACTORS
330
E
102
}
330
E
  0
SCALE
  5
70A
102
{ACAD_REACTORS
330
709
102
}
330
709
100
AcDbScale
 70
     0
300
1:1
140
1.0
141
1.0
290
     1
  0
SCALE
  5
70B
102
{ACAD_REACTORS
330
709
102
}
330
709
100
AcDbScale
 70
     0
300
1:2
140
1.0
141
2.0
290
     0
  0
SCALE
  5
70C
102
{ACAD_REACTORS
330
709
102
}
330
709
100
AcDbScale
 70
     0
300
1:4
140
1.0
141
4.0
290
     0
  0
SCALE
  5
70D
102
{ACAD_REACTORS
330
709
102
}
330
709
100
AcDbScale
 70
     0
300
1:5
140
1.0
141
5.0
290
     0
  0
SCALE
  5
70E
102
{ACAD_REACTORS
330
709
102
}
330
709
100
AcDbScale
 70
     0
300
1:8
140
1.0
141
8.0
290
     0
  0
SCALE
  5
70F
102
{ACAD_REACTORS
330
709
102
}
330
709
100
AcDbScale
 70
     0
300
1:10
140
1.0
141
10.0
290
     0
  0
SCALE
  5
710
102
{ACAD_REACTORS
330
709
102
}
330
709
100
AcDbScale
 70
     0
300
1:16
140
1.0
141
16.0
290
     0
  0
SCALE
  5
711
102
{ACAD_REACTORS
330
709
102
}
330
709
100
AcDbScale
 70
     0
300
1:20
140
1.0
141
20.0
290
     0
  0
SCALE
  5
712
102
{ACAD_REACTORS
330
709
102
}
330
709
100
AcDbScale
 70
     0
300
1:30
140
1.0
141
30.0
290
     0
  0
SCALE
  5
713
102
{ACAD_REACTORS
330
709
102
}
330
709
100
AcDbScale
 70
     0
300
1:40
140
1.0
141
40.0
290
     0
  0
SCALE
  5
714
102
{ACAD_REACTORS
330
709
102
}
330
709
100
AcDbScale
 70
     0
300
1:50
140
1.0
141
50.0
290
     0
  0
SCALE
  5
715
102
{ACAD_REACTORS
330
709
102
}
330
709
100
AcDbScale
 70
     0
300
1:100
140
1.0
141
100.0
290
     0
  0
SCALE
  5
716
102
{ACAD_REACTORS
330
709
102
}
330
709
100
AcDbScale
 70
     0
300
2:1
140
2.0
141
1.0
290
     0
  0
SCALE
  5
717
102
{ACAD_REACTORS
330
709
102
}
330
709
100
AcDbScale
 70
     0
300
4:1
140
4.0
141
1.0
290
     0
  0
SCALE
  5
718
102
{ACAD_REACTORS
330
709
102
}
330
709
100
AcDbScale
 70
     0
300
8:1
140
8.0
141
1.0
290
     0
  0
SCALE
  5
719
102
{ACAD_REACTORS
330
709
102
}
330
709
100
AcDbScale
 70
     0
300
10:1
140
10.0
141
1.0
290
     0
  0
SCALE
  5
71A
102
{ACAD_REACTORS
330
709
102
}
330
709
100
AcDbScale
 70
     0
300
100:1
140
100.0
141
1.0
290
     0
  0
SCALE
  5
71B
102
{ACAD_REACTORS
330
709
102
}
330
709
100
AcDbScale
 70
     0
300
1/128" = 1'-0"
140
0.0078125
141
12.0
290
     0
  0
SCALE
  5
71C
102
{ACAD_REACTORS
330
709
102
}
330
709
100
AcDbScale
 70
     0
300
1/64" = 1'-0"
140
0.015625
141
12.0
290
     0
  0
SCALE
  5
71D
102
{ACAD_REACTORS
330
709
102
}
330
709
100
AcDbScale
 70
     0
300
1/32" = 1'-0"
140
0.03125
141
12.0
290
     0
  0
SCALE
  5
71E
102
{ACAD_REACTORS
330
709
102
}
330
709
100
AcDbScale
 70
     0
300
1/16" = 1'-0"
140
0.0625
141
12.0
290
     0
  0
SCALE
  5
71F
102
{ACAD_REACTORS
330
709
102
}
330
709
100
AcDbScale
 70
     0
300
3/32" = 1'-0"
140
0.09375
141
12.0
290
     0
  0
SCALE
  5
720
102
{ACAD_REACTORS
330
709
102
}
330
709
100
AcDbScale
 70
     0
300
1/8" = 1'-0"
140
0.125
141
12.0
290
     0
  0
SCALE
  5
721
102
{ACAD_REACTORS
330
709
102
}
330
709
100
AcDbScale
 70
     0
300
3/16" = 1'-0"
140
0.1875
141
12.0
290
     0
  0
SCALE
  5
722
102
{ACAD_REACTORS
330
709
102
}
330
709
100
AcDbScale
 70
     0
300
1/4" = 1'-0"
140
0.25
141
12.0
290
     0
  0
SCALE
  5
723
102
{ACAD_REACTORS
330
709
102
}
330
709
100
AcDbScale
 70
     0
300
3/8" = 1'-0"
140
0.375
141
12.0
290
     0
  0
SCALE
  5
724
102
{ACAD_REACTORS
330
709
102
}
330
709
100
AcDbScale
 70
     0
300
1/2" = 1'-0"
140
0.5
141
12.0
290
     0
  0
SCALE
  5
725
102
{ACAD_REACTORS
330
709
102
}
330
709
100
AcDbScale
 70
     0
300
3/4" = 1'-0"
140
0.75
141
12.0
290
     0
  0
SCALE
  5
726
102
{ACAD_REACTORS
330
709
102
}
330
709
100
AcDbScale
 70
     0
300
1" = 1'-0"
140
1.0
141
12.0
290
     0
  0
SCALE
  5
727
102
{ACAD_REACTORS
330
709
102
}
330
709
100
AcDbScale
 70
     0
300
1-1/2" = 1'-0"
140
1.5
141
12.0
290
     0
  0
SCALE
  5
728
102
{ACAD_REACTORS
330
709
102
}
330
709
100
AcDbScale
 70
     0
300
3" = 1'-0"
140
3.0
141
12.0
290
     0
  0
SCALE
  5
729
102
{ACAD_REACTORS
330
709
102
}
330
709
100
AcDbScale
 70
     0
300
6" = 1'-0"
140
6.0
141
12.0
290
     0
  0
SCALE
  5
72A
102
{ACAD_REACTORS
330
709
102
}
330
709
100
AcDbScale
 70
     0
300
1'-0" = 1'-0"
140
12.0
141
12.0
290
     0
  0
DICTIONARYVAR
  5
763
102
{ACAD_REACTORS
330
760
102
}
330
760
100
DictionaryVariables
280
     0
  1
1:1
  0
ENDSEC
  0
SECTION
  2
THUMBNAILIMAGE
 90
    16364
310
28000000B40000005500000001000800000000000000000000000000000000000000000000000000FFFFFF000000FF0000FFFF0000FF0000FFFF0000FF000000FF00FF000000000080808000C0C0C0000000FF007F7FFF000000A5005252A50000007F003F3F7F0000004C0026264C000000260013132600003FFF007F9FFF
310
000029A5005267A500001F7F003F4F7F0000134C00262F4C000009260013172600007FFF007FBFFF000052A500527CA500003F7F003F5F7F0000264C0026394C0000132600131C260000BFFF007FDFFF00007CA5005291A500005F7F003F6F7F0000394C0026424C00001C26001321260000FFFF007FFFFF0000A5A50052A5
310
A500007F7F003F7F7F00004C4C00264C4C00002626001326260000FFBF007FFFDF0000A57C0052A59100007F5F003F7F6F00004C3900264C420000261C001326210000FF7F007FFFBF0000A5520052A57C00007F3F003F7F5F00004C2600264C39000026130013261C0000FF3F007FFF9F0000A5290052A56700007F1F003F
310
7F4F00004C1300264C2F00002609001326170000FF00007FFF7F0000A5000052A55200007F00003F7F3F00004C0000264C260000260000132613003FFF00009FFF7F0029A5000067A552001F7F00004F7F3F00134C00002F4C260009260000172613007FFF0000BFFF7F0052A500007CA552003F7F00005F7F3F00264C0000
310
394C2600132600001C261300BFFF0000DFFF7F007CA5000091A552005F7F00006F7F3F00394C0000424C26001C26000021261300FFFF0000FFFF7F00A5A50000A5A552007F7F00007F7F3F004C4C00004C4C26002626000026261300FFBF0000FFDF7F00A57C0000A59152007F5F00007F6F3F004C3900004C422600261C00
310
0026211300FF7F0000FFBF7F00A5520000A57C52007F3F00007F5F3F004C2600004C39260026130000261C1300FF3F0000FF9F7F00A5290000A56752007F1F00007F4F3F004C1300004C2F26002609000026171300FF000000FF7F7F00A5000000A55252007F0000007F3F3F004C0000004C2626002600000026131300FF00
310
3F00FF7F9F00A5002900A55267007F001F007F3F4F004C0013004C262F002600090026131700FF007F00FF7FBF00A5005200A5527C007F003F007F3F5F004C0026004C2639002600130026131C00FF00BF00FF7FDF00A5007C00A55291007F005F007F3F6F004C0039004C26420026001C0026132100FF00FF00FF7FFF00A5
310
00A500A552A5007F007F007F3F7F004C004C004C264C002600260026132600BF00FF00DF7FFF007C00A5009152A5005F007F006F3F7F0039004C0042264C001C002600211326007F00FF00BF7FFF005200A5007C52A5003F007F005F3F7F0026004C0039264C00130026001C1326003F00FF009F7FFF002900A5006752A500
310
1F007F004F3F7F0013004C002F264C000900260017132600000000002D2D2D005B5B5B0089898900B7B7B700B3B3B30000000000000000000000000000000000000000000000000000000000000000000000000000000000000000000000000000000000000000000000000000000000000000000000000000000000000000
310
00000000000000000000000000000000000000000000000000070700000000000000000000000000000000000000000000000000000000000000000000000000000000000000000000000000000000000000000000000000000000000000000000000000000000000000000000000000000000000000000000000000000000
310
00000000000000000000000000000000000000000000000000000000000000000000000000000000000000000000000000000000000000000000000000000000000000000000000000000000000007070000000000000000000000000000000000000000000000000000000000000000000000000000000000000000000000
310
00000000000000000000000000000000000000000000000000000000000000000000000000000000000000000000000000000000000000000000000000000000000000000000000000000000000000000000000000000000000000000000000000000000000000000000000000000000000000000000000000000000000000
310
00000000070700000000000000000000000000000000000000000000000000000000000000000000000000000000000000000000000000000000000000000000000000000000000000000000000000000000000000000000000000000000000000000000000000000000000000000000000000000000000000000000000000
310
00000000000000000000000000000000000000000000000000000000000000000000000000000000000000000000000000000000000000000007070000000000000000000000000000000000000000000000000000000000000000000000000000000000000000000000000000000000000000000000000000000000000000
310
00000000000000000000000000000000000000000000000000000000000000000000000000000000000000000000000000000000000000000000000000000000000000000000000000000000000000000000000000000000000000000000000000000000000000000000000000000707000000000000000000000000000000
310
00000000000000000000000000000000000000000000000000000000000000000000000000000000000000000000000000000000000000000000000000000000000000000000000000000000000000000000000000000000000000000000000000000000000000000000000000000000000000000000000000000000000000
310
00000000000000000000000000000000000000000000000000000000000000000000000007070000070700000000000000000000000000000000000000000000000000000000000000000000000000000000000000000000000000000000000000000000000000000000000000000000000000000000000000000000000000
310
00000000000000000000000000000000000000000000000000000000000000000000000000000000000000000000000000000000000000000000000000000000000000000000000000000000000000000000000000000700070707070707070000000000000000000000000000000000000000000000000000000000000000
310
00000000000000000000000000000000000000000000000000000000000000000000000000000000000000000000000000000000000000000000000000000000000000000000000000000000000000000000000000000000000000000000000000000000000000000000000000000000000000000000000000000000000000
310
00000000000000000000000007070700000700070700000000000000000000000000000000000000000000000000000000000000000000000000000000000000000000000000000000000000000000000000000000000000000000000000000000000000000000000000000000000000000000000000000000000000000000
310
00000000000000000000000000000000000000000000000000000000000000000000000000000000000000000000000000000000000000000000000000000000000707070000070007070000000000000000000000000000000000000000000000000000000000000000000000000000000000000000000000000000000000
310
00000000000000000000000000000000000000000000000000000000000000000000000000000000000000000000000000000000000000000000000000000000000000000000000000000000000000000000000000000000000000000000000000000000000000000000000000000000000000000000070007070707070707
310
00000000000000000000000000000000000000000000000000000000000000000000000000000000000000000000000000000000000000000000000000000000000000000000000000000000000000000000000000000000000000000000000000000000000000000000000000000000000000000000000000000000000000
310
00000000000000000000000000000000000000000000000000000000000000000000000000000000000000000000000707000000000000000000000000000000000000000000000000000000000000000000000000000000000000000000000000000000000000000000000000000000000000000000000000000000000000
310
00000000000000000000000000000000000000000000000000000000000000000000000000000000000000000000000000000000000000000000000000000000000000000000000000000000000000000000000000000000000000000000000000070000070707000000000000000000000000000000000000000000000000
310
00000000000000000000000000000000000000000000000000000000000000000000000000000000000000000000000000000000000000000000000000000000000000000000000000000000000000000000000000000000000000000000000000000000000000000000000000000000000000000000000000000000000000
310
00000000000000000000000000000000000000000000000707070700070000000000000000000000000000000000000000000000000000000000000000000000000000000000000000000000000000000000000000000000000000000000000000000000000000000000000000000000000000000000000000000000000000
310
00000000000000000000000000000000000000000000000000000000000000000000000000000000000000000000000000000000000000000000000000000000000000000000000000000000070707000007000000000000000000000000000000000000000000000000000000000000000000000000000000000000000000
310
00000000000000000000000000000000000000000000000000000000000000000000000000000000000000000000000000000000000000000000000000000000000000000000000000000000000000000000000000000000000000000000000000000000000000000000000000000000000000000000000000000000000000
310
00000707070707070000000000000000000000000000000000000000000000000000000000000000000000000000000000000000000000000000000000000000000000000000000000000000000000000000000000000000000000000000000000000000000000000000000000000000000000000000000000000000000000
310
00000000000000000000000000000000000000000000000000000000000000000000000000000000000000000000000000000000000000070000070700000000000000000000000000000000000000000000000000000000000000000000000000000000000000000000000000000000000000000000000000000000000000
310
00000000000000000000000000000000000000000000000000000000000000000000000000000000000000000000000000000000000000000000000000000000000000000000000000000000000000000000000000000000000000000000000000000000000000000000000000000007070000000000000000000000000000
310
00000000000000000000000000000000000000000000000000000000000000000000000000000000000000000000000000000000000000000000000000000000000000000000000000000000000000000000000000000000000000000000000000000000000000000000000000000000000000000000000000000000000000
310
00000000000000000000000000000000000000000000000000000000000000000000000000070700000000000000000000000000000000000000000000000000000000000000000000000000000000000000000000000000000000000000000000000000000000000000000000000000000000000000000000000000000000
310
00000000000000000000000000000000000000000000000000000000000000000000000000000000000000000000000000000000000000000000000000000000000000000000000000000000000000000000000000000000000007070700000000000000000000000000000000000000000000000000000000000000000000
310
00000000000000000000000000000000000000000000000000000000000000000000000000000000000000000000000000000000000000000000000000000000000000000000000000000000000000000000000000000000000000000000000000000000000000000000000000000000000000000000000000000000000000
310
00000000000000000000000000000000070007000000000000000000000000000000000000000000000000000000000000000000000000000000000000000000000000000000000000000000000000000000000000000000000000000000000000000000000000000000000000000000000000000000000000000000000000
310
00000000000000000000000000000000000000000000000000000000000000000000000000000000000000000000000000000000000000000000000000000000000000000007000700000000000000000000000000000000000000000000000000000000000000000000000000000000000000000000000000000000000000
310
00000000000000000000000000000000000000000000000000000000000000000000000000000000000000000000000000000000000000000000000000000000000000000000000000000000000000000000000000000000000000000000000000000000000000000000000000000000000000000000000000000707070000
310
00000000000000000000000000000000000000000000000000000000000000000000000000000000000000000000000000000000000000000000000000000000000000000000000000000000000000000000000000000000000000000000000000000000000000000000000000000000000000000000000000000000000000
310
00000000000000000000000000000000000000000000000000000000000000000000000000000000000000000000000007070000000000000000000000000000000000000000000000000000000000000000000000000000000000000000000000000000000000000000000000000000000000000000000000000000000000
310
00000000000000000000000000000000000000000000000000000000000000000000000000000000000000000000000000000000000000000000000000000000000000000000000000000000000000000000000000000000000000000000000000000000000707000000000000000000000000000000000000000000000000
310
00000000000000000000000000000000000000000000000000000000000000000000000000000000000000000000000000000000000000000000000000000000000000000000000000000000000000000000000000000000000000000000000000000000000000000000000000000000000000000000000000000000000000
310
00000000000000000000000000000000000000000000000000000007070000000000000000000000000000000000000000000000000000000000000000000000000000000000000000000000000000000000000000000000000000000000000000000000000000000000000000000000000000000000000000000000000000
310
00000000000000000000000000000000000000000000000000000000000000000000000000000000000000000000000000000000000000000000000000000000000000000000000000000000000000000707000000000000000000000000000000000000000000000000000000000000000000000000000000000000000000
310
00000000000000000000000000000000000000000000000000000000000000000000000000000000000000000000000000000000000000000000000000000000000000000000000000000000000000000000000000000000000000000000000000000000000000000000000000000000000000000000000000000000000000
310
00000000000007070000000000000000000000000000000000000000000000000000000000000000000000000000000000000000000000000000000000000000000000000000000000000000000000000000000000000000000000000000000000000000000000000000000000000000000000000000000000000000000000
310
00000000000000000000000000000000000000000000000000000000000000000000000000000000000000000000000000000000000000000000000707000000000000000000000000000000000000000000000000000000000000000000000000000000000000000000000000000000000000000000000000000000000000
310
00000000000000000000000000000000000000000000000000000000000000000000000000000000000000000000000000000000000000000000000000000000000000000000000000000000000000000000000000000000000000000000000000000000000000000000000000000000070700000000000000000000000000
310
00000000000000000000000000000000000000000000000000000000000000000000000000000000000000000000000000000000000000000000000000000000000000000000000000000000000000000000000000000000000000000000000000000000000000000000000000000000000000000000000000000000000000
310
00000000000000000000000000000000000000000000000000000000000000000000000000070707070000000000000000000000000000000000000000000000000000000000000000000000000000000000000000000000000000000000000000000000000000000000000000000000000000000000000000000000000000
310
00000000000000000000000000000000000000000000000000000000000000000000000000000000000000000000000000000000000000000000000000000000000000000000000000000000000000000000000000000000000707070707070000000000000000000000000000000000000000000000000000000000000000
310
00000000000000000000000000000000000000000000000000000000000000000000000000000000000000000000000000000000000000000000000000000000000000000000000000000000000000000000000000000000000000000000000000000000000000000000000000000000000000000000000000000000000000
310
00000000000000000000000000000007000707000700000000000000000000000000000000000000000000000000000000000000000000000000000000000000000000000000000000000000000000000000000000000000000000000000000000000000000000000000000000000000000000000000000000000000000000
310
00000000000000000000000000000000000000000000000000000000000000000000000000000000000000000000000000000000000000000000000000000000000000000700070700070000000000000000000000000000000000000000000000000000000000000000000000000000000000000000000000000000000000
310
00000000000000000000000000000000000000000000000000000000000000000000000000000000000000000000000000000000000000000000000000000000000000000000000000000000000000000000000000000000000000000000000000000000000000000000000000000000000000000000000000070007070007
310
00000000000000000000000000000000000000000000000000000000000000000000000000000000000000000000000000000000000000000000000000000000000000000000000000000000000000000000000000000000000000000000000000000000000000000000000000000000000000000000000000000000000000
310
00000000000000000000000000000000000000000000000000000000000000000000000000000000000000000000000007070707000000000000000000000000000000000000000000000000000000000000000000000000000000000000000000000000000000000000000000000000000000000000000000000000000000
310
00000000000000000000000000000000000000000000000000000000000000000000000000000000000000000000000000000000000000000000000000000000000000000000000000000000000000000000000000000000000000000000000000000000000007070000000000000000000000000000000000000000000000
310
00000000000000000000000000000000000000000000000000000000000000000000000000000000000000000000000000000000000000000000000000000000000000000000000000000000000000000000000000000000000000000000000000000000000000000000000000000000000000000000000000000000000000
310
00000000000000000000000000000000000000000000000000000000070700000000000000000000000000000000000000000000000000000000000000000000000000000000000000000000000000000000000000000000000000000000000000000000000000000000000000000000000000000000000000000000000000
310
00000000000000000000000000000000000000000000000000000000000000000000000000000000000000000000000000000000000000000000000000000000000000000000000000000000000000000007070000000000000000000000000000000000000000000000000000000000000000000000000000000000000000
310
00000000000000000000000000000000000000000000000000000000000000000000000000000000000000000000000000000000000000000000000000000000000000000000000000000000000000000000000000000000000000000000000000000000000000000000000000000000000000000000000000000000000000
310
00000000000000070700000000000000000000000000000000000000000000000000000000000000000000000000000000000000000000000000000000000000000000000000000000000000000000000000000000000000000000000000000000000000000000000000000000000000000000000000000000000000000000
310
00000000000000000000000000000000000000000000000000000000000000000000000000000000000000000000000000000000000000000000000007070000000000000000000000000000000000000000000000000000000000000000000000000000000000000000000000000000000000000000000000000000000000
310
00000000000000000000000000000000000000000000000000000000000000000000000000000000000000000000000000000000000000000000000000000000000000000000000000000000000000000000000000000000000000000000000000000000000000000000000000000000000707000000000000000000000000
310
00000000000000000000000000000000000000000000000000000000000000000000000000000000000000000000000000000000000000000000000000000000000000000000000000000000000000000000000000000000000000000000000000000000000000000000000000000000000000000000000000000000000000
310
00000000000000000000000000000000000000000000000000000000000000000000000000000007070000000000000000000000000000000000000000000000000000000000000000000000000000000000000000000000000000000000000000000000000000000000000000000000000000000000000000000000000000
310
00000000000000000000000000000000000000000000000000000000000000000000000000000000000000000000000000000000000000000000000000000000000000000000000000000000000000000000000000000000000000000707000000000000000000000000000000000000000000000000000000000000000000
310
00000000000000000000000000000000000000000000000000000000000000000000000000000000000000000000000000000000000000000000000000000000000000000000000000000000000000000000000000000000000000000000000000000000000000000000000000000000000000000000000000000000000000
310
00000000000000000000000000000000000007070000000000000000000000000000000000000000000000000000000000000000000000000000000000000000000000000000000000000000000000000000000000000000000000000000000000000000000000000000000000000000000000000000000000000000000000
310
00000000000000000000000000000000000000000000000000000000000000000000000000000000000000000000000000000000000000000000000000000000000000000000000707070000000000000000000000000000000000000000000000000000000000000000000000000000000000000000000000000000000000
310
00000000000000000000000000000000000000000000000000000000000000000000000000000000000000000000000000000000000000000000000000000000000000000000000000000000000000000000000000000000000000000000000000000000000000000000000000000000000000000000000000000000070007
310
00000000000000000000000000000000000000000000000000000000000000000000000000000000000000000000000000000000000000000000000000000000000000000000000000000000000000000000000000000000000000000000000000000000000000000000000000000000000000000000000000000000000000
310
00000000000000000000000000000000000000000000000000000000000000000000000000000000000000000000000000000700070000000000000000000000000000000000000000000000000000000000000000000000000000000000000000000000000000000000000000000000000000000000000000000000000000
310
00000000000000000000000000000000000000000000000000000000000000000000000000000000000000000000000000000000000000000000000000000000000000000000000000000000000000000000000000000000000000000000000000000000000000070707000000000000000000000000000000000000000000
310
00000000000000000000000000000000000000000000000000000000000000000000000000000000000000000000000000000000000000000000000000000000000000000000000000000000000000000000000000000000000000000000000000000000000000000000000000000000000000000000000000000000000000
310
00000000000000000000000000000000000000000000000000000000000707000000000000000000000000000000000000000000000000000000000000000000000000000000000000000000000000000000000000000000000000000000000000000000000000000000000000000000000000000000000000000000000000
310
00000000000000000000000000000000000000000000000000000000000000000000000000000000000000000000000000000000000000000000000000000000000000000000000000000000000000000000070700000000000000000000000000000000000000000000000000000000000000000000000000000000000000
310
00000000000000000000000000000000000000000000000000000000000000000000000000000000000000000000000000000000000000000000000000000000000000000000000000000000000000000000000000000000000000000000000000000000000000000000000000000000000000000000000000000000000000
310
00000000000000000707000000000000000000000000000000000000000000000000000000000000000000000000000000000000000000000000000000000000000000000000000000000000000000000000000000000000000000000000000000000000000000000000000000000000000000000000000000000000000000
310
00000000000000000000000000000000000000000000000000000000000000000000000000000000000000000000000000000000000000000000000000070700000000000000000000000000000000000000000000000000000000000000000000000000000000000000000000000000000000000000000000000000000000
310
00000000000000000000000000000000000000000000000000000000000000000000000000000000000000000000000000000000000000000000000000000000000000000000000000000000000000000000000000000000000000000000000000000000000000000000000000000000000007070000000000000000000000
310
00000000000000000000000000000000000000000000000000000000000000000000000000000000000000000000000000000000000000000000000000000000000000000000000000000000000000000000000000000000000000000000000000000000000000000000000000000000000000000000000000000000000000
310
00000000000000000000000000000000000000000000000000000000000000000000000000000000070700000000000000000000000000000000000000000000000000000000000000000000000000000000000000000000000000000000000000000000000000000000000000000000000000000000000000000000000000
310
00000000000000000000000000000000000000000000000000000000000000000000000000000000000000000000000000000000000000000000000000000000000000000000000000000000000000000000000000000000000000000007070000000000000000000000000000000000000000000000000000000000000000
310
00000000000000000000000000000000000000000000000000000000000000000000000000000000000000000000000000000000000000000000000000000000000000000000000000000000000000000000000000000000000000000000000000000000000000000000000000000000000000000000000000000000000000
310
00000000000000000000000000000000000000070700000000000000000000000000000000000000000000000000000000000000000000000000000000000000000000000000000000000000000000000000000000000000000000000000000000000000000000000000000000000000000000000000000000000000000000
310
00000000000000000000000000000000000000000000000000000000000000000000000000000000000000000000000000000000000000000000000000000000000000000000000007070700000700000000000000000000000000000000000000000000000000000000000000000000000000000000000000000000000000
310
00000000000000000000000000000000000000000000000000000000000000000000000000000000000000000000000000000000000000000000000000000000000000000000000000000000000000000000000000000000000000000000000000000000000000000000000000000000000000000000000000000000000700
310
07070707000000000000000000000000000000000000000000000000000000000000000000000000000000000000000000000000000000000000000000000000000000000000000000000000000000000000000000000000000000000000000000000000000000000000000000000000000000000000000000000000000000
310
00000000000000000000000000000000000000000000000000000000000000000000000000000000000000000000000000000007000707070700000000000000000000000000000000000000000000000000000000000000000000000000000000000000000000000000000000000000000000000000000000000000000000
310
00000000000000000000000000000000000000000000000000000000000000000000000000000000000000000000000000000000000000000000000000000000000000000000000000000000000000000000000000000000000000000000000000000000000000000707070000070000000000000000000000000000000000
310
00000000000000000000000000000000000000000000000000000000000000000000000000000000000000000000000000000000000000000000000000000000000000000000000000000000000000000000000000000000000000000000000000000000000000000000000000000000000000000000000000000000000000
310
00000000000000000000000000000000000000000000000000000000000007070000000700000000000000000000000000000000000000000000000000000000000000000000000000000000000000000000000000000000000000000000000000000000000000000000000000000000000000000000000000000000000000
310
00000000000000000000000000000000000000000000000000000000000000000000000000000000000000000000000000000000000000000000000000000000000000000000000000000000000000000000000707000000000000000000000000000000000000000000000000000000000000000000000000000000000000
310
00000000000000000000000000000000000000000000000000000000000000000000000000000000000000000000000000000000000000000000000000000000000000000000000000000000000000000000000000000000000000000000000000000000000000000000000000000000000000000000000000000000000000
310
00000000000000000007070000000000000000000000000000000000000000000000000000000000000000000000000000000000000000000000000000000000000000000000000000000000000000000000000000000000000000000000000000000000000000000000000000000000000000000000000000000000000000
310
00000000000000000000000000000000000000000000000000000000000000000000000000000000000000000000000000000000000000000000000000000707000000000000000000000000000000000000000000000000000000000000000000000000000000000000000000000000000000000000000000000000000000
310
00000000000000000000000000000000000000000000000000000000000000000000000000000000000000000000000000000000000000000000000000000000000000000000000000000000000000000000000000000000000000000000000000000000000000000000000000000000000000070700000000000000000000
310
00000000000000000000000000000000000000000000000000000000000000000000000000000000000000000000000000000000000000000000000000000000000000000000000000000000000000000000000000000000000000000000000000000000000000000000000000000000000000000000000000000000000000
310
00000000000000000000000000000000000000000000000000000000000000000000000000000000000707000000000000000000000000000000000000000000000000000000000000000000000000000000000000000000000000000000000000000000000000000000000000000000000000000000000000000000000000
310
00000000000000000000000000000000000000000000000000000000000000000000000000000000000000000000000000000000000000000000000000000000000000000000000000000000000000000000000000000000000000000000070700000000000000000000000000000000000000000000000000000000000000
310
00000000000000000000000000000000000000000000000000000000000000000000000000000000000000000000000000000000000000000000000000000000000000000000000000000000000000000000000000000000000000000000000000000000000000000000000000000000000000000000000000000000000000
310
00000000000000000000000000000000000000000707000000000000000000000000000000000000000000000000000000000000000000000000000000000000000000000000000000000000000000000000000000000000000000000000000000000000000000000000000000000000000000000000000000000000000000
310
00000000000000000000000000000000000000000000000000000000000000000000000000000000070707070707070707070707070707070707000000000000000000000000000000070700000000000000000000000000000000000000000000000000000000000000000000000000000000000000000000000000000000
310
00000000000000000000000000000000000000000000000000000000000000000000000000000000000000000000000000000000000000000000000000000000000000000000000000000000000000000000000000000000000000000000070000000000000000000000000000070000000000000000000000000000000007
310
07000000000000000000000000000000000000000000000000000000000000000000000000000000000000000000000000000000000000000000000000000000000000000000000000000000000000000000000000000000000000000000000000000000000000000000000000000000000000000000000000000000000000
310
00000000000000000000000000000000000000000007000000000000000000000000070000000000000000000000000000000000070700000000000000000000000000000000000000000000000000000000000000000000000000000000000000000000000000000000000000000000000000000000000000000000000000
310
00000000000000000000000000000000000000000000000000000000000000000000000000000000000000000000000000000000000000000000000000000000000000000000000000000007000000000000000000000700000000000000000000000000000000000007070000000000000000000000000000000000000000
310
00000000000000000000000000000000000000000000000000000000000000000000000000000000000000000000000000000000000000000000000000000000000000000000000000000000000000000000000000000000000000000000000000000000000000000000000000000000000000000000000000000000000000
310
00070000000000000000000700000000000000000000000000000000000000070700000000000000000000000000000000000000000000000000000000000000000000000000000000000000000000000000000000000000000000000000000000000000000000000000000000000000000000000000000000000000000000
310
00000000000000000000000000000000000000000000000000000000000000000000000000000000000000000000000000000000000000070000000000000000070000000000000000000000000000000000000007070000000000000000000000000000000000000000000000000000000000000000000000000000000000
310
00000000000000000000000000000000000000000000000000000000000000000000000000000000000000000000000000000000000000000000000000000000000000000000000000000000000000000000000000000000000000000000000000000000000000000000000000070000000000000700000000000000000000
310
00000000000000000000070700000000000000000000000000000000000000000000000000000000000000000000000000000000000000000000000000000000000000000000000000000000000000000000000000000000000000000000000000000000000000000000000000000000000000000000000000000000000000
310
00000000000000000000000000000000000000000000000000000000000000000000000007000000000700000000000000000000000000000000000000000007070000000000000000000000000000000000000000000000000000000000000000000000000000000000000000000000000000000000000000000000000000
310
00000000000000000000000000000000000000000000000000000000000000000000000000000000000000000000000000000000000000000000000000000000000000000000000000000000000000000000000000000000000007000007000000000000000000000000000000000000000000000707000000000000000000
310
00000000000000000000000000000000000000000000000000000000000000000000000000000000000000000000000000000000000000000000000000000000000000000000000000000000000000000000000000000000000000000000000000000000000000000000000000000000000000000000000000000000000000
310
00000000000000000000000000000000070707070000000000000000000000000000000000000000000007070000000000000000000000000000000000000000000000000000000000000000000000000000000000000000000000000000000000000000000000000000000000000000000000000000000000000000000000
310
00000000000000000000000000000000000000000000000000000000000000000000000000000000000000000000000000000000000000000000000000000000000000000007000007000000000000000000000000000000000000000000000707000000000000000000000000000000000000000000000000000000000000
310
00000000000000000000000000000000000000000000000000000000000000000000000000000000000000000000000000000000000000000000000000000000000000000000000000000000000000000000000000000000000000000000000000000000000000000000000000000000000000000000000000000707070700
310
00000000000000000000000000000000000000000007070000000000000000000000000000000000000000000000000000000000000000000000000000000000000000000000000000000000000000000000000000000000000000000000000000000000000000000000000000000000000000000000000000000000000000
310
00000000000000000000000000000000000000000000000000000000000000000000000000000000000000000000000000070700000000000000000000000000000000000000000000000707000000000000000000000000000000000000000000000000000000000000000000000000000000000000000000000000000000
310
00000000000000000000000000000000000000000000000000000000000000000000000000000000000000000000000000000000000000000000000000000000000000000000000000000000000000000000000000000000000000000000000000000000000007070000000000000000000000000000000000000000000000
310
07070000000000000000000000000000000000000000000000000000000000000000000000000000000000000000000000000000000000000000000000000000000000000000000000000000000000000000000000000000000000000000000000000000000000000000000000000000000000000000000000000000000000
310
00000000000000000000000000000000000000000000000000000000070007070707070707070707070707070707070707070707070007000000000000000000000000000000000000000000000000000000000000000000000000000000000000000000000000000000000000000000000000000000000000000000000000
310
00000000000000000000000000000000000000000000000000000000000000000000000000000000000000000000000000000000000000000000000000000000000000000000000000000000000000000000070707070707070707070707070707070707070707070707070000000000000000000000000000000000000000
310
00000000000000000000000000000000000000000000000000000000000000000000000000000000000000000000000000000000000000000000000000000000000000000000000000000000000000000000000000000000000000000000000000000000000000000000000000000000000000000000000000000000000000
310
000000000000000000000000000000000000000000000000000000000000000000000000000000000000000000000000000000000000000000000000000000000000000000000000000000000000000000000000000000000000000000000000000000000000000000000000
  0
ENDSEC
  0
EOF
