  0
SECTION
  2
HEADER
  9
$ACADVER
  1
AC1015
  9
$ACADMAINTVER
 70
     6
  9
$DWGCODEPAGE
  3
ANSI_1252
  9
$INSBASE
 10
0.0
 20
0.0
 30
0.0
  9
$EXTMIN
 10
2.381055555235
 20
0.0
 30
0.0
  9
$EXTMAX
 10
263.8818
 20
969.0
 30
0.0
  9
$LIMMIN
 10
0.0
 20
0.0
  9
$LIMMAX
 10
12.0
 20
9.0
  9
$ORTHOMODE
 70
     0
  9
$REGENMODE
 70
     1
  9
$FILLMODE
 70
     1
  9
$QTEXTMODE
 70
     0
  9
$MIRRTEXT
 70
     1
  9
$LTSCALE
 40
1.0
  9
$ATTMODE
 70
     1
  9
$TEXTSIZE
 40
0.2
  9
$TRACEWID
 40
0.05
  9
$TEXTSTYLE
  7
Standard
  9
$CLAYER
  8
0
  9
$CELTYPE
  6
ByBlock
  9
$CECOLOR
 62
   256
  9
$CELTSCALE
 40
1.0
  9
$DISPSILH
 70
     0
  9
$DIMSCALE
 40
1.0
  9
$DIMASZ
 40
0.18
  9
$DIMEXO
 40
0.0625
  9
$DIMDLI
 40
0.38
  9
$DIMRND
 40
0.0
  9
$DIMDLE
 40
0.0
  9
$DIMEXE
 40
0.18
  9
$DIMTP
 40
0.0
  9
$DIMTM
 40
0.0
  9
$DIMTXT
 40
0.18
  9
$DIMCEN
 40
0.09
  9
$DIMTSZ
 40
0.0
  9
$DIMTOL
 70
     0
  9
$DIMLIM
 70
     0
  9
$DIMTIH
 70
     1
  9
$DIMTOH
 70
     1
  9
$DIMSE1
 70
     0
  9
$DIMSE2
 70
     0
  9
$DIMTAD
 70
     0
  9
$DIMZIN
 70
     0
  9
$DIMBLK
  1

  9
$DIMASO
 70
     1
  9
$DIMSHO
 70
     1
  9
$DIMPOST
  1

  9
$DIMAPOST
  1

  9
$DIMALT
 70
     0
  9
$DIMALTD
 70
     2
  9
$DIMALTF
 40
25.4
  9
$DIMLFAC
 40
1.0
  9
$DIMTOFL
 70
     0
  9
$DIMTVP
 40
0.0
  9
$DIMTIX
 70
     0
  9
$DIMSOXD
 70
     0
  9
$DIMSAH
 70
     0
  9
$DIMBLK1
  1

  9
$DIMBLK2
  1

  9
$DIMSTYLE
  2
Standard
  9
$DIMCLRD
 70
     0
  9
$DIMCLRE
 70
     0
  9
$DIMCLRT
 70
     0
  9
$DIMTFAC
 40
1.0
  9
$DIMGAP
 40
0.09
  9
$DIMJUST
 70
     0
  9
$DIMSD1
 70
     0
  9
$DIMSD2
 70
     0
  9
$DIMTOLJ
 70
     1
  9
$DIMTZIN
 70
     0
  9
$DIMALTZ
 70
     0
  9
$DIMALTTZ
 70
     0
  9
$DIMUPT
 70
     0
  9
$DIMDEC
 70
     4
  9
$DIMTDEC
 70
     4
  9
$DIMALTU
 70
     2
  9
$DIMALTTD
 70
     2
  9
$DIMTXSTY
  7
Standard
  9
$DIMAUNIT
 70
     0
  9
$DIMADEC
 70
     0
  9
$DIMALTRND
 40
0.0
  9
$DIMAZIN
 70
     0
  9
$DIMDSEP
 70
    46
  9
$DIMATFIT
 70
     3
  9
$DIMFRAC
 70
     0
  9
$DIMLDRBLK
  1

  9
$DIMLUNIT
 70
     2
  9
$DIMLWD
 70
    -2
  9
$DIMLWE
 70
    -2
  9
$DIMTMOVE
 70
     2
  9
$LUNITS
 70
     2
  9
$LUPREC
 70
     4
  9
$SKETCHINC
 40
0.1
  9
$FILLETRAD
 40
0.5
  9
$AUNITS
 70
     0
  9
$AUPREC
 70
     0
  9
$MENU
  1
.
  9
$ELEVATION
 40
0.0
  9
$PELEVATION
 40
0.0
  9
$THICKNESS
 40
0.0
  9
$LIMCHECK
 70
     0
  9
$CHAMFERA
 40
0.5
  9
$CHAMFERB
 40
0.5
  9
$CHAMFERC
 40
1.0
  9
$CHAMFERD
 40
0.0
  9
$SKPOLY
 70
     0
  9
$TDCREATE
 40
2456645.85576515
  9
$TDUCREATE
 40
2456645.814098484
  9
$TDUPDATE
 40
2456645.858805695
  9
$TDUUPDATE
 40
2456645.817139028
  9
$TDINDWG
 40
0.0030400116
  9
$TDUSRTIMER
 40
0.0030400116
  9
$USRTIMER
 70
     1
  9
$ANGBASE
 50
0.0
  9
$ANGDIR
 70
     0
  9
$PDMODE
 70
     0
  9
$PDSIZE
 40
0.0
  9
$PLINEWID
 40
0.0
  9
$SPLFRAME
 70
     0
  9
$SPLINETYPE
 70
     6
  9
$SPLINESEGS
 70
     8
  9
$HANDSEED
  5
11BB
  9
$SURFTAB1
 70
     6
  9
$SURFTAB2
 70
     6
  9
$SURFTYPE
 70
     6
  9
$SURFU
 70
     6
  9
$SURFV
 70
     6
  9
$UCSBASE
  2

  9
$UCSNAME
  2

  9
$UCSORG
 10
0.0
 20
0.0
 30
0.0
  9
$UCSXDIR
 10
1.0
 20
0.0
 30
0.0
  9
$UCSYDIR
 10
0.0
 20
1.0
 30
0.0
  9
$UCSORTHOREF
  2

  9
$UCSORTHOVIEW
 70
     0
  9
$UCSORGTOP
 10
0.0
 20
0.0
 30
0.0
  9
$UCSORGBOTTOM
 10
0.0
 20
0.0
 30
0.0
  9
$UCSORGLEFT
 10
0.0
 20
0.0
 30
0.0
  9
$UCSORGRIGHT
 10
0.0
 20
0.0
 30
0.0
  9
$UCSORGFRONT
 10
0.0
 20
0.0
 30
0.0
  9
$UCSORGBACK
 10
0.0
 20
0.0
 30
0.0
  9
$PUCSBASE
  2

  9
$PUCSNAME
  2

  9
$PUCSORG
 10
0.0
 20
0.0
 30
0.0
  9
$PUCSXDIR
 10
1.0
 20
0.0
 30
0.0
  9
$PUCSYDIR
 10
0.0
 20
1.0
 30
0.0
  9
$PUCSORTHOREF
  2

  9
$PUCSORTHOVIEW
 70
     0
  9
$PUCSORGTOP
 10
0.0
 20
0.0
 30
0.0
  9
$PUCSORGBOTTOM
 10
0.0
 20
0.0
 30
0.0
  9
$PUCSORGLEFT
 10
0.0
 20
0.0
 30
0.0
  9
$PUCSORGRIGHT
 10
0.0
 20
0.0
 30
0.0
  9
$PUCSORGFRONT
 10
0.0
 20
0.0
 30
0.0
  9
$PUCSORGBACK
 10
0.0
 20
0.0
 30
0.0
  9
$USERI1
 70
     0
  9
$USERI2
 70
     0
  9
$USERI3
 70
     0
  9
$USERI4
 70
     0
  9
$USERI5
 70
     0
  9
$USERR1
 40
0.0
  9
$USERR2
 40
0.0
  9
$USERR3
 40
0.0
  9
$USERR4
 40
0.0
  9
$USERR5
 40
0.0
  9
$WORLDVIEW
 70
     1
  9
$SHADEDGE
 70
     3
  9
$SHADEDIF
 70
    70
  9
$TILEMODE
 70
     1
  9
$MAXACTVP
 70
    64
  9
$PINSBASE
 10
0.0
 20
0.0
 30
0.0
  9
$PLIMCHECK
 70
     0
  9
$PEXTMIN
 10
1.000000000000E+20
 20
1.000000000000E+20
 30
1.000000000000E+20
  9
$PEXTMAX
 10
-1.000000000000E+20
 20
-1.000000000000E+20
 30
-1.000000000000E+20
  9
$PLIMMIN
 10
0.0
 20
0.0
  9
$PLIMMAX
 10
12.0
 20
9.0
  9
$UNITMODE
 70
     0
  9
$VISRETAIN
 70
     1
  9
$PLINEGEN
 70
     0
  9
$PSLTSCALE
 70
     1
  9
$TREEDEPTH
 70
  3020
  9
$CMLSTYLE
  2
Standard
  9
$CMLJUST
 70
     0
  9
$CMLSCALE
 40
1.0
  9
$PROXYGRAPHICS
 70
     1
  9
$MEASUREMENT
 70
     0
  9
$CELWEIGHT
370
    -1
  9
$ENDCAPS
280
     0
  9
$JOINSTYLE
280
     0
  9
$LWDISPLAY
290
     0
  9
$INSUNITS
 70
     0
  9
$HYPERLINKBASE
  1

  9
$STYLESHEET
  1

  9
$XEDIT
290
     1
  9
$CEPSNTYPE
380
     0
  9
$PSTYLEMODE
290
     1
  9
$FINGERPRINTGUID
  2
{1CA445F5-9678-4DD1-9ABA-60AEEDF064E7}
  9
$VERSIONGUID
  2
{FAEB1C32-E019-11D5-929B-00C0DF256EC4}
  9
$EXTNAMES
290
     1
  9
$PSVPSCALE
 40
0.0
  9
$OLESTARTUP
290
     0
  0
ENDSEC
  0
SECTION
  2
CLASSES
  0
CLASS
  1
ACDBDICTIONARYWDFLT
  2
AcDbDictionaryWithDefault
  3
ObjectDBX Classes
 90
        0
280
     0
281
     0
  0
CLASS
  1
SCALE
  2
AcDbScale
  3
ObjectDBX Classes
 90
     1153
280
     0
281
     0
  0
CLASS
  1
DICTIONARYVAR
  2
AcDbDictionaryVar
  3
ObjectDBX Classes
 90
        0
280
     0
281
     0
  0
CLASS
  1
ACDBPLACEHOLDER
  2
AcDbPlaceHolder
  3
ObjectDBX Classes
 90
        0
280
     0
281
     0
  0
CLASS
  1
LAYOUT
  2
AcDbLayout
  3
ObjectDBX Classes
 90
        0
280
     0
281
     0
  0
ENDSEC
  0
SECTION
  2
TABLES
  0
TABLE
  2
VPORT
  5
8
330
0
100
AcDbSymbolTable
 70
     1
  0
VPORT
  5
9FF
330
8
100
AcDbSymbolTableRecord
100
AcDbViewportTableRecord
  2
*Active
 70
     0
 10
0.0
 20
0.0
 11
1.0
 21
1.0
 12
131.9409
 22
484.5
 13
0.0
 23
0.0
 14
0.5
 24
0.5
 15
0.5
 25
0.5
 16
0.0
 26
0.0
 36
1.0
 17
0.0
 27
0.0
 37
0.0
 40
988.38
 41
1.729542302358
 42
50.0
 43
0.0
 44
0.0
 50
0.0
 51
0.0
 71
    16
 72
   100
 73
     1
 74
     3
 75
     0
 76
     0
 77
     0
 78
     0
281
     0
 65
     1
110
0.0
120
0.0
130
0.0
111
1.0
121
0.0
131
0.0
112
0.0
122
1.0
132
0.0
 79
     0
146
0.0
  0
ENDTAB
  0
TABLE
  2
LTYPE
  5
5
330
0
100
AcDbSymbolTable
 70
     1
  0
LTYPE
  5
14
330
5
100
AcDbSymbolTableRecord
100
AcDbLinetypeTableRecord
  2
ByBlock
 70
     0
  3

 72
    65
 73
     0
 40
0.0
  0
LTYPE
  5
15
330
5
100
AcDbSymbolTableRecord
100
AcDbLinetypeTableRecord
  2
ByLayer
 70
     0
  3

 72
    65
 73
     0
 40
0.0
  0
LTYPE
  5
16
330
5
100
AcDbSymbolTableRecord
100
AcDbLinetypeTableRecord
  2
Continuous
 70
     0
  3
Solid line
 72
    65
 73
     0
 40
0.0
  0
ENDTAB
  0
TABLE
  2
LAYER
  5
2
330
0
100
AcDbSymbolTable
 70
     1
  0
LAYER
  5
10
330
2
100
AcDbSymbolTableRecord
100
AcDbLayerTableRecord
  2
0
 70
     0
 62
     7
  6
Continuous
370
    -3
390
F
  0
ENDTAB
  0
TABLE
  2
STYLE
  5
3
330
0
100
AcDbSymbolTable
 70
     1
  0
STYLE
  5
11
330
3
100
AcDbSymbolTableRecord
100
AcDbTextStyleTableRecord
  2
Standard
 70
     0
 40
0.0
 41
1.0
 50
0.0
 71
     0
 42
0.2
  3
txt
  4

  0
ENDTAB
  0
TABLE
  2
VIEW
  5
6
330
0
100
AcDbSymbolTable
 70
     0
  0
ENDTAB
  0
TABLE
  2
UCS
  5
7
330
0
100
AcDbSymbolTable
 70
     0
  0
ENDTAB
  0
TABLE
  2
APPID
  5
9
330
0
100
AcDbSymbolTable
 70
     1
  0
APPID
  5
12
330
9
100
AcDbSymbolTableRecord
100
AcDbRegAppTableRecord
  2
ACAD
 70
     0
  0
ENDTAB
  0
TABLE
  2
DIMSTYLE
  5
A
330
0
100
AcDbSymbolTable
 70
     1
100
AcDbDimStyleTable
  0
DIMSTYLE
105
20
330
A
100
AcDbSymbolTableRecord
100
AcDbDimStyleTableRecord
  2
Standard
 70
     0
340
11
  0
ENDTAB
  0
TABLE
  2
BLOCK_RECORD
  5
1
330
0
100
AcDbSymbolTable
 70
     1
  0
BLOCK_RECORD
  5
1D
330
1
100
AcDbSymbolTableRecord
100
AcDbBlockTableRecord
  2
*Model_Space
340
1E
  0
BLOCK_RECORD
  5
1B
330
1
100
AcDbSymbolTableRecord
100
AcDbBlockTableRecord
  2
*Paper_Space
340
1C
  0
ENDTAB
  0
ENDSEC
  0
SECTION
  2
BLOCKS
  0
BLOCK
  5
A02
330
1D
100
AcDbEntity
  8
0
100
AcDbBlockBegin
  2
*Model_Space
 70
     0
 10
0.0
 20
0.0
 30
0.0
  3
*Model_Space
  1
*Model_Space
  0
ENDBLK
  5
A03
330
1D
100
AcDbEntity
  8
0
100
AcDbBlockEnd
  0
BLOCK
  5
A00
330
1B
100
AcDbEntity
 67
     1
  8
0
100
AcDbBlockBegin
  2
*Paper_Space
 70
     0
 10
0.0
 20
0.0
 30
0.0
  3
*Paper_Space
  1
*Paper_Space
  0
ENDBLK
  5
A01
330
1B
100
AcDbEntity
 67
     1
  8
0
100
AcDbBlockEnd
  0
ENDSEC
  0
SECTION
  2
ENTITIES
  0
LINE
  5
21
330
1D
100
AcDbEntity
  8
0
100
AcDbLine
 10
163.0048
 20
35.4248
 30
0.0
 11
163.2698
 21
36.9697
 31
0.0
  0
LINE
  5
22
330
1D
100
AcDbEntity
  8
0
100
AcDbLine
 10
163.0048
 20
35.4248
 30
0.0
 11
164.0388
 21
33.995
 31
0.0
  0
LINE
  5
23
330
1D
100
AcDbEntity
  8
0
100
AcDbLine
 10
165.9788
 20
32.8189
 30
0.0
 11
168.7778
 21
32.1161
 31
0.0
  0
LINE
  5
24
330
1D
100
AcDbEntity
  8
0
100
AcDbLine
 10
168.7778
 20
32.1161
 30
0.0
 11
171.9208
 21
31.9872
 31
0.0
  0
LINE
  5
25
330
1D
100
AcDbEntity
  8
0
100
AcDbLine
 10
171.9208
 20
31.9872
 30
0.0
 11
174.8268
 21
32.4955
 31
0.0
  0
LINE
  5
26
330
1D
100
AcDbEntity
  8
0
100
AcDbLine
 10
174.8268
 20
32.4955
 30
0.0
 11
177.2188
 21
33.4465
 31
0.0
  0
LINE
  5
27
330
1D
100
AcDbEntity
  8
0
100
AcDbLine
 10
164.0388
 20
33.995
 30
0.0
 11
165.9788
 21
32.8189
 31
0.0
  0
LINE
  5
28
330
1D
100
AcDbEntity
  8
0
100
AcDbLine
 10
177.2188
 20
33.4465
 30
0.0
 11
178.6478
 21
34.8204
 31
0.0
  0
LINE
  5
29
330
1D
100
AcDbEntity
  8
0
100
AcDbLine
 10
163.2698
 20
36.9697
 30
0.0
 11
164.7028
 21
38.3434
 31
0.0
  0
LINE
  5
2A
330
1D
100
AcDbEntity
  8
0
100
AcDbLine
 10
164.7028
 20
38.3434
 30
0.0
 11
167.0978
 21
39.2956
 31
0.0
  0
LINE
  5
2B
330
1D
100
AcDbEntity
  8
0
100
AcDbLine
 10
167.0978
 20
39.2956
 30
0.0
 11
170.0078
 21
39.8008
 31
0.0
  0
LINE
  5
2C
330
1D
100
AcDbEntity
  8
0
100
AcDbLine
 10
151.5758
 20
650.0
 30
0.0
 11
154.7688
 21
645.9
 31
0.0
  0
LINE
  5
2D
330
1D
100
AcDbEntity
  8
0
100
AcDbLine
 10
149.5798
 20
654.8
 30
0.0
 11
151.5758
 21
650.0
 31
0.0
  0
LINE
  5
30
330
1D
100
AcDbEntity
  8
0
100
AcDbLine
 10
128.792431555235
 20
700.057058574106
 30
0.0
 11
143.239053994013
 21
670.38258219877
 31
0.0
  0
LINE
  5
7DD
330
1D
100
AcDbEntity
  8
0
100
AcDbLine
 10
148.8818
 20
660.0
 30
0.0
 11
149.5798
 21
665.2
 31
0.0
  0
LINE
  5
7DE
330
1D
100
AcDbEntity
  8
0
100
AcDbLine
 10
148.8818
 20
660.0
 30
0.0
 11
149.277684076597
 21
662.949279653729
 31
0.0
  0
LINE
  5
7DF
330
1D
100
AcDbEntity
  8
0
100
AcDbLine
 10
148.8818
 20
660.0
 30
0.0
 11
149.5798
 21
654.8
 31
0.0
  0
LINE
  5
7E6
330
1D
100
AcDbEntity
  8
0
100
AcDbLine
 10
151.5758
 20
670.0
 30
0.0
 11
154.7688
 21
674.1
 31
0.0
  0
LINE
  5
7E7
330
1D
100
AcDbEntity
  8
0
100
AcDbLine
 10
149.5798
 20
665.2
 30
0.0
 11
151.5758
 21
670.0
 31
0.0
  0
LINE
  5
7EB
330
1D
100
AcDbEntity
  8
0
100
AcDbLine
 10
150.3928
 20
711.991
 30
0.0
 11
168.862643347061
 21
680.0
 31
0.0
  0
LINE
  5
7ED
330
1D
100
AcDbEntity
  8
0
100
AcDbLine
 10
143.239053994013
 20
670.38258219877
 30
0.0
 11
147.1038
 21
659.232
 31
0.0
  0
LINE
  5
7EE
330
1D
100
AcDbEntity
  8
0
100
AcDbLine
 10
147.1038
 20
659.232
 30
0.0
 11
153.3038
 21
634.835
 31
0.0
  0
LINE
  5
7EF
330
1D
100
AcDbEntity
  8
0
100
AcDbLine
 10
154.7688
 20
645.9
 30
0.0
 11
158.8588
 21
642.7
 31
0.0
  0
LINE
  5
7F0
330
1D
100
AcDbEntity
  8
0
100
AcDbLine
 10
158.8588
 20
642.7
 30
0.0
 11
163.6488
 21
640.7
 31
0.0
  0
LINE
  5
7F1
330
1D
100
AcDbEntity
  8
0
100
AcDbLine
 10
158.2608
 20
649.4
 30
0.0
 11
161.3538
 21
647.0
 31
0.0
  0
LINE
  5
7F2
330
1D
100
AcDbEntity
  8
0
100
AcDbLine
 10
155.8658
 20
652.5
 30
0.0
 11
158.2608
 21
649.4
 31
0.0
  0
LINE
  5
7F3
330
1D
100
AcDbEntity
  8
0
100
AcDbLine
 10
154.3698
 20
656.1
 30
0.0
 11
155.8658
 21
652.5
 31
0.0
  0
LINE
  5
7F4
330
1D
100
AcDbEntity
  8
0
100
AcDbLine
 10
158.2608
 20
670.6
 30
0.0
 11
161.3538
 21
673.0
 31
0.0
  0
LINE
  5
7F5
330
1D
100
AcDbEntity
  8
0
100
AcDbLine
 10
155.8658
 20
667.5
 30
0.0
 11
158.2608
 21
670.6
 31
0.0
  0
LINE
  5
7F6
330
1D
100
AcDbEntity
  8
0
100
AcDbLine
 10
154.3698
 20
663.9
 30
0.0
 11
155.8658
 21
667.5
 31
0.0
  0
LINE
  5
7F7
330
1D
100
AcDbEntity
  8
0
100
AcDbLine
 10
153.8708
 20
660.0
 30
0.0
 11
154.3698
 21
663.9
 31
0.0
  0
LINE
  5
7F8
330
1D
100
AcDbEntity
  8
0
100
AcDbLine
 10
153.8708
 20
660.0
 30
0.0
 11
154.3698
 21
656.1
 31
0.0
  0
LINE
  5
7F9
330
1D
100
AcDbEntity
  8
0
100
AcDbLine
 10
158.8588
 20
677.3
 30
0.0
 11
163.6488
 21
679.3
 31
0.0
  0
LINE
  5
7FA
330
1D
100
AcDbEntity
  8
0
100
AcDbLine
 10
154.7688
 20
674.1
 30
0.0
 11
158.8588
 21
677.3
 31
0.0
  0
LINE
  5
7FB
330
1D
100
AcDbEntity
  8
0
100
AcDbLine
 10
153.3038
 20
634.835
 30
0.0
 11
157.9028
 21
610.628
 31
0.0
  0
LINE
  5
7FC
330
1D
100
AcDbEntity
  8
0
100
AcDbLine
 10
157.9028
 20
610.628
 30
0.0
 11
160.8018
 21
588.931
 31
0.0
  0
LINE
  5
7FD
330
1D
100
AcDbEntity
  8
0
100
AcDbLine
 10
168.8368
 20
640.0
 30
0.0
 11
198.7698
 21
640.0
 31
0.0
  0
LINE
  5
7FE
330
1D
100
AcDbEntity
  8
0
100
AcDbLine
 10
168.8368
 20
640.0
 30
0.0
 11
168.8368
 21
645.0
 31
0.0
  0
LINE
  5
7FF
330
1D
100
AcDbEntity
  8
0
100
AcDbLine
 10
168.8368
 20
640.0
 30
0.0
 11
187.8818
 21
640.0
 31
0.0
  0
LINE
  5
800
330
1D
100
AcDbEntity
  8
0
100
AcDbLine
 10
163.6488
 20
640.7
 30
0.0
 11
168.8368
 21
640.0
 31
0.0
  0
LINE
  5
801
330
1D
100
AcDbEntity
  8
0
100
AcDbLine
 10
161.3538
 20
647.0
 30
0.0
 11
164.9458
 21
645.5
 31
0.0
  0
LINE
  5
802
330
1D
100
AcDbEntity
  8
0
100
AcDbLine
 10
161.3538
 20
673.0
 30
0.0
 11
164.9458
 21
674.5
 31
0.0
  0
LINE
  5
803
330
1D
100
AcDbEntity
  8
0
100
AcDbLine
 10
164.9458
 20
645.5
 30
0.0
 11
168.8368
 21
645.0
 31
0.0
  0
LINE
  5
804
330
1D
100
AcDbEntity
  8
0
100
AcDbLine
 10
164.9458
 20
674.5
 30
0.0
 11
168.8368
 21
675.0
 31
0.0
  0
LINE
  5
805
330
1D
100
AcDbEntity
  8
0
100
AcDbLine
 10
168.8368
 20
680.0
 30
0.0
 11
198.7698
 21
680.0
 31
0.0
  0
LINE
  5
806
330
1D
100
AcDbEntity
  8
0
100
AcDbLine
 10
168.8368
 20
680.0
 30
0.0
 11
168.8368
 21
675.0
 31
0.0
  0
LINE
  5
807
330
1D
100
AcDbEntity
  8
0
100
AcDbLine
 10
163.6488
 20
679.3
 30
0.0
 11
168.8368
 21
680.0
 31
0.0
  0
LINE
  5
808
330
1D
100
AcDbEntity
  8
0
100
AcDbLine
 10
168.8368
 20
645.0
 30
0.0
 11
172.7278
 21
645.5
 31
0.0
  0
LINE
  5
809
330
1D
100
AcDbEntity
  8
0
100
AcDbLine
 10
168.8368
 20
645.0
 30
0.0
 11
168.8368
 21
640.0
 31
0.0
  0
LINE
  5
80A
330
1D
100
AcDbEntity
  8
0
100
AcDbLine
 10
168.8368
 20
675.0
 30
0.0
 11
172.7278
 21
674.5
 31
0.0
  0
LINE
  5
80B
330
1D
100
AcDbEntity
  8
0
100
AcDbLine
 10
168.8368
 20
675.0
 30
0.0
 11
168.8368
 21
680.0
 31
0.0
  0
LINE
  5
80C
330
1D
100
AcDbEntity
  8
0
100
AcDbLine
 10
168.0898012362
 20
640.100790118477
 30
0.0
 11
172.9028
 21
616.133
 31
0.0
  0
LINE
  5
80D
330
1D
100
AcDbEntity
  8
0
100
AcDbLine
 10
168.0898012362
 20
640.100790118477
 30
0.0
 11
168.8368
 21
640.0
 31
0.0
  0
LINE
  5
80E
330
1D
100
AcDbEntity
  8
0
100
AcDbLine
 10
160.8018
 20
588.931
 30
0.0
 11
162.6028
 21
557.33
 31
0.0
  0
LINE
  5
80F
330
1D
100
AcDbEntity
  8
0
100
AcDbLine
 10
162.6028
 20
557.33
 30
0.0
 11
163.0048
 21
35.4248
 31
0.0
  0
LINE
  5
810
330
1D
100
AcDbEntity
  8
0
100
AcDbLine
 10
162.6028
 20
557.33
 30
0.0
 11
163.0048
 21
35.4248
 31
0.0
  0
LINE
  5
811
330
1D
100
AcDbEntity
  8
0
100
AcDbLine
 10
172.7278
 20
645.5
 30
0.0
 11
176.3198
 21
647.0
 31
0.0
  0
LINE
  5
812
330
1D
100
AcDbEntity
  8
0
100
AcDbLine
 10
172.7278
 20
674.5
 30
0.0
 11
176.3198
 21
673.0
 31
0.0
  0
LINE
  5
813
330
1D
100
AcDbEntity
  8
0
100
AcDbLine
 10
172.9028
 20
616.133
 30
0.0
 11
176.6028
 21
591.735
 31
0.0
  0
LINE
  5
814
330
1D
100
AcDbEntity
  8
0
100
AcDbLine
 10
170.0078
 20
39.8008
 30
0.0
 11
173.1508
 21
39.6697
 31
0.0
  0
LINE
  5
815
330
1D
100
AcDbEntity
  8
0
100
AcDbLine
 10
173.1508
 20
39.6697
 30
0.0
 11
175.9448
 21
38.9659
 31
0.0
  0
LINE
  5
816
330
1D
100
AcDbEntity
  8
0
100
AcDbLine
 10
176.3198
 20
647.0
 30
0.0
 11
179.4128
 21
649.4
 31
0.0
  0
LINE
  5
817
330
1D
100
AcDbEntity
  8
0
100
AcDbLine
 10
176.3198
 20
673.0
 30
0.0
 11
179.4128
 21
670.6
 31
0.0
  0
LINE
  5
818
330
1D
100
AcDbEntity
  8
0
100
AcDbLine
 10
176.6028
 20
591.735
 30
0.0
 11
178.6028
 21
557.334
 31
0.0
  0
LINE
  5
819
330
1D
100
AcDbEntity
  8
0
100
AcDbLine
 10
175.9448
 20
38.9659
 30
0.0
 11
177.8808
 21
37.7897
 31
0.0
  0
LINE
  5
81A
330
1D
100
AcDbEntity
  8
0
100
AcDbLine
 10
177.8808
 20
37.7897
 30
0.0
 11
178.9108
 21
36.3621
 31
0.0
  0
LINE
  5
81B
330
1D
100
AcDbEntity
  8
0
100
AcDbLine
 10
238.8818
 20
14.616
 30
0.0
 11
238.8818
 21
18.288
 31
0.0
  0
LINE
  5
81C
330
1D
100
AcDbEntity
  8
0
100
AcDbLine
 10
238.8818
 20
14.616
 30
0.0
 11
238.8818
 21
11.808
 31
0.0
  0
LINE
  5
81D
330
1D
100
AcDbEntity
  8
0
100
AcDbLine
 10
238.8818
 20
14.616
 30
0.0
 11
238.8818
 21
16.0
 31
0.0
  0
LINE
  5
81E
330
1D
100
AcDbEntity
  8
0
100
AcDbLine
 10
238.8818
 20
11.808
 30
0.0
 11
238.8818
 21
14.616
 31
0.0
  0
LINE
  5
81F
330
1D
100
AcDbEntity
  8
0
100
AcDbLine
 10
238.8818
 20
11.808
 30
0.0
 11
238.8818
 21
10.08
 31
0.0
  0
LINE
  5
820
330
1D
100
AcDbEntity
  8
0
100
AcDbLine
 10
238.8818
 20
10.08
 30
0.0
 11
238.8818
 21
11.808
 31
0.0
  0
LINE
  5
821
330
1D
100
AcDbEntity
  8
0
100
AcDbLine
 10
238.8818
 20
10.08
 30
0.0
 11
238.8818
 21
9.432
 31
0.0
  0
LINE
  5
822
330
1D
100
AcDbEntity
  8
0
100
AcDbLine
 10
238.8818
 20
9.432
 30
0.0
 11
238.8818
 21
10.08
 31
0.0
  0
LINE
  5
823
330
1D
100
AcDbEntity
  8
0
100
AcDbLine
 10
238.8818
 20
9.432
 30
0.0
 11
239.4818
 21
9.0
 31
0.0
  0
LINE
  5
824
330
1D
100
AcDbEntity
  8
0
100
AcDbLine
 10
214.8818
 20
16.0
 30
0.0
 11
238.8818
 21
16.0
 31
0.0
  0
LINE
  5
825
330
1D
100
AcDbEntity
  8
0
100
AcDbLine
 10
207.8938
 20
16.92
 30
0.0
 11
214.8818
 21
16.0
 31
0.0
  0
LINE
  5
826
330
1D
100
AcDbEntity
  8
0
100
AcDbLine
 10
238.8818
 20
16.0
 30
0.0
 11
238.8818
 21
16.396
 31
0.0
  0
LINE
  5
827
330
1D
100
AcDbEntity
  8
0
100
AcDbLine
 10
238.8818
 20
16.0
 30
0.0
 11
238.8818
 21
14.616
 31
0.0
  0
LINE
  5
828
330
1D
100
AcDbEntity
  8
0
100
AcDbLine
 10
238.8818
 20
16.396
 30
0.0
 11
238.8818
 21
17.452
 31
0.0
  0
LINE
  5
829
330
1D
100
AcDbEntity
  8
0
100
AcDbLine
 10
238.8818
 20
18.288
 30
0.0
 11
238.8818
 21
22.464
 31
0.0
  0
LINE
  5
82A
330
1D
100
AcDbEntity
  8
0
100
AcDbLine
 10
238.8818
 20
18.288
 30
0.0
 11
238.8818
 21
14.616
 31
0.0
  0
LINE
  5
82B
330
1D
100
AcDbEntity
  8
0
100
AcDbLine
 10
201.3818
 20
19.6173
 30
0.0
 11
207.8938
 21
16.92
 31
0.0
  0
LINE
  5
82C
330
1D
100
AcDbEntity
  8
0
100
AcDbLine
 10
238.8818
 20
17.452
 30
0.0
 11
238.8818
 21
19.212
 31
0.0
  0
LINE
  5
82D
330
1D
100
AcDbEntity
  8
0
100
AcDbLine
 10
238.8818
 20
19.212
 30
0.0
 11
238.8818
 21
21.544
 31
0.0
  0
LINE
  5
82E
330
1D
100
AcDbEntity
  8
0
100
AcDbLine
 10
191.4988
 20
29.5
 30
0.0
 11
195.7898
 21
23.9081
 31
0.0
  0
LINE
  5
82F
330
1D
100
AcDbEntity
  8
0
100
AcDbLine
 10
238.8818
 20
22.464
 30
0.0
 11
238.8818
 21
27.0
 31
0.0
  0
LINE
  5
830
330
1D
100
AcDbEntity
  8
0
100
AcDbLine
 10
238.8818
 20
22.464
 30
0.0
 11
238.8818
 21
18.288
 31
0.0
  0
LINE
  5
831
330
1D
100
AcDbEntity
  8
0
100
AcDbLine
 10
195.7898
 20
23.9081
 30
0.0
 11
201.3818
 21
19.6173
 31
0.0
  0
LINE
  5
832
330
1D
100
AcDbEntity
  8
0
100
AcDbLine
 10
238.8818
 20
31.536
 30
0.0
 11
238.8818
 21
35.712
 31
0.0
  0
LINE
  5
833
330
1D
100
AcDbEntity
  8
0
100
AcDbLine
 10
238.8818
 20
31.536
 30
0.0
 11
238.8818
 21
27.0
 31
0.0
  0
LINE
  5
834
330
1D
100
AcDbEntity
  8
0
100
AcDbLine
 10
238.8818
 20
34.788
 30
0.0
 11
238.8818
 21
36.548
 31
0.0
  0
LINE
  5
835
330
1D
100
AcDbEntity
  8
0
100
AcDbLine
 10
238.8818
 20
32.456
 30
0.0
 11
238.8818
 21
34.788
 31
0.0
  0
LINE
  5
836
330
1D
100
AcDbEntity
  8
0
100
AcDbLine
 10
238.8818
 20
29.816
 30
0.0
 11
238.8818
 21
32.456
 31
0.0
  0
LINE
  5
837
330
1D
100
AcDbEntity
  8
0
100
AcDbLine
 10
238.8818
 20
27.0
 30
0.0
 11
238.8818
 21
29.816
 31
0.0
  0
LINE
  5
838
330
1D
100
AcDbEntity
  8
0
100
AcDbLine
 10
238.8818
 20
27.0
 30
0.0
 11
238.8818
 21
22.464
 31
0.0
  0
LINE
  5
839
330
1D
100
AcDbEntity
  8
0
100
AcDbLine
 10
238.8818
 20
27.0
 30
0.0
 11
238.8818
 21
31.536
 31
0.0
  0
LINE
  5
83A
330
1D
100
AcDbEntity
  8
0
100
AcDbLine
 10
238.8818
 20
21.544
 30
0.0
 11
238.8818
 21
24.184
 31
0.0
  0
LINE
  5
83B
330
1D
100
AcDbEntity
  8
0
100
AcDbLine
 10
253.8818
 20
8.424
 30
0.0
 11
253.8818
 21
13.932
 31
0.0
  0
LINE
  5
83C
330
1D
100
AcDbEntity
  8
0
100
AcDbLine
 10
253.8818
 20
8.424
 30
0.0
 11
253.8818
 21
4.212
 31
0.0
  0
LINE
  5
83D
330
1D
100
AcDbEntity
  8
0
100
AcDbLine
 10
253.8818
 20
8.424
 30
0.0
 11
253.8818
 21
9.0
 31
0.0
  0
LINE
  5
83E
330
1D
100
AcDbEntity
  8
0
100
AcDbLine
 10
253.8818
 20
4.212
 30
0.0
 11
253.8818
 21
8.424
 31
0.0
  0
LINE
  5
83F
330
1D
100
AcDbEntity
  8
0
100
AcDbLine
 10
253.8818
 20
4.212
 30
0.0
 11
253.8818
 21
1.62
 31
0.0
  0
LINE
  5
840
330
1D
100
AcDbEntity
  8
0
100
AcDbLine
 10
253.8818
 20
1.62
 30
0.0
 11
253.8818
 21
4.212
 31
0.0
  0
LINE
  5
841
330
1D
100
AcDbEntity
  8
0
100
AcDbLine
 10
253.8818
 20
1.62
 30
0.0
 11
253.8818
 21
0.648
 31
0.0
  0
LINE
  5
842
330
1D
100
AcDbEntity
  8
0
100
AcDbLine
 10
253.8818
 20
0.648
 30
0.0
 11
253.8818
 21
1.62
 31
0.0
  0
LINE
  5
843
330
1D
100
AcDbEntity
  8
0
100
AcDbLine
 10
253.8818
 20
0.648
 30
0.0
 11
254.4818
 21
0.0
 31
0.0
  0
LINE
  5
844
330
1D
100
AcDbEntity
  8
0
100
AcDbLine
 10
253.8818
 20
0.648
 30
0.0
 11
254.4818
 21
0.0
 31
0.0
  0
LINE
  5
845
330
1D
100
AcDbEntity
  8
0
100
AcDbLine
 10
263.8818
 20
0.0
 30
0.0
 11
263.8818
 21
0.972
 31
0.0
  0
LINE
  5
846
330
1D
100
AcDbEntity
  8
0
100
AcDbLine
 10
254.4818
 20
7.884
 30
0.0
 11
254.4818
 21
13.608
 31
0.0
  0
LINE
  5
847
330
1D
100
AcDbEntity
  8
0
100
AcDbLine
 10
254.4818
 20
7.884
 30
0.0
 11
254.4818
 21
3.564
 31
0.0
  0
LINE
  5
848
330
1D
100
AcDbEntity
  8
0
100
AcDbLine
 10
254.4818
 20
3.564
 30
0.0
 11
254.4818
 21
7.884
 31
0.0
  0
LINE
  5
849
330
1D
100
AcDbEntity
  8
0
100
AcDbLine
 10
254.4818
 20
3.564
 30
0.0
 11
254.4818
 21
0.972
 31
0.0
  0
LINE
  5
84A
330
1D
100
AcDbEntity
  8
0
100
AcDbLine
 10
263.8818
 20
7.884
 30
0.0
 11
263.8818
 21
13.608
 31
0.0
  0
LINE
  5
84B
330
1D
100
AcDbEntity
  8
0
100
AcDbLine
 10
263.8818
 20
7.884
 30
0.0
 11
263.8818
 21
3.564
 31
0.0
  0
LINE
  5
84C
330
1D
100
AcDbEntity
  8
0
100
AcDbLine
 10
263.8818
 20
3.564
 30
0.0
 11
263.8818
 21
7.884
 31
0.0
  0
LINE
  5
84D
330
1D
100
AcDbEntity
  8
0
100
AcDbLine
 10
263.8818
 20
3.564
 30
0.0
 11
263.8818
 21
0.972
 31
0.0
  0
LINE
  5
84E
330
1D
100
AcDbEntity
  8
0
100
AcDbLine
 10
263.8818
 20
0.972
 30
0.0
 11
263.8818
 21
3.564
 31
0.0
  0
LINE
  5
84F
330
1D
100
AcDbEntity
  8
0
100
AcDbLine
 10
263.8818
 20
0.972
 30
0.0
 11
263.8818
 21
0.0
 31
0.0
  0
LINE
  5
850
330
1D
100
AcDbEntity
  8
0
100
AcDbLine
 10
254.4818
 20
0.972
 30
0.0
 11
254.4818
 21
3.564
 31
0.0
  0
LINE
  5
851
330
1D
100
AcDbEntity
  8
0
100
AcDbLine
 10
254.4818
 20
0.972
 30
0.0
 11
254.4818
 21
0.0
 31
0.0
  0
LINE
  5
852
330
1D
100
AcDbEntity
  8
0
100
AcDbLine
 10
254.4818
 20
0.0
 30
0.0
 11
254.4818
 21
0.972
 31
0.0
  0
LINE
  5
853
330
1D
100
AcDbEntity
  8
0
100
AcDbLine
 10
254.4818
 20
0.0
 30
0.0
 11
263.8818
 21
0.0
 31
0.0
  0
LINE
  5
854
330
1D
100
AcDbEntity
  8
0
100
AcDbLine
 10
253.8818
 20
9.0
 30
0.0
 11
253.8818
 21
9.648
 31
0.0
  0
LINE
  5
855
330
1D
100
AcDbEntity
  8
0
100
AcDbLine
 10
253.8818
 20
9.0
 30
0.0
 11
253.8818
 21
8.424
 31
0.0
  0
LINE
  5
856
330
1D
100
AcDbEntity
  8
0
100
AcDbLine
 10
239.4818
 20
31.608
 30
0.0
 11
239.4818
 21
35.928
 31
0.0
  0
LINE
  5
857
330
1D
100
AcDbEntity
  8
0
100
AcDbLine
 10
239.4818
 20
31.608
 30
0.0
 11
239.4818
 21
27.0
 31
0.0
  0
LINE
  5
858
330
1D
100
AcDbEntity
  8
0
100
AcDbLine
 10
239.4818
 20
27.0
 30
0.0
 11
239.4818
 21
22.392
 31
0.0
  0
LINE
  5
859
330
1D
100
AcDbEntity
  8
0
100
AcDbLine
 10
239.4818
 20
27.0
 30
0.0
 11
239.4818
 21
31.608
 31
0.0
  0
LINE
  5
85A
330
1D
100
AcDbEntity
  8
0
100
AcDbLine
 10
239.4818
 20
22.392
 30
0.0
 11
239.4818
 21
27.0
 31
0.0
  0
LINE
  5
85B
330
1D
100
AcDbEntity
  8
0
100
AcDbLine
 10
239.4818
 20
22.392
 30
0.0
 11
239.4818
 21
18.072
 31
0.0
  0
LINE
  5
85C
330
1D
100
AcDbEntity
  8
0
100
AcDbLine
 10
239.4818
 20
18.072
 30
0.0
 11
239.4818
 21
22.392
 31
0.0
  0
LINE
  5
85D
330
1D
100
AcDbEntity
  8
0
100
AcDbLine
 10
239.4818
 20
18.072
 30
0.0
 11
239.4818
 21
14.256
 31
0.0
  0
LINE
  5
85E
330
1D
100
AcDbEntity
  8
0
100
AcDbLine
 10
239.4818
 20
14.256
 30
0.0
 11
239.4818
 21
18.072
 31
0.0
  0
LINE
  5
85F
330
1D
100
AcDbEntity
  8
0
100
AcDbLine
 10
239.4818
 20
14.256
 30
0.0
 11
239.4818
 21
11.376
 31
0.0
  0
LINE
  5
860
330
1D
100
AcDbEntity
  8
0
100
AcDbLine
 10
239.4818
 20
11.376
 30
0.0
 11
239.4818
 21
14.256
 31
0.0
  0
LINE
  5
861
330
1D
100
AcDbEntity
  8
0
100
AcDbLine
 10
239.4818
 20
11.376
 30
0.0
 11
239.4818
 21
9.648
 31
0.0
  0
LINE
  5
862
330
1D
100
AcDbEntity
  8
0
100
AcDbLine
 10
253.8818
 20
13.932
 30
0.0
 11
253.8818
 21
20.196
 31
0.0
  0
LINE
  5
863
330
1D
100
AcDbEntity
  8
0
100
AcDbLine
 10
253.8818
 20
13.932
 30
0.0
 11
253.8818
 21
8.424
 31
0.0
  0
LINE
  5
864
330
1D
100
AcDbEntity
  8
0
100
AcDbLine
 10
253.8818
 20
20.196
 30
0.0
 11
253.8818
 21
27.0
 31
0.0
  0
LINE
  5
865
330
1D
100
AcDbEntity
  8
0
100
AcDbLine
 10
253.8818
 20
20.196
 30
0.0
 11
253.8818
 21
13.932
 31
0.0
  0
LINE
  5
866
330
1D
100
AcDbEntity
  8
0
100
AcDbLine
 10
253.8818
 20
33.804
 30
0.0
 11
253.8818
 21
40.068
 31
0.0
  0
LINE
  5
867
330
1D
100
AcDbEntity
  8
0
100
AcDbLine
 10
253.8818
 20
33.804
 30
0.0
 11
253.8818
 21
27.0
 31
0.0
  0
LINE
  5
868
330
1D
100
AcDbEntity
  8
0
100
AcDbLine
 10
253.8818
 20
31.608
 30
0.0
 11
253.8818
 21
35.928
 31
0.0
  0
LINE
  5
869
330
1D
100
AcDbEntity
  8
0
100
AcDbLine
 10
253.8818
 20
31.608
 30
0.0
 11
253.8818
 21
27.0
 31
0.0
  0
LINE
  5
86A
330
1D
100
AcDbEntity
  8
0
100
AcDbLine
 10
253.8818
 20
27.0
 30
0.0
 11
253.8818
 21
22.392
 31
0.0
  0
LINE
  5
86B
330
1D
100
AcDbEntity
  8
0
100
AcDbLine
 10
253.8818
 20
27.0
 30
0.0
 11
253.8818
 21
31.608
 31
0.0
  0
LINE
  5
86C
330
1D
100
AcDbEntity
  8
0
100
AcDbLine
 10
253.8818
 20
27.0
 30
0.0
 11
253.8818
 21
20.196
 31
0.0
  0
LINE
  5
86D
330
1D
100
AcDbEntity
  8
0
100
AcDbLine
 10
253.8818
 20
27.0
 30
0.0
 11
253.8818
 21
33.804
 31
0.0
  0
LINE
  5
86E
330
1D
100
AcDbEntity
  8
0
100
AcDbLine
 10
253.8818
 20
22.392
 30
0.0
 11
253.8818
 21
27.0
 31
0.0
  0
LINE
  5
86F
330
1D
100
AcDbEntity
  8
0
100
AcDbLine
 10
253.8818
 20
22.392
 30
0.0
 11
253.8818
 21
18.072
 31
0.0
  0
LINE
  5
870
330
1D
100
AcDbEntity
  8
0
100
AcDbLine
 10
253.8818
 20
18.072
 30
0.0
 11
253.8818
 21
22.392
 31
0.0
  0
LINE
  5
871
330
1D
100
AcDbEntity
  8
0
100
AcDbLine
 10
253.8818
 20
18.072
 30
0.0
 11
253.8818
 21
14.256
 31
0.0
  0
LINE
  5
872
330
1D
100
AcDbEntity
  8
0
100
AcDbLine
 10
253.8818
 20
14.256
 30
0.0
 11
253.8818
 21
18.072
 31
0.0
  0
LINE
  5
873
330
1D
100
AcDbEntity
  8
0
100
AcDbLine
 10
253.8818
 20
14.256
 30
0.0
 11
253.8818
 21
11.376
 31
0.0
  0
LINE
  5
874
330
1D
100
AcDbEntity
  8
0
100
AcDbLine
 10
263.8818
 20
13.608
 30
0.0
 11
263.8818
 21
20.088
 31
0.0
  0
LINE
  5
875
330
1D
100
AcDbEntity
  8
0
100
AcDbLine
 10
263.8818
 20
13.608
 30
0.0
 11
263.8818
 21
7.884
 31
0.0
  0
LINE
  5
876
330
1D
100
AcDbEntity
  8
0
100
AcDbLine
 10
254.4818
 20
33.912
 30
0.0
 11
254.4818
 21
40.392
 31
0.0
  0
LINE
  5
877
330
1D
100
AcDbEntity
  8
0
100
AcDbLine
 10
254.4818
 20
33.912
 30
0.0
 11
254.4818
 21
27.0
 31
0.0
  0
LINE
  5
878
330
1D
100
AcDbEntity
  8
0
100
AcDbLine
 10
254.4818
 20
27.0
 30
0.0
 11
254.4818
 21
20.088
 31
0.0
  0
LINE
  5
879
330
1D
100
AcDbEntity
  8
0
100
AcDbLine
 10
254.4818
 20
27.0
 30
0.0
 11
254.4818
 21
33.912
 31
0.0
  0
LINE
  5
87A
330
1D
100
AcDbEntity
  8
0
100
AcDbLine
 10
263.8818
 20
33.912
 30
0.0
 11
263.8818
 21
40.392
 31
0.0
  0
LINE
  5
87B
330
1D
100
AcDbEntity
  8
0
100
AcDbLine
 10
263.8818
 20
33.912
 30
0.0
 11
263.8818
 21
27.0
 31
0.0
  0
LINE
  5
87C
330
1D
100
AcDbEntity
  8
0
100
AcDbLine
 10
263.8818
 20
27.0
 30
0.0
 11
263.8818
 21
20.088
 31
0.0
  0
LINE
  5
87D
330
1D
100
AcDbEntity
  8
0
100
AcDbLine
 10
263.8818
 20
27.0
 30
0.0
 11
263.8818
 21
33.912
 31
0.0
  0
LINE
  5
87E
330
1D
100
AcDbEntity
  8
0
100
AcDbLine
 10
263.8818
 20
20.088
 30
0.0
 11
263.8818
 21
27.0
 31
0.0
  0
LINE
  5
87F
330
1D
100
AcDbEntity
  8
0
100
AcDbLine
 10
263.8818
 20
20.088
 30
0.0
 11
263.8818
 21
13.608
 31
0.0
  0
LINE
  5
880
330
1D
100
AcDbEntity
  8
0
100
AcDbLine
 10
254.4818
 20
20.088
 30
0.0
 11
254.4818
 21
27.0
 31
0.0
  0
LINE
  5
881
330
1D
100
AcDbEntity
  8
0
100
AcDbLine
 10
254.4818
 20
20.088
 30
0.0
 11
254.4818
 21
13.608
 31
0.0
  0
LINE
  5
882
330
1D
100
AcDbEntity
  8
0
100
AcDbLine
 10
254.4818
 20
13.608
 30
0.0
 11
254.4818
 21
20.088
 31
0.0
  0
LINE
  5
883
330
1D
100
AcDbEntity
  8
0
100
AcDbLine
 10
254.4818
 20
13.608
 30
0.0
 11
254.4818
 21
7.884
 31
0.0
  0
LINE
  5
884
330
1D
100
AcDbEntity
  8
0
100
AcDbLine
 10
253.8818
 20
11.376
 30
0.0
 11
253.8818
 21
14.256
 31
0.0
  0
LINE
  5
885
330
1D
100
AcDbEntity
  8
0
100
AcDbLine
 10
253.8818
 20
11.376
 30
0.0
 11
253.8818
 21
9.648
 31
0.0
  0
LINE
  5
886
330
1D
100
AcDbEntity
  8
0
100
AcDbLine
 10
253.8818
 20
9.648
 30
0.0
 11
253.8818
 21
11.376
 31
0.0
  0
LINE
  5
887
330
1D
100
AcDbEntity
  8
0
100
AcDbLine
 10
253.8818
 20
9.648
 30
0.0
 11
253.8818
 21
9.0
 31
0.0
  0
LINE
  5
888
330
1D
100
AcDbEntity
  8
0
100
AcDbLine
 10
239.4818
 20
9.648
 30
0.0
 11
239.4818
 21
11.376
 31
0.0
  0
LINE
  5
889
330
1D
100
AcDbEntity
  8
0
100
AcDbLine
 10
239.4818
 20
9.648
 30
0.0
 11
239.4818
 21
9.0
 31
0.0
  0
LINE
  5
88A
330
1D
100
AcDbEntity
  8
0
100
AcDbLine
 10
239.4818
 20
9.0
 30
0.0
 11
239.4818
 21
9.648
 31
0.0
  0
LINE
  5
88B
330
1D
100
AcDbEntity
  8
0
100
AcDbLine
 10
239.4818
 20
9.0
 30
0.0
 11
253.8818
 21
9.0
 31
0.0
  0
LINE
  5
88C
330
1D
100
AcDbEntity
  8
0
100
AcDbLine
 10
238.8818
 20
24.184
 30
0.0
 11
238.8818
 21
27.0
 31
0.0
  0
LINE
  5
88D
330
1D
100
AcDbEntity
  8
0
100
AcDbLine
 10
179.4128
 20
649.4
 30
0.0
 11
181.8078
 21
652.5
 31
0.0
  0
LINE
  5
88E
330
1D
100
AcDbEntity
  8
0
100
AcDbLine
 10
181.8078
 20
652.5
 30
0.0
 11
183.3048
 21
656.1
 31
0.0
  0
LINE
  5
88F
330
1D
100
AcDbEntity
  8
0
100
AcDbLine
 10
183.3048
 20
656.1
 30
0.0
 11
183.8038
 21
660.0
 31
0.0
  0
LINE
  5
890
330
1D
100
AcDbEntity
  8
0
100
AcDbLine
 10
179.4128
 20
670.6
 30
0.0
 11
181.8078
 21
667.5
 31
0.0
  0
LINE
  5
891
330
1D
100
AcDbEntity
  8
0
100
AcDbLine
 10
181.8078
 20
667.5
 30
0.0
 11
183.3048
 21
663.9
 31
0.0
  0
LINE
  5
892
330
1D
100
AcDbEntity
  8
0
100
AcDbLine
 10
187.8818
 20
43.0
 30
0.0
 11
188.8018
 21
36.0119
 31
0.0
  0
LINE
  5
893
330
1D
100
AcDbEntity
  8
0
100
AcDbLine
 10
187.8818
 20
43.0
 30
0.0
 11
187.8818
 21
45.4
 31
0.0
  0
LINE
  5
894
330
1D
100
AcDbEntity
  8
0
100
AcDbLine
 10
187.8818
 20
45.4
 30
0.0
 11
188.1458
 21
46.0
 31
0.0
  0
LINE
  5
895
330
1D
100
AcDbEntity
  8
0
100
AcDbLine
 10
187.8818
 20
45.4
 30
0.0
 11
187.8818
 21
43.0
 31
0.0
  0
LINE
  5
896
330
1D
100
AcDbEntity
  8
0
100
AcDbLine
 10
187.8818
 20
46.6
 30
0.0
 11
187.8818
 21
484.5
 31
0.0
  0
LINE
  5
897
330
1D
100
AcDbEntity
  8
0
100
AcDbLine
 10
187.8818
 20
46.6
 30
0.0
 11
188.1458
 21
46.0
 31
0.0
  0
LINE
  5
898
330
1D
100
AcDbEntity
  8
0
100
AcDbLine
 10
187.8818
 20
46.6
 30
0.0
 11
187.8818
 21
484.5
 31
0.0
  0
LINE
  5
899
330
1D
100
AcDbEntity
  8
0
100
AcDbLine
 10
188.1458
 20
46.0
 30
0.0
 11
188.5418
 21
46.0
 31
0.0
  0
LINE
  5
89A
330
1D
100
AcDbEntity
  8
0
100
AcDbLine
 10
188.8018
 20
36.0119
 30
0.0
 11
191.4988
 21
29.5
 31
0.0
  0
LINE
  5
89B
330
1D
100
AcDbEntity
  8
0
100
AcDbLine
 10
188.5418
 20
46.0
 30
0.0
 11
189.5978
 21
46.0
 31
0.0
  0
LINE
  5
89C
330
1D
100
AcDbEntity
  8
0
100
AcDbLine
 10
187.8818
 20
640.0
 30
0.0
 11
187.8818
 21
484.5
 31
0.0
  0
LINE
  5
89D
330
1D
100
AcDbEntity
  8
0
100
AcDbLine
 10
187.8818
 20
484.5
 30
0.0
 11
187.8818
 21
640.0
 31
0.0
  0
LINE
  5
89E
330
1D
100
AcDbEntity
  8
0
100
AcDbLine
 10
189.5978
 20
46.0
 30
0.0
 11
191.3138
 21
46.0
 31
0.0
  0
LINE
  5
89F
330
1D
100
AcDbEntity
  8
0
100
AcDbLine
 10
191.3138
 20
46.0
 30
0.0
 11
193.5578
 21
46.0
 31
0.0
  0
LINE
  5
8A0
330
1D
100
AcDbEntity
  8
0
100
AcDbLine
 10
193.5578
 20
46.0
 30
0.0
 11
196.1098
 21
46.0
 31
0.0
  0
LINE
  5
8A1
330
1D
100
AcDbEntity
  8
0
100
AcDbLine
 10
201.6538
 20
46.0
 30
0.0
 11
204.2058
 21
46.0
 31
0.0
  0
LINE
  5
8A2
330
1D
100
AcDbEntity
  8
0
100
AcDbLine
 10
198.8818
 20
46.0
 30
0.0
 11
201.6538
 21
46.0
 31
0.0
  0
LINE
  5
8A3
330
1D
100
AcDbEntity
  8
0
100
AcDbLine
 10
196.1098
 20
46.0
 30
0.0
 11
198.8818
 21
46.0
 31
0.0
  0
LINE
  5
8A4
330
1D
100
AcDbEntity
  8
0
100
AcDbLine
 10
198.7698
 20
640.0
 30
0.0
 11
202.6608
 21
640.0
 31
0.0
  0
LINE
  5
8A5
330
1D
100
AcDbEntity
  8
0
100
AcDbLine
 10
198.7698
 20
640.0
 30
0.0
 11
198.8818
 21
640.0
 31
0.0
  0
LINE
  5
8A6
330
1D
100
AcDbEntity
  8
0
100
AcDbLine
 10
209.8818
 20
45.4
 30
0.0
 11
209.8818
 21
43.0
 31
0.0
  0
LINE
  5
8A7
330
1D
100
AcDbEntity
  8
0
100
AcDbLine
 10
209.8818
 20
43.0
 30
0.0
 11
209.8818
 21
45.4
 31
0.0
  0
LINE
  5
8A8
330
1D
100
AcDbEntity
  8
0
100
AcDbLine
 10
209.8818
 20
43.0
 30
0.0
 11
210.0518
 21
41.7059
 31
0.0
  0
LINE
  5
8A9
330
1D
100
AcDbEntity
  8
0
100
AcDbLine
 10
209.6178
 20
46.0
 30
0.0
 11
209.8818
 21
45.4
 31
0.0
  0
LINE
  5
8AA
330
1D
100
AcDbEntity
  8
0
100
AcDbLine
 10
209.6178
 20
46.0
 30
0.0
 11
209.8818
 21
46.6
 31
0.0
  0
LINE
  5
8AB
330
1D
100
AcDbEntity
  8
0
100
AcDbLine
 10
209.2218
 20
46.0
 30
0.0
 11
209.6178
 21
46.0
 31
0.0
  0
LINE
  5
8AC
330
1D
100
AcDbEntity
  8
0
100
AcDbLine
 10
208.1658
 20
46.0
 30
0.0
 11
209.2218
 21
46.0
 31
0.0
  0
LINE
  5
8AD
330
1D
100
AcDbEntity
  8
0
100
AcDbLine
 10
206.4498
 20
46.0
 30
0.0
 11
208.1658
 21
46.0
 31
0.0
  0
LINE
  5
8AE
330
1D
100
AcDbEntity
  8
0
100
AcDbLine
 10
209.8818
 20
46.6
 30
0.0
 11
209.8818
 21
484.5
 31
0.0
  0
LINE
  5
8AF
330
1D
100
AcDbEntity
  8
0
100
AcDbLine
 10
209.8818
 20
46.6
 30
0.0
 11
209.8818
 21
484.5
 31
0.0
  0
LINE
  5
8B0
330
1D
100
AcDbEntity
  8
0
100
AcDbLine
 10
204.2058
 20
46.0
 30
0.0
 11
206.4498
 21
46.0
 31
0.0
  0
LINE
  5
8B1
330
1D
100
AcDbEntity
  8
0
100
AcDbLine
 10
209.8818
 20
484.5
 30
0.0
 11
209.8818
 21
640.0
 31
0.0
  0
LINE
  5
8B2
330
1D
100
AcDbEntity
  8
0
100
AcDbLine
 10
209.8818
 20
640.0
 30
0.0
 11
209.9998
 21
640.0
 31
0.0
  0
LINE
  5
8B3
330
1D
100
AcDbEntity
  8
0
100
AcDbLine
 10
209.8818
 20
640.0
 30
0.0
 11
209.8818
 21
484.5
 31
0.0
  0
LINE
  5
8B4
330
1D
100
AcDbEntity
  8
0
100
AcDbLine
 10
202.6608
 20
640.0
 30
0.0
 11
206.7628
 21
640.0
 31
0.0
  0
LINE
  5
8B5
330
1D
100
AcDbEntity
  8
0
100
AcDbLine
 10
206.7628
 20
640.0
 30
0.0
 11
209.9998
 21
640.0
 31
0.0
  0
LINE
  5
8B6
330
1D
100
AcDbEntity
  8
0
100
AcDbLine
 10
212.3818
 20
38.6699
 30
0.0
 11
213.5878
 21
38.1704
 31
0.0
  0
LINE
  5
8B7
330
1D
100
AcDbEntity
  8
0
100
AcDbLine
 10
210.5518
 20
40.5
 30
0.0
 11
211.3468
 21
39.4645
 31
0.0
  0
LINE
  5
8B8
330
1D
100
AcDbEntity
  8
0
100
AcDbLine
 10
210.0518
 20
41.7059
 30
0.0
 11
210.5518
 21
40.5
 31
0.0
  0
LINE
  5
8B9
330
1D
100
AcDbEntity
  8
0
100
AcDbLine
 10
211.3468
 20
39.4645
 30
0.0
 11
212.3818
 21
38.6699
 31
0.0
  0
LINE
  5
8BA
330
1D
100
AcDbEntity
  8
0
100
AcDbLine
 10
209.9998
 20
640.0
 30
0.0
 11
212.1438
 21
640.0
 31
0.0
  0
LINE
  5
8BB
330
1D
100
AcDbEntity
  8
0
100
AcDbLine
 10
212.1438
 20
640.0
 30
0.0
 11
213.2378
 21
640.0
 31
0.0
  0
LINE
  5
8BC
330
1D
100
AcDbEntity
  8
0
100
AcDbLine
 10
213.5878
 20
38.1704
 30
0.0
 11
214.8818
 21
38.0
 31
0.0
  0
LINE
  5
8BD
330
1D
100
AcDbEntity
  8
0
100
AcDbLine
 10
214.8818
 20
38.0
 30
0.0
 11
238.8818
 21
38.0
 31
0.0
  0
LINE
  5
8BE
330
1D
100
AcDbEntity
  8
0
100
AcDbLine
 10
213.7368
 20
640.0
 30
0.0
 11
213.7368
 21
655.080016035278
 31
0.0
  0
LINE
  5
8BF
330
1D
100
AcDbEntity
  8
0
100
AcDbLine
 10
213.2378
 20
640.0
 30
0.0
 11
213.7368
 21
640.0
 31
0.0
  0
LINE
  5
8C0
330
1D
100
AcDbEntity
  8
0
100
AcDbLine
 10
195.9758
 20
640.0
 30
0.0
 11
198.7698
 21
640.0
 31
0.0
  0
LINE
  5
8C1
330
1D
100
AcDbEntity
  8
0
100
AcDbLine
 10
193.2818
 20
640.0
 30
0.0
 11
195.9758
 21
640.0
 31
0.0
  0
LINE
  5
8C2
330
1D
100
AcDbEntity
  8
0
100
AcDbLine
 10
190.9868
 20
640.0
 30
0.0
 11
193.2818
 21
640.0
 31
0.0
  0
LINE
  5
8C3
330
1D
100
AcDbEntity
  8
0
100
AcDbLine
 10
189.2908
 20
640.0
 30
0.0
 11
190.9868
 21
640.0
 31
0.0
  0
LINE
  5
8C4
330
1D
100
AcDbEntity
  8
0
100
AcDbLine
 10
188.1938
 20
640.0
 30
0.0
 11
189.2908
 21
640.0
 31
0.0
  0
LINE
  5
8C5
330
1D
100
AcDbEntity
  8
0
100
AcDbLine
 10
187.7948
 20
640.0
 30
0.0
 11
188.1938
 21
640.0
 31
0.0
  0
LINE
  5
8C6
330
1D
100
AcDbEntity
  8
0
100
AcDbLine
 10
187.7948
 20
640.0
 30
0.0
 11
187.8818
 21
640.0
 31
0.0
  0
LINE
  5
8C7
330
1D
100
AcDbEntity
  8
0
100
AcDbLine
 10
213.7368
 20
655.080016035278
 30
0.0
 11
213.7368
 21
640.0
 31
0.0
  0
LINE
  5
8C8
330
1D
100
AcDbEntity
  8
0
100
AcDbLine
 10
213.7368
 20
655.0
 30
0.0
 11
216.7298
 21
655.0
 31
0.0
  0
LINE
  5
8C9
330
1D
100
AcDbEntity
  8
0
100
AcDbLine
 10
253.8818
 20
35.928
 30
0.0
 11
253.8818
 21
39.744
 31
0.0
  0
LINE
  5
8CA
330
1D
100
AcDbEntity
  8
0
100
AcDbLine
 10
253.8818
 20
35.928
 30
0.0
 11
253.8818
 21
31.608
 31
0.0
  0
LINE
  5
8CB
330
1D
100
AcDbEntity
  8
0
100
AcDbLine
 10
239.4818
 20
35.928
 30
0.0
 11
239.4818
 21
39.744
 31
0.0
  0
LINE
  5
8CC
330
1D
100
AcDbEntity
  8
0
100
AcDbLine
 10
239.4818
 20
35.928
 30
0.0
 11
239.4818
 21
31.608
 31
0.0
  0
LINE
  5
8CD
330
1D
100
AcDbEntity
  8
0
100
AcDbLine
 10
238.8818
 20
35.712
 30
0.0
 11
238.8818
 21
39.384
 31
0.0
  0
LINE
  5
8CE
330
1D
100
AcDbEntity
  8
0
100
AcDbLine
 10
238.8818
 20
35.712
 30
0.0
 11
238.8818
 21
31.536
 31
0.0
  0
LINE
  5
8CF
330
1D
100
AcDbEntity
  8
0
100
AcDbLine
 10
238.8818
 20
38.0
 30
0.0
 11
238.8818
 21
39.384
 31
0.0
  0
LINE
  5
8D0
330
1D
100
AcDbEntity
  8
0
100
AcDbLine
 10
238.8818
 20
39.384
 30
0.0
 11
238.8818
 21
38.0
 31
0.0
  0
LINE
  5
8D1
330
1D
100
AcDbEntity
  8
0
100
AcDbLine
 10
238.8818
 20
39.384
 30
0.0
 11
238.8818
 21
42.192
 31
0.0
  0
LINE
  5
8D2
330
1D
100
AcDbEntity
  8
0
100
AcDbLine
 10
238.8818
 20
39.384
 30
0.0
 11
238.8818
 21
35.712
 31
0.0
  0
LINE
  5
8D3
330
1D
100
AcDbEntity
  8
0
100
AcDbLine
 10
238.8818
 20
42.192
 30
0.0
 11
238.8818
 21
39.384
 31
0.0
  0
LINE
  5
8D4
330
1D
100
AcDbEntity
  8
0
100
AcDbLine
 10
238.8818
 20
42.192
 30
0.0
 11
238.8818
 21
43.92
 31
0.0
  0
LINE
  5
8D5
330
1D
100
AcDbEntity
  8
0
100
AcDbLine
 10
238.8818
 20
43.92
 30
0.0
 11
238.8818
 21
42.192
 31
0.0
  0
LINE
  5
8D6
330
1D
100
AcDbEntity
  8
0
100
AcDbLine
 10
238.8818
 20
43.92
 30
0.0
 11
238.8818
 21
44.568
 31
0.0
  0
LINE
  5
8D7
330
1D
100
AcDbEntity
  8
0
100
AcDbLine
 10
238.8818
 20
44.568
 30
0.0
 11
238.8818
 21
43.92
 31
0.0
  0
LINE
  5
8D8
330
1D
100
AcDbEntity
  8
0
100
AcDbLine
 10
238.8818
 20
44.568
 30
0.0
 11
239.4818
 21
45.0
 31
0.0
  0
LINE
  5
8D9
330
1D
100
AcDbEntity
  8
0
100
AcDbLine
 10
239.4818
 20
39.744
 30
0.0
 11
239.4818
 21
42.624
 31
0.0
  0
LINE
  5
8DA
330
1D
100
AcDbEntity
  8
0
100
AcDbLine
 10
239.4818
 20
39.744
 30
0.0
 11
239.4818
 21
35.928
 31
0.0
  0
LINE
  5
8DB
330
1D
100
AcDbEntity
  8
0
100
AcDbLine
 10
239.4818
 20
42.624
 30
0.0
 11
239.4818
 21
44.352
 31
0.0
  0
LINE
  5
8DC
330
1D
100
AcDbEntity
  8
0
100
AcDbLine
 10
239.4818
 20
42.624
 30
0.0
 11
239.4818
 21
39.744
 31
0.0
  0
LINE
  5
8DD
330
1D
100
AcDbEntity
  8
0
100
AcDbLine
 10
253.8818
 20
40.068
 30
0.0
 11
253.8818
 21
45.576
 31
0.0
  0
LINE
  5
8DE
330
1D
100
AcDbEntity
  8
0
100
AcDbLine
 10
253.8818
 20
40.068
 30
0.0
 11
253.8818
 21
33.804
 31
0.0
  0
LINE
  5
8DF
330
1D
100
AcDbEntity
  8
0
100
AcDbLine
 10
253.8818
 20
39.744
 30
0.0
 11
253.8818
 21
42.624
 31
0.0
  0
LINE
  5
8E0
330
1D
100
AcDbEntity
  8
0
100
AcDbLine
 10
253.8818
 20
39.744
 30
0.0
 11
253.8818
 21
35.928
 31
0.0
  0
LINE
  5
8E1
330
1D
100
AcDbEntity
  8
0
100
AcDbLine
 10
263.8818
 20
40.392
 30
0.0
 11
263.8818
 21
46.116
 31
0.0
  0
LINE
  5
8E2
330
1D
100
AcDbEntity
  8
0
100
AcDbLine
 10
263.8818
 20
40.392
 30
0.0
 11
263.8818
 21
33.912
 31
0.0
  0
LINE
  5
8E3
330
1D
100
AcDbEntity
  8
0
100
AcDbLine
 10
254.4818
 20
40.392
 30
0.0
 11
254.4818
 21
46.116
 31
0.0
  0
LINE
  5
8E4
330
1D
100
AcDbEntity
  8
0
100
AcDbLine
 10
254.4818
 20
40.392
 30
0.0
 11
254.4818
 21
33.912
 31
0.0
  0
LINE
  5
8E5
330
1D
100
AcDbEntity
  8
0
100
AcDbLine
 10
253.8818
 20
42.624
 30
0.0
 11
253.8818
 21
44.352
 31
0.0
  0
LINE
  5
8E6
330
1D
100
AcDbEntity
  8
0
100
AcDbLine
 10
253.8818
 20
42.624
 30
0.0
 11
253.8818
 21
39.744
 31
0.0
  0
LINE
  5
8E7
330
1D
100
AcDbEntity
  8
0
100
AcDbLine
 10
253.8818
 20
45.0
 30
0.0
 11
253.8818
 21
44.352
 31
0.0
  0
LINE
  5
8E8
330
1D
100
AcDbEntity
  8
0
100
AcDbLine
 10
253.8818
 20
45.0
 30
0.0
 11
253.8818
 21
45.576
 31
0.0
  0
LINE
  5
8E9
330
1D
100
AcDbEntity
  8
0
100
AcDbLine
 10
253.8818
 20
44.352
 30
0.0
 11
253.8818
 21
45.0
 31
0.0
  0
LINE
  5
8EA
330
1D
100
AcDbEntity
  8
0
100
AcDbLine
 10
253.8818
 20
44.352
 30
0.0
 11
253.8818
 21
42.624
 31
0.0
  0
LINE
  5
8EB
330
1D
100
AcDbEntity
  8
0
100
AcDbLine
 10
239.4818
 20
44.352
 30
0.0
 11
239.4818
 21
45.0
 31
0.0
  0
LINE
  5
8EC
330
1D
100
AcDbEntity
  8
0
100
AcDbLine
 10
239.4818
 20
44.352
 30
0.0
 11
239.4818
 21
42.624
 31
0.0
  0
LINE
  5
8ED
330
1D
100
AcDbEntity
  8
0
100
AcDbLine
 10
253.8818
 20
45.576
 30
0.0
 11
253.8818
 21
45.0
 31
0.0
  0
LINE
  5
8EE
330
1D
100
AcDbEntity
  8
0
100
AcDbLine
 10
253.8818
 20
45.576
 30
0.0
 11
253.8818
 21
49.788
 31
0.0
  0
LINE
  5
8EF
330
1D
100
AcDbEntity
  8
0
100
AcDbLine
 10
253.8818
 20
45.576
 30
0.0
 11
253.8818
 21
40.068
 31
0.0
  0
LINE
  5
8F0
330
1D
100
AcDbEntity
  8
0
100
AcDbLine
 10
253.8818
 20
49.788
 30
0.0
 11
253.8818
 21
45.576
 31
0.0
  0
LINE
  5
8F1
330
1D
100
AcDbEntity
  8
0
100
AcDbLine
 10
253.8818
 20
49.788
 30
0.0
 11
253.8818
 21
52.38
 31
0.0
  0
LINE
  5
8F2
330
1D
100
AcDbEntity
  8
0
100
AcDbLine
 10
253.8818
 20
52.38
 30
0.0
 11
253.8818
 21
49.788
 31
0.0
  0
LINE
  5
8F3
330
1D
100
AcDbEntity
  8
0
100
AcDbLine
 10
253.8818
 20
52.38
 30
0.0
 11
253.8818
 21
53.352
 31
0.0
  0
LINE
  5
8F4
330
1D
100
AcDbEntity
  8
0
100
AcDbLine
 10
254.4818
 20
46.116
 30
0.0
 11
254.4818
 21
50.436
 31
0.0
  0
LINE
  5
8F5
330
1D
100
AcDbEntity
  8
0
100
AcDbLine
 10
254.4818
 20
46.116
 30
0.0
 11
254.4818
 21
40.392
 31
0.0
  0
LINE
  5
8F6
330
1D
100
AcDbEntity
  8
0
100
AcDbLine
 10
254.4818
 20
50.436
 30
0.0
 11
254.4818
 21
53.028
 31
0.0
  0
LINE
  5
8F7
330
1D
100
AcDbEntity
  8
0
100
AcDbLine
 10
254.4818
 20
50.436
 30
0.0
 11
254.4818
 21
46.116
 31
0.0
  0
LINE
  5
8F8
330
1D
100
AcDbEntity
  8
0
100
AcDbLine
 10
263.8818
 20
46.116
 30
0.0
 11
263.8818
 21
50.436
 31
0.0
  0
LINE
  5
8F9
330
1D
100
AcDbEntity
  8
0
100
AcDbLine
 10
263.8818
 20
46.116
 30
0.0
 11
263.8818
 21
40.392
 31
0.0
  0
LINE
  5
8FA
330
1D
100
AcDbEntity
  8
0
100
AcDbLine
 10
263.8818
 20
50.436
 30
0.0
 11
263.8818
 21
53.028
 31
0.0
  0
LINE
  5
8FB
330
1D
100
AcDbEntity
  8
0
100
AcDbLine
 10
263.8818
 20
50.436
 30
0.0
 11
263.8818
 21
46.116
 31
0.0
  0
LINE
  5
8FC
330
1D
100
AcDbEntity
  8
0
100
AcDbLine
 10
263.8818
 20
54.0
 30
0.0
 11
263.8818
 21
53.028
 31
0.0
  0
LINE
  5
8FD
330
1D
100
AcDbEntity
  8
0
100
AcDbLine
 10
263.8818
 20
53.028
 30
0.0
 11
263.8818
 21
54.0
 31
0.0
  0
LINE
  5
8FE
330
1D
100
AcDbEntity
  8
0
100
AcDbLine
 10
263.8818
 20
53.028
 30
0.0
 11
263.8818
 21
50.436
 31
0.0
  0
LINE
  5
8FF
330
1D
100
AcDbEntity
  8
0
100
AcDbLine
 10
254.4818
 20
53.028
 30
0.0
 11
254.4818
 21
54.0
 31
0.0
  0
LINE
  5
900
330
1D
100
AcDbEntity
  8
0
100
AcDbLine
 10
254.4818
 20
53.028
 30
0.0
 11
254.4818
 21
50.436
 31
0.0
  0
LINE
  5
901
330
1D
100
AcDbEntity
  8
0
100
AcDbLine
 10
254.4818
 20
54.0
 30
0.0
 11
263.8818
 21
54.0
 31
0.0
  0
LINE
  5
902
330
1D
100
AcDbEntity
  8
0
100
AcDbLine
 10
254.4818
 20
54.0
 30
0.0
 11
254.4818
 21
53.028
 31
0.0
  0
LINE
  5
903
330
1D
100
AcDbEntity
  8
0
100
AcDbLine
 10
253.8818
 20
53.352
 30
0.0
 11
253.8818
 21
52.38
 31
0.0
  0
LINE
  5
904
330
1D
100
AcDbEntity
  8
0
100
AcDbLine
 10
253.8818
 20
53.352
 30
0.0
 11
254.4818
 21
54.0
 31
0.0
  0
LINE
  5
905
330
1D
100
AcDbEntity
  8
0
100
AcDbLine
 10
239.4818
 20
45.0
 30
0.0
 11
253.8818
 21
45.0
 31
0.0
  0
LINE
  5
906
330
1D
100
AcDbEntity
  8
0
100
AcDbLine
 10
239.4818
 20
45.0
 30
0.0
 11
239.4818
 21
44.352
 31
0.0
  0
LINE
  5
907
330
1D
100
AcDbEntity
  8
0
100
AcDbLine
 10
238.8818
 20
37.604
 30
0.0
 11
238.8818
 21
38.0
 31
0.0
  0
LINE
  5
908
330
1D
100
AcDbEntity
  8
0
100
AcDbLine
 10
238.8818
 20
36.548
 30
0.0
 11
238.8818
 21
37.604
 31
0.0
  0
LINE
  5
909
330
1D
100
AcDbEntity
  8
0
100
AcDbLine
 10
216.7298
 20
655.0
 30
0.0
 11
216.7298
 21
655.2
 31
0.0
  0
LINE
  5
90A
330
1D
100
AcDbEntity
  8
0
100
AcDbLine
 10
216.7298
 20
661.3
 30
0.0
 11
216.7298
 21
660.0
 31
0.0
  0
LINE
  5
90B
330
1D
100
AcDbEntity
  8
0
100
AcDbLine
 10
216.7298
 20
661.3
 30
0.0
 11
216.7298
 21
662.5
 31
0.0
  0
LINE
  5
90C
330
1D
100
AcDbEntity
  8
0
100
AcDbLine
 10
216.7298
 20
662.5
 30
0.0
 11
216.7298
 21
661.3
 31
0.0
  0
LINE
  5
90D
330
1D
100
AcDbEntity
  8
0
100
AcDbLine
 10
216.7298
 20
662.5
 30
0.0
 11
216.7298
 21
663.5
 31
0.0
  0
LINE
  5
90E
330
1D
100
AcDbEntity
  8
0
100
AcDbLine
 10
216.7298
 20
663.5
 30
0.0
 11
216.7298
 21
662.5
 31
0.0
  0
LINE
  5
90F
330
1D
100
AcDbEntity
  8
0
100
AcDbLine
 10
216.7298
 20
663.5
 30
0.0
 11
216.7298
 21
664.3
 31
0.0
  0
LINE
  5
910
330
1D
100
AcDbEntity
  8
0
100
AcDbLine
 10
213.7368
 20
664.880016035278
 30
0.0
 11
213.7368
 21
680.0
 31
0.0
  0
LINE
  5
911
330
1D
100
AcDbEntity
  8
0
100
AcDbLine
 10
213.7368
 20
665.0
 30
0.0
 11
216.7298
 21
665.0
 31
0.0
  0
LINE
  5
912
330
1D
100
AcDbEntity
  8
0
100
AcDbLine
 10
216.7298
 20
664.3
 30
0.0
 11
216.7298
 21
663.5
 31
0.0
  0
LINE
  5
913
330
1D
100
AcDbEntity
  8
0
100
AcDbLine
 10
216.7298
 20
664.3
 30
0.0
 11
216.7298
 21
664.8
 31
0.0
  0
LINE
  5
914
330
1D
100
AcDbEntity
  8
0
100
AcDbLine
 10
216.7298
 20
664.8
 30
0.0
 11
216.7298
 21
664.3
 31
0.0
  0
LINE
  5
915
330
1D
100
AcDbEntity
  8
0
100
AcDbLine
 10
216.7298
 20
664.8
 30
0.0
 11
216.7298
 21
665.0
 31
0.0
  0
LINE
  5
916
330
1D
100
AcDbEntity
  8
0
100
AcDbLine
 10
187.8818
 20
680.0
 30
0.0
 11
187.8818
 21
922.4
 31
0.0
  0
LINE
  5
917
330
1D
100
AcDbEntity
  8
0
100
AcDbLine
 10
198.7698
 20
680.0
 30
0.0
 11
202.6608
 21
680.0
 31
0.0
  0
LINE
  5
918
330
1D
100
AcDbEntity
  8
0
100
AcDbLine
 10
202.6608
 20
680.0
 30
0.0
 11
206.5008
 21
680.0
 31
0.0
  0
LINE
  5
919
330
1D
100
AcDbEntity
  8
0
100
AcDbLine
 10
206.5008
 20
680.0
 30
0.0
 11
209.8248
 21
680.0
 31
0.0
  0
LINE
  5
91A
330
1D
100
AcDbEntity
  8
0
100
AcDbLine
 10
209.8818
 20
680.0
 30
0.0
 11
209.8818
 21
922.4
 31
0.0
  0
LINE
  5
91B
330
1D
100
AcDbEntity
  8
0
100
AcDbLine
 10
209.8248
 20
680.0
 30
0.0
 11
211.9248
 21
680.0
 31
0.0
  0
LINE
  5
91C
330
1D
100
AcDbEntity
  8
0
100
AcDbLine
 10
187.8818
 20
922.4
 30
0.0
 11
188.1458
 21
923.0
 31
0.0
  0
LINE
  5
91D
330
1D
100
AcDbEntity
  8
0
100
AcDbLine
 10
187.8818
 20
923.6
 30
0.0
 11
188.1458
 21
923.0
 31
0.0
  0
LINE
  5
91E
330
1D
100
AcDbEntity
  8
0
100
AcDbLine
 10
187.8818
 20
923.6
 30
0.0
 11
187.8818
 21
926.0
 31
0.0
  0
LINE
  5
91F
330
1D
100
AcDbEntity
  8
0
100
AcDbLine
 10
188.1458
 20
923.0
 30
0.0
 11
188.5418
 21
923.0
 31
0.0
  0
LINE
  5
920
330
1D
100
AcDbEntity
  8
0
100
AcDbLine
 10
188.5418
 20
923.0
 30
0.0
 11
189.5978
 21
923.0
 31
0.0
  0
LINE
  5
921
330
1D
100
AcDbEntity
  8
0
100
AcDbLine
 10
189.5978
 20
923.0
 30
0.0
 11
191.3138
 21
923.0
 31
0.0
  0
LINE
  5
922
330
1D
100
AcDbEntity
  8
0
100
AcDbLine
 10
191.3138
 20
923.0
 30
0.0
 11
193.5578
 21
923.0
 31
0.0
  0
LINE
  5
923
330
1D
100
AcDbEntity
  8
0
100
AcDbLine
 10
198.8818
 20
923.0
 30
0.0
 11
201.6538
 21
923.0
 31
0.0
  0
LINE
  5
924
330
1D
100
AcDbEntity
  8
0
100
AcDbLine
 10
193.5578
 20
923.0
 30
0.0
 11
196.1098
 21
923.0
 31
0.0
  0
LINE
  5
925
330
1D
100
AcDbEntity
  8
0
100
AcDbLine
 10
196.1098
 20
923.0
 30
0.0
 11
198.8818
 21
923.0
 31
0.0
  0
LINE
  5
926
330
1D
100
AcDbEntity
  8
0
100
AcDbLine
 10
188.8018
 20
932.988
 30
0.0
 11
191.4988
 21
939.5
 31
0.0
  0
LINE
  5
927
330
1D
100
AcDbEntity
  8
0
100
AcDbLine
 10
191.4988
 20
939.5
 30
0.0
 11
195.7898
 21
945.092
 31
0.0
  0
LINE
  5
928
330
1D
100
AcDbEntity
  8
0
100
AcDbLine
 10
187.8818
 20
926.0
 30
0.0
 11
188.8018
 21
932.988
 31
0.0
  0
LINE
  5
929
330
1D
100
AcDbEntity
  8
0
100
AcDbLine
 10
187.8818
 20
926.0
 30
0.0
 11
187.8818
 21
923.6
 31
0.0
  0
LINE
  5
92A
330
1D
100
AcDbEntity
  8
0
100
AcDbLine
 10
195.7898
 20
945.092
 30
0.0
 11
201.3818
 21
949.383
 31
0.0
  0
LINE
  5
92B
330
1D
100
AcDbEntity
  8
0
100
AcDbLine
 10
209.8818
 20
922.4
 30
0.0
 11
209.8818
 21
680.0
 31
0.0
  0
LINE
  5
92C
330
1D
100
AcDbEntity
  8
0
100
AcDbLine
 10
209.6178
 20
923.0
 30
0.0
 11
209.8818
 21
923.6
 31
0.0
  0
LINE
  5
92D
330
1D
100
AcDbEntity
  8
0
100
AcDbLine
 10
209.6178
 20
923.0
 30
0.0
 11
209.8818
 21
922.4
 31
0.0
  0
LINE
  5
92E
330
1D
100
AcDbEntity
  8
0
100
AcDbLine
 10
209.2218
 20
923.0
 30
0.0
 11
209.6178
 21
923.0
 31
0.0
  0
LINE
  5
92F
330
1D
100
AcDbEntity
  8
0
100
AcDbLine
 10
208.1658
 20
923.0
 30
0.0
 11
209.2218
 21
923.0
 31
0.0
  0
LINE
  5
930
330
1D
100
AcDbEntity
  8
0
100
AcDbLine
 10
206.4498
 20
923.0
 30
0.0
 11
208.1658
 21
923.0
 31
0.0
  0
LINE
  5
931
330
1D
100
AcDbEntity
  8
0
100
AcDbLine
 10
209.8818
 20
923.6
 30
0.0
 11
209.8818
 21
926.0
 31
0.0
  0
LINE
  5
932
330
1D
100
AcDbEntity
  8
0
100
AcDbLine
 10
204.2058
 20
923.0
 30
0.0
 11
206.4498
 21
923.0
 31
0.0
  0
LINE
  5
933
330
1D
100
AcDbEntity
  8
0
100
AcDbLine
 10
201.6538
 20
923.0
 30
0.0
 11
204.2058
 21
923.0
 31
0.0
  0
LINE
  5
934
330
1D
100
AcDbEntity
  8
0
100
AcDbLine
 10
210.0518
 20
927.294
 30
0.0
 11
210.5518
 21
928.5
 31
0.0
  0
LINE
  5
935
330
1D
100
AcDbEntity
  8
0
100
AcDbLine
 10
210.5518
 20
928.5
 30
0.0
 11
211.3468
 21
929.536
 31
0.0
  0
LINE
  5
936
330
1D
100
AcDbEntity
  8
0
100
AcDbLine
 10
209.8818
 20
926.0
 30
0.0
 11
210.0518
 21
927.294
 31
0.0
  0
LINE
  5
937
330
1D
100
AcDbEntity
  8
0
100
AcDbLine
 10
209.8818
 20
926.0
 30
0.0
 11
209.8818
 21
923.6
 31
0.0
  0
LINE
  5
938
330
1D
100
AcDbEntity
  8
0
100
AcDbLine
 10
211.3468
 20
929.536
 30
0.0
 11
212.3818
 21
930.33
 31
0.0
  0
LINE
  5
939
330
1D
100
AcDbEntity
  8
0
100
AcDbLine
 10
207.8938
 20
952.08
 30
0.0
 11
214.8818
 21
953.0
 31
0.0
  0
LINE
  5
93A
330
1D
100
AcDbEntity
  8
0
100
AcDbLine
 10
212.3818
 20
930.33
 30
0.0
 11
213.5878
 21
930.83
 31
0.0
  0
LINE
  5
93B
330
1D
100
AcDbEntity
  8
0
100
AcDbLine
 10
201.3818
 20
949.383
 30
0.0
 11
207.8938
 21
952.08
 31
0.0
  0
LINE
  5
93C
330
1D
100
AcDbEntity
  8
0
100
AcDbLine
 10
211.9248
 20
680.0
 30
0.0
 11
213.2378
 21
680.0
 31
0.0
  0
LINE
  5
93D
330
1D
100
AcDbEntity
  8
0
100
AcDbLine
 10
214.8818
 20
931.0
 30
0.0
 11
238.8818
 21
931.0
 31
0.0
  0
LINE
  5
93E
330
1D
100
AcDbEntity
  8
0
100
AcDbLine
 10
214.8818
 20
953.0
 30
0.0
 11
238.8818
 21
953.0
 31
0.0
  0
LINE
  5
93F
330
1D
100
AcDbEntity
  8
0
100
AcDbLine
 10
213.5878
 20
930.83
 30
0.0
 11
214.8818
 21
931.0
 31
0.0
  0
LINE
  5
940
330
1D
100
AcDbEntity
  8
0
100
AcDbLine
 10
213.7368
 20
680.0
 30
0.0
 11
213.7368
 21
664.880016035278
 31
0.0
  0
LINE
  5
941
330
1D
100
AcDbEntity
  8
0
100
AcDbLine
 10
213.2378
 20
680.0
 30
0.0
 11
213.7368
 21
680.0
 31
0.0
  0
LINE
  5
942
330
1D
100
AcDbEntity
  8
0
100
AcDbLine
 10
216.7298
 20
665.0
 30
0.0
 11
216.7298
 21
664.8
 31
0.0
  0
LINE
  5
943
330
1D
100
AcDbEntity
  8
0
100
AcDbLine
 10
216.7298
 20
660.0
 30
0.0
 11
216.7298
 21
658.7
 31
0.0
  0
LINE
  5
944
330
1D
100
AcDbEntity
  8
0
100
AcDbLine
 10
216.7298
 20
660.0
 30
0.0
 11
216.7298
 21
661.3
 31
0.0
  0
LINE
  5
945
330
1D
100
AcDbEntity
  8
0
100
AcDbLine
 10
216.7298
 20
658.7
 30
0.0
 11
216.7298
 21
657.5
 31
0.0
  0
LINE
  5
946
330
1D
100
AcDbEntity
  8
0
100
AcDbLine
 10
216.7298
 20
658.7
 30
0.0
 11
216.7298
 21
660.0
 31
0.0
  0
LINE
  5
947
330
1D
100
AcDbEntity
  8
0
100
AcDbLine
 10
216.7298
 20
657.5
 30
0.0
 11
216.7298
 21
656.5
 31
0.0
  0
LINE
  5
948
330
1D
100
AcDbEntity
  8
0
100
AcDbLine
 10
216.7298
 20
657.5
 30
0.0
 11
216.7298
 21
658.7
 31
0.0
  0
LINE
  5
949
330
1D
100
AcDbEntity
  8
0
100
AcDbLine
 10
216.7298
 20
656.5
 30
0.0
 11
216.7298
 21
655.7
 31
0.0
  0
LINE
  5
94A
330
1D
100
AcDbEntity
  8
0
100
AcDbLine
 10
216.7298
 20
656.5
 30
0.0
 11
216.7298
 21
657.5
 31
0.0
  0
LINE
  5
94B
330
1D
100
AcDbEntity
  8
0
100
AcDbLine
 10
238.8818
 20
929.616
 30
0.0
 11
238.8818
 21
931.0
 31
0.0
  0
LINE
  5
94C
330
1D
100
AcDbEntity
  8
0
100
AcDbLine
 10
238.8818
 20
929.616
 30
0.0
 11
238.8818
 21
926.808
 31
0.0
  0
LINE
  5
94D
330
1D
100
AcDbEntity
  8
0
100
AcDbLine
 10
238.8818
 20
929.616
 30
0.0
 11
238.8818
 21
933.288
 31
0.0
  0
LINE
  5
94E
330
1D
100
AcDbEntity
  8
0
100
AcDbLine
 10
238.8818
 20
926.808
 30
0.0
 11
238.8818
 21
929.616
 31
0.0
  0
LINE
  5
94F
330
1D
100
AcDbEntity
  8
0
100
AcDbLine
 10
238.8818
 20
926.808
 30
0.0
 11
238.8818
 21
925.08
 31
0.0
  0
LINE
  5
950
330
1D
100
AcDbEntity
  8
0
100
AcDbLine
 10
238.8818
 20
925.08
 30
0.0
 11
238.8818
 21
926.808
 31
0.0
  0
LINE
  5
951
330
1D
100
AcDbEntity
  8
0
100
AcDbLine
 10
238.8818
 20
925.08
 30
0.0
 11
238.8818
 21
924.432
 31
0.0
  0
LINE
  5
952
330
1D
100
AcDbEntity
  8
0
100
AcDbLine
 10
238.8818
 20
924.432
 30
0.0
 11
238.8818
 21
925.08
 31
0.0
  0
LINE
  5
953
330
1D
100
AcDbEntity
  8
0
100
AcDbLine
 10
238.8818
 20
924.432
 30
0.0
 11
239.4818
 21
924.0
 31
0.0
  0
LINE
  5
954
330
1D
100
AcDbEntity
  8
0
100
AcDbLine
 10
238.8818
 20
931.0
 30
0.0
 11
238.8818
 21
931.396
 31
0.0
  0
LINE
  5
955
330
1D
100
AcDbEntity
  8
0
100
AcDbLine
 10
238.8818
 20
931.0
 30
0.0
 11
238.8818
 21
929.616
 31
0.0
  0
LINE
  5
956
330
1D
100
AcDbEntity
  8
0
100
AcDbLine
 10
238.8818
 20
931.396
 30
0.0
 11
238.8818
 21
932.452
 31
0.0
  0
LINE
  5
957
330
1D
100
AcDbEntity
  8
0
100
AcDbLine
 10
238.8818
 20
933.288
 30
0.0
 11
238.8818
 21
929.616
 31
0.0
  0
LINE
  5
958
330
1D
100
AcDbEntity
  8
0
100
AcDbLine
 10
238.8818
 20
933.288
 30
0.0
 11
238.8818
 21
937.464
 31
0.0
  0
LINE
  5
959
330
1D
100
AcDbEntity
  8
0
100
AcDbLine
 10
238.8818
 20
932.452
 30
0.0
 11
238.8818
 21
934.212
 31
0.0
  0
LINE
  5
95A
330
1D
100
AcDbEntity
  8
0
100
AcDbLine
 10
238.8818
 20
934.212
 30
0.0
 11
238.8818
 21
936.544
 31
0.0
  0
LINE
  5
95B
330
1D
100
AcDbEntity
  8
0
100
AcDbLine
 10
238.8818
 20
937.464
 30
0.0
 11
238.8818
 21
933.288
 31
0.0
  0
LINE
  5
95C
330
1D
100
AcDbEntity
  8
0
100
AcDbLine
 10
238.8818
 20
937.464
 30
0.0
 11
238.8818
 21
942.0
 31
0.0
  0
LINE
  5
95D
330
1D
100
AcDbEntity
  8
0
100
AcDbLine
 10
238.8818
 20
936.544
 30
0.0
 11
238.8818
 21
939.184
 31
0.0
  0
LINE
  5
95E
330
1D
100
AcDbEntity
  8
0
100
AcDbLine
 10
253.8818
 20
923.424
 30
0.0
 11
253.8818
 21
924.0
 31
0.0
  0
LINE
  5
95F
330
1D
100
AcDbEntity
  8
0
100
AcDbLine
 10
253.8818
 20
923.424
 30
0.0
 11
253.8818
 21
919.212
 31
0.0
  0
LINE
  5
960
330
1D
100
AcDbEntity
  8
0
100
AcDbLine
 10
253.8818
 20
923.424
 30
0.0
 11
253.8818
 21
928.932
 31
0.0
  0
LINE
  5
961
330
1D
100
AcDbEntity
  8
0
100
AcDbLine
 10
253.8818
 20
919.212
 30
0.0
 11
253.8818
 21
923.424
 31
0.0
  0
LINE
  5
962
330
1D
100
AcDbEntity
  8
0
100
AcDbLine
 10
253.8818
 20
919.212
 30
0.0
 11
253.8818
 21
916.62
 31
0.0
  0
LINE
  5
963
330
1D
100
AcDbEntity
  8
0
100
AcDbLine
 10
253.8818
 20
916.62
 30
0.0
 11
253.8818
 21
919.212
 31
0.0
  0
LINE
  5
964
330
1D
100
AcDbEntity
  8
0
100
AcDbLine
 10
253.8818
 20
916.62
 30
0.0
 11
253.8818
 21
915.648
 31
0.0
  0
LINE
  5
965
330
1D
100
AcDbEntity
  8
0
100
AcDbLine
 10
253.8818
 20
915.648
 30
0.0
 11
253.8818
 21
916.62
 31
0.0
  0
LINE
  5
966
330
1D
100
AcDbEntity
  8
0
100
AcDbLine
 10
253.8818
 20
915.648
 30
0.0
 11
254.4818
 21
915.0
 31
0.0
  0
LINE
  5
967
330
1D
100
AcDbEntity
  8
0
100
AcDbLine
 10
253.8818
 20
924.0
 30
0.0
 11
253.8818
 21
924.648
 31
0.0
  0
LINE
  5
968
330
1D
100
AcDbEntity
  8
0
100
AcDbLine
 10
253.8818
 20
924.0
 30
0.0
 11
253.8818
 21
923.424
 31
0.0
  0
LINE
  5
969
330
1D
100
AcDbEntity
  8
0
100
AcDbLine
 10
239.4818
 20
937.392
 30
0.0
 11
239.4818
 21
933.072
 31
0.0
  0
LINE
  5
96A
330
1D
100
AcDbEntity
  8
0
100
AcDbLine
 10
239.4818
 20
937.392
 30
0.0
 11
239.4818
 21
942.0
 31
0.0
  0
LINE
  5
96B
330
1D
100
AcDbEntity
  8
0
100
AcDbLine
 10
239.4818
 20
933.072
 30
0.0
 11
239.4818
 21
929.256
 31
0.0
  0
LINE
  5
96C
330
1D
100
AcDbEntity
  8
0
100
AcDbLine
 10
239.4818
 20
933.072
 30
0.0
 11
239.4818
 21
937.392
 31
0.0
  0
LINE
  5
96D
330
1D
100
AcDbEntity
  8
0
100
AcDbLine
 10
239.4818
 20
929.256
 30
0.0
 11
239.4818
 21
926.376
 31
0.0
  0
LINE
  5
96E
330
1D
100
AcDbEntity
  8
0
100
AcDbLine
 10
239.4818
 20
929.256
 30
0.0
 11
239.4818
 21
933.072
 31
0.0
  0
LINE
  5
96F
330
1D
100
AcDbEntity
  8
0
100
AcDbLine
 10
239.4818
 20
926.376
 30
0.0
 11
239.4818
 21
924.648
 31
0.0
  0
LINE
  5
970
330
1D
100
AcDbEntity
  8
0
100
AcDbLine
 10
239.4818
 20
926.376
 30
0.0
 11
239.4818
 21
929.256
 31
0.0
  0
LINE
  5
971
330
1D
100
AcDbEntity
  8
0
100
AcDbLine
 10
253.8818
 20
928.932
 30
0.0
 11
253.8818
 21
923.424
 31
0.0
  0
LINE
  5
972
330
1D
100
AcDbEntity
  8
0
100
AcDbLine
 10
253.8818
 20
928.932
 30
0.0
 11
253.8818
 21
935.196
 31
0.0
  0
LINE
  5
973
330
1D
100
AcDbEntity
  8
0
100
AcDbLine
 10
253.8818
 20
935.196
 30
0.0
 11
253.8818
 21
928.932
 31
0.0
  0
LINE
  5
974
330
1D
100
AcDbEntity
  8
0
100
AcDbLine
 10
253.8818
 20
935.196
 30
0.0
 11
253.8818
 21
942.0
 31
0.0
  0
LINE
  5
975
330
1D
100
AcDbEntity
  8
0
100
AcDbLine
 10
253.8818
 20
937.392
 30
0.0
 11
253.8818
 21
933.072
 31
0.0
  0
LINE
  5
976
330
1D
100
AcDbEntity
  8
0
100
AcDbLine
 10
253.8818
 20
937.392
 30
0.0
 11
253.8818
 21
942.0
 31
0.0
  0
LINE
  5
977
330
1D
100
AcDbEntity
  8
0
100
AcDbLine
 10
253.8818
 20
933.072
 30
0.0
 11
253.8818
 21
929.256
 31
0.0
  0
LINE
  5
978
330
1D
100
AcDbEntity
  8
0
100
AcDbLine
 10
253.8818
 20
933.072
 30
0.0
 11
253.8818
 21
937.392
 31
0.0
  0
LINE
  5
979
330
1D
100
AcDbEntity
  8
0
100
AcDbLine
 10
253.8818
 20
929.256
 30
0.0
 11
253.8818
 21
926.376
 31
0.0
  0
LINE
  5
97A
330
1D
100
AcDbEntity
  8
0
100
AcDbLine
 10
253.8818
 20
929.256
 30
0.0
 11
253.8818
 21
933.072
 31
0.0
  0
LINE
  5
97B
330
1D
100
AcDbEntity
  8
0
100
AcDbLine
 10
253.8818
 20
926.376
 30
0.0
 11
253.8818
 21
924.648
 31
0.0
  0
LINE
  5
97C
330
1D
100
AcDbEntity
  8
0
100
AcDbLine
 10
253.8818
 20
926.376
 30
0.0
 11
253.8818
 21
929.256
 31
0.0
  0
LINE
  5
97D
330
1D
100
AcDbEntity
  8
0
100
AcDbLine
 10
253.8818
 20
924.648
 30
0.0
 11
253.8818
 21
924.0
 31
0.0
  0
LINE
  5
97E
330
1D
100
AcDbEntity
  8
0
100
AcDbLine
 10
253.8818
 20
924.648
 30
0.0
 11
253.8818
 21
926.376
 31
0.0
  0
LINE
  5
97F
330
1D
100
AcDbEntity
  8
0
100
AcDbLine
 10
239.4818
 20
924.648
 30
0.0
 11
239.4818
 21
924.0
 31
0.0
  0
LINE
  5
980
330
1D
100
AcDbEntity
  8
0
100
AcDbLine
 10
239.4818
 20
924.648
 30
0.0
 11
239.4818
 21
926.376
 31
0.0
  0
LINE
  5
981
330
1D
100
AcDbEntity
  8
0
100
AcDbLine
 10
239.4818
 20
924.0
 30
0.0
 11
253.8818
 21
924.0
 31
0.0
  0
LINE
  5
982
330
1D
100
AcDbEntity
  8
0
100
AcDbLine
 10
239.4818
 20
924.0
 30
0.0
 11
239.4818
 21
924.648
 31
0.0
  0
LINE
  5
983
330
1D
100
AcDbEntity
  8
0
100
AcDbLine
 10
263.8818
 20
915.0
 30
0.0
 11
263.8818
 21
915.972
 31
0.0
  0
LINE
  5
984
330
1D
100
AcDbEntity
  8
0
100
AcDbLine
 10
254.4818
 20
935.088
 30
0.0
 11
254.4818
 21
928.608
 31
0.0
  0
LINE
  5
985
330
1D
100
AcDbEntity
  8
0
100
AcDbLine
 10
254.4818
 20
935.088
 30
0.0
 11
254.4818
 21
942.0
 31
0.0
  0
LINE
  5
986
330
1D
100
AcDbEntity
  8
0
100
AcDbLine
 10
254.4818
 20
928.608
 30
0.0
 11
254.4818
 21
922.884
 31
0.0
  0
LINE
  5
987
330
1D
100
AcDbEntity
  8
0
100
AcDbLine
 10
254.4818
 20
928.608
 30
0.0
 11
254.4818
 21
935.088
 31
0.0
  0
LINE
  5
988
330
1D
100
AcDbEntity
  8
0
100
AcDbLine
 10
254.4818
 20
922.884
 30
0.0
 11
254.4818
 21
918.564
 31
0.0
  0
LINE
  5
989
330
1D
100
AcDbEntity
  8
0
100
AcDbLine
 10
254.4818
 20
922.884
 30
0.0
 11
254.4818
 21
928.608
 31
0.0
  0
LINE
  5
98A
330
1D
100
AcDbEntity
  8
0
100
AcDbLine
 10
254.4818
 20
918.564
 30
0.0
 11
254.4818
 21
915.972
 31
0.0
  0
LINE
  5
98B
330
1D
100
AcDbEntity
  8
0
100
AcDbLine
 10
254.4818
 20
918.564
 30
0.0
 11
254.4818
 21
922.884
 31
0.0
  0
LINE
  5
98C
330
1D
100
AcDbEntity
  8
0
100
AcDbLine
 10
263.8818
 20
935.088
 30
0.0
 11
263.8818
 21
928.608
 31
0.0
  0
LINE
  5
98D
330
1D
100
AcDbEntity
  8
0
100
AcDbLine
 10
263.8818
 20
935.088
 30
0.0
 11
263.8818
 21
942.0
 31
0.0
  0
LINE
  5
98E
330
1D
100
AcDbEntity
  8
0
100
AcDbLine
 10
263.8818
 20
928.608
 30
0.0
 11
263.8818
 21
922.884
 31
0.0
  0
LINE
  5
98F
330
1D
100
AcDbEntity
  8
0
100
AcDbLine
 10
263.8818
 20
928.608
 30
0.0
 11
263.8818
 21
935.088
 31
0.0
  0
LINE
  5
990
330
1D
100
AcDbEntity
  8
0
100
AcDbLine
 10
263.8818
 20
922.884
 30
0.0
 11
263.8818
 21
918.564
 31
0.0
  0
LINE
  5
991
330
1D
100
AcDbEntity
  8
0
100
AcDbLine
 10
263.8818
 20
922.884
 30
0.0
 11
263.8818
 21
928.608
 31
0.0
  0
LINE
  5
992
330
1D
100
AcDbEntity
  8
0
100
AcDbLine
 10
263.8818
 20
918.564
 30
0.0
 11
263.8818
 21
915.972
 31
0.0
  0
LINE
  5
993
330
1D
100
AcDbEntity
  8
0
100
AcDbLine
 10
263.8818
 20
918.564
 30
0.0
 11
263.8818
 21
922.884
 31
0.0
  0
LINE
  5
994
330
1D
100
AcDbEntity
  8
0
100
AcDbLine
 10
263.8818
 20
915.972
 30
0.0
 11
263.8818
 21
915.0
 31
0.0
  0
LINE
  5
995
330
1D
100
AcDbEntity
  8
0
100
AcDbLine
 10
263.8818
 20
915.972
 30
0.0
 11
263.8818
 21
918.564
 31
0.0
  0
LINE
  5
996
330
1D
100
AcDbEntity
  8
0
100
AcDbLine
 10
254.4818
 20
915.972
 30
0.0
 11
254.4818
 21
915.0
 31
0.0
  0
LINE
  5
997
330
1D
100
AcDbEntity
  8
0
100
AcDbLine
 10
254.4818
 20
915.972
 30
0.0
 11
254.4818
 21
918.564
 31
0.0
  0
LINE
  5
998
330
1D
100
AcDbEntity
  8
0
100
AcDbLine
 10
254.4818
 20
915.0
 30
0.0
 11
263.8818
 21
915.0
 31
0.0
  0
LINE
  5
999
330
1D
100
AcDbEntity
  8
0
100
AcDbLine
 10
254.4818
 20
915.0
 30
0.0
 11
254.4818
 21
915.972
 31
0.0
  0
LINE
  5
99A
330
1D
100
AcDbEntity
  8
0
100
AcDbLine
 10
263.8818
 20
942.0
 30
0.0
 11
263.8818
 21
948.912
 31
0.0
  0
LINE
  5
99B
330
1D
100
AcDbEntity
  8
0
100
AcDbLine
 10
263.8818
 20
942.0
 30
0.0
 11
263.8818
 21
935.088
 31
0.0
  0
LINE
  5
99C
330
1D
100
AcDbEntity
  8
0
100
AcDbLine
 10
254.4818
 20
942.0
 30
0.0
 11
254.4818
 21
948.912
 31
0.0
  0
LINE
  5
99D
330
1D
100
AcDbEntity
  8
0
100
AcDbLine
 10
254.4818
 20
942.0
 30
0.0
 11
254.4818
 21
935.088
 31
0.0
  0
LINE
  5
99E
330
1D
100
AcDbEntity
  8
0
100
AcDbLine
 10
253.8818
 20
942.0
 30
0.0
 11
253.8818
 21
946.608
 31
0.0
  0
LINE
  5
99F
330
1D
100
AcDbEntity
  8
0
100
AcDbLine
 10
253.8818
 20
942.0
 30
0.0
 11
253.8818
 21
937.392
 31
0.0
  0
LINE
  5
9A0
330
1D
100
AcDbEntity
  8
0
100
AcDbLine
 10
253.8818
 20
942.0
 30
0.0
 11
253.8818
 21
948.804
 31
0.0
  0
LINE
  5
9A1
330
1D
100
AcDbEntity
  8
0
100
AcDbLine
 10
253.8818
 20
942.0
 30
0.0
 11
253.8818
 21
935.196
 31
0.0
  0
LINE
  5
9A2
330
1D
100
AcDbEntity
  8
0
100
AcDbLine
 10
239.4818
 20
942.0
 30
0.0
 11
239.4818
 21
946.608
 31
0.0
  0
LINE
  5
9A3
330
1D
100
AcDbEntity
  8
0
100
AcDbLine
 10
239.4818
 20
942.0
 30
0.0
 11
239.4818
 21
937.392
 31
0.0
  0
LINE
  5
9A4
330
1D
100
AcDbEntity
  8
0
100
AcDbLine
 10
238.8818
 20
939.184
 30
0.0
 11
238.8818
 21
942.0
 31
0.0
  0
LINE
  5
9A5
330
1D
100
AcDbEntity
  8
0
100
AcDbLine
 10
238.8818
 20
946.536
 30
0.0
 11
238.8818
 21
942.0
 31
0.0
  0
LINE
  5
9A6
330
1D
100
AcDbEntity
  8
0
100
AcDbLine
 10
238.8818
 20
946.536
 30
0.0
 11
238.8818
 21
950.712
 31
0.0
  0
LINE
  5
9A7
330
1D
100
AcDbEntity
  8
0
100
AcDbLine
 10
238.8818
 20
950.712
 30
0.0
 11
238.8818
 21
946.536
 31
0.0
  0
LINE
  5
9A8
330
1D
100
AcDbEntity
  8
0
100
AcDbLine
 10
238.8818
 20
950.712
 30
0.0
 11
238.8818
 21
954.384
 31
0.0
  0
LINE
  5
9A9
330
1D
100
AcDbEntity
  8
0
100
AcDbLine
 10
238.8818
 20
953.0
 30
0.0
 11
238.8818
 21
954.384
 31
0.0
  0
LINE
  5
9AA
330
1D
100
AcDbEntity
  8
0
100
AcDbLine
 10
238.8818
 20
954.384
 30
0.0
 11
238.8818
 21
950.712
 31
0.0
  0
LINE
  5
9AB
330
1D
100
AcDbEntity
  8
0
100
AcDbLine
 10
238.8818
 20
954.384
 30
0.0
 11
238.8818
 21
957.192
 31
0.0
  0
LINE
  5
9AC
330
1D
100
AcDbEntity
  8
0
100
AcDbLine
 10
238.8818
 20
954.384
 30
0.0
 11
238.8818
 21
953.0
 31
0.0
  0
LINE
  5
9AD
330
1D
100
AcDbEntity
  8
0
100
AcDbLine
 10
238.8818
 20
957.192
 30
0.0
 11
238.8818
 21
954.384
 31
0.0
  0
LINE
  5
9AE
330
1D
100
AcDbEntity
  8
0
100
AcDbLine
 10
238.8818
 20
957.192
 30
0.0
 11
238.8818
 21
958.92
 31
0.0
  0
LINE
  5
9AF
330
1D
100
AcDbEntity
  8
0
100
AcDbLine
 10
238.8818
 20
958.92
 30
0.0
 11
238.8818
 21
957.192
 31
0.0
  0
LINE
  5
9B0
330
1D
100
AcDbEntity
  8
0
100
AcDbLine
 10
238.8818
 20
958.92
 30
0.0
 11
238.8818
 21
959.568
 31
0.0
  0
LINE
  5
9B1
330
1D
100
AcDbEntity
  8
0
100
AcDbLine
 10
238.8818
 20
959.568
 30
0.0
 11
238.8818
 21
958.92
 31
0.0
  0
LINE
  5
9B2
330
1D
100
AcDbEntity
  8
0
100
AcDbLine
 10
238.8818
 20
959.568
 30
0.0
 11
239.4818
 21
960.0
 31
0.0
  0
LINE
  5
9B3
330
1D
100
AcDbEntity
  8
0
100
AcDbLine
 10
238.8818
 20
952.604
 30
0.0
 11
238.8818
 21
953.0
 31
0.0
  0
LINE
  5
9B4
330
1D
100
AcDbEntity
  8
0
100
AcDbLine
 10
238.8818
 20
951.548
 30
0.0
 11
238.8818
 21
952.604
 31
0.0
  0
LINE
  5
9B5
330
1D
100
AcDbEntity
  8
0
100
AcDbLine
 10
238.8818
 20
949.788
 30
0.0
 11
238.8818
 21
951.548
 31
0.0
  0
LINE
  5
9B6
330
1D
100
AcDbEntity
  8
0
100
AcDbLine
 10
238.8818
 20
947.456
 30
0.0
 11
238.8818
 21
949.788
 31
0.0
  0
LINE
  5
9B7
330
1D
100
AcDbEntity
  8
0
100
AcDbLine
 10
239.4818
 20
946.608
 30
0.0
 11
239.4818
 21
942.0
 31
0.0
  0
LINE
  5
9B8
330
1D
100
AcDbEntity
  8
0
100
AcDbLine
 10
239.4818
 20
946.608
 30
0.0
 11
239.4818
 21
950.928
 31
0.0
  0
LINE
  5
9B9
330
1D
100
AcDbEntity
  8
0
100
AcDbLine
 10
239.4818
 20
950.928
 30
0.0
 11
239.4818
 21
946.608
 31
0.0
  0
LINE
  5
9BA
330
1D
100
AcDbEntity
  8
0
100
AcDbLine
 10
239.4818
 20
950.928
 30
0.0
 11
239.4818
 21
954.744
 31
0.0
  0
LINE
  5
9BB
330
1D
100
AcDbEntity
  8
0
100
AcDbLine
 10
239.4818
 20
954.744
 30
0.0
 11
239.4818
 21
950.928
 31
0.0
  0
LINE
  5
9BC
330
1D
100
AcDbEntity
  8
0
100
AcDbLine
 10
239.4818
 20
954.744
 30
0.0
 11
239.4818
 21
957.624
 31
0.0
  0
LINE
  5
9BD
330
1D
100
AcDbEntity
  8
0
100
AcDbLine
 10
239.4818
 20
957.624
 30
0.0
 11
239.4818
 21
954.744
 31
0.0
  0
LINE
  5
9BE
330
1D
100
AcDbEntity
  8
0
100
AcDbLine
 10
239.4818
 20
957.624
 30
0.0
 11
239.4818
 21
959.352
 31
0.0
  0
LINE
  5
9BF
330
1D
100
AcDbEntity
  8
0
100
AcDbLine
 10
253.8818
 20
948.804
 30
0.0
 11
253.8818
 21
942.0
 31
0.0
  0
LINE
  5
9C0
330
1D
100
AcDbEntity
  8
0
100
AcDbLine
 10
253.8818
 20
948.804
 30
0.0
 11
253.8818
 21
955.068
 31
0.0
  0
LINE
  5
9C1
330
1D
100
AcDbEntity
  8
0
100
AcDbLine
 10
253.8818
 20
946.608
 30
0.0
 11
253.8818
 21
942.0
 31
0.0
  0
LINE
  5
9C2
330
1D
100
AcDbEntity
  8
0
100
AcDbLine
 10
253.8818
 20
946.608
 30
0.0
 11
253.8818
 21
950.928
 31
0.0
  0
LINE
  5
9C3
330
1D
100
AcDbEntity
  8
0
100
AcDbLine
 10
253.8818
 20
955.068
 30
0.0
 11
253.8818
 21
948.804
 31
0.0
  0
LINE
  5
9C4
330
1D
100
AcDbEntity
  8
0
100
AcDbLine
 10
253.8818
 20
955.068
 30
0.0
 11
253.8818
 21
960.576
 31
0.0
  0
LINE
  5
9C5
330
1D
100
AcDbEntity
  8
0
100
AcDbLine
 10
253.8818
 20
950.928
 30
0.0
 11
253.8818
 21
946.608
 31
0.0
  0
LINE
  5
9C6
330
1D
100
AcDbEntity
  8
0
100
AcDbLine
 10
253.8818
 20
950.928
 30
0.0
 11
253.8818
 21
954.744
 31
0.0
  0
LINE
  5
9C7
330
1D
100
AcDbEntity
  8
0
100
AcDbLine
 10
253.8818
 20
954.744
 30
0.0
 11
253.8818
 21
950.928
 31
0.0
  0
LINE
  5
9C8
330
1D
100
AcDbEntity
  8
0
100
AcDbLine
 10
253.8818
 20
954.744
 30
0.0
 11
253.8818
 21
957.624
 31
0.0
  0
LINE
  5
9C9
330
1D
100
AcDbEntity
  8
0
100
AcDbLine
 10
253.8818
 20
957.624
 30
0.0
 11
253.8818
 21
954.744
 31
0.0
  0
LINE
  5
9CA
330
1D
100
AcDbEntity
  8
0
100
AcDbLine
 10
253.8818
 20
957.624
 30
0.0
 11
253.8818
 21
959.352
 31
0.0
  0
LINE
  5
9CB
330
1D
100
AcDbEntity
  8
0
100
AcDbLine
 10
263.8818
 20
948.912
 30
0.0
 11
263.8818
 21
942.0
 31
0.0
  0
LINE
  5
9CC
330
1D
100
AcDbEntity
  8
0
100
AcDbLine
 10
263.8818
 20
948.912
 30
0.0
 11
263.8818
 21
955.392
 31
0.0
  0
LINE
  5
9CD
330
1D
100
AcDbEntity
  8
0
100
AcDbLine
 10
263.8818
 20
955.392
 30
0.0
 11
263.8818
 21
948.912
 31
0.0
  0
LINE
  5
9CE
330
1D
100
AcDbEntity
  8
0
100
AcDbLine
 10
263.8818
 20
955.392
 30
0.0
 11
263.8818
 21
961.116
 31
0.0
  0
LINE
  5
9CF
330
1D
100
AcDbEntity
  8
0
100
AcDbLine
 10
254.4818
 20
948.912
 30
0.0
 11
254.4818
 21
942.0
 31
0.0
  0
LINE
  5
9D0
330
1D
100
AcDbEntity
  8
0
100
AcDbLine
 10
254.4818
 20
948.912
 30
0.0
 11
254.4818
 21
955.392
 31
0.0
  0
LINE
  5
9D1
330
1D
100
AcDbEntity
  8
0
100
AcDbLine
 10
254.4818
 20
955.392
 30
0.0
 11
254.4818
 21
948.912
 31
0.0
  0
LINE
  5
9D2
330
1D
100
AcDbEntity
  8
0
100
AcDbLine
 10
254.4818
 20
955.392
 30
0.0
 11
254.4818
 21
961.116
 31
0.0
  0
LINE
  5
9D3
330
1D
100
AcDbEntity
  8
0
100
AcDbLine
 10
253.8818
 20
959.352
 30
0.0
 11
253.8818
 21
957.624
 31
0.0
  0
LINE
  5
9D4
330
1D
100
AcDbEntity
  8
0
100
AcDbLine
 10
253.8818
 20
959.352
 30
0.0
 11
253.8818
 21
960.0
 31
0.0
  0
LINE
  5
9D5
330
1D
100
AcDbEntity
  8
0
100
AcDbLine
 10
253.8818
 20
960.0
 30
0.0
 11
253.8818
 21
959.352
 31
0.0
  0
LINE
  5
9D6
330
1D
100
AcDbEntity
  8
0
100
AcDbLine
 10
253.8818
 20
960.0
 30
0.0
 11
253.8818
 21
960.576
 31
0.0
  0
LINE
  5
9D7
330
1D
100
AcDbEntity
  8
0
100
AcDbLine
 10
239.4818
 20
959.352
 30
0.0
 11
239.4818
 21
957.624
 31
0.0
  0
LINE
  5
9D8
330
1D
100
AcDbEntity
  8
0
100
AcDbLine
 10
239.4818
 20
959.352
 30
0.0
 11
239.4818
 21
960.0
 31
0.0
  0
LINE
  5
9D9
330
1D
100
AcDbEntity
  8
0
100
AcDbLine
 10
253.8818
 20
960.576
 30
0.0
 11
253.8818
 21
955.068
 31
0.0
  0
LINE
  5
9DA
330
1D
100
AcDbEntity
  8
0
100
AcDbLine
 10
253.8818
 20
960.576
 30
0.0
 11
253.8818
 21
964.788
 31
0.0
  0
LINE
  5
9DB
330
1D
100
AcDbEntity
  8
0
100
AcDbLine
 10
253.8818
 20
960.576
 30
0.0
 11
253.8818
 21
960.0
 31
0.0
  0
LINE
  5
9DC
330
1D
100
AcDbEntity
  8
0
100
AcDbLine
 10
253.8818
 20
964.788
 30
0.0
 11
253.8818
 21
960.576
 31
0.0
  0
LINE
  5
9DD
330
1D
100
AcDbEntity
  8
0
100
AcDbLine
 10
253.8818
 20
964.788
 30
0.0
 11
253.8818
 21
967.38
 31
0.0
  0
LINE
  5
9DE
330
1D
100
AcDbEntity
  8
0
100
AcDbLine
 10
253.8818
 20
967.38
 30
0.0
 11
253.8818
 21
964.788
 31
0.0
  0
LINE
  5
9DF
330
1D
100
AcDbEntity
  8
0
100
AcDbLine
 10
253.8818
 20
967.38
 30
0.0
 11
253.8818
 21
968.352
 31
0.0
  0
LINE
  5
9E0
330
1D
100
AcDbEntity
  8
0
100
AcDbLine
 10
254.4818
 20
961.116
 30
0.0
 11
254.4818
 21
955.392
 31
0.0
  0
LINE
  5
9E1
330
1D
100
AcDbEntity
  8
0
100
AcDbLine
 10
254.4818
 20
961.116
 30
0.0
 11
254.4818
 21
965.436
 31
0.0
  0
LINE
  5
9E2
330
1D
100
AcDbEntity
  8
0
100
AcDbLine
 10
254.4818
 20
965.436
 30
0.0
 11
254.4818
 21
961.116
 31
0.0
  0
LINE
  5
9E3
330
1D
100
AcDbEntity
  8
0
100
AcDbLine
 10
254.4818
 20
965.436
 30
0.0
 11
254.4818
 21
968.028
 31
0.0
  0
LINE
  5
9E4
330
1D
100
AcDbEntity
  8
0
100
AcDbLine
 10
263.8818
 20
961.116
 30
0.0
 11
263.8818
 21
955.392
 31
0.0
  0
LINE
  5
9E5
330
1D
100
AcDbEntity
  8
0
100
AcDbLine
 10
263.8818
 20
961.116
 30
0.0
 11
263.8818
 21
965.436
 31
0.0
  0
LINE
  5
9E6
330
1D
100
AcDbEntity
  8
0
100
AcDbLine
 10
263.8818
 20
965.436
 30
0.0
 11
263.8818
 21
961.116
 31
0.0
  0
LINE
  5
9E7
330
1D
100
AcDbEntity
  8
0
100
AcDbLine
 10
263.8818
 20
965.436
 30
0.0
 11
263.8818
 21
968.028
 31
0.0
  0
LINE
  5
9E8
330
1D
100
AcDbEntity
  8
0
100
AcDbLine
 10
263.8818
 20
968.028
 30
0.0
 11
263.8818
 21
965.436
 31
0.0
  0
LINE
  5
9E9
330
1D
100
AcDbEntity
  8
0
100
AcDbLine
 10
263.8818
 20
968.028
 30
0.0
 11
263.8818
 21
969.0
 31
0.0
  0
LINE
  5
9EA
330
1D
100
AcDbEntity
  8
0
100
AcDbLine
 10
263.8818
 20
969.0
 30
0.0
 11
263.8818
 21
968.028
 31
0.0
  0
LINE
  5
9EB
330
1D
100
AcDbEntity
  8
0
100
AcDbLine
 10
254.4818
 20
968.028
 30
0.0
 11
254.4818
 21
965.436
 31
0.0
  0
LINE
  5
9EC
330
1D
100
AcDbEntity
  8
0
100
AcDbLine
 10
254.4818
 20
968.028
 30
0.0
 11
254.4818
 21
969.0
 31
0.0
  0
LINE
  5
9ED
330
1D
100
AcDbEntity
  8
0
100
AcDbLine
 10
254.4818
 20
969.0
 30
0.0
 11
254.4818
 21
968.028
 31
0.0
  0
LINE
  5
9EE
330
1D
100
AcDbEntity
  8
0
100
AcDbLine
 10
254.4818
 20
969.0
 30
0.0
 11
263.8818
 21
969.0
 31
0.0
  0
LINE
  5
9EF
330
1D
100
AcDbEntity
  8
0
100
AcDbLine
 10
253.8818
 20
968.352
 30
0.0
 11
253.8818
 21
967.38
 31
0.0
  0
LINE
  5
9F0
330
1D
100
AcDbEntity
  8
0
100
AcDbLine
 10
253.8818
 20
968.352
 30
0.0
 11
254.4818
 21
969.0
 31
0.0
  0
LINE
  5
9F1
330
1D
100
AcDbEntity
  8
0
100
AcDbLine
 10
239.4818
 20
960.0
 30
0.0
 11
239.4818
 21
959.352
 31
0.0
  0
LINE
  5
9F2
330
1D
100
AcDbEntity
  8
0
100
AcDbLine
 10
239.4818
 20
960.0
 30
0.0
 11
253.8818
 21
960.0
 31
0.0
  0
LINE
  5
9F3
330
1D
100
AcDbEntity
  8
0
100
AcDbLine
 10
238.8818
 20
944.816
 30
0.0
 11
238.8818
 21
947.456
 31
0.0
  0
LINE
  5
9F4
330
1D
100
AcDbEntity
  8
0
100
AcDbLine
 10
238.8818
 20
942.0
 30
0.0
 11
238.8818
 21
944.816
 31
0.0
  0
LINE
  5
9F5
330
1D
100
AcDbEntity
  8
0
100
AcDbLine
 10
238.8818
 20
942.0
 30
0.0
 11
238.8818
 21
946.536
 31
0.0
  0
LINE
  5
9F6
330
1D
100
AcDbEntity
  8
0
100
AcDbLine
 10
238.8818
 20
942.0
 30
0.0
 11
238.8818
 21
937.464
 31
0.0
  0
LINE
  5
9F7
330
1D
100
AcDbEntity
  8
0
100
AcDbLine
 10
216.7298
 20
655.7
 30
0.0
 11
216.7298
 21
655.2
 31
0.0
  0
LINE
  5
9F8
330
1D
100
AcDbEntity
  8
0
100
AcDbLine
 10
216.7298
 20
655.7
 30
0.0
 11
216.7298
 21
656.5
 31
0.0
  0
LINE
  5
9F9
330
1D
100
AcDbEntity
  8
0
100
AcDbLine
 10
216.7298
 20
655.2
 30
0.0
 11
216.7298
 21
655.0
 31
0.0
  0
LINE
  5
9FA
330
1D
100
AcDbEntity
  8
0
100
AcDbLine
 10
216.7298
 20
655.2
 30
0.0
 11
216.7298
 21
655.7
 31
0.0
  0
LINE
  5
9FB
330
1D
100
AcDbEntity
  8
0
100
AcDbLine
 10
183.3048
 20
663.9
 30
0.0
 11
183.8038
 21
660.0
 31
0.0
  0
LINE
  5
9FC
330
1D
100
AcDbEntity
  8
0
100
AcDbLine
 10
178.6478
 20
34.8204
 30
0.0
 11
178.9108
 21
36.3621
 31
0.0
  0
LINE
  5
9FD
330
1D
100
AcDbEntity
  8
0
100
AcDbLine
 10
178.6028
 20
557.334
 30
0.0
 11
178.9108
 21
36.3621
 31
0.0
  0
LINE
  5
9FE
330
1D
100
AcDbEntity
  8
0
100
AcDbLine
 10
178.6028
 20
557.334
 30
0.0
 11
178.9108
 21
36.3621
 31
0.0
  0
LINE
  5
DEF
330
1D
100
AcDbEntity
  8
0
100
AcDbLine
 10
16.623831555235
 20
851.507178574106
 30
0.0
 11
17.694709175881
 21
852.655624163168
 31
0.0
  0
LINE
  5
DF0
330
1D
100
AcDbEntity
  8
0
100
AcDbLine
 10
16.990031555235
 20
848.841178574106
 30
0.0
 11
18.342823350927
 21
850.29195851453
 31
0.0
  0
LINE
  5
DF1
330
1D
100
AcDbEntity
  8
0
100
AcDbLine
 10
16.780325774721
 20
851.67500829864
 30
0.0
 11
16.887185171621
 21
851.59024653678
 31
0.0
  0
LINE
  5
DF2
330
1D
100
AcDbEntity
  8
0
100
AcDbLine
 10
13.914531555235
 20
854.033178574106
 30
0.0
 11
14.900139640782
 21
855.090178213063
 31
0.0
  0
LINE
  5
DF3
330
1D
100
AcDbEntity
  8
0
100
AcDbLine
 10
13.585431555235
 20
854.340178574106
 30
0.0
 11
13.914531555235
 21
854.033178574106
 31
0.0
  0
LINE
  5
DF4
330
1D
100
AcDbEntity
  8
0
100
AcDbLine
 10
14.429831555235
 20
853.553178574106
 30
0.0
 11
14.758931555235
 21
853.246178574106
 31
0.0
  0
LINE
  5
DF5
330
1D
100
AcDbEntity
  8
0
100
AcDbLine
 10
14.429831555235
 20
853.553178574106
 30
0.0
 11
15.865608930153
 21
855.093000228722
 31
0.0
  0
LINE
  5
DF6
330
1D
100
AcDbEntity
  8
0
100
AcDbLine
 10
14.429831555235
 20
853.553178574106
 30
0.0
 11
15.118341424191
 21
854.291581633073
 31
0.0
  0
LINE
  5
DF7
330
1D
100
AcDbEntity
  8
0
100
AcDbLine
 10
14.429831555235
 20
853.553178574106
 30
0.0
 11
15.118341424191
 21
854.291581633073
 31
0.0
  0
LINE
  5
DF8
330
1D
100
AcDbEntity
  8
0
100
AcDbLine
 10
14.758931555235
 20
853.246178574106
 30
0.0
 11
15.526831555235
 21
852.530178574106
 31
0.0
  0
LINE
  5
DF9
330
1D
100
AcDbEntity
  8
0
100
AcDbLine
 10
13.011533859711
 20
854.875288288906
 30
0.0
 11
13.585431555235
 21
854.340178574106
 31
0.0
  0
LINE
  5
DFA
330
1D
100
AcDbEntity
  8
0
100
AcDbLine
 10
14.693823771582
 20
854.868918056564
 30
0.0
 11
15.118341424191
 21
854.291581633073
 31
0.0
  0
LINE
  5
DFB
330
1D
100
AcDbEntity
  8
0
100
AcDbLine
 10
14.693823771582
 20
854.868918056564
 30
0.0
 11
15.118341424191
 21
854.291581633073
 31
0.0
  0
LINE
  5
DFC
330
1D
100
AcDbEntity
  8
0
100
AcDbLine
 10
12.817531555235
 20
855.056178574106
 30
0.0
 11
13.585431555235
 21
854.340178574106
 31
0.0
  0
LINE
  5
DFD
330
1D
100
AcDbEntity
  8
0
100
AcDbLine
 10
14.822426168895
 20
855.006835642186
 30
0.0
 11
15.049231555235
 21
854.758178574106
 31
0.0
  0
LINE
  5
DFE
330
1D
100
AcDbEntity
  8
0
100
AcDbLine
 10
16.294731555235
 20
851.814178574106
 30
0.0
 11
16.623831555235
 21
851.507178574106
 31
0.0
  0
LINE
  5
DFF
330
1D
100
AcDbEntity
  8
0
100
AcDbLine
 10
15.526831555235
 20
852.530178574106
 30
0.0
 11
16.294731555235
 21
851.814178574106
 31
0.0
  0
LINE
  5
E00
330
1D
100
AcDbEntity
  8
0
100
AcDbLine
 10
17.204290235209
 20
852.129682208318
 30
0.0
 11
17.746031555235
 21
851.694178574106
 31
0.0
  0
LINE
  5
E01
330
1D
100
AcDbEntity
  8
0
100
AcDbLine
 10
15.619995072453
 20
854.829587847829
 30
0.0
 11
15.865608930153
 21
855.093000228722
 31
0.0
  0
LINE
  5
E02
330
1D
100
AcDbEntity
  8
0
100
AcDbLine
 10
16.508331555235
 20
854.317178574106
 30
0.0
 11
17.344531555235
 21
853.177178574106
 31
0.0
  0
LINE
  5
E03
330
1D
100
AcDbEntity
  8
0
100
AcDbLine
 10
15.049231555235
 20
854.758178574106
 30
0.0
 11
15.105231555235
 21
854.754178574106
 31
0.0
  0
LINE
  5
E04
330
1D
100
AcDbEntity
  8
0
100
AcDbLine
 10
16.800333518123
 20
851.696465283279
 30
0.0
 11
17.220031555235
 21
851.183178574106
 31
0.0
  0
LINE
  5
E05
330
1D
100
AcDbEntity
  8
0
100
AcDbLine
 10
17.336631555235
 20
854.261178574106
 30
0.0
 11
17.665731555235
 21
853.954178574106
 31
0.0
  0
LINE
  5
E06
330
1D
100
AcDbEntity
  8
0
100
AcDbLine
 10
17.336631555235
 20
854.261178574106
 30
0.0
 11
18.663056898116
 21
855.683293252573
 31
0.0
  0
LINE
  5
E07
330
1D
100
AcDbEntity
  8
0
100
AcDbLine
 10
17.434356740225
 20
852.376413354608
 30
0.0
 11
17.714531555235
 21
851.768178574106
 31
0.0
  0
LINE
  5
E08
330
1D
100
AcDbEntity
  8
0
100
AcDbLine
 10
17.665731555235
 20
853.954178574106
 30
0.0
 11
18.433631555235
 21
853.238178574106
 31
0.0
  0
LINE
  5
E09
330
1D
100
AcDbEntity
  8
0
100
AcDbLine
 10
17.502158112663
 20
852.449125852849
 30
0.0
 11
17.764631555235
 21
852.157178574106
 31
0.0
  0
LINE
  5
E0A
330
1D
100
AcDbEntity
  8
0
100
AcDbLine
 10
17.344531555235
 20
853.177178574106
 30
0.0
 11
17.905831555235
 21
852.341178574106
 31
0.0
  0
LINE
  5
E0B
330
1D
100
AcDbEntity
  8
0
100
AcDbLine
 10
17.220031555235
 20
851.183178574106
 30
0.0
 11
18.068531555235
 21
850.147178574106
 31
0.0
  0
LINE
  5
E0C
330
1D
100
AcDbEntity
  8
0
100
AcDbLine
 10
11.812263568585
 20
855.993581241608
 30
0.0
 11
11.914441555235
 21
855.898178574106
 31
0.0
  0
LINE
  5
E0D
330
1D
100
AcDbEntity
  8
0
100
AcDbLine
 10
11.812263568585
 20
855.993581241608
 30
0.0
 11
11.914441555235
 21
855.898178574106
 31
0.0
  0
LINE
  5
E0E
330
1D
100
AcDbEntity
  8
0
100
AcDbLine
 10
11.914441555235
 20
855.898178574106
 30
0.0
 11
12.682331555235
 21
855.182178574106
 31
0.0
  0
LINE
  5
E0F
330
1D
100
AcDbEntity
  8
0
100
AcDbLine
 10
10.817411555235
 20
856.921178574106
 30
0.0
 11
11.146521555235
 21
856.615178574106
 31
0.0
  0
LINE
  5
E10
330
1D
100
AcDbEntity
  8
0
100
AcDbLine
 10
10.817411555235
 20
856.921178574106
 30
0.0
 11
12.141707624043
 21
858.341390397975
 31
0.0
  0
LINE
  5
E11
330
1D
100
AcDbEntity
  8
0
100
AcDbLine
 10
10.817411555235
 20
856.921178574106
 30
0.0
 11
12.141707624043
 21
858.341390397975
 31
0.0
  0
LINE
  5
E12
330
1D
100
AcDbEntity
  8
0
100
AcDbLine
 10
11.146521555235
 20
856.615178574106
 30
0.0
 11
11.720541450433
 21
856.079221358697
 31
0.0
  0
LINE
  5
E13
330
1D
100
AcDbEntity
  8
0
100
AcDbLine
 10
11.720501555235
 20
856.079178574106
 30
0.0
 11
12.049611555235
 21
855.772178574106
 31
0.0
  0
LINE
  5
E14
330
1D
100
AcDbEntity
  8
0
100
AcDbLine
 10
11.720501555235
 20
856.079178574106
 30
0.0
 11
13.097508243722
 21
857.555914397485
 31
0.0
  0
LINE
  5
E15
330
1D
100
AcDbEntity
  8
0
100
AcDbLine
 10
11.720501555235
 20
856.079178574106
 30
0.0
 11
11.812263568585
 21
855.993581241608
 31
0.0
  0
LINE
  5
E16
330
1D
100
AcDbEntity
  8
0
100
AcDbLine
 10
11.720501555235
 20
856.079178574106
 30
0.0
 11
11.812263568585
 21
855.993581241608
 31
0.0
  0
LINE
  5
E17
330
1D
100
AcDbEntity
  8
0
100
AcDbLine
 10
12.682331555235
 20
855.182178574106
 30
0.0
 11
13.011431555235
 21
854.875178574106
 31
0.0
  0
LINE
  5
E18
330
1D
100
AcDbEntity
  8
0
100
AcDbLine
 10
14.322131555235
 20
857.072178574106
 30
0.0
 11
14.651231555235
 21
856.765178574106
 31
0.0
  0
LINE
  5
E19
330
1D
100
AcDbEntity
  8
0
100
AcDbLine
 10
14.651231555235
 20
856.765178574106
 30
0.0
 11
15.524598101008
 21
857.701550448401
 31
0.0
  0
LINE
  5
E1A
330
1D
100
AcDbEntity
  8
0
100
AcDbLine
 10
14.651231555235
 20
856.765178574106
 30
0.0
 11
15.524598101008
 21
857.701550448401
 31
0.0
  0
LINE
  5
E1B
330
1D
100
AcDbEntity
  8
0
100
AcDbLine
 10
15.099831555235
 20
855.903178574106
 30
0.0
 11
15.599531555235
 21
855.414178574106
 31
0.0
  0
LINE
  5
E1C
330
1D
100
AcDbEntity
  8
0
100
AcDbLine
 10
14.977631555235
 20
855.890178574106
 30
0.0
 11
15.286431555235
 21
855.317178574106
 31
0.0
  0
LINE
  5
E1D
330
1D
100
AcDbEntity
  8
0
100
AcDbLine
 10
14.977631555235
 20
855.890178574106
 30
0.0
 11
15.099831555235
 21
855.903178574106
 31
0.0
  0
LINE
  5
E1E
330
1D
100
AcDbEntity
  8
0
100
AcDbLine
 10
14.887931555235
 20
855.110178574106
 30
0.0
 11
15.105231555235
 21
854.754178574106
 31
0.0
  0
LINE
  5
E1F
330
1D
100
AcDbEntity
  8
0
100
AcDbLine
 10
14.380931555235
 20
855.848178574106
 30
0.0
 11
14.887931555235
 21
855.110178574106
 31
0.0
  0
LINE
  5
E20
330
1D
100
AcDbEntity
  8
0
100
AcDbLine
 10
13.754231555235
 20
856.700178574106
 30
0.0
 11
14.380931555235
 21
855.848178574106
 31
0.0
  0
LINE
  5
E21
330
1D
100
AcDbEntity
  8
0
100
AcDbLine
 10
12.505131555235
 20
858.164178574106
 30
0.0
 11
12.989538590597
 21
857.44012508728
 31
0.0
  0
LINE
  5
E22
330
1D
100
AcDbEntity
  8
0
100
AcDbLine
 10
12.505131555235
 20
858.164178574106
 30
0.0
 11
12.511831555235
 21
858.255178574106
 31
0.0
  0
LINE
  5
E23
330
1D
100
AcDbEntity
  8
0
100
AcDbLine
 10
12.457231555235
 20
858.811178574106
 30
0.0
 11
12.786331555235
 21
858.504178574106
 31
0.0
  0
LINE
  5
E24
330
1D
100
AcDbEntity
  8
0
100
AcDbLine
 10
12.457231555235
 20
858.811178574106
 30
0.0
 11
13.800374015526
 21
860.25121635558
 31
0.0
  0
LINE
  5
E25
330
1D
100
AcDbEntity
  8
0
100
AcDbLine
 10
12.108256751398
 20
858.386778113569
 30
0.0
 11
12.141633714775
 21
858.341311135628
 31
0.0
  0
LINE
  5
E26
330
1D
100
AcDbEntity
  8
0
100
AcDbLine
 10
13.554231555235
 20
857.788178574106
 30
0.0
 11
14.322131555235
 21
857.072178574106
 31
0.0
  0
LINE
  5
E27
330
1D
100
AcDbEntity
  8
0
100
AcDbLine
 10
12.786331555235
 20
858.504178574106
 30
0.0
 11
13.554231555235
 21
857.788178574106
 31
0.0
  0
LINE
  5
E28
330
1D
100
AcDbEntity
  8
0
100
AcDbLine
 10
12.511831555235
 20
858.255178574106
 30
0.0
 11
13.023631555235
 21
857.652178574106
 31
0.0
  0
LINE
  5
E29
330
1D
100
AcDbEntity
  8
0
100
AcDbLine
 10
13.023631555235
 20
857.652178574106
 30
0.0
 11
13.754231555235
 21
856.700178574106
 31
0.0
  0
LINE
  5
E2A
330
1D
100
AcDbEntity
  8
0
100
AcDbLine
 10
12.093221555235
 20
858.407178574106
 30
0.0
 11
12.886992798213
 21
857.330152458668
 31
0.0
  0
LINE
  5
E2B
330
1D
100
AcDbEntity
  8
0
100
AcDbLine
 10
8.808051555235
 20
862.214178574106
 30
0.0
 11
9.57647389738
 21
863.038040321941
 31
0.0
  0
LINE
  5
E2C
330
1D
100
AcDbEntity
  8
0
100
AcDbLine
 10
6.807431555235
 20
864.079178574106
 30
0.0
 11
8.808051555235
 21
862.214178574106
 31
0.0
  0
LINE
  5
E2D
330
1D
100
AcDbEntity
  8
0
100
AcDbLine
 10
8.903081555235
 20
862.125178574106
 30
0.0
 11
9.232191555235
 21
861.818178574106
 31
0.0
  0
LINE
  5
E2E
330
1D
100
AcDbEntity
  8
0
100
AcDbLine
 10
8.903081555235
 20
862.125178574106
 30
0.0
 11
10.173621388113
 21
863.487768690921
 31
0.0
  0
LINE
  5
E2F
330
1D
100
AcDbEntity
  8
0
100
AcDbLine
 10
9.232191555235
 20
861.818178574106
 30
0.0
 11
10.000111555235
 21
861.102178574106
 31
0.0
  0
LINE
  5
E30
330
1D
100
AcDbEntity
  8
0
100
AcDbLine
 10
10.000111555235
 20
861.102178574106
 30
0.0
 11
10.768031555235
 21
860.386178574106
 31
0.0
  0
LINE
  5
E31
330
1D
100
AcDbEntity
  8
0
100
AcDbLine
 10
10.000111555235
 20
861.102178574106
 30
0.0
 11
10.453810101209
 21
860.679155135574
 31
0.0
  0
LINE
  5
E32
330
1D
100
AcDbEntity
  8
0
100
AcDbLine
 10
10.453810101209
 20
860.679155135574
 30
0.0
 11
11.277791555235
 21
859.351178574106
 31
0.0
  0
LINE
  5
E33
330
1D
100
AcDbEntity
  8
0
100
AcDbLine
 10
11.097141555235
 20
860.079178574106
 30
0.0
 11
11.856961934721
 21
860.894038185947
 31
0.0
  0
LINE
  5
E34
330
1D
100
AcDbEntity
  8
0
100
AcDbLine
 10
10.768031555235
 20
860.386178574106
 30
0.0
 11
11.097141555235
 21
860.079178574106
 31
0.0
  0
LINE
  5
E35
330
1D
100
AcDbEntity
  8
0
100
AcDbLine
 10
11.277791555235
 20
859.351178574106
 30
0.0
 11
11.558781555235
 21
859.133178574106
 31
0.0
  0
LINE
  5
E36
330
1D
100
AcDbEntity
  8
0
100
AcDbLine
 10
11.499731555235
 20
861.541178574106
 30
0.0
 11
11.982191555235
 21
860.667178574106
 31
0.0
  0
LINE
  5
E37
330
1D
100
AcDbEntity
  8
0
100
AcDbLine
 10
10.662431555235
 20
862.828178574106
 30
0.0
 11
11.499731555235
 21
861.541178574106
 31
0.0
  0
LINE
  5
E38
330
1D
100
AcDbEntity
  8
0
100
AcDbLine
 10
11.898751555235
 20
860.458178574106
 30
0.0
 11
12.054741555235
 21
860.376178574106
 31
0.0
  0
LINE
  5
E39
330
1D
100
AcDbEntity
  8
0
100
AcDbLine
 10
11.678103613223
 20
860.702223875137
 30
0.0
 11
11.898751555235
 21
860.458178574106
 31
0.0
  0
LINE
  5
E3A
330
1D
100
AcDbEntity
  8
0
100
AcDbLine
 10
11.982191555235
 20
860.667178574106
 30
0.0
 11
12.054741555235
 21
860.376178574106
 31
0.0
  0
LINE
  5
E3B
330
1D
100
AcDbEntity
  8
0
100
AcDbLine
 10
5.710401555235
 20
865.102178574106
 30
0.0
 11
6.039501555235
 21
864.795178574106
 31
0.0
  0
LINE
  5
E3C
330
1D
100
AcDbEntity
  8
0
100
AcDbLine
 10
5.710401555235
 20
865.102178574106
 30
0.0
 11
6.936306991824
 21
866.416885122103
 31
0.0
  0
LINE
  5
E3D
330
1D
100
AcDbEntity
  8
0
100
AcDbLine
 10
6.039501555235
 20
864.795178574106
 30
0.0
 11
6.807431555235
 21
864.079178574106
 31
0.0
  0
LINE
  5
E3E
330
1D
100
AcDbEntity
  8
0
100
AcDbLine
 10
7.202081555235
 20
866.003178574106
 30
0.0
 11
7.625150070282
 21
865.344286014601
 31
0.0
  0
LINE
  5
E3F
330
1D
100
AcDbEntity
  8
0
100
AcDbLine
 10
6.764591555235
 20
866.684178574106
 30
0.0
 11
7.202081555235
 21
866.003178574106
 31
0.0
  0
LINE
  5
E40
330
1D
100
AcDbEntity
  8
0
100
AcDbLine
 10
9.532951555235
 20
863.127178574106
 30
0.0
 11
9.65290119341
 21
862.929322452112
 31
0.0
  0
LINE
  5
E41
330
1D
100
AcDbEntity
  8
0
100
AcDbLine
 10
9.532951555235
 20
863.127178574106
 30
0.0
 11
9.652240324517
 21
862.928613703437
 31
0.0
  0
LINE
  5
E42
330
1D
100
AcDbEntity
  8
0
100
AcDbLine
 10
8.923721555235
 20
864.009178574106
 30
0.0
 11
9.532951555235
 21
863.127178574106
 31
0.0
  0
LINE
  5
E43
330
1D
100
AcDbEntity
  8
0
100
AcDbLine
 10
7.791201555235
 20
865.719178574106
 30
0.0
 11
8.299551555235
 21
864.969178574106
 31
0.0
  0
LINE
  5
E44
330
1D
100
AcDbEntity
  8
0
100
AcDbLine
 10
7.503991555235
 20
866.118178574106
 30
0.0
 11
7.537611555235
 21
866.071178574106
 31
0.0
  0
LINE
  5
E45
330
1D
100
AcDbEntity
  8
0
100
AcDbLine
 10
8.299551555235
 20
864.969178574106
 30
0.0
 11
8.923721555235
 21
864.009178574106
 31
0.0
  0
LINE
  5
E46
330
1D
100
AcDbEntity
  8
0
100
AcDbLine
 10
9.569941555235
 20
864.179178574106
 30
0.0
 11
9.597111555235
 21
863.869178574106
 31
0.0
  0
LINE
  5
E47
330
1D
100
AcDbEntity
  8
0
100
AcDbLine
 10
9.569941555235
 20
864.179178574106
 30
0.0
 11
10.018431555235
 21
863.697178574106
 31
0.0
  0
LINE
  5
E48
330
1D
100
AcDbEntity
  8
0
100
AcDbLine
 10
9.597111555235
 20
863.869178574106
 30
0.0
 11
9.807621555235
 21
863.459178574106
 31
0.0
  0
LINE
  5
E49
330
1D
100
AcDbEntity
  8
0
100
AcDbLine
 10
9.807621555235
 20
863.459178574106
 30
0.0
 11
9.93895561204
 21
863.23610143976
 31
0.0
  0
LINE
  5
E4A
330
1D
100
AcDbEntity
  8
0
100
AcDbLine
 10
5.793771555235
 20
870.163178574106
 30
0.0
 11
7.279511555235
 21
868.778178574106
 31
0.0
  0
LINE
  5
E4B
330
1D
100
AcDbEntity
  8
0
100
AcDbLine
 10
3.923751555235
 20
871.908178574106
 30
0.0
 11
4.633621555235
 21
871.245178574106
 31
0.0
  0
LINE
  5
E4C
330
1D
100
AcDbEntity
  8
0
100
AcDbLine
 10
4.633621555235
 20
871.245178574106
 30
0.0
 11
5.793771555235
 21
870.163178574106
 31
0.0
  0
LINE
  5
E4D
330
1D
100
AcDbEntity
  8
0
100
AcDbLine
 10
3.789136631142
 20
872.033834781758
 30
0.0
 11
6.583641555235
 21
866.967178574106
 31
0.0
  0
LINE
  5
E4E
330
1D
100
AcDbEntity
  8
0
100
AcDbLine
 10
3.242511555235
 20
872.532178574106
 30
0.0
 11
3.477831555235
 21
872.324178574106
 31
0.0
  0
LINE
  5
E4F
330
1D
100
AcDbEntity
  8
0
100
AcDbLine
 10
3.122901555235
 20
872.659178574106
 30
0.0
 11
3.242511555235
 21
872.532178574106
 31
0.0
  0
LINE
  5
E50
330
1D
100
AcDbEntity
  8
0
100
AcDbLine
 10
3.200861555235
 20
872.583178574106
 30
0.0
 11
3.452381555235
 21
872.348178574106
 31
0.0
  0
LINE
  5
E51
330
1D
100
AcDbEntity
  8
0
100
AcDbLine
 10
2.381055555235
 20
874.008178574106
 30
0.0
 11
2.509486555235
 21
874.924178574106
 31
0.0
  0
LINE
  5
E52
330
1D
100
AcDbEntity
  8
0
100
AcDbLine
 10
2.381055555235
 20
874.008178574106
 30
0.0
 11
3.122901555235
 21
872.659178574106
 31
0.0
  0
LINE
  5
E53
330
1D
100
AcDbEntity
  8
0
100
AcDbLine
 10
2.509486555235
 20
874.924178574106
 30
0.0
 11
12.752631555235
 21
885.540178574106
 31
0.0
  0
LINE
  5
E54
330
1D
100
AcDbEntity
  8
0
100
AcDbLine
 10
3.477831555235
 20
872.324178574106
 30
0.0
 11
3.737188271019
 21
872.082325942533
 31
0.0
  0
LINE
  5
E55
330
1D
100
AcDbEntity
  8
0
100
AcDbLine
 10
3.477831555235
 20
872.324178574106
 30
0.0
 11
3.737188271019
 21
872.082325942533
 31
0.0
  0
LINE
  5
E56
330
1D
100
AcDbEntity
  8
0
100
AcDbLine
 10
3.452381555235
 20
872.348178574106
 30
0.0
 11
3.923751555235
 21
871.908178574106
 31
0.0
  0
LINE
  5
E57
330
1D
100
AcDbEntity
  8
0
100
AcDbLine
 10
3.789136631142
 20
872.033834781758
 30
0.0
 11
6.583641555235
 21
866.967178574106
 31
0.0
  0
LINE
  5
E58
330
1D
100
AcDbEntity
  8
0
100
AcDbLine
 10
9.079871555235
 20
867.100178574106
 30
0.0
 11
11.178751555235
 21
865.143178574106
 31
0.0
  0
LINE
  5
E59
330
1D
100
AcDbEntity
  8
0
100
AcDbLine
 10
7.279511555235
 20
868.778178574106
 30
0.0
 11
9.079871555235
 21
867.100178574106
 31
0.0
  0
LINE
  5
E5A
330
1D
100
AcDbEntity
  8
0
100
AcDbLine
 10
6.583641555235
 20
866.967178574106
 30
0.0
 11
6.663571555235
 21
866.842178574106
 31
0.0
  0
LINE
  5
E5B
330
1D
100
AcDbEntity
  8
0
100
AcDbLine
 10
6.583641555235
 20
866.967178574106
 30
0.0
 11
6.764591555235
 21
866.684178574106
 31
0.0
  0
LINE
  5
E5C
330
1D
100
AcDbEntity
  8
0
100
AcDbLine
 10
11.178751555235
 20
865.143178574106
 30
0.0
 11
13.561831555235
 21
862.922178574106
 31
0.0
  0
LINE
  5
E5D
330
1D
100
AcDbEntity
  8
0
100
AcDbLine
 10
12.752631555235
 20
885.540178574106
 30
0.0
 11
13.352431555235
 21
885.740178574106
 31
0.0
  0
LINE
  5
E5E
330
1D
100
AcDbEntity
  8
0
100
AcDbLine
 10
10.018431555235
 20
863.697178574106
 30
0.0
 11
10.662431555235
 21
862.828178574106
 31
0.0
  0
LINE
  5
E5F
330
1D
100
AcDbEntity
  8
0
100
AcDbLine
 10
13.760931555235
 20
860.299178574106
 30
0.0
 11
13.823431555235
 21
860.225178574106
 31
0.0
  0
LINE
  5
E60
330
1D
100
AcDbEntity
  8
0
100
AcDbLine
 10
13.699131555235
 20
860.371178574106
 30
0.0
 11
13.760931555235
 21
860.299178574106
 31
0.0
  0
LINE
  5
E61
330
1D
100
AcDbEntity
  8
0
100
AcDbLine
 10
13.823431555235
 20
860.225178574106
 30
0.0
 11
13.875431555235
 21
860.161178574106
 31
0.0
  0
LINE
  5
E62
330
1D
100
AcDbEntity
  8
0
100
AcDbLine
 10
13.946131555235
 20
860.075178574106
 30
0.0
 11
14.535031555235
 21
859.309178574106
 31
0.0
  0
LINE
  5
E63
330
1D
100
AcDbEntity
  8
0
100
AcDbLine
 10
13.886231555235
 20
860.149178574106
 30
0.0
 11
13.946131555235
 21
860.075178574106
 31
0.0
  0
LINE
  5
E64
330
1D
100
AcDbEntity
  8
0
100
AcDbLine
 10
14.535031555235
 20
859.309178574106
 30
0.0
 11
15.358331555235
 21
858.016178574106
 31
0.0
  0
LINE
  5
E65
330
1D
100
AcDbEntity
  8
0
100
AcDbLine
 10
13.092131555235
 20
860.395178574106
 30
0.0
 11
13.39724614317
 21
859.819006531141
 31
0.0
  0
LINE
  5
E66
330
1D
100
AcDbEntity
  8
0
100
AcDbLine
 10
12.989231555235
 20
861.005178574106
 30
0.0
 11
13.130331555235
 21
860.933178574106
 31
0.0
  0
LINE
  5
E67
330
1D
100
AcDbEntity
  8
0
100
AcDbLine
 10
13.638231555235
 20
860.441178574106
 30
0.0
 11
13.699131555235
 21
860.371178574106
 31
0.0
  0
LINE
  5
E68
330
1D
100
AcDbEntity
  8
0
100
AcDbLine
 10
13.578331555235
 20
860.508178574106
 30
0.0
 11
13.638231555235
 21
860.441178574106
 31
0.0
  0
LINE
  5
E69
330
1D
100
AcDbEntity
  8
0
100
AcDbLine
 10
13.519631555235
 20
860.571178574106
 30
0.0
 11
13.578331555235
 21
860.508178574106
 31
0.0
  0
LINE
  5
E6A
330
1D
100
AcDbEntity
  8
0
100
AcDbLine
 10
13.462931555235
 20
860.631178574106
 30
0.0
 11
13.519631555235
 21
860.571178574106
 31
0.0
  0
LINE
  5
E6B
330
1D
100
AcDbEntity
  8
0
100
AcDbLine
 10
13.408031555235
 20
860.688178574106
 30
0.0
 11
13.462931555235
 21
860.631178574106
 31
0.0
  0
LINE
  5
E6C
330
1D
100
AcDbEntity
  8
0
100
AcDbLine
 10
13.355231555235
 20
860.740178574106
 30
0.0
 11
13.408031555235
 21
860.688178574106
 31
0.0
  0
LINE
  5
E6D
330
1D
100
AcDbEntity
  8
0
100
AcDbLine
 10
13.304631555235
 20
860.788178574106
 30
0.0
 11
13.355231555235
 21
860.740178574106
 31
0.0
  0
LINE
  5
E6E
330
1D
100
AcDbEntity
  8
0
100
AcDbLine
 10
13.256831555235
 20
860.831178574106
 30
0.0
 11
13.304631555235
 21
860.788178574106
 31
0.0
  0
LINE
  5
E6F
330
1D
100
AcDbEntity
  8
0
100
AcDbLine
 10
13.211631555235
 20
860.870178574106
 30
0.0
 11
13.256831555235
 21
860.831178574106
 31
0.0
  0
LINE
  5
E70
330
1D
100
AcDbEntity
  8
0
100
AcDbLine
 10
13.352431555235
 20
885.740178574106
 30
0.0
 11
13.836231555235
 21
885.563178574106
 31
0.0
  0
LINE
  5
E71
330
1D
100
AcDbEntity
  8
0
100
AcDbLine
 10
13.561831555235
 20
862.922178574106
 30
0.0
 11
16.407531555235
 21
860.269178574106
 31
0.0
  0
LINE
  5
E72
330
1D
100
AcDbEntity
  8
0
100
AcDbLine
 10
13.130331555235
 20
860.933178574106
 30
0.0
 11
13.170631555235
 21
860.901178574106
 31
0.0
  0
LINE
  5
E73
330
1D
100
AcDbEntity
  8
0
100
AcDbLine
 10
13.170631555235
 20
860.901178574106
 30
0.0
 11
13.211631555235
 21
860.870178574106
 31
0.0
  0
LINE
  5
E74
330
1D
100
AcDbEntity
  8
0
100
AcDbLine
 10
12.908031555235
 20
860.887178574106
 30
0.0
 11
12.989231555235
 21
861.005178574106
 31
0.0
  0
LINE
  5
E75
330
1D
100
AcDbEntity
  8
0
100
AcDbLine
 10
12.908031555235
 20
860.887178574106
 30
0.0
 11
13.092131555235
 21
860.395178574106
 31
0.0
  0
LINE
  5
E76
330
1D
100
AcDbEntity
  8
0
100
AcDbLine
 10
11.558781555235
 20
859.133178574106
 30
0.0
 11
12.093221555235
 21
858.407178574106
 31
0.0
  0
LINE
  5
E77
330
1D
100
AcDbEntity
  8
0
100
AcDbLine
 10
15.759531555235
 20
856.828178574106
 30
0.0
 11
15.847831555235
 21
856.950178574106
 31
0.0
  0
LINE
  5
E78
330
1D
100
AcDbEntity
  8
0
100
AcDbLine
 10
15.599531555235
 20
855.414178574106
 30
0.0
 11
16.508331555235
 21
854.317178574106
 31
0.0
  0
LINE
  5
E79
330
1D
100
AcDbEntity
  8
0
100
AcDbLine
 10
15.286431555235
 20
855.317178574106
 30
0.0
 11
15.619093471488
 21
854.828620911928
 31
0.0
  0
LINE
  5
E7A
330
1D
100
AcDbEntity
  8
0
100
AcDbLine
 10
15.358331555235
 20
858.016178574106
 30
0.0
 11
15.744631555235
 21
857.285178574106
 31
0.0
  0
LINE
  5
E7B
330
1D
100
AcDbEntity
  8
0
100
AcDbLine
 10
16.407531555235
 20
860.269178574106
 30
0.0
 11
19.265631555235
 21
857.605178574106
 31
0.0
  0
LINE
  5
E7C
330
1D
100
AcDbEntity
  8
0
100
AcDbLine
 10
15.744631555235
 20
857.285178574106
 30
0.0
 11
15.847831555235
 21
856.950178574106
 31
0.0
  0
LINE
  5
E7D
330
1D
100
AcDbEntity
  8
0
100
AcDbLine
 10
15.450631555235
 20
857.061178574106
 30
0.0
 11
15.759531555235
 21
856.828178574106
 31
0.0
  0
LINE
  5
E7E
330
1D
100
AcDbEntity
  8
0
100
AcDbLine
 10
15.189349923967
 20
857.342117212254
 30
0.0
 11
15.450631555235
 21
857.061178574106
 31
0.0
  0
LINE
  5
E7F
330
1D
100
AcDbEntity
  8
0
100
AcDbLine
 10
34.812231555235
 20
829.314178574106
 30
0.0
 11
35.322621447829
 21
829.71625250737
 31
0.0
  0
LINE
  5
E80
330
1D
100
AcDbEntity
  8
0
100
AcDbLine
 10
33.121031555235
 20
830.419178574106
 30
0.0
 11
33.924531555235
 21
829.816178574106
 31
0.0
  0
LINE
  5
E81
330
1D
100
AcDbEntity
  8
0
100
AcDbLine
 10
33.924531555235
 20
829.816178574106
 30
0.0
 11
34.662531555235
 21
829.321178574106
 31
0.0
  0
LINE
  5
E82
330
1D
100
AcDbEntity
  8
0
100
AcDbLine
 10
34.662531555235
 20
829.321178574106
 30
0.0
 11
34.812231555235
 21
829.314178574106
 31
0.0
  0
LINE
  5
E83
330
1D
100
AcDbEntity
  8
0
100
AcDbLine
 10
35.641931555235
 20
831.448178574106
 30
0.0
 11
35.971031555235
 21
831.141178574106
 31
0.0
  0
LINE
  5
E84
330
1D
100
AcDbEntity
  8
0
100
AcDbLine
 10
31.932931555235
 20
831.388178574106
 30
0.0
 11
33.121031555235
 21
830.419178574106
 31
0.0
  0
LINE
  5
E85
330
1D
100
AcDbEntity
  8
0
100
AcDbLine
 10
33.725931555235
 20
831.351178574106
 30
0.0
 11
36.995631555235
 21
828.003178574106
 31
0.0
  0
LINE
  5
E86
330
1D
100
AcDbEntity
  8
0
100
AcDbLine
 10
36.995631555235
 20
828.003178574106
 30
0.0
 11
41.697431555235
 21
823.444178574106
 31
0.0
  0
LINE
  5
E87
330
1D
100
AcDbEntity
  8
0
100
AcDbLine
 10
35.971031555235
 20
831.141178574106
 30
0.0
 11
37.221908771109
 21
832.482661852244
 31
0.0
  0
LINE
  5
E88
330
1D
100
AcDbEntity
  8
0
100
AcDbLine
 10
37.166831555235
 20
829.342178574106
 30
0.0
 11
37.495931555235
 21
829.035178574106
 31
0.0
  0
LINE
  5
E89
330
1D
100
AcDbEntity
  8
0
100
AcDbLine
 10
37.166831555235
 20
829.342178574106
 30
0.0
 11
37.810704373051
 21
830.032689686937
 31
0.0
  0
LINE
  5
E8A
330
1D
100
AcDbEntity
  8
0
100
AcDbLine
 10
37.103231555235
 20
830.456178574106
 30
0.0
 11
37.238931555235
 21
830.447178574106
 31
0.0
  0
LINE
  5
E8B
330
1D
100
AcDbEntity
  8
0
100
AcDbLine
 10
37.103231555235
 20
830.456178574106
 30
0.0
 11
37.258231555235
 21
830.169178574106
 31
0.0
  0
LINE
  5
E8C
330
1D
100
AcDbEntity
  8
0
100
AcDbLine
 10
33.776931555235
 20
833.187178574106
 30
0.0
 11
34.106031555235
 21
832.880178574106
 31
0.0
  0
LINE
  5
E8D
330
1D
100
AcDbEntity
  8
0
100
AcDbLine
 10
33.776931555235
 20
833.187178574106
 30
0.0
 11
35.11864067219
 21
834.626073072847
 31
0.0
  0
LINE
  5
E8E
330
1D
100
AcDbEntity
  8
0
100
AcDbLine
 10
34.106031555235
 20
832.880178574106
 30
0.0
 11
34.873931555235
 21
832.164178574106
 31
0.0
  0
LINE
  5
E8F
330
1D
100
AcDbEntity
  8
0
100
AcDbLine
 10
34.873931555235
 20
832.164178574106
 30
0.0
 11
35.641931555235
 21
831.448178574106
 31
0.0
  0
LINE
  5
E90
330
1D
100
AcDbEntity
  8
0
100
AcDbLine
 10
31.117631555235
 20
832.158178574106
 30
0.0
 11
31.932931555235
 21
831.388178574106
 31
0.0
  0
LINE
  5
E91
330
1D
100
AcDbEntity
  8
0
100
AcDbLine
 10
31.117631555235
 20
832.158178574106
 30
0.0
 11
31.730827527283
 21
833.487472958406
 31
0.0
  0
LINE
  5
E92
330
1D
100
AcDbEntity
  8
0
100
AcDbLine
 10
36.938558243528
 20
832.178787107562
 30
0.0
 11
37.101631555235
 21
832.035178574106
 31
0.0
  0
LINE
  5
E93
330
1D
100
AcDbEntity
  8
0
100
AcDbLine
 10
37.101631555235
 20
832.035178574106
 30
0.0
 11
37.518531555235
 21
831.835178574106
 31
0.0
  0
LINE
  5
E94
330
1D
100
AcDbEntity
  8
0
100
AcDbLine
 10
37.495931555235
 20
829.035178574106
 30
0.0
 11
38.263831555235
 21
828.319178574106
 31
0.0
  0
LINE
  5
E95
330
1D
100
AcDbEntity
  8
0
100
AcDbLine
 10
38.263831555235
 20
828.319178574106
 30
0.0
 11
39.031731555235
 21
827.603178574106
 31
0.0
  0
LINE
  5
E96
330
1D
100
AcDbEntity
  8
0
100
AcDbLine
 10
39.031731555235
 20
827.603178574106
 30
0.0
 11
39.360831555235
 21
827.296178574106
 31
0.0
  0
LINE
  5
E97
330
1D
100
AcDbEntity
  8
0
100
AcDbLine
 10
37.575832097378
 20
829.780804668716
 30
0.0
 11
37.684903917447
 21
829.897776998918
 31
0.0
  0
LINE
  5
E98
330
1D
100
AcDbEntity
  8
0
100
AcDbLine
 10
37.258231555235
 20
830.169178574106
 30
0.0
 11
37.575832097378
 21
829.780804668716
 31
0.0
  0
LINE
  5
E99
330
1D
100
AcDbEntity
  8
0
100
AcDbLine
 10
38.866431555235
 20
830.765178574106
 30
0.0
 11
39.195531555235
 21
830.458178574106
 31
0.0
  0
LINE
  5
E9A
330
1D
100
AcDbEntity
  8
0
100
AcDbLine
 10
38.866431555235
 20
830.765178574106
 30
0.0
 11
40.299576138639
 21
832.302131577481
 31
0.0
  0
LINE
  5
E9B
330
1D
100
AcDbEntity
  8
0
100
AcDbLine
 10
37.697531555235
 20
830.133178574106
 30
0.0
 11
38.711131555235
 21
829.233178574106
 31
0.0
  0
LINE
  5
E9C
330
1D
100
AcDbEntity
  8
0
100
AcDbLine
 10
38.711131555235
 20
829.233178574106
 30
0.0
 11
39.280731555235
 21
828.655178574106
 31
0.0
  0
LINE
  5
E9D
330
1D
100
AcDbEntity
  8
0
100
AcDbLine
 10
37.238931555235
 20
830.447178574106
 30
0.0
 11
37.697531555235
 21
830.133178574106
 31
0.0
  0
LINE
  5
E9E
330
1D
100
AcDbEntity
  8
0
100
AcDbLine
 10
37.511731555235
 20
832.007178574106
 30
0.0
 11
37.518531555235
 21
831.835178574106
 31
0.0
  0
LINE
  5
E9F
330
1D
100
AcDbEntity
  8
0
100
AcDbLine
 10
37.198431555235
 20
832.521178574106
 30
0.0
 11
37.511731555235
 21
832.007178574106
 31
0.0
  0
LINE
  5
EA0
330
1D
100
AcDbEntity
  8
0
100
AcDbLine
 10
31.209331555235
 20
833.935178574106
 30
0.0
 11
31.703489872646
 21
833.428210027067
 31
0.0
  0
LINE
  5
EA1
330
1D
100
AcDbEntity
  8
0
100
AcDbLine
 10
31.258331555235
 20
834.852178574106
 30
0.0
 11
31.818709935347
 21
835.453147411663
 31
0.0
  0
LINE
  5
EA2
330
1D
100
AcDbEntity
  8
0
100
AcDbLine
 10
31.258331555235
 20
834.852178574106
 30
0.0
 11
31.818709935347
 21
835.453147411663
 31
0.0
  0
LINE
  5
EA3
330
1D
100
AcDbEntity
  8
0
100
AcDbLine
 10
32.511331555235
 20
834.440178574106
 30
0.0
 11
32.518731555235
 21
834.557178574106
 31
0.0
  0
LINE
  5
EA4
330
1D
100
AcDbEntity
  8
0
100
AcDbLine
 10
34.530131555235
 20
834.708178574106
 30
0.0
 11
34.834703215968
 21
834.321568885924
 31
0.0
  0
LINE
  5
EA5
330
1D
100
AcDbEntity
  8
0
100
AcDbLine
 10
30.929231555235
 20
835.159178574106
 30
0.0
 11
31.258331555235
 21
834.852178574106
 31
0.0
  0
LINE
  5
EA6
330
1D
100
AcDbEntity
  8
0
100
AcDbLine
 10
29.064331555235
 20
836.898178574106
 30
0.0
 11
29.393431555235
 21
836.591178574106
 31
0.0
  0
LINE
  5
EA7
330
1D
100
AcDbEntity
  8
0
100
AcDbLine
 10
29.064331555235
 20
836.898178574106
 30
0.0
 11
29.751198570158
 21
837.634819728853
 31
0.0
  0
LINE
  5
EA8
330
1D
100
AcDbEntity
  8
0
100
AcDbLine
 10
30.161331555235
 20
835.875178574106
 30
0.0
 11
30.929231555235
 21
835.159178574106
 31
0.0
  0
LINE
  5
EA9
330
1D
100
AcDbEntity
  8
0
100
AcDbLine
 10
29.393431555235
 20
836.591178574106
 30
0.0
 11
30.161331555235
 21
835.875178574106
 31
0.0
  0
LINE
  5
EAA
330
1D
100
AcDbEntity
  8
0
100
AcDbLine
 10
29.662431555235
 20
835.518178574106
 30
0.0
 11
31.209331555235
 21
833.935178574106
 31
0.0
  0
LINE
  5
EAB
330
1D
100
AcDbEntity
  8
0
100
AcDbLine
 10
31.849431555235
 20
834.947178574106
 30
0.0
 11
32.511331555235
 21
834.440178574106
 31
0.0
  0
LINE
  5
EAC
330
1D
100
AcDbEntity
  8
0
100
AcDbLine
 10
33.517031555235
 20
835.754178574106
 30
0.0
 11
34.775495580613
 21
837.103798204841
 31
0.0
  0
LINE
  5
EAD
330
1D
100
AcDbEntity
  8
0
100
AcDbLine
 10
33.187931555235
 20
836.061178574106
 30
0.0
 11
33.517031555235
 21
835.754178574106
 31
0.0
  0
LINE
  5
EAE
330
1D
100
AcDbEntity
  8
0
100
AcDbLine
 10
32.419931555235
 20
836.777178574106
 30
0.0
 11
33.187931555235
 21
836.061178574106
 31
0.0
  0
LINE
  5
EAF
330
1D
100
AcDbEntity
  8
0
100
AcDbLine
 10
34.437580929994
 20
836.741407038473
 30
0.0
 11
34.809231555235
 21
836.533178574106
 31
0.0
  0
LINE
  5
EB0
330
1D
100
AcDbEntity
  8
0
100
AcDbLine
 10
31.585843444467
 20
835.203413465285
 30
0.0
 11
31.849431555235
 21
834.947178574106
 31
0.0
  0
LINE
  5
EB1
330
1D
100
AcDbEntity
  8
0
100
AcDbLine
 10
32.118431555235
 20
835.105178574106
 30
0.0
 11
32.518731555235
 21
834.557178574106
 31
0.0
  0
LINE
  5
EB2
330
1D
100
AcDbEntity
  8
0
100
AcDbLine
 10
31.222631555235
 20
836.145178574106
 30
0.0
 11
32.118431555235
 21
835.105178574106
 31
0.0
  0
LINE
  5
EB3
330
1D
100
AcDbEntity
  8
0
100
AcDbLine
 10
30.419731555235
 20
836.980178574106
 30
0.0
 11
31.222631555235
 21
836.145178574106
 31
0.0
  0
LINE
  5
EB4
330
1D
100
AcDbEntity
  8
0
100
AcDbLine
 10
34.809231555235
 20
836.533178574106
 30
0.0
 11
34.974331555235
 21
836.542178574106
 31
0.0
  0
LINE
  5
EB5
330
1D
100
AcDbEntity
  8
0
100
AcDbLine
 10
34.459631555235
 20
835.002178574106
 30
0.0
 11
34.736531555235
 21
834.940178574106
 31
0.0
  0
LINE
  5
EB6
330
1D
100
AcDbEntity
  8
0
100
AcDbLine
 10
34.459631555235
 20
835.002178574106
 30
0.0
 11
34.530131555235
 21
834.708178574106
 31
0.0
  0
LINE
  5
EB7
330
1D
100
AcDbEntity
  8
0
100
AcDbLine
 10
34.736531555235
 20
834.940178574106
 30
0.0
 11
35.584431555235
 21
834.243178574106
 31
0.0
  0
LINE
  5
EB8
330
1D
100
AcDbEntity
  8
0
100
AcDbLine
 10
37.215531555235
 20
835.723178574106
 30
0.0
 11
37.544731555235
 21
835.416178574106
 31
0.0
  0
LINE
  5
EB9
330
1D
100
AcDbEntity
  8
0
100
AcDbLine
 10
37.215531555235
 20
835.723178574106
 30
0.0
 11
38.542227549863
 21
837.145972489753
 31
0.0
  0
LINE
  5
EBA
330
1D
100
AcDbEntity
  8
0
100
AcDbLine
 10
37.544731555235
 20
835.416178574106
 30
0.0
 11
38.312631555235
 21
834.700178574106
 31
0.0
  0
LINE
  5
EBB
330
1D
100
AcDbEntity
  8
0
100
AcDbLine
 10
38.312631555235
 20
834.700178574106
 30
0.0
 11
39.080531555235
 21
833.984178574106
 31
0.0
  0
LINE
  5
EBC
330
1D
100
AcDbEntity
  8
0
100
AcDbLine
 10
37.585731555235
 20
836.807178574106
 30
0.0
 11
37.857595052014
 21
836.411749309508
 31
0.0
  0
LINE
  5
EBD
330
1D
100
AcDbEntity
  8
0
100
AcDbLine
 10
35.584431555235
 20
834.243178574106
 30
0.0
 11
36.452831555235
 21
833.385178574106
 31
0.0
  0
LINE
  5
EBE
330
1D
100
AcDbEntity
  8
0
100
AcDbLine
 10
36.452831555235
 20
833.385178574106
 30
0.0
 11
37.198431555235
 21
832.521178574106
 31
0.0
  0
LINE
  5
EBF
330
1D
100
AcDbEntity
  8
0
100
AcDbLine
 10
39.195531555235
 20
830.458178574106
 30
0.0
 11
39.963431555235
 21
829.742178574106
 31
0.0
  0
LINE
  5
EC0
330
1D
100
AcDbEntity
  8
0
100
AcDbLine
 10
39.080531555235
 20
833.984178574106
 30
0.0
 11
39.409631555235
 21
833.677178574106
 31
0.0
  0
LINE
  5
EC1
330
1D
100
AcDbEntity
  8
0
100
AcDbLine
 10
39.131131555235
 20
832.753178574106
 30
0.0
 11
39.548331555235
 21
832.848178574106
 31
0.0
  0
LINE
  5
EC2
330
1D
100
AcDbEntity
  8
0
100
AcDbLine
 10
39.131131555235
 20
832.753178574106
 30
0.0
 11
39.462331555235
 21
832.222178574106
 31
0.0
  0
LINE
  5
EC3
330
1D
100
AcDbEntity
  8
0
100
AcDbLine
 10
39.360831555235
 20
827.296178574106
 30
0.0
 11
39.937161445744
 21
827.914254354045
 31
0.0
  0
LINE
  5
EC4
330
1D
100
AcDbEntity
  8
0
100
AcDbLine
 10
39.360831555235
 20
827.296178574106
 30
0.0
 11
39.937161445744
 21
827.914254354045
 31
0.0
  0
LINE
  5
EC5
330
1D
100
AcDbEntity
  8
0
100
AcDbLine
 10
39.936910058726
 20
827.913984758056
 30
0.0
 11
40.093401631643
 21
827.717871853382
 31
0.0
  0
LINE
  5
EC6
330
1D
100
AcDbEntity
  8
0
100
AcDbLine
 10
39.73503411584
 20
827.69748612957
 30
0.0
 11
40.017731555235
 21
827.492178574106
 31
0.0
  0
LINE
  5
EC7
330
1D
100
AcDbEntity
  8
0
100
AcDbLine
 10
39.409631555235
 20
833.677178574106
 30
0.0
 11
40.615855193077
 21
834.970773836155
 31
0.0
  0
LINE
  5
EC8
330
1D
100
AcDbEntity
  8
0
100
AcDbLine
 10
39.462331555235
 20
832.222178574106
 30
0.0
 11
39.849017622924
 21
831.818937298311
 31
0.0
  0
LINE
  5
EC9
330
1D
100
AcDbEntity
  8
0
100
AcDbLine
 10
39.963431555235
 20
829.742178574106
 30
0.0
 11
40.731431555235
 21
829.026178574106
 31
0.0
  0
LINE
  5
ECA
330
1D
100
AcDbEntity
  8
0
100
AcDbLine
 10
39.548331555235
 20
832.848178574106
 30
0.0
 11
40.115831555235
 21
832.492178574106
 31
0.0
  0
LINE
  5
ECB
330
1D
100
AcDbEntity
  8
0
100
AcDbLine
 10
40.007181087092
 20
834.318011019267
 30
0.0
 11
40.322331555235
 21
834.127178574106
 31
0.0
  0
LINE
  5
ECC
330
1D
100
AcDbEntity
  8
0
100
AcDbLine
 10
39.809131555235
 20
828.075178574106
 30
0.0
 11
40.206131555235
 21
827.576178574106
 31
0.0
  0
LINE
  5
ECD
330
1D
100
AcDbEntity
  8
0
100
AcDbLine
 10
39.280731555235
 20
828.655178574106
 30
0.0
 11
39.809131555235
 21
828.075178574106
 31
0.0
  0
LINE
  5
ECE
330
1D
100
AcDbEntity
  8
0
100
AcDbLine
 10
28.024143245951
 20
837.448709073505
 30
0.0
 11
29.662431555235
 21
835.518178574106
 31
0.0
  0
LINE
  5
ECF
330
1D
100
AcDbEntity
  8
0
100
AcDbLine
 10
29.067931555235
 20
837.578178574106
 30
0.0
 11
30.213121637477
 21
838.806319374916
 31
0.0
  0
LINE
  5
ED0
330
1D
100
AcDbEntity
  8
0
100
AcDbLine
 10
29.067931555235
 20
837.578178574106
 30
0.0
 11
30.213121637477
 21
838.806319374916
 31
0.0
  0
LINE
  5
ED1
330
1D
100
AcDbEntity
  8
0
100
AcDbLine
 10
28.738831555235
 20
837.885178574106
 30
0.0
 11
29.067931555235
 21
837.578178574106
 31
0.0
  0
LINE
  5
ED2
330
1D
100
AcDbEntity
  8
0
100
AcDbLine
 10
29.568327160029
 20
837.43869645637
 30
0.0
 11
29.751198570158
 21
837.634819728853
 31
0.0
  0
LINE
  5
ED3
330
1D
100
AcDbEntity
  8
0
100
AcDbLine
 10
31.652031555235
 20
837.493178574106
 30
0.0
 11
32.419931555235
 21
836.777178574106
 31
0.0
  0
LINE
  5
ED4
330
1D
100
AcDbEntity
  8
0
100
AcDbLine
 10
29.568327160029
 20
837.43869645637
 30
0.0
 11
29.751198570158
 21
837.634819728853
 31
0.0
  0
LINE
  5
ED5
330
1D
100
AcDbEntity
  8
0
100
AcDbLine
 10
37.350431555235
 20
837.397178574106
 30
0.0
 11
37.451531555235
 21
837.670178574106
 31
0.0
  0
LINE
  5
ED6
330
1D
100
AcDbEntity
  8
0
100
AcDbLine
 10
37.350431555235
 20
837.397178574106
 30
0.0
 11
37.585731555235
 21
836.807178574106
 31
0.0
  0
LINE
  5
ED7
330
1D
100
AcDbEntity
  8
0
100
AcDbLine
 10
37.840831555235
 20
837.628178574106
 30
0.0
 11
39.037931555235
 21
836.805178574106
 31
0.0
  0
LINE
  5
ED8
330
1D
100
AcDbEntity
  8
0
100
AcDbLine
 10
37.451531555235
 20
837.670178574106
 30
0.0
 11
37.840831555235
 21
837.628178574106
 31
0.0
  0
LINE
  5
ED9
330
1D
100
AcDbEntity
  8
0
100
AcDbLine
 10
31.322931555235
 20
837.800178574106
 30
0.0
 11
31.652031555235
 21
837.493178574106
 31
0.0
  0
LINE
  5
EDA
330
1D
100
AcDbEntity
  8
0
100
AcDbLine
 10
31.322931555235
 20
837.800178574106
 30
0.0
 11
32.744842428294
 21
839.325084164363
 31
0.0
  0
LINE
  5
EDB
330
1D
100
AcDbEntity
  8
0
100
AcDbLine
 10
34.209631555235
 20
837.891178574106
 30
0.0
 11
34.802531555235
 21
837.066178574106
 31
0.0
  0
LINE
  5
EDC
330
1D
100
AcDbEntity
  8
0
100
AcDbLine
 10
29.386040545522
 20
837.919329476593
 30
0.0
 11
29.683431555235
 21
837.701178574106
 31
0.0
  0
LINE
  5
EDD
330
1D
100
AcDbEntity
  8
0
100
AcDbLine
 10
29.683431555235
 20
837.701178574106
 30
0.0
 11
30.419731555235
 21
836.980178574106
 31
0.0
  0
LINE
  5
EDE
330
1D
100
AcDbEntity
  8
0
100
AcDbLine
 10
29.266893319326
 20
837.791551938118
 30
0.0
 11
29.543541560848
 21
837.412114757139
 31
0.0
  0
LINE
  5
EDF
330
1D
100
AcDbEntity
  8
0
100
AcDbLine
 10
34.802531555235
 20
837.066178574106
 30
0.0
 11
34.974331555235
 21
836.542178574106
 31
0.0
  0
LINE
  5
EE0
330
1D
100
AcDbEntity
  8
0
100
AcDbLine
 10
61.285331555235
 20
806.851178574106
 30
0.0
 11
61.930249867495
 21
807.542810910744
 31
0.0
  0
LINE
  5
EE1
330
1D
100
AcDbEntity
  8
0
100
AcDbLine
 10
60.764131555235
 20
806.654178574106
 30
0.0
 11
61.093231555235
 21
806.347178574106
 31
0.0
  0
LINE
  5
EE2
330
1D
100
AcDbEntity
  8
0
100
AcDbLine
 10
60.764131555235
 20
806.654178574106
 30
0.0
 11
61.104881707364
 21
807.019510702019
 31
0.0
  0
LINE
  5
EE3
330
1D
100
AcDbEntity
  8
0
100
AcDbLine
 10
61.093231555235
 20
806.347178574106
 30
0.0
 11
61.861231555235
 21
805.631178574106
 31
0.0
  0
LINE
  5
EE4
330
1D
100
AcDbEntity
  8
0
100
AcDbLine
 10
61.861231555235
 20
805.631178574106
 30
0.0
 11
62.629131555235
 21
804.914178574106
 31
0.0
  0
LINE
  5
EE5
330
1D
100
AcDbEntity
  8
0
100
AcDbLine
 10
61.758731555235
 20
806.877178574106
 30
0.0
 11
62.731431555235
 21
806.015178574106
 31
0.0
  0
LINE
  5
EE6
330
1D
100
AcDbEntity
  8
0
100
AcDbLine
 10
61.510677333439
 20
807.092847052373
 30
0.0
 11
61.758731555235
 21
806.877178574106
 31
0.0
  0
LINE
  5
EE7
330
1D
100
AcDbEntity
  8
0
100
AcDbLine
 10
62.958231555235
 20
804.608178574106
 30
0.0
 11
63.563791425568
 21
805.257423995202
 31
0.0
  0
LINE
  5
EE8
330
1D
100
AcDbEntity
  8
0
100
AcDbLine
 10
62.629131555235
 20
804.914178574106
 30
0.0
 11
62.958231555235
 21
804.608178574106
 31
0.0
  0
LINE
  5
EE9
330
1D
100
AcDbEntity
  8
0
100
AcDbLine
 10
63.208631555235
 20
805.741178574106
 30
0.0
 11
63.976531555235
 21
805.025178574106
 31
0.0
  0
LINE
  5
EEA
330
1D
100
AcDbEntity
  8
0
100
AcDbLine
 10
63.455231555235
 20
805.358178574106
 30
0.0
 11
63.880831555235
 21
804.963178574106
 31
0.0
  0
LINE
  5
EEB
330
1D
100
AcDbEntity
  8
0
100
AcDbLine
 10
65.073531555235
 20
804.002178574106
 30
0.0
 11
66.2330579568
 21
805.245694131444
 31
0.0
  0
LINE
  5
EEC
330
1D
100
AcDbEntity
  8
0
100
AcDbLine
 10
64.744431555235
 20
804.309178574106
 30
0.0
 11
65.073531555235
 21
804.002178574106
 31
0.0
  0
LINE
  5
EED
330
1D
100
AcDbEntity
  8
0
100
AcDbLine
 10
63.976531555235
 20
805.025178574106
 30
0.0
 11
64.744431555235
 21
804.309178574106
 31
0.0
  0
LINE
  5
EEE
330
1D
100
AcDbEntity
  8
0
100
AcDbLine
 10
63.88565384027
 20
804.960326258287
 30
0.0
 11
63.990531555235
 21
804.863178574106
 31
0.0
  0
LINE
  5
EEF
330
1D
100
AcDbEntity
  8
0
100
AcDbLine
 10
63.990531555235
 20
804.863178574106
 30
0.0
 11
64.674428523658
 21
804.374450316011
 31
0.0
  0
LINE
  5
EF0
330
1D
100
AcDbEntity
  8
0
100
AcDbLine
 10
65.853031555235
 20
805.600178574106
 30
0.0
 11
66.182131555235
 21
805.293178574106
 31
0.0
  0
LINE
  5
EF1
330
1D
100
AcDbEntity
  8
0
100
AcDbLine
 10
65.853031555235
 20
805.600178574106
 30
0.0
 11
67.046858040937
 21
806.880478708479
 31
0.0
  0
LINE
  5
EF2
330
1D
100
AcDbEntity
  8
0
100
AcDbLine
 10
66.182131555235
 20
805.293178574106
 30
0.0
 11
66.950031555235
 21
804.577178574106
 31
0.0
  0
LINE
  5
EF3
330
1D
100
AcDbEntity
  8
0
100
AcDbLine
 10
65.122250592095
 20
804.054426526539
 30
0.0
 11
65.686531555235
 21
803.651178574106
 31
0.0
  0
LINE
  5
EF4
330
1D
100
AcDbEntity
  8
0
100
AcDbLine
 10
65.686531555235
 20
803.651178574106
 30
0.0
 11
66.7803635788
 21
802.682527726651
 31
0.0
  0
LINE
  5
EF5
330
1D
100
AcDbEntity
  8
0
100
AcDbLine
 10
65.686531555235
 20
803.651178574106
 30
0.0
 11
66.7803635788
 21
802.682527726651
 31
0.0
  0
LINE
  5
EF6
330
1D
100
AcDbEntity
  8
0
100
AcDbLine
 10
63.880831555235
 20
804.963178574106
 30
0.0
 11
63.990531555235
 21
804.863178574106
 31
0.0
  0
LINE
  5
EF7
330
1D
100
AcDbEntity
  8
0
100
AcDbLine
 10
62.879531555235
 20
806.048178574106
 30
0.0
 11
63.208631555235
 21
805.741178574106
 31
0.0
  0
LINE
  5
EF8
330
1D
100
AcDbEntity
  8
0
100
AcDbLine
 10
62.879531555235
 20
806.048178574106
 30
0.0
 11
64.023466117601
 21
807.27497291269
 31
0.0
  0
LINE
  5
EF9
330
1D
100
AcDbEntity
  8
0
100
AcDbLine
 10
62.731431555235
 20
806.015178574106
 30
0.0
 11
63.455231555235
 21
805.358178574106
 31
0.0
  0
LINE
  5
EFA
330
1D
100
AcDbEntity
  8
0
100
AcDbLine
 10
64.612031555235
 20
806.876178574106
 30
0.0
 11
65.367531555235
 21
806.324178574106
 31
0.0
  0
LINE
  5
EFB
330
1D
100
AcDbEntity
  8
0
100
AcDbLine
 10
65.367531555235
 20
806.324178574106
 30
0.0
 11
66.013231555235
 21
805.819178574106
 31
0.0
  0
LINE
  5
EFC
330
1D
100
AcDbEntity
  8
0
100
AcDbLine
 10
62.533331555235
 20
806.872178574106
 30
0.0
 11
62.703831555235
 21
806.843178574106
 31
0.0
  0
LINE
  5
EFD
330
1D
100
AcDbEntity
  8
0
100
AcDbLine
 10
60.956231555235
 20
807.158178574106
 30
0.0
 11
61.285331555235
 21
806.851178574106
 31
0.0
  0
LINE
  5
EFE
330
1D
100
AcDbEntity
  8
0
100
AcDbLine
 10
60.956231555235
 20
807.158178574106
 30
0.0
 11
61.104881707364
 21
807.019510702019
 31
0.0
  0
LINE
  5
EFF
330
1D
100
AcDbEntity
  8
0
100
AcDbLine
 10
62.147331555235
 20
807.104178574106
 30
0.0
 11
62.533331555235
 21
806.872178574106
 31
0.0
  0
LINE
  5
F00
330
1D
100
AcDbEntity
  8
0
100
AcDbLine
 10
69.280831555235
 20
798.712178574106
 30
0.0
 11
69.856840531847
 21
799.329741277477
 31
0.0
  0
LINE
  5
F01
330
1D
100
AcDbEntity
  8
0
100
AcDbLine
 10
68.951731555235
 20
799.019178574106
 30
0.0
 11
69.280831555235
 21
798.712178574106
 31
0.0
  0
LINE
  5
F02
330
1D
100
AcDbEntity
  8
0
100
AcDbLine
 10
70.050731555235
 20
799.080178574106
 30
0.0
 11
70.186531555235
 21
798.869178574106
 31
0.0
  0
LINE
  5
F03
330
1D
100
AcDbEntity
  8
0
100
AcDbLine
 10
70.050731555235
 20
799.080178574106
 30
0.0
 11
73.795731555235
 21
793.557178574106
 31
0.0
  0
LINE
  5
F04
330
1D
100
AcDbEntity
  8
0
100
AcDbLine
 10
69.853226277939
 20
799.325866288536
 30
0.0
 11
70.186531555235
 21
798.869178574106
 31
0.0
  0
LINE
  5
F05
330
1D
100
AcDbEntity
  8
0
100
AcDbLine
 10
73.795731555235
 20
793.557178574106
 30
0.0
 11
76.950531555235
 21
788.836378574106
 31
0.0
  0
LINE
  5
F06
330
1D
100
AcDbEntity
  8
0
100
AcDbLine
 10
72.721931555235
 20
799.195178574106
 30
0.0
 11
74.168139583976
 21
800.745717152721
 31
0.0
  0
LINE
  5
F07
330
1D
100
AcDbEntity
  8
0
100
AcDbLine
 10
68.838831555235
 20
800.491178574106
 30
0.0
 11
69.772680704187
 21
801.492670168745
 31
0.0
  0
LINE
  5
F08
330
1D
100
AcDbEntity
  8
0
100
AcDbLine
 10
67.415931555235
 20
800.451178574106
 30
0.0
 11
68.183831555235
 21
799.735178574106
 31
0.0
  0
LINE
  5
F09
330
1D
100
AcDbEntity
  8
0
100
AcDbLine
 10
68.183831555235
 20
799.735178574106
 30
0.0
 11
68.951731555235
 21
799.019178574106
 31
0.0
  0
LINE
  5
F0A
330
1D
100
AcDbEntity
  8
0
100
AcDbLine
 10
71.624831555235
 20
800.218178574106
 30
0.0
 11
72.392831555235
 21
799.502178574106
 31
0.0
  0
LINE
  5
F0B
330
1D
100
AcDbEntity
  8
0
100
AcDbLine
 10
72.392831555235
 20
799.502178574106
 30
0.0
 11
72.721931555235
 21
799.195178574106
 31
0.0
  0
LINE
  5
F0C
330
1D
100
AcDbEntity
  8
0
100
AcDbLine
 10
69.183831555235
 20
800.196178574106
 30
0.0
 11
69.747731555235
 21
799.470178574106
 31
0.0
  0
LINE
  5
F0D
330
1D
100
AcDbEntity
  8
0
100
AcDbLine
 10
69.747731555235
 20
799.470178574106
 30
0.0
 11
70.050731555235
 21
799.080178574106
 31
0.0
  0
LINE
  5
F0E
330
1D
100
AcDbEntity
  8
0
100
AcDbLine
 10
89.976531555235
 20
766.344878574106
 30
0.0
 11
90.029731555235
 21
766.249378574106
 31
0.0
  0
LINE
  5
F0F
330
1D
100
AcDbEntity
  8
0
100
AcDbLine
 10
89.976531555235
 20
766.344878574106
 30
0.0
 11
90.117231555235
 21
766.726178574106
 31
0.0
  0
LINE
  5
F10
330
1D
100
AcDbEntity
  8
0
100
AcDbLine
 10
90.029731555235
 20
766.249378574106
 30
0.0
 11
128.197431555235
 21
700.464408574106
 31
0.0
  0
LINE
  5
F11
330
1D
100
AcDbEntity
  8
0
100
AcDbLine
 10
90.029731555235
 20
766.249378574106
 30
0.0
 11
128.197431555235
 21
700.464408574106
 31
0.0
  0
LINE
  5
F12
330
1D
100
AcDbEntity
  8
0
100
AcDbLine
 10
90.117231555235
 20
766.726178574106
 30
0.0
 11
90.377731555235
 21
767.597178574106
 31
0.0
  0
LINE
  5
F13
330
1D
100
AcDbEntity
  8
0
100
AcDbLine
 10
90.377731555235
 20
767.597178574106
 30
0.0
 11
90.726131555235
 21
769.277978574106
 31
0.0
  0
LINE
  5
F14
330
1D
100
AcDbEntity
  8
0
100
AcDbLine
 10
90.726131555235
 20
769.277978574106
 30
0.0
 11
91.027631555235
 21
770.983078574106
 31
0.0
  0
LINE
  5
F15
330
1D
100
AcDbEntity
  8
0
100
AcDbLine
 10
86.752131555235
 20
771.367878574106
 30
0.0
 11
86.890631555235
 21
771.284478574106
 31
0.0
  0
LINE
  5
F16
330
1D
100
AcDbEntity
  8
0
100
AcDbLine
 10
86.890631555235
 20
771.284478574106
 30
0.0
 11
87.270531555235
 21
771.288078574106
 31
0.0
  0
LINE
  5
F17
330
1D
100
AcDbEntity
  8
0
100
AcDbLine
 10
86.646431555235
 20
771.494378574106
 30
0.0
 11
86.752131555235
 21
771.367878574106
 31
0.0
  0
LINE
  5
F18
330
1D
100
AcDbEntity
  8
0
100
AcDbLine
 10
87.398431555235
 20
772.843978574106
 30
0.0
 11
87.496331555235
 21
774.109278574106
 31
0.0
  0
LINE
  5
F19
330
1D
100
AcDbEntity
  8
0
100
AcDbLine
 10
86.950892018692
 20
778.967052858158
 30
0.0
 11
87.524131555235
 21
775.210078574106
 31
0.0
  0
LINE
  5
F1A
330
1D
100
AcDbEntity
  8
0
100
AcDbLine
 10
86.449431555235
 20
780.436678574106
 30
0.0
 11
86.948431555235
 21
778.983178574106
 31
0.0
  0
LINE
  5
F1B
330
1D
100
AcDbEntity
  8
0
100
AcDbLine
 10
91.027631555235
 20
770.983078574106
 30
0.0
 11
91.352531555235
 21
772.878878574106
 31
0.0
  0
LINE
  5
F1C
330
1D
100
AcDbEntity
  8
0
100
AcDbLine
 10
87.496331555235
 20
774.109278574106
 30
0.0
 11
87.524131555235
 21
775.210078574106
 31
0.0
  0
LINE
  5
F1D
330
1D
100
AcDbEntity
  8
0
100
AcDbLine
 10
87.291131555235
 20
770.881478574106
 30
0.0
 11
90.063931555235
 21
766.929878574106
 31
0.0
  0
LINE
  5
F1E
330
1D
100
AcDbEntity
  8
0
100
AcDbLine
 10
87.291131555235
 20
770.881478574106
 30
0.0
 11
87.398431555235
 21
772.843978574106
 31
0.0
  0
LINE
  5
F1F
330
1D
100
AcDbEntity
  8
0
100
AcDbLine
 10
77.043731555235
 20
788.044978574106
 30
0.0
 11
77.061731555235
 21
788.241778574106
 31
0.0
  0
LINE
  5
F20
330
1D
100
AcDbEntity
  8
0
100
AcDbLine
 10
77.061731555235
 20
788.241778574106
 30
0.0
 11
77.095931555235
 21
788.316378574106
 31
0.0
  0
LINE
  5
F21
330
1D
100
AcDbEntity
  8
0
100
AcDbLine
 10
79.010131555235
 20
787.616178574106
 30
0.0
 11
79.727931555235
 21
787.200378574106
 31
0.0
  0
LINE
  5
F22
330
1D
100
AcDbEntity
  8
0
100
AcDbLine
 10
78.310031555235
 20
787.995478574106
 30
0.0
 11
79.010131555235
 21
787.616178574106
 31
0.0
  0
LINE
  5
F23
330
1D
100
AcDbEntity
  8
0
100
AcDbLine
 10
77.810531555235
 20
788.255278574106
 30
0.0
 11
78.310031555235
 21
787.995478574106
 31
0.0
  0
LINE
  5
F24
330
1D
100
AcDbEntity
  8
0
100
AcDbLine
 10
79.727931555235
 20
787.200378574106
 30
0.0
 11
80.218382828147
 21
786.902489966347
 31
0.0
  0
LINE
  5
F25
330
1D
100
AcDbEntity
  8
0
100
AcDbLine
 10
84.695631555235
 20
783.322478574106
 30
0.0
 11
85.037931555235
 21
782.918078574106
 31
0.0
  0
LINE
  5
F26
330
1D
100
AcDbEntity
  8
0
100
AcDbLine
 10
84.320631555235
 20
783.726478574106
 30
0.0
 11
84.695631555235
 21
783.322478574106
 31
0.0
  0
LINE
  5
F27
330
1D
100
AcDbEntity
  8
0
100
AcDbLine
 10
77.095931555235
 20
788.316378574106
 30
0.0
 11
77.317831555235
 21
788.503078574106
 31
0.0
  0
LINE
  5
F28
330
1D
100
AcDbEntity
  8
0
100
AcDbLine
 10
77.317831555235
 20
788.503078574106
 30
0.0
 11
77.464631555235
 21
788.435178574106
 31
0.0
  0
LINE
  5
F29
330
1D
100
AcDbEntity
  8
0
100
AcDbLine
 10
77.464631555235
 20
788.435178574106
 30
0.0
 11
77.810531555235
 21
788.255278574106
 31
0.0
  0
LINE
  5
F2A
330
1D
100
AcDbEntity
  8
0
100
AcDbLine
 10
85.020731555235
 20
796.304178574106
 30
0.0
 11
86.934631555235
 21
794.520178574106
 31
0.0
  0
LINE
  5
F2B
330
1D
100
AcDbEntity
  8
0
100
AcDbLine
 10
76.950531555235
 20
788.836378574106
 30
0.0
 11
77.317831555235
 21
788.503078574106
 31
0.0
  0
LINE
  5
F2C
330
1D
100
AcDbEntity
  8
0
100
AcDbLine
 10
89.131131555235
 20
792.454178574106
 30
0.0
 11
89.440731555235
 21
792.163178574106
 31
0.0
  0
LINE
  5
F2D
330
1D
100
AcDbEntity
  8
0
100
AcDbLine
 10
88.617731555235
 20
792.950178574106
 30
0.0
 11
89.131131555235
 21
792.454178574106
 31
0.0
  0
LINE
  5
F2E
330
1D
100
AcDbEntity
  8
0
100
AcDbLine
 10
86.934631555235
 20
794.520178574106
 30
0.0
 11
88.617731555235
 21
792.950178574106
 31
0.0
  0
LINE
  5
F31
330
1D
100
AcDbEntity
  8
0
100
AcDbLine
 10
128.197431555235
 20
700.464408574106
 30
0.0
 11
128.510431555235
 21
700.164718574106
 31
0.0
  0
LINE
  5
F32
330
1D
100
AcDbEntity
  8
0
100
AcDbLine
 10
128.510431555235
 20
700.164718574106
 30
0.0
 11
128.792431555235
 21
700.057058574106
 31
0.0
  0
LINE
  5
F33
330
1D
100
AcDbEntity
  8
0
100
AcDbLine
 10
128.792431555235
 20
700.057058574106
 30
0.0
 11
129.394191890572
 21
700.362675489796
 31
0.0
  0
LINE
  5
F40
330
1D
100
AcDbEntity
  8
0
100
AcDbLine
 10
92.125331555235
 20
778.591978574106
 30
0.0
 11
92.371731555235
 21
782.343678574106
 31
0.0
  0
LINE
  5
F44
330
1D
100
AcDbEntity
  8
0
100
AcDbLine
 10
150.3928
 20
711.991
 30
0.0
 11
150.768431555235
 21
712.223078574106
 31
0.0
  0
LINE
  5
F45
330
1D
100
AcDbEntity
  8
0
100
AcDbLine
 10
151.219431555235
 20
713.229578574106
 30
0.0
 11
151.303431555235
 21
712.693378574106
 31
0.0
  0
LINE
  5
F46
330
1D
100
AcDbEntity
  8
0
100
AcDbLine
 10
150.768431555235
 20
712.223078574106
 30
0.0
 11
151.303431555235
 21
712.693378574106
 31
0.0
  0
LINE
  5
F47
330
1D
100
AcDbEntity
  8
0
100
AcDbLine
 10
150.3928
 20
711.991
 30
0.0
 11
150.768431555235
 21
712.223078574106
 31
0.0
  0
LINE
  5
F48
330
1D
100
AcDbEntity
  8
0
100
AcDbLine
 10
107.561431555235
 20
794.873178574106
 30
0.0
 11
110.300431555235
 21
789.676578574106
 31
0.0
  0
LINE
  5
F49
330
1D
100
AcDbEntity
  8
0
100
AcDbLine
 10
110.300431555235
 20
789.676578574106
 30
0.0
 11
151.219431555235
 21
713.229578574106
 31
0.0
  0
LINE
  5
F4A
330
1D
100
AcDbEntity
  8
0
100
AcDbLine
 10
75.945131555235
 20
799.607178574106
 30
0.0
 11
76.274331555235
 21
799.300178574106
 31
0.0
  0
LINE
  5
F4B
330
1D
100
AcDbEntity
  8
0
100
AcDbLine
 10
75.945131555235
 20
799.607178574106
 30
0.0
 11
76.993545659945
 21
800.731533524524
 31
0.0
  0
LINE
  5
F4C
330
1D
100
AcDbEntity
  8
0
100
AcDbLine
 10
76.274331555235
 20
799.300178574106
 30
0.0
 11
77.042231555235
 21
798.584178574106
 31
0.0
  0
LINE
  5
F4D
330
1D
100
AcDbEntity
  8
0
100
AcDbLine
 10
77.042231555235
 20
798.584178574106
 30
0.0
 11
77.810131555235
 21
797.868178574106
 31
0.0
  0
LINE
  5
F4E
330
1D
100
AcDbEntity
  8
0
100
AcDbLine
 10
77.810131555235
 20
797.868178574106
 30
0.0
 11
78.139231555235
 21
797.561178574106
 31
0.0
  0
LINE
  5
F4F
330
1D
100
AcDbEntity
  8
0
100
AcDbLine
 10
78.139231555235
 20
797.561178574106
 30
0.0
 11
79.512571401565
 21
799.033994943029
 31
0.0
  0
LINE
  5
F50
330
1D
100
AcDbEntity
  8
0
100
AcDbLine
 10
79.187431555235
 20
799.335178574106
 30
0.0
 11
79.657031555235
 21
798.900178574106
 31
0.0
  0
LINE
  5
F51
330
1D
100
AcDbEntity
  8
0
100
AcDbLine
 10
76.522033515142
 20
800.225867860728
 30
0.0
 11
76.993545659945
 21
800.731533524524
 31
0.0
  0
LINE
  5
F52
330
1D
100
AcDbEntity
  8
0
100
AcDbLine
 10
78.123931555235
 20
800.071178574106
 30
0.0
 11
79.187431555235
 21
799.335178574106
 31
0.0
  0
LINE
  5
F53
330
1D
100
AcDbEntity
  8
0
100
AcDbLine
 10
105.884431555235
 20
798.538178574106
 30
0.0
 11
107.561431555235
 21
794.873178574106
 31
0.0
  0
LINE
  5
F54
330
1D
100
AcDbEntity
  8
0
100
AcDbLine
 10
79.694831555235
 20
798.856178574106
 30
0.0
 11
79.727331555235
 21
798.816178574106
 31
0.0
  0
LINE
  5
F55
330
1D
100
AcDbEntity
  8
0
100
AcDbLine
 10
79.694831555235
 20
798.856178574106
 30
0.0
 11
79.727231555235
 21
798.816178574106
 31
0.0
  0
LINE
  5
F56
330
1D
100
AcDbEntity
  8
0
100
AcDbLine
 10
79.657031555235
 20
798.900178574106
 30
0.0
 11
79.694831555235
 21
798.856178574106
 31
0.0
  0
LINE
  5
F57
330
1D
100
AcDbEntity
  8
0
100
AcDbLine
 10
105.769431555235
 20
799.265178574106
 30
0.0
 11
105.884431555235
 21
798.538178574106
 31
0.0
  0
LINE
  5
F58
330
1D
100
AcDbEntity
  8
0
100
AcDbLine
 10
105.553431555235
 20
800.161178574106
 30
0.0
 11
105.769431555235
 21
799.265178574106
 31
0.0
  0
LINE
  5
F59
330
1D
100
AcDbEntity
  8
0
100
AcDbLine
 10
82.130531555235
 20
798.998178574106
 30
0.0
 11
85.020731555235
 21
796.304178574106
 31
0.0
  0
LINE
  5
F5A
330
1D
100
AcDbEntity
  8
0
100
AcDbLine
 10
79.277651867737
 20
798.692955136606
 30
0.0
 11
79.614331555235
 21
798.589178574106
 31
0.0
  0
LINE
  5
F5B
330
1D
100
AcDbEntity
  8
0
100
AcDbLine
 10
74.202331555235
 20
800.379178574106
 30
0.0
 11
74.552231555235
 21
800.335178574106
 31
0.0
  0
LINE
  5
F5C
330
1D
100
AcDbEntity
  8
0
100
AcDbLine
 10
68.509731555235
 20
800.798178574106
 30
0.0
 11
68.838831555235
 21
800.491178574106
 31
0.0
  0
LINE
  5
F5D
330
1D
100
AcDbEntity
  8
0
100
AcDbLine
 10
67.086831555235
 20
800.758178574106
 30
0.0
 11
67.415931555235
 21
800.451178574106
 31
0.0
  0
LINE
  5
F5E
330
1D
100
AcDbEntity
  8
0
100
AcDbLine
 10
67.086831555235
 20
800.758178574106
 30
0.0
 11
67.768644404854
 21
801.489177922554
 31
0.0
  0
LINE
  5
F5F
330
1D
100
AcDbEntity
  8
0
100
AcDbLine
 10
68.885533607408
 20
800.541263443547
 30
0.0
 11
69.183831555235
 21
800.196178574106
 31
0.0
  0
LINE
  5
F60
330
1D
100
AcDbEntity
  8
0
100
AcDbLine
 10
66.644831555235
 20
802.537178574106
 30
0.0
 11
66.973931555235
 21
802.230178574106
 31
0.0
  0
LINE
  5
F61
330
1D
100
AcDbEntity
  8
0
100
AcDbLine
 10
66.644831555235
 20
802.537178574106
 30
0.0
 11
67.543282946514
 21
803.50070840927
 31
0.0
  0
LINE
  5
F62
330
1D
100
AcDbEntity
  8
0
100
AcDbLine
 10
66.644831555235
 20
802.537178574106
 30
0.0
 11
66.7803635788
 21
802.682527726651
 31
0.0
  0
LINE
  5
F63
330
1D
100
AcDbEntity
  8
0
100
AcDbLine
 10
66.973931555235
 20
802.230178574106
 30
0.0
 11
67.741831555235
 21
801.514178574106
 31
0.0
  0
LINE
  5
F64
330
1D
100
AcDbEntity
  8
0
100
AcDbLine
 10
67.741831555235
 20
801.514178574106
 30
0.0
 11
68.509731555235
 21
800.798178574106
 31
0.0
  0
LINE
  5
F65
330
1D
100
AcDbEntity
  8
0
100
AcDbLine
 10
69.42610682561
 20
801.120992551748
 30
0.0
 11
69.863431555235
 21
800.827178574106
 31
0.0
  0
LINE
  5
F66
330
1D
100
AcDbEntity
  8
0
100
AcDbLine
 10
68.894431555235
 20
802.394178574106
 30
0.0
 11
69.929031555235
 21
801.332178574106
 31
0.0
  0
LINE
  5
F67
330
1D
100
AcDbEntity
  8
0
100
AcDbLine
 10
69.863431555235
 20
800.827178574106
 30
0.0
 11
70.123431555235
 21
800.771178574106
 31
0.0
  0
LINE
  5
F68
330
1D
100
AcDbEntity
  8
0
100
AcDbLine
 10
70.123431555235
 20
800.771178574106
 30
0.0
 11
70.141631555235
 21
800.920178574106
 31
0.0
  0
LINE
  5
F69
330
1D
100
AcDbEntity
  8
0
100
AcDbLine
 10
70.527831555235
 20
801.241178574106
 30
0.0
 11
70.856931555235
 21
800.934178574106
 31
0.0
  0
LINE
  5
F6A
330
1D
100
AcDbEntity
  8
0
100
AcDbLine
 10
70.527831555235
 20
801.241178574106
 30
0.0
 11
71.656849398453
 21
802.451644625369
 31
0.0
  0
LINE
  5
F6B
330
1D
100
AcDbEntity
  8
0
100
AcDbLine
 10
70.856931555235
 20
800.934178574106
 30
0.0
 11
71.624831555235
 21
800.218178574106
 31
0.0
  0
LINE
  5
F6C
330
1D
100
AcDbEntity
  8
0
100
AcDbLine
 10
69.929031555235
 20
801.332178574106
 30
0.0
 11
70.141631555235
 21
800.920178574106
 31
0.0
  0
LINE
  5
F6D
330
1D
100
AcDbEntity
  8
0
100
AcDbLine
 10
66.518231555235
 20
803.909178574106
 30
0.0
 11
66.912119548007
 21
803.460950020291
 31
0.0
  0
LINE
  5
F6E
330
1D
100
AcDbEntity
  8
0
100
AcDbLine
 10
67.212810275102
 20
803.146298274562
 30
0.0
 11
67.543282946514
 21
803.50070840927
 31
0.0
  0
LINE
  5
F6F
330
1D
100
AcDbEntity
  8
0
100
AcDbLine
 10
68.047031555235
 20
803.554178574106
 30
0.0
 11
69.524369813454
 21
805.138526377716
 31
0.0
  0
LINE
  5
F70
330
1D
100
AcDbEntity
  8
0
100
AcDbLine
 10
67.717931555235
 20
803.861178574106
 30
0.0
 11
68.047031555235
 21
803.554178574106
 31
0.0
  0
LINE
  5
F71
330
1D
100
AcDbEntity
  8
0
100
AcDbLine
 10
67.604031555235
 20
803.460178574106
 30
0.0
 11
68.894431555235
 21
802.394178574106
 31
0.0
  0
LINE
  5
F72
330
1D
100
AcDbEntity
  8
0
100
AcDbLine
 10
66.874631555235
 20
803.500178574106
 30
0.0
 11
67.212810275102
 21
803.146298274562
 31
0.0
  0
LINE
  5
F73
330
1D
100
AcDbEntity
  8
0
100
AcDbLine
 10
66.814131555235
 20
803.987178574106
 30
0.0
 11
67.604031555235
 21
803.460178574106
 31
0.0
  0
LINE
  5
F74
330
1D
100
AcDbEntity
  8
0
100
AcDbLine
 10
71.926131555235
 20
803.355178574106
 30
0.0
 11
72.694131555235
 21
802.639178574106
 31
0.0
  0
LINE
  5
F75
330
1D
100
AcDbEntity
  8
0
100
AcDbLine
 10
70.914631555235
 20
802.661178574106
 30
0.0
 11
71.43056158721
 21
802.209032238886
 31
0.0
  0
LINE
  5
F76
330
1D
100
AcDbEntity
  8
0
100
AcDbLine
 10
70.912031555235
 20
802.796178574106
 30
0.0
 11
71.321431555235
 21
802.649178574106
 31
0.0
  0
LINE
  5
F77
330
1D
100
AcDbEntity
  8
0
100
AcDbLine
 10
70.912031555235
 20
802.796178574106
 30
0.0
 11
70.914631555235
 21
802.661178574106
 31
0.0
  0
LINE
  5
F78
330
1D
100
AcDbEntity
  8
0
100
AcDbLine
 10
71.321431555235
 20
802.649178574106
 30
0.0
 11
72.353831555235
 21
802.041178574106
 31
0.0
  0
LINE
  5
F79
330
1D
100
AcDbEntity
  8
0
100
AcDbLine
 10
73.023231555235
 20
802.332178574106
 30
0.0
 11
74.353613962141
 21
803.758925923682
 31
0.0
  0
LINE
  5
F7A
330
1D
100
AcDbEntity
  8
0
100
AcDbLine
 10
72.694131555235
 20
802.639178574106
 30
0.0
 11
73.023231555235
 21
802.332178574106
 31
0.0
  0
LINE
  5
F7B
330
1D
100
AcDbEntity
  8
0
100
AcDbLine
 10
73.458331555235
 20
801.298178574106
 30
0.0
 11
74.270331555235
 21
800.666178574106
 31
0.0
  0
LINE
  5
F7C
330
1D
100
AcDbEntity
  8
0
100
AcDbLine
 10
72.353831555235
 20
802.041178574106
 30
0.0
 11
73.458331555235
 21
801.298178574106
 31
0.0
  0
LINE
  5
F7D
330
1D
100
AcDbEntity
  8
0
100
AcDbLine
 10
66.465831555235
 20
804.161178574106
 30
0.0
 11
66.518231555235
 21
803.909178574106
 31
0.0
  0
LINE
  5
F7E
330
1D
100
AcDbEntity
  8
0
100
AcDbLine
 10
66.465831555235
 20
804.161178574106
 30
0.0
 11
66.814131555235
 21
803.987178574106
 31
0.0
  0
LINE
  5
F7F
330
1D
100
AcDbEntity
  8
0
100
AcDbLine
 10
70.829131555235
 20
804.378178574106
 30
0.0
 11
71.158231555235
 21
804.071178574106
 31
0.0
  0
LINE
  5
F80
330
1D
100
AcDbEntity
  8
0
100
AcDbLine
 10
70.829131555235
 20
804.378178574106
 30
0.0
 11
71.807693233324
 21
805.427621406003
 31
0.0
  0
LINE
  5
F81
330
1D
100
AcDbEntity
  8
0
100
AcDbLine
 10
71.158231555235
 20
804.071178574106
 30
0.0
 11
71.926131555235
 21
803.355178574106
 31
0.0
  0
LINE
  5
F82
330
1D
100
AcDbEntity
  8
0
100
AcDbLine
 10
73.741731555235
 20
804.277178574106
 30
0.0
 11
74.313031555235
 21
803.803178574106
 31
0.0
  0
LINE
  5
F83
330
1D
100
AcDbEntity
  8
0
100
AcDbLine
 10
66.950031555235
 20
804.577178574106
 30
0.0
 11
67.717931555235
 21
803.861178574106
 31
0.0
  0
LINE
  5
F84
330
1D
100
AcDbEntity
  8
0
100
AcDbLine
 10
69.854231555235
 20
804.407178574106
 30
0.0
 11
70.204331555235
 21
804.353178574106
 31
0.0
  0
LINE
  5
F85
330
1D
100
AcDbEntity
  8
0
100
AcDbLine
 10
73.972547013821
 20
803.350256765322
 30
0.0
 11
74.668831555235
 21
803.116178574106
 31
0.0
  0
LINE
  5
F86
330
1D
100
AcDbEntity
  8
0
100
AcDbLine
 10
69.293431555235
 20
805.341178574106
 30
0.0
 11
69.889431555235
 21
804.818178574106
 31
0.0
  0
LINE
  5
F87
330
1D
100
AcDbEntity
  8
0
100
AcDbLine
 10
68.444231555235
 20
805.992178574106
 30
0.0
 11
69.293431555235
 21
805.341178574106
 31
0.0
  0
LINE
  5
F88
330
1D
100
AcDbEntity
  8
0
100
AcDbLine
 10
70.950931555235
 20
805.674178574106
 30
0.0
 11
71.001431555235
 21
805.407178574106
 31
0.0
  0
LINE
  5
F89
330
1D
100
AcDbEntity
  8
0
100
AcDbLine
 10
70.950931555235
 20
805.674178574106
 30
0.0
 11
71.571731555235
 21
805.543178574106
 31
0.0
  0
LINE
  5
F8A
330
1D
100
AcDbEntity
  8
0
100
AcDbLine
 10
69.889431555235
 20
804.818178574106
 30
0.0
 11
70.204331555235
 21
804.353178574106
 31
0.0
  0
LINE
  5
F8B
330
1D
100
AcDbEntity
  8
0
100
AcDbLine
 10
67.203431555235
 20
806.806178574106
 30
0.0
 11
68.444231555235
 21
805.992178574106
 31
0.0
  0
LINE
  5
F8C
330
1D
100
AcDbEntity
  8
0
100
AcDbLine
 10
71.001431555235
 20
805.407178574106
 30
0.0
 11
71.361431555235
 21
805.009178574106
 31
0.0
  0
LINE
  5
F8D
330
1D
100
AcDbEntity
  8
0
100
AcDbLine
 10
72.662131555235
 20
805.009178574106
 30
0.0
 11
73.741731555235
 21
804.277178574106
 31
0.0
  0
LINE
  5
F8E
330
1D
100
AcDbEntity
  8
0
100
AcDbLine
 10
71.571731555235
 20
805.543178574106
 30
0.0
 11
72.662131555235
 21
805.009178574106
 31
0.0
  0
LINE
  5
F8F
330
1D
100
AcDbEntity
  8
0
100
AcDbLine
 10
69.186884638264
 20
804.776595795407
 30
0.0
 11
69.854231555235
 21
804.407178574106
 31
0.0
  0
LINE
  5
F90
330
1D
100
AcDbEntity
  8
0
100
AcDbLine
 10
80.065795621107
 20
800.923288363509
 30
0.0
 11
80.161331555235
 21
800.821178574106
 31
0.0
  0
LINE
  5
F91
330
1D
100
AcDbEntity
  8
0
100
AcDbLine
 10
75.851431555235
 20
800.732178574106
 30
0.0
 11
76.522033515142
 21
800.225867860728
 31
0.0
  0
LINE
  5
F92
330
1D
100
AcDbEntity
  8
0
100
AcDbLine
 10
74.313031555235
 20
803.803178574106
 30
0.0
 11
74.700031555235
 21
803.381178574106
 31
0.0
  0
LINE
  5
F93
330
1D
100
AcDbEntity
  8
0
100
AcDbLine
 10
104.966431555235
 20
800.992178574106
 30
0.0
 11
105.496431555235
 21
800.269178574106
 31
0.0
  0
LINE
  5
F94
330
1D
100
AcDbEntity
  8
0
100
AcDbLine
 10
104.966431555235
 20
800.992178574106
 30
0.0
 11
105.553431555235
 21
800.161178574106
 31
0.0
  0
LINE
  5
F95
330
1D
100
AcDbEntity
  8
0
100
AcDbLine
 10
75.320131555235
 20
805.347178574106
 30
0.0
 11
78.886131555235
 21
802.023178574106
 31
0.0
  0
LINE
  5
F96
330
1D
100
AcDbEntity
  8
0
100
AcDbLine
 10
78.886131555235
 20
802.023178574106
 30
0.0
 11
82.130531555235
 21
798.998178574106
 31
0.0
  0
LINE
  5
F97
330
1D
100
AcDbEntity
  8
0
100
AcDbLine
 10
75.698031555235
 20
801.267178574106
 30
0.0
 11
76.656931555235
 21
800.928178574106
 31
0.0
  0
LINE
  5
F98
330
1D
100
AcDbEntity
  8
0
100
AcDbLine
 10
75.449931555235
 20
801.198178574106
 30
0.0
 11
75.851431555235
 21
800.732178574106
 31
0.0
  0
LINE
  5
F99
330
1D
100
AcDbEntity
  8
0
100
AcDbLine
 10
75.449931555235
 20
801.198178574106
 30
0.0
 11
75.698031555235
 21
801.267178574106
 31
0.0
  0
LINE
  5
F9A
330
1D
100
AcDbEntity
  8
0
100
AcDbLine
 10
74.668831555235
 20
803.116178574106
 30
0.0
 11
74.700031555235
 21
803.381178574106
 31
0.0
  0
LINE
  5
F9B
330
1D
100
AcDbEntity
  8
0
100
AcDbLine
 10
76.656931555235
 20
800.928178574106
 30
0.0
 11
78.123931555235
 21
800.071178574106
 31
0.0
  0
LINE
  5
F9C
330
1D
100
AcDbEntity
  8
0
100
AcDbLine
 10
74.270331555235
 20
800.666178574106
 30
0.0
 11
74.552231555235
 21
800.335178574106
 31
0.0
  0
LINE
  5
F9D
330
1D
100
AcDbEntity
  8
0
100
AcDbLine
 10
73.952854132225
 20
800.514900844333
 30
0.0
 11
74.202331555235
 21
800.379178574106
 31
0.0
  0
LINE
  5
F9E
330
1D
100
AcDbEntity
  8
0
100
AcDbLine
 10
66.194431555235
 20
807.060178574106
 30
0.0
 11
66.713053764558
 21
806.522495647271
 31
0.0
  0
LINE
  5
F9F
330
1D
100
AcDbEntity
  8
0
100
AcDbLine
 10
66.194431555235
 20
807.060178574106
 30
0.0
 11
66.309931555235
 21
807.230178574106
 31
0.0
  0
LINE
  5
FA0
330
1D
100
AcDbEntity
  8
0
100
AcDbLine
 10
52.130331555235
 20
816.072178574106
 30
0.0
 11
53.461984731381
 21
817.500288739844
 31
0.0
  0
LINE
  5
FA1
330
1D
100
AcDbEntity
  8
0
100
AcDbLine
 10
51.801231555235
 20
816.379178574106
 30
0.0
 11
52.130331555235
 21
816.072178574106
 31
0.0
  0
LINE
  5
FA2
330
1D
100
AcDbEntity
  8
0
100
AcDbLine
 10
53.530831555235
 20
814.837178574106
 30
0.0
 11
53.885431555235
 21
814.448178574106
 31
0.0
  0
LINE
  5
FA3
330
1D
100
AcDbEntity
  8
0
100
AcDbLine
 10
53.530831555235
 20
814.837178574106
 30
0.0
 11
53.598531555235
 21
814.890178574106
 31
0.0
  0
LINE
  5
FA4
330
1D
100
AcDbEntity
  8
0
100
AcDbLine
 10
53.788931555235
 20
813.842178574106
 30
0.0
 11
54.118031555235
 21
813.535178574106
 31
0.0
  0
LINE
  5
FA5
330
1D
100
AcDbEntity
  8
0
100
AcDbLine
 10
53.788931555235
 20
813.842178574106
 30
0.0
 11
54.329020391098
 21
814.421388214208
 31
0.0
  0
LINE
  5
FA6
330
1D
100
AcDbEntity
  8
0
100
AcDbLine
 10
54.135609381604
 20
814.21396766825
 30
0.0
 11
54.329020391098
 21
814.421388214208
 31
0.0
  0
LINE
  5
FA7
330
1D
100
AcDbEntity
  8
0
100
AcDbLine
 10
54.118031555235
 20
813.535178574106
 30
0.0
 11
54.885931555235
 21
812.819178574106
 31
0.0
  0
LINE
  5
FA8
330
1D
100
AcDbEntity
  8
0
100
AcDbLine
 10
53.885431555235
 20
814.448178574106
 30
0.0
 11
54.135609381604
 21
814.21396766825
 31
0.0
  0
LINE
  5
FA9
330
1D
100
AcDbEntity
  8
0
100
AcDbLine
 10
54.885931555235
 20
812.819178574106
 30
0.0
 11
55.653831555235
 21
812.103178574106
 31
0.0
  0
LINE
  5
FAA
330
1D
100
AcDbEntity
  8
0
100
AcDbLine
 10
54.163931555235
 20
814.544178574106
 30
0.0
 11
55.076831555235
 21
813.865178574106
 31
0.0
  0
LINE
  5
FAB
330
1D
100
AcDbEntity
  8
0
100
AcDbLine
 10
53.598531555235
 20
814.890178574106
 30
0.0
 11
54.163931555235
 21
814.544178574106
 31
0.0
  0
LINE
  5
FAC
330
1D
100
AcDbEntity
  8
0
100
AcDbLine
 10
54.837931555235
 20
815.872178574106
 30
0.0
 11
55.605831555235
 21
815.156178574106
 31
0.0
  0
LINE
  5
FAD
330
1D
100
AcDbEntity
  8
0
100
AcDbLine
 10
53.740931555235
 20
816.895178574106
 30
0.0
 11
54.070031555235
 21
816.588178574106
 31
0.0
  0
LINE
  5
FAE
330
1D
100
AcDbEntity
  8
0
100
AcDbLine
 10
53.740931555235
 20
816.895178574106
 30
0.0
 11
55.109013651191
 21
818.361955155577
 31
0.0
  0
LINE
  5
FAF
330
1D
100
AcDbEntity
  8
0
100
AcDbLine
 10
54.070031555235
 20
816.588178574106
 30
0.0
 11
54.837931555235
 21
815.872178574106
 31
0.0
  0
LINE
  5
FB0
330
1D
100
AcDbEntity
  8
0
100
AcDbLine
 10
51.033331555235
 20
817.095178574106
 30
0.0
 11
51.801231555235
 21
816.379178574106
 31
0.0
  0
LINE
  5
FB1
330
1D
100
AcDbEntity
  8
0
100
AcDbLine
 10
47.270531555235
 20
817.658178574106
 30
0.0
 11
47.485831555235
 21
817.530178574106
 31
0.0
  0
LINE
  5
FB2
330
1D
100
AcDbEntity
  8
0
100
AcDbLine
 10
47.485831555235
 20
817.530178574106
 30
0.0
 11
48.229725177129
 21
818.169513449939
 31
0.0
  0
LINE
  5
FB3
330
1D
100
AcDbEntity
  8
0
100
AcDbLine
 10
47.247231555235
 20
817.779178574106
 30
0.0
 11
47.485831555235
 21
817.530178574106
 31
0.0
  0
LINE
  5
FB4
330
1D
100
AcDbEntity
  8
0
100
AcDbLine
 10
49.174031555235
 20
817.304178574106
 30
0.0
 11
50.370731555235
 21
816.048178574106
 31
0.0
  0
LINE
  5
FB5
330
1D
100
AcDbEntity
  8
0
100
AcDbLine
 10
50.265431555235
 20
817.811178574106
 30
0.0
 11
51.033331555235
 21
817.095178574106
 31
0.0
  0
LINE
  5
FB6
330
1D
100
AcDbEntity
  8
0
100
AcDbLine
 10
50.129431555235
 20
817.403178574106
 30
0.0
 11
53.9467524874
 21
814.011431110448
 31
0.0
  0
LINE
  5
FB7
330
1D
100
AcDbEntity
  8
0
100
AcDbLine
 10
53.216356980591
 20
817.236869184232
 30
0.0
 11
53.456831555235
 21
817.083178574106
 31
0.0
  0
LINE
  5
FB8
330
1D
100
AcDbEntity
  8
0
100
AcDbLine
 10
47.930697459425
 20
817.91251588585
 30
0.0
 11
50.370731555235
 21
816.048178574106
 31
0.0
  0
LINE
  5
FB9
330
1D
100
AcDbEntity
  8
0
100
AcDbLine
 10
53.123431555235
 20
817.875178574106
 30
0.0
 11
53.564131555235
 21
817.387178574106
 31
0.0
  0
LINE
  5
FBA
330
1D
100
AcDbEntity
  8
0
100
AcDbLine
 10
54.60879387028
 20
817.825649138272
 30
0.0
 11
55.109013651191
 21
818.361955155577
 31
0.0
  0
LINE
  5
FBB
330
1D
100
AcDbEntity
  8
0
100
AcDbLine
 10
53.564131555235
 20
817.387178574106
 30
0.0
 11
53.803931555235
 21
817.030178574106
 31
0.0
  0
LINE
  5
FBC
330
1D
100
AcDbEntity
  8
0
100
AcDbLine
 10
53.456831555235
 20
817.083178574106
 30
0.0
 11
53.803931555235
 21
817.030178574106
 31
0.0
  0
LINE
  5
FBD
330
1D
100
AcDbEntity
  8
0
100
AcDbLine
 10
46.245531555235
 20
818.394178574106
 30
0.0
 11
46.541231555235
 21
818.173178574106
 31
0.0
  0
LINE
  5
FBE
330
1D
100
AcDbEntity
  8
0
100
AcDbLine
 10
46.541231555235
 20
818.173178574106
 30
0.0
 11
47.270531555235
 21
817.658178574106
 31
0.0
  0
LINE
  5
FBF
330
1D
100
AcDbEntity
  8
0
100
AcDbLine
 10
49.936331555235
 20
818.118178574106
 30
0.0
 11
50.265431555235
 21
817.811178574106
 31
0.0
  0
LINE
  5
FC0
330
1D
100
AcDbEntity
  8
0
100
AcDbLine
 10
49.936331555235
 20
818.118178574106
 30
0.0
 11
51.200044919463
 21
819.473427774394
 31
0.0
  0
LINE
  5
FC1
330
1D
100
AcDbEntity
  8
0
100
AcDbLine
 10
45.967931555235
 20
818.600178574106
 30
0.0
 11
46.245531555235
 21
818.394178574106
 31
0.0
  0
LINE
  5
FC2
330
1D
100
AcDbEntity
  8
0
100
AcDbLine
 10
46.347631555235
 20
818.501178574106
 30
0.0
 11
47.247231555235
 21
817.779178574106
 31
0.0
  0
LINE
  5
FC3
330
1D
100
AcDbEntity
  8
0
100
AcDbLine
 10
52.498931555235
 20
818.459178574106
 30
0.0
 11
53.123431555235
 21
817.875178574106
 31
0.0
  0
LINE
  5
FC4
330
1D
100
AcDbEntity
  8
0
100
AcDbLine
 10
54.171031555235
 20
818.312178574106
 30
0.0
 11
54.602493435374
 21
817.818894185187
 31
0.0
  0
LINE
  5
FC5
330
1D
100
AcDbEntity
  8
0
100
AcDbLine
 10
53.938531555235
 20
818.725178574106
 30
0.0
 11
54.028931555235
 21
818.870178574106
 31
0.0
  0
LINE
  5
FC6
330
1D
100
AcDbEntity
  8
0
100
AcDbLine
 10
53.938531555235
 20
818.725178574106
 30
0.0
 11
54.171031555235
 21
818.312178574106
 31
0.0
  0
LINE
  5
FC7
330
1D
100
AcDbEntity
  8
0
100
AcDbLine
 10
59.091331555235
 20
808.897178574106
 30
0.0
 11
59.420431555235
 21
808.590178574106
 31
0.0
  0
LINE
  5
FC8
330
1D
100
AcDbEntity
  8
0
100
AcDbLine
 10
59.091331555235
 20
808.897178574106
 30
0.0
 11
59.56002020454
 21
809.399830965821
 31
0.0
  0
LINE
  5
FC9
330
1D
100
AcDbEntity
  8
0
100
AcDbLine
 10
59.091331555235
 20
808.897178574106
 30
0.0
 11
59.250661628907
 21
809.068054576165
 31
0.0
  0
LINE
  5
FCA
330
1D
100
AcDbEntity
  8
0
100
AcDbLine
 10
59.425631555235
 20
809.269178574106
 30
0.0
 11
60.584992688737
 21
810.512516892351
 31
0.0
  0
LINE
  5
FCB
330
1D
100
AcDbEntity
  8
0
100
AcDbLine
 10
59.432622931428
 20
809.263201789665
 30
0.0
 11
59.56002020454
 21
809.399830965821
 31
0.0
  0
LINE
  5
FCC
330
1D
100
AcDbEntity
  8
0
100
AcDbLine
 10
59.420431555235
 20
808.590178574106
 30
0.0
 11
60.188331555235
 21
807.874178574106
 31
0.0
  0
LINE
  5
FCD
330
1D
100
AcDbEntity
  8
0
100
AcDbLine
 10
60.188331555235
 20
807.874178574106
 30
0.0
 11
60.956231555235
 21
807.158178574106
 31
0.0
  0
LINE
  5
FCE
330
1D
100
AcDbEntity
  8
0
100
AcDbLine
 10
59.552510108895
 20
809.405247451155
 30
0.0
 11
60.280531555235
 21
808.880178574106
 31
0.0
  0
LINE
  5
FCF
330
1D
100
AcDbEntity
  8
0
100
AcDbLine
 10
60.280531555235
 20
808.880178574106
 30
0.0
 11
61.578231555235
 21
807.861178574106
 31
0.0
  0
LINE
  5
FD0
330
1D
100
AcDbEntity
  8
0
100
AcDbLine
 10
61.578231555235
 20
807.861178574106
 30
0.0
 11
62.703831555235
 21
806.843178574106
 31
0.0
  0
LINE
  5
FD1
330
1D
100
AcDbEntity
  8
0
100
AcDbLine
 10
62.086931555235
 20
809.112178574106
 30
0.0
 11
62.416031555235
 21
808.805178574106
 31
0.0
  0
LINE
  5
FD2
330
1D
100
AcDbEntity
  8
0
100
AcDbLine
 10
61.778219174355
 20
807.379768023701
 30
0.0
 11
62.147331555235
 21
807.104178574106
 31
0.0
  0
LINE
  5
FD3
330
1D
100
AcDbEntity
  8
0
100
AcDbLine
 10
61.319031555235
 20
809.828178574106
 30
0.0
 11
62.086931555235
 21
809.112178574106
 31
0.0
  0
LINE
  5
FD4
330
1D
100
AcDbEntity
  8
0
100
AcDbLine
 10
59.096531555235
 20
809.576178574106
 30
0.0
 11
59.425631555235
 21
809.269178574106
 31
0.0
  0
LINE
  5
FD5
330
1D
100
AcDbEntity
  8
0
100
AcDbLine
 10
59.048931555235
 20
809.245178574106
 30
0.0
 11
59.250661628907
 21
809.068054576165
 31
0.0
  0
LINE
  5
FD6
330
1D
100
AcDbEntity
  8
0
100
AcDbLine
 10
55.982931555235
 20
811.796178574106
 30
0.0
 11
56.644067381324
 21
812.505203124255
 31
0.0
  0
LINE
  5
FD7
330
1D
100
AcDbEntity
  8
0
100
AcDbLine
 10
55.653831555235
 20
812.103178574106
 30
0.0
 11
55.982931555235
 21
811.796178574106
 31
0.0
  0
LINE
  5
FD8
330
1D
100
AcDbEntity
  8
0
100
AcDbLine
 10
55.935031555235
 20
814.849178574106
 30
0.0
 11
57.323615558038
 21
816.337979745474
 31
0.0
  0
LINE
  5
FD9
330
1D
100
AcDbEntity
  8
0
100
AcDbLine
 10
55.605831555235
 20
815.156178574106
 30
0.0
 11
55.935031555235
 21
814.849178574106
 31
0.0
  0
LINE
  5
FDA
330
1D
100
AcDbEntity
  8
0
100
AcDbLine
 10
55.076831555235
 20
813.865178574106
 30
0.0
 11
56.007331555235
 21
813.089178574106
 31
0.0
  0
LINE
  5
FDB
330
1D
100
AcDbEntity
  8
0
100
AcDbLine
 10
56.007331555235
 20
813.089178574106
 30
0.0
 11
56.730231555235
 21
812.426178574106
 31
0.0
  0
LINE
  5
FDC
330
1D
100
AcDbEntity
  8
0
100
AcDbLine
 10
56.180706738175
 20
812.008279408127
 30
0.0
 11
58.199131555235
 21
810.135178574106
 31
0.0
  0
LINE
  5
FDD
330
1D
100
AcDbEntity
  8
0
100
AcDbLine
 10
55.784031555235
 20
817.886178574106
 30
0.0
 11
56.353531555235
 21
817.425178574106
 31
0.0
  0
LINE
  5
FDE
330
1D
100
AcDbEntity
  8
0
100
AcDbLine
 10
56.713531555235
 20
812.181178574106
 30
0.0
 11
56.979731555235
 21
812.096178574106
 31
0.0
  0
LINE
  5
FDF
330
1D
100
AcDbEntity
  8
0
100
AcDbLine
 10
56.490567898957
 20
812.340585057681
 30
0.0
 11
56.713531555235
 21
812.181178574106
 31
0.0
  0
LINE
  5
FE0
330
1D
100
AcDbEntity
  8
0
100
AcDbLine
 10
56.490567898957
 20
812.340585057681
 30
0.0
 11
56.644067381324
 21
812.505203124255
 31
0.0
  0
LINE
  5
FE1
330
1D
100
AcDbEntity
  8
0
100
AcDbLine
 10
56.730231555235
 20
812.426178574106
 30
0.0
 11
56.979731555235
 21
812.096178574106
 31
0.0
  0
LINE
  5
FE2
330
1D
100
AcDbEntity
  8
0
100
AcDbLine
 10
56.353531555235
 20
817.425178574106
 30
0.0
 11
57.392031555235
 21
816.248178574106
 31
0.0
  0
LINE
  5
FE3
330
1D
100
AcDbEntity
  8
0
100
AcDbLine
 10
58.328631555235
 20
810.292178574106
 30
0.0
 11
59.096531555235
 21
809.576178574106
 31
0.0
  0
LINE
  5
FE4
330
1D
100
AcDbEntity
  8
0
100
AcDbLine
 10
58.199131555235
 20
810.135178574106
 30
0.0
 11
59.048931555235
 21
809.245178574106
 31
0.0
  0
LINE
  5
FE5
330
1D
100
AcDbEntity
  8
0
100
AcDbLine
 10
57.231531555235
 20
811.315178574106
 30
0.0
 11
57.560631555235
 21
811.008178574106
 31
0.0
  0
LINE
  5
FE6
330
1D
100
AcDbEntity
  8
0
100
AcDbLine
 10
57.231531555235
 20
811.315178574106
 30
0.0
 11
58.479540899207
 21
812.653586248858
 31
0.0
  0
LINE
  5
FE7
330
1D
100
AcDbEntity
  8
0
100
AcDbLine
 10
57.560631555235
 20
811.008178574106
 30
0.0
 11
58.328631555235
 21
810.292178574106
 31
0.0
  0
LINE
  5
FE8
330
1D
100
AcDbEntity
  8
0
100
AcDbLine
 10
58.166661959053
 20
812.318044230048
 30
0.0
 11
58.479540899207
 21
812.653586248858
 31
0.0
  0
LINE
  5
FE9
330
1D
100
AcDbEntity
  8
0
100
AcDbLine
 10
60.221931555235
 20
810.851178574106
 30
0.0
 11
60.551031555235
 21
810.544178574106
 31
0.0
  0
LINE
  5
FEA
330
1D
100
AcDbEntity
  8
0
100
AcDbLine
 10
60.221931555235
 20
810.851178574106
 30
0.0
 11
61.460723123368
 21
812.179700792482
 31
0.0
  0
LINE
  5
FEB
330
1D
100
AcDbEntity
  8
0
100
AcDbLine
 10
60.551031555235
 20
810.544178574106
 30
0.0
 11
61.319031555235
 21
809.828178574106
 31
0.0
  0
LINE
  5
FEC
330
1D
100
AcDbEntity
  8
0
100
AcDbLine
 10
60.647731555235
 20
811.474178574106
 30
0.0
 11
60.735712592855
 21
811.402174836445
 31
0.0
  0
LINE
  5
FED
330
1D
100
AcDbEntity
  8
0
100
AcDbLine
 10
58.995231555235
 20
812.285178574106
 30
0.0
 11
59.801131555235
 21
811.653178574106
 31
0.0
  0
LINE
  5
FEE
330
1D
100
AcDbEntity
  8
0
100
AcDbLine
 10
59.801131555235
 20
811.653178574106
 30
0.0
 11
60.449435523058
 21
811.095161568337
 31
0.0
  0
LINE
  5
FEF
330
1D
100
AcDbEntity
  8
0
100
AcDbLine
 10
58.351331555235
 20
812.745178574106
 30
0.0
 11
58.995231555235
 21
812.285178574106
 31
0.0
  0
LINE
  5
FF0
330
1D
100
AcDbEntity
  8
0
100
AcDbLine
 10
60.744531555235
 20
812.460178574106
 30
0.0
 11
61.318531555235
 21
812.269178574106
 31
0.0
  0
LINE
  5
FF1
330
1D
100
AcDbEntity
  8
0
100
AcDbLine
 10
57.319631555235
 20
813.297178574106
 30
0.0
 11
57.477631555235
 21
812.982178574106
 31
0.0
  0
LINE
  5
FF2
330
1D
100
AcDbEntity
  8
0
100
AcDbLine
 10
57.319631555235
 20
813.297178574106
 30
0.0
 11
57.821031555235
 21
813.073178574106
 31
0.0
  0
LINE
  5
FF3
330
1D
100
AcDbEntity
  8
0
100
AcDbLine
 10
59.344731555235
 20
812.902178574106
 30
0.0
 11
60.647731555235
 21
811.474178574106
 31
0.0
  0
LINE
  5
FF4
330
1D
100
AcDbEntity
  8
0
100
AcDbLine
 10
59.344731555235
 20
812.902178574106
 30
0.0
 11
59.397131555235
 21
812.898178574106
 31
0.0
  0
LINE
  5
FF5
330
1D
100
AcDbEntity
  8
0
100
AcDbLine
 10
59.054431555235
 20
815.358178574106
 30
0.0
 11
59.822331555235
 21
814.642178574106
 31
0.0
  0
LINE
  5
FF6
330
1D
100
AcDbEntity
  8
0
100
AcDbLine
 10
59.822331555235
 20
814.642178574106
 30
0.0
 11
60.590331555235
 21
813.926178574106
 31
0.0
  0
LINE
  5
FF7
330
1D
100
AcDbEntity
  8
0
100
AcDbLine
 10
60.590331555235
 20
813.926178574106
 30
0.0
 11
60.919431555235
 21
813.619178574106
 31
0.0
  0
LINE
  5
FF8
330
1D
100
AcDbEntity
  8
0
100
AcDbLine
 10
57.821031555235
 20
813.073178574106
 30
0.0
 11
58.351331555235
 21
812.745178574106
 31
0.0
  0
LINE
  5
FF9
330
1D
100
AcDbEntity
  8
0
100
AcDbLine
 10
57.477631555235
 20
812.982178574106
 30
0.0
 11
58.158175219217
 21
812.308942761549
 31
0.0
  0
LINE
  5
FFA
330
1D
100
AcDbEntity
  8
0
100
AcDbLine
 10
58.725331555235
 20
815.665178574106
 30
0.0
 11
59.054431555235
 21
815.358178574106
 31
0.0
  0
LINE
  5
FFB
330
1D
100
AcDbEntity
  8
0
100
AcDbLine
 10
58.725331555235
 20
815.665178574106
 30
0.0
 11
59.849012708554
 21
816.870252467856
 31
0.0
  0
LINE
  5
FFC
330
1D
100
AcDbEntity
  8
0
100
AcDbLine
 10
59.312756146506
 20
816.295152688557
 30
0.0
 11
59.849012708554
 21
816.870252467856
 31
0.0
  0
LINE
  5
FFD
330
1D
100
AcDbEntity
  8
0
100
AcDbLine
 10
59.210131555235
 20
816.403178574106
 30
0.0
 11
59.312756146506
 21
816.295152688557
 31
0.0
  0
LINE
  5
FFE
330
1D
100
AcDbEntity
  8
0
100
AcDbLine
 10
58.875931555235
 20
816.963178574106
 30
0.0
 11
59.327131555235
 21
817.127178574106
 31
0.0
  0
LINE
  5
FFF
330
1D
100
AcDbEntity
  8
0
100
AcDbLine
 10
58.875931555235
 20
816.963178574106
 30
0.0
 11
59.210131555235
 21
816.403178574106
 31
0.0
  0
LINE
  5
1000
330
1D
100
AcDbEntity
  8
0
100
AcDbLine
 10
59.327131555235
 20
817.127178574106
 30
0.0
 11
60.269631555235
 21
816.663178574106
 31
0.0
  0
LINE
  5
1001
330
1D
100
AcDbEntity
  8
0
100
AcDbLine
 10
60.269631555235
 20
816.663178574106
 30
0.0
 11
61.021831555235
 21
816.138178574106
 31
0.0
  0
LINE
  5
1002
330
1D
100
AcDbEntity
  8
0
100
AcDbLine
 10
57.392031555235
 20
816.248178574106
 30
0.0
 11
57.775431555235
 21
815.879178574106
 31
0.0
  0
LINE
  5
1003
330
1D
100
AcDbEntity
  8
0
100
AcDbLine
 10
57.757831555235
 20
815.619178574106
 30
0.0
 11
57.775431555235
 21
815.879178574106
 31
0.0
  0
LINE
  5
1004
330
1D
100
AcDbEntity
  8
0
100
AcDbLine
 10
56.978840250943
 20
815.968321244421
 30
0.0
 11
57.757831555235
 21
815.619178574106
 31
0.0
  0
LINE
  5
1005
330
1D
100
AcDbEntity
  8
0
100
AcDbLine
 10
59.397131555235
 20
812.898178574106
 30
0.0
 11
60.744531555235
 21
812.460178574106
 31
0.0
  0
LINE
  5
1006
330
1D
100
AcDbEntity
  8
0
100
AcDbLine
 10
60.919431555235
 20
813.619178574106
 30
0.0
 11
62.221813373996
 21
815.015897140443
 31
0.0
  0
LINE
  5
1007
330
1D
100
AcDbEntity
  8
0
100
AcDbLine
 10
62.147031555235
 20
814.316178574106
 30
0.0
 11
62.534831555235
 21
814.433178574106
 31
0.0
  0
LINE
  5
1008
330
1D
100
AcDbEntity
  8
0
100
AcDbLine
 10
61.733712863975
 20
814.492441549491
 30
0.0
 11
62.147031555235
 21
814.316178574106
 31
0.0
  0
LINE
  5
1009
330
1D
100
AcDbEntity
  8
0
100
AcDbLine
 10
61.021831555235
 20
816.138178574106
 30
0.0
 11
61.675031555235
 21
815.588178574106
 31
0.0
  0
LINE
  5
100A
330
1D
100
AcDbEntity
  8
0
100
AcDbLine
 10
61.675031555235
 20
815.588178574106
 30
0.0
 11
62.236831555235
 21
815.000178574106
 31
0.0
  0
LINE
  5
100B
330
1D
100
AcDbEntity
  8
0
100
AcDbLine
 10
62.236831555235
 20
815.000178574106
 30
0.0
 11
62.534831555235
 21
814.433178574106
 31
0.0
  0
LINE
  5
100C
330
1D
100
AcDbEntity
  8
0
100
AcDbLine
 10
61.318531555235
 20
812.269178574106
 30
0.0
 11
62.356231555235
 21
811.616178574106
 31
0.0
  0
LINE
  5
100D
330
1D
100
AcDbEntity
  8
0
100
AcDbLine
 10
54.929931555235
 20
818.488178574106
 30
0.0
 11
55.784031555235
 21
817.886178574106
 31
0.0
  0
LINE
  5
100E
330
1D
100
AcDbEntity
  8
0
100
AcDbLine
 10
41.697431555235
 20
823.444178574106
 30
0.0
 11
44.097183401551
 21
821.281707304565
 31
0.0
  0
LINE
  5
100F
330
1D
100
AcDbEntity
  8
0
100
AcDbLine
 10
42.065031555235
 20
823.309178574106
 30
0.0
 11
43.775631555235
 21
822.068178574106
 31
0.0
  0
LINE
  5
1010
330
1D
100
AcDbEntity
  8
0
100
AcDbLine
 10
42.065031555235
 20
823.309178574106
 30
0.0
 11
43.325131555235
 21
822.844178574106
 31
0.0
  0
LINE
  5
1011
330
1D
100
AcDbEntity
  8
0
100
AcDbLine
 10
43.032131555235
 20
824.556178574106
 30
0.0
 11
43.800031555235
 21
823.840178574106
 31
0.0
  0
LINE
  5
1012
330
1D
100
AcDbEntity
  8
0
100
AcDbLine
 10
43.668731555235
 20
820.445178574106
 30
0.0
 11
43.989731555235
 21
820.255178574106
 31
0.0
  0
LINE
  5
1013
330
1D
100
AcDbEntity
  8
0
100
AcDbLine
 10
43.668731555235
 20
820.445178574106
 30
0.0
 11
44.36834707871
 21
821.811139511594
 31
0.0
  0
LINE
  5
1014
330
1D
100
AcDbEntity
  8
0
100
AcDbLine
 10
43.668731555235
 20
820.445178574106
 30
0.0
 11
44.011931555235
 21
820.119178574106
 31
0.0
  0
LINE
  5
1015
330
1D
100
AcDbEntity
  8
0
100
AcDbLine
 10
44.011931555235
 20
820.119178574106
 30
0.0
 11
44.688831555235
 21
819.579178574106
 31
0.0
  0
LINE
  5
1016
330
1D
100
AcDbEntity
  8
0
100
AcDbLine
 10
43.989731555235
 20
820.255178574106
 30
0.0
 11
45.157531555235
 21
819.417178574106
 31
0.0
  0
LINE
  5
1017
330
1D
100
AcDbEntity
  8
0
100
AcDbLine
 10
44.934831555235
 20
819.390178574106
 30
0.0
 11
45.506931555235
 21
818.946178574106
 31
0.0
  0
LINE
  5
1018
330
1D
100
AcDbEntity
  8
0
100
AcDbLine
 10
44.688831555235
 20
819.579178574106
 30
0.0
 11
44.934831555235
 21
819.390178574106
 31
0.0
  0
LINE
  5
1019
330
1D
100
AcDbEntity
  8
0
100
AcDbLine
 10
44.129131555235
 20
823.533178574106
 30
0.0
 11
45.434659309504
 21
824.933270948699
 31
0.0
  0
LINE
  5
101A
330
1D
100
AcDbEntity
  8
0
100
AcDbLine
 10
43.800031555235
 20
823.840178574106
 30
0.0
 11
44.129131555235
 21
823.533178574106
 31
0.0
  0
LINE
  5
101B
330
1D
100
AcDbEntity
  8
0
100
AcDbLine
 10
43.775631555235
 20
822.068178574106
 30
0.0
 11
44.251368548516
 21
821.582745347359
 31
0.0
  0
LINE
  5
101C
330
1D
100
AcDbEntity
  8
0
100
AcDbLine
 10
43.325131555235
 20
822.844178574106
 30
0.0
 11
45.764931555235
 21
820.428178574106
 31
0.0
  0
LINE
  5
101D
330
1D
100
AcDbEntity
  8
0
100
AcDbLine
 10
41.935031555235
 20
825.579178574106
 30
0.0
 11
42.264231555235
 21
825.272178574106
 31
0.0
  0
LINE
  5
101E
330
1D
100
AcDbEntity
  8
0
100
AcDbLine
 10
41.935031555235
 20
825.579178574106
 30
0.0
 11
43.287613328092
 21
827.029733278897
 31
0.0
  0
LINE
  5
101F
330
1D
100
AcDbEntity
  8
0
100
AcDbLine
 10
40.206131555235
 20
827.576178574106
 30
0.0
 11
40.223931555235
 21
827.414178574106
 31
0.0
  0
LINE
  5
1020
330
1D
100
AcDbEntity
  8
0
100
AcDbLine
 10
41.060531555235
 20
828.719178574106
 30
0.0
 11
42.428936828261
 21
830.186702938756
 31
0.0
  0
LINE
  5
1021
330
1D
100
AcDbEntity
  8
0
100
AcDbLine
 10
40.731431555235
 20
829.026178574106
 30
0.0
 11
41.060531555235
 21
828.719178574106
 31
0.0
  0
LINE
  5
1022
330
1D
100
AcDbEntity
  8
0
100
AcDbLine
 10
42.264231555235
 20
825.272178574106
 30
0.0
 11
43.032131555235
 21
824.556178574106
 31
0.0
  0
LINE
  5
1023
330
1D
100
AcDbEntity
  8
0
100
AcDbLine
 10
42.384831555235
 20
827.627178574106
 30
0.0
 11
42.773231555235
 21
827.413178574106
 31
0.0
  0
LINE
  5
1024
330
1D
100
AcDbEntity
  8
0
100
AcDbLine
 10
42.183631555235
 20
827.561178574106
 30
0.0
 11
42.384831555235
 21
827.627178574106
 31
0.0
  0
LINE
  5
1025
330
1D
100
AcDbEntity
  8
0
100
AcDbLine
 10
42.183631555235
 20
827.561178574106
 30
0.0
 11
42.605531555235
 21
826.924178574106
 31
0.0
  0
LINE
  5
1026
330
1D
100
AcDbEntity
  8
0
100
AcDbLine
 10
40.115831555235
 20
832.492178574106
 30
0.0
 11
40.681431555235
 21
831.907178574106
 31
0.0
  0
LINE
  5
1027
330
1D
100
AcDbEntity
  8
0
100
AcDbLine
 10
40.681431555235
 20
831.907178574106
 30
0.0
 11
41.723031555235
 21
831.054178574106
 31
0.0
  0
LINE
  5
1028
330
1D
100
AcDbEntity
  8
0
100
AcDbLine
 10
40.638231555235
 20
834.940178574106
 30
0.0
 11
40.758231555235
 21
834.023178574106
 31
0.0
  0
LINE
  5
1029
330
1D
100
AcDbEntity
  8
0
100
AcDbLine
 10
40.322331555235
 20
834.127178574106
 30
0.0
 11
40.758231555235
 21
834.023178574106
 31
0.0
  0
LINE
  5
102A
330
1D
100
AcDbEntity
  8
0
100
AcDbLine
 10
40.362331555235
 20
837.937178574106
 30
0.0
 11
44.313931555235
 21
834.254178574106
 31
0.0
  0
LINE
  5
102B
330
1D
100
AcDbEntity
  8
0
100
AcDbLine
 10
40.058931555235
 20
835.724178574106
 30
0.0
 11
40.129931555235
 21
835.635178574106
 31
0.0
  0
LINE
  5
102C
330
1D
100
AcDbEntity
  8
0
100
AcDbLine
 10
40.129931555235
 20
835.635178574106
 30
0.0
 11
40.638231555235
 21
834.940178574106
 31
0.0
  0
LINE
  5
102D
330
1D
100
AcDbEntity
  8
0
100
AcDbLine
 10
41.986727934422
 20
829.712463078119
 30
0.0
 11
42.366431555235
 21
829.469178574106
 31
0.0
  0
LINE
  5
102E
330
1D
100
AcDbEntity
  8
0
100
AcDbLine
 10
41.723031555235
 20
831.054178574106
 30
0.0
 11
42.396331555235
 21
830.238178574106
 31
0.0
  0
LINE
  5
102F
330
1D
100
AcDbEntity
  8
0
100
AcDbLine
 10
42.366431555235
 20
829.469178574106
 30
0.0
 11
42.805331555235
 21
829.345178574106
 31
0.0
  0
LINE
  5
1030
330
1D
100
AcDbEntity
  8
0
100
AcDbLine
 10
42.396331555235
 20
830.238178574106
 30
0.0
 11
42.665531555235
 21
829.813178574106
 31
0.0
  0
LINE
  5
1031
330
1D
100
AcDbEntity
  8
0
100
AcDbLine
 10
42.898128392581
 20
826.612036384714
 30
0.0
 11
43.287613328092
 21
827.029733278897
 31
0.0
  0
LINE
  5
1032
330
1D
100
AcDbEntity
  8
0
100
AcDbLine
 10
42.605531555235
 20
826.924178574106
 30
0.0
 11
42.898128392581
 21
826.612036384714
 31
0.0
  0
LINE
  5
1033
330
1D
100
AcDbEntity
  8
0
100
AcDbLine
 10
44.882631555235
 20
825.592178574106
 30
0.0
 11
45.778231555235
 21
824.523178574106
 31
0.0
  0
LINE
  5
1034
330
1D
100
AcDbEntity
  8
0
100
AcDbLine
 10
44.170231555235
 20
826.282178574106
 30
0.0
 11
44.882631555235
 21
825.592178574106
 31
0.0
  0
LINE
  5
1035
330
1D
100
AcDbEntity
  8
0
100
AcDbLine
 10
43.410431555235
 20
826.938178574106
 30
0.0
 11
44.170231555235
 21
826.282178574106
 31
0.0
  0
LINE
  5
1036
330
1D
100
AcDbEntity
  8
0
100
AcDbLine
 10
44.625031555235
 20
828.814178574106
 30
0.0
 11
44.954131555235
 21
828.507178574106
 31
0.0
  0
LINE
  5
1037
330
1D
100
AcDbEntity
  8
0
100
AcDbLine
 10
44.625031555235
 20
828.814178574106
 30
0.0
 11
45.825770493263
 21
830.101539734643
 31
0.0
  0
LINE
  5
1038
330
1D
100
AcDbEntity
  8
0
100
AcDbLine
 10
44.954131555235
 20
828.507178574106
 30
0.0
 11
45.722031555235
 21
827.791178574106
 31
0.0
  0
LINE
  5
1039
330
1D
100
AcDbEntity
  8
0
100
AcDbLine
 10
44.313931555235
 20
834.254178574106
 30
0.0
 11
48.306831555235
 21
830.531178574106
 31
0.0
  0
LINE
  5
103A
330
1D
100
AcDbEntity
  8
0
100
AcDbLine
 10
42.665531555235
 20
829.813178574106
 30
0.0
 11
42.805331555235
 21
829.345178574106
 31
0.0
  0
LINE
  5
103B
330
1D
100
AcDbEntity
  8
0
100
AcDbLine
 10
42.773231555235
 20
827.413178574106
 30
0.0
 11
43.410431555235
 21
826.938178574106
 31
0.0
  0
LINE
  5
103C
330
1D
100
AcDbEntity
  8
0
100
AcDbLine
 10
45.506931555235
 20
818.946178574106
 30
0.0
 11
45.967931555235
 21
818.600178574106
 31
0.0
  0
LINE
  5
103D
330
1D
100
AcDbEntity
  8
0
100
AcDbLine
 10
48.059131555235
 20
819.185178574106
 30
0.0
 11
48.722951535708
 21
819.897081702725
 31
0.0
  0
LINE
  5
103E
330
1D
100
AcDbEntity
  8
0
100
AcDbLine
 10
45.157531555235
 20
819.417178574106
 30
0.0
 11
46.347631555235
 21
818.501178574106
 31
0.0
  0
LINE
  5
103F
330
1D
100
AcDbEntity
  8
0
100
AcDbLine
 10
47.730031555235
 20
819.492178574106
 30
0.0
 11
48.059131555235
 21
819.185178574106
 31
0.0
  0
LINE
  5
1040
330
1D
100
AcDbEntity
  8
0
100
AcDbLine
 10
48.455271778401
 20
819.610012825167
 30
0.0
 11
48.538831555235
 21
819.543178574106
 31
0.0
  0
LINE
  5
1041
330
1D
100
AcDbEntity
  8
0
100
AcDbLine
 10
48.538831555235
 20
819.543178574106
 30
0.0
 11
49.133831555235
 21
819.185178574106
 31
0.0
  0
LINE
  5
1042
330
1D
100
AcDbEntity
  8
0
100
AcDbLine
 10
49.178531555235
 20
819.166178574106
 30
0.0
 11
49.198731555235
 21
819.348178574106
 31
0.0
  0
LINE
  5
1043
330
1D
100
AcDbEntity
  8
0
100
AcDbLine
 10
50.743031555235
 20
819.308178574106
 30
0.0
 11
50.9008792374
 21
819.152592320052
 31
0.0
  0
LINE
  5
1044
330
1D
100
AcDbEntity
  8
0
100
AcDbLine
 10
51.642231555235
 20
819.176178574106
 30
0.0
 11
52.498931555235
 21
818.459178574106
 31
0.0
  0
LINE
  5
1045
330
1D
100
AcDbEntity
  8
0
100
AcDbLine
 10
49.122831555235
 20
819.195178574106
 30
0.0
 11
49.178531555235
 21
819.166178574106
 31
0.0
  0
LINE
  5
1046
330
1D
100
AcDbEntity
  8
0
100
AcDbLine
 10
46.962131555235
 20
820.208178574106
 30
0.0
 11
47.730031555235
 21
819.492178574106
 31
0.0
  0
LINE
  5
1047
330
1D
100
AcDbEntity
  8
0
100
AcDbLine
 10
48.702931555235
 20
819.920178574106
 30
0.0
 11
49.198731555235
 21
819.348178574106
 31
0.0
  0
LINE
  5
1048
330
1D
100
AcDbEntity
  8
0
100
AcDbLine
 10
54.181231555235
 20
819.902178574106
 30
0.0
 11
55.463312848419
 21
821.277126166239
 31
0.0
  0
LINE
  5
1049
330
1D
100
AcDbEntity
  8
0
100
AcDbLine
 10
53.852031555235
 20
820.209178574106
 30
0.0
 11
54.181231555235
 21
819.902178574106
 31
0.0
  0
LINE
  5
104A
330
1D
100
AcDbEntity
  8
0
100
AcDbLine
 10
50.670831555235
 20
819.829178574106
 30
0.0
 11
51.642231555235
 21
819.176178574106
 31
0.0
  0
LINE
  5
104B
330
1D
100
AcDbEntity
  8
0
100
AcDbLine
 10
45.408031555235
 20
822.574178574106
 30
0.0
 11
45.941031555235
 21
822.294178574106
 31
0.0
  0
LINE
  5
104C
330
1D
100
AcDbEntity
  8
0
100
AcDbLine
 10
45.408031555235
 20
822.574178574106
 30
0.0
 11
45.807031555235
 21
822.019178574106
 31
0.0
  0
LINE
  5
104D
330
1D
100
AcDbEntity
  8
0
100
AcDbLine
 10
45.865131555235
 20
821.231178574106
 30
0.0
 11
46.194231555235
 21
820.924178574106
 31
0.0
  0
LINE
  5
104E
330
1D
100
AcDbEntity
  8
0
100
AcDbLine
 10
45.865131555235
 20
821.231178574106
 30
0.0
 11
46.488529815651
 21
821.899732075086
 31
0.0
  0
LINE
  5
104F
330
1D
100
AcDbEntity
  8
0
100
AcDbLine
 10
46.194231555235
 20
820.924178574106
 30
0.0
 11
46.962131555235
 21
820.208178574106
 31
0.0
  0
LINE
  5
1050
330
1D
100
AcDbEntity
  8
0
100
AcDbLine
 10
45.807031555235
 20
822.019178574106
 30
0.0
 11
46.204104002946
 21
821.594704158059
 31
0.0
  0
LINE
  5
1051
330
1D
100
AcDbEntity
  8
0
100
AcDbLine
 10
46.675531555235
 20
823.483178574106
 30
0.0
 11
47.004631555235
 21
823.176178574106
 31
0.0
  0
LINE
  5
1052
330
1D
100
AcDbEntity
  8
0
100
AcDbLine
 10
46.675531555235
 20
823.483178574106
 30
0.0
 11
48.054122455485
 21
824.961626351881
 31
0.0
  0
LINE
  5
1053
330
1D
100
AcDbEntity
  8
0
100
AcDbLine
 10
47.004631555235
 20
823.176178574106
 30
0.0
 11
47.772531555235
 21
822.460178574106
 31
0.0
  0
LINE
  5
1054
330
1D
100
AcDbEntity
  8
0
100
AcDbLine
 10
45.941031555235
 20
822.294178574106
 30
0.0
 11
46.612831555235
 21
821.810178574106
 31
0.0
  0
LINE
  5
1055
330
1D
100
AcDbEntity
  8
0
100
AcDbLine
 10
46.612831555235
 20
821.810178574106
 30
0.0
 11
47.976131555235
 21
820.636178574106
 31
0.0
  0
LINE
  5
1056
330
1D
100
AcDbEntity
  8
0
100
AcDbLine
 10
46.819031555235
 20
826.768178574106
 30
0.0
 11
48.059544213632
 21
828.098182761526
 31
0.0
  0
LINE
  5
1057
330
1D
100
AcDbEntity
  8
0
100
AcDbLine
 10
45.292817850357
 20
829.530139481721
 30
0.0
 11
45.825770493263
 21
830.101539734643
 31
0.0
  0
LINE
  5
1058
330
1D
100
AcDbEntity
  8
0
100
AcDbLine
 10
45.722031555235
 20
827.791178574106
 30
0.0
 11
46.489931555235
 21
827.075178574106
 31
0.0
  0
LINE
  5
1059
330
1D
100
AcDbEntity
  8
0
100
AcDbLine
 10
46.489931555235
 20
827.075178574106
 30
0.0
 11
46.819031555235
 21
826.768178574106
 31
0.0
  0
LINE
  5
105A
330
1D
100
AcDbEntity
  8
0
100
AcDbLine
 10
45.778231555235
 20
824.523178574106
 30
0.0
 11
45.818831555235
 21
824.191178574106
 31
0.0
  0
LINE
  5
105B
330
1D
100
AcDbEntity
  8
0
100
AcDbLine
 10
45.135531555235
 20
829.735178574106
 30
0.0
 11
45.289592286078
 21
829.526681222775
 31
0.0
  0
LINE
  5
105C
330
1D
100
AcDbEntity
  8
0
100
AcDbLine
 10
45.135531555235
 20
829.735178574106
 30
0.0
 11
45.201631555235
 21
830.375178574106
 31
0.0
  0
LINE
  5
105D
330
1D
100
AcDbEntity
  8
0
100
AcDbLine
 10
46.180131555235
 20
829.946178574106
 30
0.0
 11
47.251831555235
 21
829.042178574106
 31
0.0
  0
LINE
  5
105E
330
1D
100
AcDbEntity
  8
0
100
AcDbLine
 10
45.201631555235
 20
830.375178574106
 30
0.0
 11
46.180131555235
 21
829.946178574106
 31
0.0
  0
LINE
  5
105F
330
1D
100
AcDbEntity
  8
0
100
AcDbLine
 10
45.195325357403
 20
830.314120077694
 30
0.0
 11
45.311926404865
 21
830.32682242644
 31
0.0
  0
LINE
  5
1060
330
1D
100
AcDbEntity
  8
0
100
AcDbLine
 10
45.141331555235
 20
829.740178574106
 30
0.0
 11
45.292817850357
 21
829.530139481721
 31
0.0
  0
LINE
  5
1061
330
1D
100
AcDbEntity
  8
0
100
AcDbLine
 10
47.480818027565
 20
827.477706827138
 30
0.0
 11
47.725731555235
 21
827.316178574106
 31
0.0
  0
LINE
  5
1062
330
1D
100
AcDbEntity
  8
0
100
AcDbLine
 10
47.209831555235
 20
825.423178574106
 30
0.0
 11
47.692031555235
 21
825.202178574106
 31
0.0
  0
LINE
  5
1063
330
1D
100
AcDbEntity
  8
0
100
AcDbLine
 10
48.869631555235
 20
821.437178574106
 30
0.0
 11
50.1898243257
 21
822.852998210936
 31
0.0
  0
LINE
  5
1064
330
1D
100
AcDbEntity
  8
0
100
AcDbLine
 10
47.772531555235
 20
822.460178574106
 30
0.0
 11
48.540531555235
 21
821.744178574106
 31
0.0
  0
LINE
  5
1065
330
1D
100
AcDbEntity
  8
0
100
AcDbLine
 10
48.540531555235
 20
821.744178574106
 30
0.0
 11
48.869631555235
 21
821.437178574106
 31
0.0
  0
LINE
  5
1066
330
1D
100
AcDbEntity
  8
0
100
AcDbLine
 10
47.976131555235
 20
820.636178574106
 30
0.0
 11
48.702931555235
 21
819.920178574106
 31
0.0
  0
LINE
  5
1067
330
1D
100
AcDbEntity
  8
0
100
AcDbLine
 10
48.236931555235
 20
824.840178574106
 30
0.0
 11
48.911431555235
 21
824.300178574106
 31
0.0
  0
LINE
  5
1068
330
1D
100
AcDbEntity
  8
0
100
AcDbLine
 10
48.911431555235
 20
824.300178574106
 30
0.0
 11
49.523031555235
 21
823.716178574106
 31
0.0
  0
LINE
  5
1069
330
1D
100
AcDbEntity
  8
0
100
AcDbLine
 10
51.987131555235
 20
821.948178574106
 30
0.0
 11
52.316231555235
 21
821.642178574106
 31
0.0
  0
LINE
  5
106A
330
1D
100
AcDbEntity
  8
0
100
AcDbLine
 10
51.987131555235
 20
821.948178574106
 30
0.0
 11
53.265641632862
 21
823.319296273192
 31
0.0
  0
LINE
  5
106B
330
1D
100
AcDbEntity
  8
0
100
AcDbLine
 10
52.316231555235
 20
821.642178574106
 30
0.0
 11
53.084131555235
 21
820.925178574106
 31
0.0
  0
LINE
  5
106C
330
1D
100
AcDbEntity
  8
0
100
AcDbLine
 10
53.084131555235
 20
820.925178574106
 30
0.0
 11
53.852031555235
 21
820.209178574106
 31
0.0
  0
LINE
  5
106D
330
1D
100
AcDbEntity
  8
0
100
AcDbLine
 10
52.237131555235
 20
822.846178574106
 30
0.0
 11
52.535306002958
 21
822.536059499421
 31
0.0
  0
LINE
  5
106E
330
1D
100
AcDbEntity
  8
0
100
AcDbLine
 10
49.955131555235
 20
822.533178574106
 30
0.0
 11
50.391031555235
 21
822.481178574106
 31
0.0
  0
LINE
  5
106F
330
1D
100
AcDbEntity
  8
0
100
AcDbLine
 10
51.868531555235
 20
823.488178574106
 30
0.0
 11
52.237131555235
 21
822.846178574106
 31
0.0
  0
LINE
  5
1070
330
1D
100
AcDbEntity
  8
0
100
AcDbLine
 10
51.868531555235
 20
823.488178574106
 30
0.0
 11
51.877031555235
 21
823.818178574106
 31
0.0
  0
LINE
  5
1071
330
1D
100
AcDbEntity
  8
0
100
AcDbLine
 10
52.334731555235
 20
823.801178574106
 30
0.0
 11
52.988731555235
 21
823.510178574106
 31
0.0
  0
LINE
  5
1072
330
1D
100
AcDbEntity
  8
0
100
AcDbLine
 10
51.877031555235
 20
823.818178574106
 30
0.0
 11
52.334731555235
 21
823.801178574106
 31
0.0
  0
LINE
  5
1073
330
1D
100
AcDbEntity
  8
0
100
AcDbLine
 10
50.021431555235
 20
823.164178574106
 30
0.0
 11
50.391031555235
 21
822.481178574106
 31
0.0
  0
LINE
  5
1074
330
1D
100
AcDbEntity
  8
0
100
AcDbLine
 10
49.523031555235
 20
823.716178574106
 30
0.0
 11
50.021431555235
 21
823.164178574106
 31
0.0
  0
LINE
  5
1075
330
1D
100
AcDbEntity
  8
0
100
AcDbLine
 10
52.823531555235
 20
826.320178574106
 30
0.0
 11
56.294031555235
 21
823.085178574106
 31
0.0
  0
LINE
  5
1076
330
1D
100
AcDbEntity
  8
0
100
AcDbLine
 10
48.058031555235
 20
828.101178574106
 30
0.0
 11
48.324631555235
 21
827.573178574106
 31
0.0
  0
LINE
  5
1077
330
1D
100
AcDbEntity
  8
0
100
AcDbLine
 10
48.275531555235
 20
827.223178574106
 30
0.0
 11
48.324631555235
 21
827.573178574106
 31
0.0
  0
LINE
  5
1078
330
1D
100
AcDbEntity
  8
0
100
AcDbLine
 10
47.725731555235
 20
827.316178574106
 30
0.0
 11
48.275531555235
 21
827.223178574106
 31
0.0
  0
LINE
  5
1079
330
1D
100
AcDbEntity
  8
0
100
AcDbLine
 10
47.692031555235
 20
825.202178574106
 30
0.0
 11
48.236931555235
 21
824.840178574106
 31
0.0
  0
LINE
  5
107A
330
1D
100
AcDbEntity
  8
0
100
AcDbLine
 10
47.499231555235
 20
824.583178574106
 30
0.0
 11
47.598326342275
 21
824.472815094987
 31
0.0
  0
LINE
  5
107B
330
1D
100
AcDbEntity
  8
0
100
AcDbLine
 10
48.306831555235
 20
830.531178574106
 30
0.0
 11
52.823531555235
 21
826.320178574106
 31
0.0
  0
LINE
  5
107C
330
1D
100
AcDbEntity
  8
0
100
AcDbLine
 10
47.251831555235
 20
829.042178574106
 30
0.0
 11
48.058031555235
 21
828.101178574106
 31
0.0
  0
LINE
  5
107D
330
1D
100
AcDbEntity
  8
0
100
AcDbLine
 10
47.099231555235
 20
825.151178574106
 30
0.0
 11
47.499231555235
 21
824.583178574106
 31
0.0
  0
LINE
  5
107E
330
1D
100
AcDbEntity
  8
0
100
AcDbLine
 10
47.099231555235
 20
825.151178574106
 30
0.0
 11
47.209831555235
 21
825.423178574106
 31
0.0
  0
LINE
  5
107F
330
1D
100
AcDbEntity
  8
0
100
AcDbLine
 10
45.764931555235
 20
820.428178574106
 30
0.0
 11
49.174031555235
 21
817.304178574106
 31
0.0
  0
LINE
  5
1080
330
1D
100
AcDbEntity
  8
0
100
AcDbLine
 10
55.184031555235
 20
820.567178574106
 30
0.0
 11
55.666531555235
 21
820.633178574106
 31
0.0
  0
LINE
  5
1081
330
1D
100
AcDbEntity
  8
0
100
AcDbLine
 10
59.711431555235
 20
819.899178574106
 30
0.0
 11
63.054931555235
 21
816.782178574106
 31
0.0
  0
LINE
  5
1082
330
1D
100
AcDbEntity
  8
0
100
AcDbLine
 10
55.642431555235
 20
821.011178574106
 30
0.0
 11
55.666531555235
 21
820.633178574106
 31
0.0
  0
LINE
  5
1083
330
1D
100
AcDbEntity
  8
0
100
AcDbLine
 10
55.314431555235
 20
821.498178574106
 30
0.0
 11
55.642431555235
 21
821.011178574106
 31
0.0
  0
LINE
  5
1084
330
1D
100
AcDbEntity
  8
0
100
AcDbLine
 10
55.932707250316
 20
823.421984258132
 30
0.0
 11
56.029431555235
 21
823.319178574106
 31
0.0
  0
LINE
  5
1085
330
1D
100
AcDbEntity
  8
0
100
AcDbLine
 10
56.294031555235
 20
823.085178574106
 30
0.0
 11
59.711431555235
 21
819.899178574106
 31
0.0
  0
LINE
  5
1086
330
1D
100
AcDbEntity
  8
0
100
AcDbLine
 10
56.029431555235
 20
823.319178574106
 30
0.0
 11
56.170804435918
 21
823.200043789778
 31
0.0
  0
LINE
  5
1087
330
1D
100
AcDbEntity
  8
0
100
AcDbLine
 10
56.029431555235
 20
823.319178574106
 30
0.0
 11
56.170804435918
 21
823.200043789778
 31
0.0
  0
LINE
  5
1088
330
1D
100
AcDbEntity
  8
0
100
AcDbLine
 10
54.924055623522
 20
820.698808374026
 30
0.0
 11
55.184031555235
 21
820.567178574106
 31
0.0
  0
LINE
  5
1089
330
1D
100
AcDbEntity
  8
0
100
AcDbLine
 10
50.364231555235
 20
819.809178574106
 30
0.0
 11
50.670831555235
 21
819.829178574106
 31
0.0
  0
LINE
  5
108A
330
1D
100
AcDbEntity
  8
0
100
AcDbLine
 10
50.364231555235
 20
819.809178574106
 30
0.0
 11
50.743031555235
 21
819.308178574106
 31
0.0
  0
LINE
  5
108B
330
1D
100
AcDbEntity
  8
0
100
AcDbLine
 10
45.118731555235
 20
824.583178574106
 30
0.0
 11
45.818831555235
 21
824.191178574106
 31
0.0
  0
LINE
  5
108C
330
1D
100
AcDbEntity
  8
0
100
AcDbLine
 10
54.028931555235
 20
818.870178574106
 30
0.0
 11
54.929931555235
 21
818.488178574106
 31
0.0
  0
LINE
  5
108D
330
1D
100
AcDbEntity
  8
0
100
AcDbLine
 10
63.412931555235
 20
807.448178574106
 30
0.0
 11
63.841940241356
 21
807.080298387932
 31
0.0
  0
LINE
  5
108E
330
1D
100
AcDbEntity
  8
0
100
AcDbLine
 10
63.425231555235
 20
807.635178574106
 30
0.0
 11
63.884431555235
 21
807.369178574106
 31
0.0
  0
LINE
  5
108F
330
1D
100
AcDbEntity
  8
0
100
AcDbLine
 10
62.416031555235
 20
808.805178574106
 30
0.0
 11
63.855670746836
 21
810.349096616243
 31
0.0
  0
LINE
  5
1090
330
1D
100
AcDbEntity
  8
0
100
AcDbLine
 10
63.247931555235
 20
807.685178574106
 30
0.0
 11
63.412931555235
 21
807.448178574106
 31
0.0
  0
LINE
  5
1091
330
1D
100
AcDbEntity
  8
0
100
AcDbLine
 10
63.247931555235
 20
807.685178574106
 30
0.0
 11
63.425231555235
 21
807.635178574106
 31
0.0
  0
LINE
  5
1092
330
1D
100
AcDbEntity
  8
0
100
AcDbLine
 10
66.186231555235
 20
808.708178574106
 30
0.0
 11
66.954131555235
 21
807.991178574106
 31
0.0
  0
LINE
  5
1093
330
1D
100
AcDbEntity
  8
0
100
AcDbLine
 10
65.089231555235
 20
809.731178574106
 30
0.0
 11
65.418331555235
 21
809.424178574106
 31
0.0
  0
LINE
  5
1094
330
1D
100
AcDbEntity
  8
0
100
AcDbLine
 10
65.089231555235
 20
809.731178574106
 30
0.0
 11
66.200725913481
 21
810.922891930436
 31
0.0
  0
LINE
  5
1095
330
1D
100
AcDbEntity
  8
0
100
AcDbLine
 10
65.418331555235
 20
809.424178574106
 30
0.0
 11
66.186231555235
 21
808.708178574106
 31
0.0
  0
LINE
  5
1096
330
1D
100
AcDbEntity
  8
0
100
AcDbLine
 10
63.884431555235
 20
807.369178574106
 30
0.0
 11
64.612031555235
 21
806.876178574106
 31
0.0
  0
LINE
  5
1097
330
1D
100
AcDbEntity
  8
0
100
AcDbLine
 10
63.882531555235
 20
809.822178574106
 30
0.0
 11
64.249231555235
 21
809.785178574106
 31
0.0
  0
LINE
  5
1098
330
1D
100
AcDbEntity
  8
0
100
AcDbLine
 10
63.536924421212
 20
810.00726221366
 30
0.0
 11
63.882531555235
 21
809.822178574106
 31
0.0
  0
LINE
  5
1099
330
1D
100
AcDbEntity
  8
0
100
AcDbLine
 10
65.113031555235
 20
810.840178574106
 30
0.0
 11
65.619557343163
 21
810.299779143233
 31
0.0
  0
LINE
  5
109A
330
1D
100
AcDbEntity
  8
0
100
AcDbLine
 10
63.906831555235
 20
810.301178574106
 30
0.0
 11
64.249231555235
 21
809.785178574106
 31
0.0
  0
LINE
  5
109B
330
1D
100
AcDbEntity
  8
0
100
AcDbLine
 10
67.283231555235
 20
807.685178574106
 30
0.0
 11
68.657846477842
 21
809.158959265323
 31
0.0
  0
LINE
  5
109C
330
1D
100
AcDbEntity
  8
0
100
AcDbLine
 10
66.954131555235
 20
807.991178574106
 30
0.0
 11
67.283231555235
 21
807.685178574106
 31
0.0
  0
LINE
  5
109D
330
1D
100
AcDbEntity
  8
0
100
AcDbLine
 10
67.962531555235
 20
809.787178574106
 30
0.0
 11
68.540631555235
 21
809.275178574106
 31
0.0
  0
LINE
  5
109E
330
1D
100
AcDbEntity
  8
0
100
AcDbLine
 10
67.962531555235
 20
809.787178574106
 30
0.0
 11
68.524831555235
 21
809.293178574106
 31
0.0
  0
LINE
  5
109F
330
1D
100
AcDbEntity
  8
0
100
AcDbLine
 10
68.837531555235
 20
808.967178574106
 30
0.0
 11
68.887131555235
 21
808.908178574106
 31
0.0
  0
LINE
  5
10A0
330
1D
100
AcDbEntity
  8
0
100
AcDbLine
 10
68.807731555235
 20
808.998178574106
 30
0.0
 11
68.863431555235
 21
808.934178574106
 31
0.0
  0
LINE
  5
10A1
330
1D
100
AcDbEntity
  8
0
100
AcDbLine
 10
68.807631555235
 20
808.998178574106
 30
0.0
 11
68.863431555235
 21
808.934178574106
 31
0.0
  0
LINE
  5
10A2
330
1D
100
AcDbEntity
  8
0
100
AcDbLine
 10
68.783231555235
 20
809.028178574106
 30
0.0
 11
68.837531555235
 21
808.967178574106
 31
0.0
  0
LINE
  5
10A3
330
1D
100
AcDbEntity
  8
0
100
AcDbLine
 10
68.747331555235
 20
809.065178574106
 30
0.0
 11
68.783231555235
 21
809.028178574106
 31
0.0
  0
LINE
  5
10A4
330
1D
100
AcDbEntity
  8
0
100
AcDbLine
 10
68.747331555235
 20
809.065178574106
 30
0.0
 11
68.807731555235
 21
808.998178574106
 31
0.0
  0
LINE
  5
10A5
330
1D
100
AcDbEntity
  8
0
100
AcDbLine
 10
68.747331555235
 20
809.065178574106
 30
0.0
 11
68.807631555235
 21
808.998178574106
 31
0.0
  0
LINE
  5
10A6
330
1D
100
AcDbEntity
  8
0
100
AcDbLine
 10
68.682131555235
 20
809.134178574106
 30
0.0
 11
68.724631555235
 21
809.092178574106
 31
0.0
  0
LINE
  5
10A7
330
1D
100
AcDbEntity
  8
0
100
AcDbLine
 10
68.682131555235
 20
809.134178574106
 30
0.0
 11
68.747331555235
 21
809.065178574106
 31
0.0
  0
LINE
  5
10A8
330
1D
100
AcDbEntity
  8
0
100
AcDbLine
 10
68.682031555235
 20
809.134178574106
 30
0.0
 11
68.747331555235
 21
809.065178574106
 31
0.0
  0
LINE
  5
10A9
330
1D
100
AcDbEntity
  8
0
100
AcDbLine
 10
68.662131555235
 20
809.157178574106
 30
0.0
 11
68.724631555235
 21
809.092178574106
 31
0.0
  0
LINE
  5
10AA
330
1D
100
AcDbEntity
  8
0
100
AcDbLine
 10
68.613531555235
 20
809.204178574106
 30
0.0
 11
68.662131555235
 21
809.157178574106
 31
0.0
  0
LINE
  5
10AB
330
1D
100
AcDbEntity
  8
0
100
AcDbLine
 10
68.613531555235
 20
809.204178574106
 30
0.0
 11
68.682131555235
 21
809.134178574106
 31
0.0
  0
LINE
  5
10AC
330
1D
100
AcDbEntity
  8
0
100
AcDbLine
 10
68.540631555235
 20
809.275178574106
 30
0.0
 11
68.613531555235
 21
809.204178574106
 31
0.0
  0
LINE
  5
10AD
330
1D
100
AcDbEntity
  8
0
100
AcDbLine
 10
68.595431555235
 20
809.225178574106
 30
0.0
 11
68.662131555235
 21
809.157178574106
 31
0.0
  0
LINE
  5
10AE
330
1D
100
AcDbEntity
  8
0
100
AcDbLine
 10
68.524831555235
 20
809.293178574106
 30
0.0
 11
68.595431555235
 21
809.225178574106
 31
0.0
  0
LINE
  5
10AF
330
1D
100
AcDbEntity
  8
0
100
AcDbLine
 10
68.100990598796
 20
808.561931378581
 30
0.0
 11
68.850031555235
 21
808.289178574106
 31
0.0
  0
LINE
  5
10B0
330
1D
100
AcDbEntity
  8
0
100
AcDbLine
 10
69.064747582004
 20
808.384594060878
 30
0.0
 11
69.16253140373
 21
808.489460757668
 31
0.0
  0
LINE
  5
10B1
330
1D
100
AcDbEntity
  8
0
100
AcDbLine
 10
72.031531555235
 20
808.413178574106
 30
0.0
 11
75.320131555235
 21
805.347178574106
 31
0.0
  0
LINE
  5
10B2
330
1D
100
AcDbEntity
  8
0
100
AcDbLine
 10
68.887131555235
 20
808.908178574106
 30
0.0
 11
69.194331555235
 21
808.442178574106
 31
0.0
  0
LINE
  5
10B3
330
1D
100
AcDbEntity
  8
0
100
AcDbLine
 10
68.863431555235
 20
808.934178574106
 30
0.0
 11
68.904243882697
 21
808.872402468982
 31
0.0
  0
LINE
  5
10B4
330
1D
100
AcDbEntity
  8
0
100
AcDbLine
 10
68.850031555235
 20
808.289178574106
 30
0.0
 11
69.194331555235
 21
808.442178574106
 31
0.0
  0
LINE
  5
10B5
330
1D
100
AcDbEntity
  8
0
100
AcDbLine
 10
66.899231555235
 20
810.538178574106
 30
0.0
 11
67.962531555235
 21
809.787178574106
 31
0.0
  0
LINE
  5
10B6
330
1D
100
AcDbEntity
  8
0
100
AcDbLine
 10
63.054931555235
 20
816.782178574106
 30
0.0
 11
66.152631555235
 21
813.894178574106
 31
0.0
  0
LINE
  5
10B7
330
1D
100
AcDbEntity
  8
0
100
AcDbLine
 10
65.415531555235
 20
811.248178574106
 30
0.0
 11
66.064031555235
 21
810.998178574106
 31
0.0
  0
LINE
  5
10B8
330
1D
100
AcDbEntity
  8
0
100
AcDbLine
 10
65.035131555235
 20
811.210178574106
 30
0.0
 11
65.113031555235
 21
810.840178574106
 31
0.0
  0
LINE
  5
10B9
330
1D
100
AcDbEntity
  8
0
100
AcDbLine
 10
65.035131555235
 20
811.210178574106
 30
0.0
 11
65.415531555235
 21
811.248178574106
 31
0.0
  0
LINE
  5
10BA
330
1D
100
AcDbEntity
  8
0
100
AcDbLine
 10
65.035131555235
 20
811.210178574106
 30
0.0
 11
65.41581883426
 21
811.248067826602
 31
0.0
  0
LINE
  5
10BB
330
1D
100
AcDbEntity
  8
0
100
AcDbLine
 10
66.064031555235
 20
810.998178574106
 30
0.0
 11
66.899231555235
 21
810.538178574106
 31
0.0
  0
LINE
  5
10BC
330
1D
100
AcDbEntity
  8
0
100
AcDbLine
 10
66.152631555235
 20
813.894178574106
 30
0.0
 11
69.149631555235
 21
811.100178574106
 31
0.0
  0
LINE
  5
10BD
330
1D
100
AcDbEntity
  8
0
100
AcDbLine
 10
83.921231555235
 20
824.115178574106
 30
0.0
 11
94.382431555235
 21
812.903178574106
 31
0.0
  0
LINE
  5
10BE
330
1D
100
AcDbEntity
  8
0
100
AcDbLine
 10
94.382431555235
 20
812.903178574106
 30
0.0
 11
104.966431555235
 21
800.992178574106
 31
0.0
  0
LINE
  5
10BF
330
1D
100
AcDbEntity
  8
0
100
AcDbLine
 10
73.496531555235
 20
834.629178574106
 30
0.0
 11
83.921231555235
 21
824.115178574106
 31
0.0
  0
LINE
  5
10C0
330
1D
100
AcDbEntity
  8
0
100
AcDbLine
 10
69.149631555235
 20
811.100178574106
 30
0.0
 11
72.031531555235
 21
808.413178574106
 31
0.0
  0
LINE
  5
10C1
330
1D
100
AcDbEntity
  8
0
100
AcDbLine
 10
63.305731555235
 20
810.864178574106
 30
0.0
 11
63.906831555235
 21
810.301178574106
 31
0.0
  0
LINE
  5
10C2
330
1D
100
AcDbEntity
  8
0
100
AcDbLine
 10
62.356231555235
 20
811.616178574106
 30
0.0
 11
63.305731555235
 21
810.864178574106
 31
0.0
  0
LINE
  5
10C3
330
1D
100
AcDbEntity
  8
0
100
AcDbLine
 10
66.309931555235
 20
807.230178574106
 30
0.0
 11
67.203431555235
 21
806.806178574106
 31
0.0
  0
LINE
  5
10C4
330
1D
100
AcDbEntity
  8
0
100
AcDbLine
 10
40.017731555235
 20
827.492178574106
 30
0.0
 11
40.223931555235
 21
827.414178574106
 31
0.0
  0
LINE
  5
10C5
330
1D
100
AcDbEntity
  8
0
100
AcDbLine
 10
22.949331555235
 20
843.284178574106
 30
0.0
 11
24.077275691577
 21
844.493824235866
 31
0.0
  0
LINE
  5
10C6
330
1D
100
AcDbEntity
  8
0
100
AcDbLine
 10
22.244131555235
 20
843.258178574106
 30
0.0
 11
23.012031555235
 21
842.542178574106
 31
0.0
  0
LINE
  5
10C7
330
1D
100
AcDbEntity
  8
0
100
AcDbLine
 10
23.012031555235
 20
842.542178574106
 30
0.0
 11
23.779931555235
 21
841.826178574106
 31
0.0
  0
LINE
  5
10C8
330
1D
100
AcDbEntity
  8
0
100
AcDbLine
 10
21.084431555235
 20
845.023178574106
 30
0.0
 11
21.852331555235
 21
844.307178574106
 31
0.0
  0
LINE
  5
10C9
330
1D
100
AcDbEntity
  8
0
100
AcDbLine
 10
21.852331555235
 20
844.307178574106
 30
0.0
 11
22.620231555235
 21
843.591178574106
 31
0.0
  0
LINE
  5
10CA
330
1D
100
AcDbEntity
  8
0
100
AcDbLine
 10
21.852331555235
 20
844.307178574106
 30
0.0
 11
22.256023993341
 21
843.930770466691
 31
0.0
  0
LINE
  5
10CB
330
1D
100
AcDbEntity
  8
0
100
AcDbLine
 10
22.620231555235
 20
843.591178574106
 30
0.0
 11
22.949331555235
 21
843.284178574106
 31
0.0
  0
LINE
  5
10CC
330
1D
100
AcDbEntity
  8
0
100
AcDbLine
 10
21.915031555235
 20
843.565178574106
 30
0.0
 11
22.244131555235
 21
843.258178574106
 31
0.0
  0
LINE
  5
10CD
330
1D
100
AcDbEntity
  8
0
100
AcDbLine
 10
21.915031555235
 20
843.565178574106
 30
0.0
 11
22.256023993341
 21
843.930770466691
 31
0.0
  0
LINE
  5
10CE
330
1D
100
AcDbEntity
  8
0
100
AcDbLine
 10
23.145992968061
 20
843.495084963169
 30
0.0
 11
23.441931555235
 21
843.155178574106
 31
0.0
  0
LINE
  5
10CF
330
1D
100
AcDbEntity
  8
0
100
AcDbLine
 10
23.779931555235
 20
841.826178574106
 30
0.0
 11
24.109031555235
 21
841.519178574106
 31
0.0
  0
LINE
  5
10D0
330
1D
100
AcDbEntity
  8
0
100
AcDbLine
 10
23.905631555235
 20
843.011178574106
 30
0.0
 11
24.088731555235
 21
842.864178574106
 31
0.0
  0
LINE
  5
10D1
330
1D
100
AcDbEntity
  8
0
100
AcDbLine
 10
23.905631555235
 20
843.011178574106
 30
0.0
 11
24.173031555235
 21
842.611178574106
 31
0.0
  0
LINE
  5
10D2
330
1D
100
AcDbEntity
  8
0
100
AcDbLine
 10
23.441931555235
 20
843.155178574106
 30
0.0
 11
24.154631555235
 21
842.334178574106
 31
0.0
  0
LINE
  5
10D3
330
1D
100
AcDbEntity
  8
0
100
AcDbLine
 10
20.755331555235
 20
845.330178574106
 30
0.0
 11
21.084431555235
 21
845.023178574106
 31
0.0
  0
LINE
  5
10D4
330
1D
100
AcDbEntity
  8
0
100
AcDbLine
 10
20.755331555235
 20
845.330178574106
 30
0.0
 11
22.11602002177
 21
846.789427172968
 31
0.0
  0
LINE
  5
10D5
330
1D
100
AcDbEntity
  8
0
100
AcDbLine
 10
20.755331555235
 20
845.330178574106
 30
0.0
 11
21.172726263435
 21
845.777806857944
 31
0.0
  0
LINE
  5
10D6
330
1D
100
AcDbEntity
  8
0
100
AcDbLine
 10
21.018331555235
 20
846.342178574106
 30
0.0
 11
21.341723132467
 21
845.959044849161
 31
0.0
  0
LINE
  5
10D7
330
1D
100
AcDbEntity
  8
0
100
AcDbLine
 10
21.018331555235
 20
846.342178574106
 30
0.0
 11
21.341544800652
 21
845.958853600057
 31
0.0
  0
LINE
  5
10D8
330
1D
100
AcDbEntity
  8
0
100
AcDbLine
 10
20.764331555235
 20
846.258178574106
 30
0.0
 11
21.172726263435
 21
845.777806857944
 31
0.0
  0
LINE
  5
10D9
330
1D
100
AcDbEntity
  8
0
100
AcDbLine
 10
20.764331555235
 20
846.258178574106
 30
0.0
 11
21.018331555235
 21
846.342178574106
 31
0.0
  0
LINE
  5
10DA
330
1D
100
AcDbEntity
  8
0
100
AcDbLine
 10
22.812131555235
 20
846.043178574106
 30
0.0
 11
23.621931555235
 21
845.086178574106
 31
0.0
  0
LINE
  5
10DB
330
1D
100
AcDbEntity
  8
0
100
AcDbLine
 10
23.621931555235
 20
845.086178574106
 30
0.0
 11
24.226131555235
 21
844.300178574106
 31
0.0
  0
LINE
  5
10DC
330
1D
100
AcDbEntity
  8
0
100
AcDbLine
 10
24.059831555235
 20
841.565178574106
 30
0.0
 11
24.388931555235
 21
841.258178574106
 31
0.0
  0
LINE
  5
10DD
330
1D
100
AcDbEntity
  8
0
100
AcDbLine
 10
24.059831555235
 20
841.565178574106
 30
0.0
 11
24.69378477658
 21
842.244885596962
 31
0.0
  0
LINE
  5
10DE
330
1D
100
AcDbEntity
  8
0
100
AcDbLine
 10
24.088731555235
 20
842.864178574106
 30
0.0
 11
24.559231555235
 21
842.392178574106
 31
0.0
  0
LINE
  5
10DF
330
1D
100
AcDbEntity
  8
0
100
AcDbLine
 10
24.388931555235
 20
841.258178574106
 30
0.0
 11
25.156831555235
 21
840.542178574106
 31
0.0
  0
LINE
  5
10E0
330
1D
100
AcDbEntity
  8
0
100
AcDbLine
 10
25.156831555235
 20
840.542178574106
 30
0.0
 11
25.924731555235
 21
839.826178574106
 31
0.0
  0
LINE
  5
10E1
330
1D
100
AcDbEntity
  8
0
100
AcDbLine
 10
24.746031555235
 20
843.933178574106
 30
0.0
 11
25.513931555235
 21
843.217178574106
 31
0.0
  0
LINE
  5
10E2
330
1D
100
AcDbEntity
  8
0
100
AcDbLine
 10
24.173031555235
 20
842.611178574106
 30
0.0
 11
24.579011002895
 21
842.121828347016
 31
0.0
  0
LINE
  5
10E3
330
1D
100
AcDbEntity
  8
0
100
AcDbLine
 10
24.559231555235
 20
842.392178574106
 30
0.0
 11
25.364031555235
 21
841.511178574106
 31
0.0
  0
LINE
  5
10E4
330
1D
100
AcDbEntity
  8
0
100
AcDbLine
 10
24.154631555235
 20
842.334178574106
 30
0.0
 11
24.431041357203
 21
841.963179405801
 31
0.0
  0
LINE
  5
10E5
330
1D
100
AcDbEntity
  8
0
100
AcDbLine
 10
24.416931555235
 20
844.240178574106
 30
0.0
 11
24.746031555235
 21
843.933178574106
 31
0.0
  0
LINE
  5
10E6
330
1D
100
AcDbEntity
  8
0
100
AcDbLine
 10
24.416931555235
 20
844.240178574106
 30
0.0
 11
25.87520595876
 21
845.803654004982
 31
0.0
  0
LINE
  5
10E7
330
1D
100
AcDbEntity
  8
0
100
AcDbLine
 10
25.176031555235
 20
845.879178574106
 30
0.0
 11
25.492288891542
 21
845.393113008575
 31
0.0
  0
LINE
  5
10E8
330
1D
100
AcDbEntity
  8
0
100
AcDbLine
 10
24.226131555235
 20
844.300178574106
 30
0.0
 11
24.505431555235
 21
843.830178574106
 31
0.0
  0
LINE
  5
10E9
330
1D
100
AcDbEntity
  8
0
100
AcDbLine
 10
24.207731555235
 20
844.011178574106
 30
0.0
 11
24.505431555235
 21
843.830178574106
 31
0.0
  0
LINE
  5
10EA
330
1D
100
AcDbEntity
  8
0
100
AcDbLine
 10
23.907335517312
 20
844.311574612029
 30
0.0
 11
24.207731555235
 21
844.011178574106
 31
0.0
  0
LINE
  5
10EB
330
1D
100
AcDbEntity
  8
0
100
AcDbLine
 10
19.184131555235
 20
846.795178574106
 30
0.0
 11
20.274090560368
 21
847.964121968859
 31
0.0
  0
LINE
  5
10EC
330
1D
100
AcDbEntity
  8
0
100
AcDbLine
 10
19.184131555235
 20
846.795178574106
 30
0.0
 11
19.993893213717
 21
847.663619990296
 31
0.0
  0
LINE
  5
10ED
330
1D
100
AcDbEntity
  8
0
100
AcDbLine
 10
18.854931555235
 20
847.102178574106
 30
0.0
 11
19.184131555235
 21
846.795178574106
 31
0.0
  0
LINE
  5
10EE
330
1D
100
AcDbEntity
  8
0
100
AcDbLine
 10
21.527031555235
 20
847.194178574106
 30
0.0
 11
21.571731555235
 21
847.263178574106
 31
0.0
  0
LINE
  5
10EF
330
1D
100
AcDbEntity
  8
0
100
AcDbLine
 10
21.527031555235
 20
847.194178574106
 30
0.0
 11
21.848731555235
 21
846.715178574106
 31
0.0
  0
LINE
  5
10F0
330
1D
100
AcDbEntity
  8
0
100
AcDbLine
 10
20.866431555235
 20
847.198178574106
 30
0.0
 11
20.913431555235
 21
847.039178574106
 31
0.0
  0
LINE
  5
10F1
330
1D
100
AcDbEntity
  8
0
100
AcDbLine
 10
21.939902831587
 20
846.600553107132
 30
0.0
 11
22.11602002177
 21
846.789427172968
 31
0.0
  0
LINE
  5
10F2
330
1D
100
AcDbEntity
  8
0
100
AcDbLine
 10
21.848731555235
 20
846.715178574106
 30
0.0
 11
21.938351996014
 21
846.598889938308
 31
0.0
  0
LINE
  5
10F3
330
1D
100
AcDbEntity
  8
0
100
AcDbLine
 10
21.760531555235
 20
847.126178574106
 30
0.0
 11
22.092931555235
 21
846.814178574106
 31
0.0
  0
LINE
  5
10F4
330
1D
100
AcDbEntity
  8
0
100
AcDbLine
 10
25.165231555235
 20
846.960178574106
 30
0.0
 11
25.494331555235
 21
846.653178574106
 31
0.0
  0
LINE
  5
10F5
330
1D
100
AcDbEntity
  8
0
100
AcDbLine
 10
22.092931555235
 20
846.814178574106
 30
0.0
 11
22.812131555235
 21
846.043178574106
 31
0.0
  0
LINE
  5
10F6
330
1D
100
AcDbEntity
  8
0
100
AcDbLine
 10
24.972731555235
 20
846.415178574106
 30
0.0
 11
25.263631555235
 21
846.342178574106
 31
0.0
  0
LINE
  5
10F7
330
1D
100
AcDbEntity
  8
0
100
AcDbLine
 10
24.972731555235
 20
846.415178574106
 30
0.0
 11
25.176031555235
 21
845.879178574106
 31
0.0
  0
LINE
  5
10F8
330
1D
100
AcDbEntity
  8
0
100
AcDbLine
 10
25.924731555235
 20
839.826178574106
 30
0.0
 11
26.253831555235
 21
839.519178574106
 31
0.0
  0
LINE
  5
10F9
330
1D
100
AcDbEntity
  8
0
100
AcDbLine
 10
25.494331555235
 20
846.653178574106
 30
0.0
 11
26.506303582552
 21
847.738451801056
 31
0.0
  0
LINE
  5
10FA
330
1D
100
AcDbEntity
  8
0
100
AcDbLine
 10
25.513931555235
 20
843.217178574106
 30
0.0
 11
26.281931555235
 21
842.501178574106
 31
0.0
  0
LINE
  5
10FB
330
1D
100
AcDbEntity
  8
0
100
AcDbLine
 10
25.685131555235
 20
846.032178574106
 30
0.0
 11
26.261531555235
 21
845.339178574106
 31
0.0
  0
LINE
  5
10FC
330
1D
100
AcDbEntity
  8
0
100
AcDbLine
 10
25.364031555235
 20
841.511178574106
 30
0.0
 11
26.334131555235
 21
840.393178574106
 31
0.0
  0
LINE
  5
10FD
330
1D
100
AcDbEntity
  8
0
100
AcDbLine
 10
25.263631555235
 20
846.342178574106
 30
0.0
 11
25.685131555235
 21
846.032178574106
 31
0.0
  0
LINE
  5
10FE
330
1D
100
AcDbEntity
  8
0
100
AcDbLine
 10
16.990031555235
 20
848.841178574106
 30
0.0
 11
18.087031555235
 21
847.818178574106
 31
0.0
  0
LINE
  5
10FF
330
1D
100
AcDbEntity
  8
0
100
AcDbLine
 10
18.626531555235
 20
849.639178574106
 30
0.0
 11
18.955631555235
 21
849.332178574106
 31
0.0
  0
LINE
  5
1100
330
1D
100
AcDbEntity
  8
0
100
AcDbLine
 10
18.626531555235
 20
849.639178574106
 30
0.0
 11
20.073845435087
 21
851.191327212997
 31
0.0
  0
LINE
  5
1101
330
1D
100
AcDbEntity
  8
0
100
AcDbLine
 10
18.955631555235
 20
849.332178574106
 30
0.0
 11
19.723531555235
 21
848.616178574106
 31
0.0
  0
LINE
  5
1102
330
1D
100
AcDbEntity
  8
0
100
AcDbLine
 10
18.087031555235
 20
847.818178574106
 30
0.0
 11
18.854931555235
 21
847.102178574106
 31
0.0
  0
LINE
  5
1103
330
1D
100
AcDbEntity
  8
0
100
AcDbLine
 10
17.714531555235
 20
851.768178574106
 30
0.0
 11
17.746031555235
 21
851.694178574106
 31
0.0
  0
LINE
  5
1104
330
1D
100
AcDbEntity
  8
0
100
AcDbLine
 10
17.905831555235
 20
852.341178574106
 30
0.0
 11
18.040331555235
 21
851.954178574106
 31
0.0
  0
LINE
  5
1105
330
1D
100
AcDbEntity
  8
0
100
AcDbLine
 10
17.764631555235
 20
852.157178574106
 30
0.0
 11
18.040331555235
 21
851.954178574106
 31
0.0
  0
LINE
  5
1106
330
1D
100
AcDbEntity
  8
0
100
AcDbLine
 10
17.758031555235
 20
850.908178574106
 30
0.0
 11
18.003231555235
 21
850.665178574106
 31
0.0
  0
LINE
  5
1107
330
1D
100
AcDbEntity
  8
0
100
AcDbLine
 10
19.201531555235
 20
852.521178574106
 30
0.0
 11
19.530631555235
 21
852.215178574106
 31
0.0
  0
LINE
  5
1108
330
1D
100
AcDbEntity
  8
0
100
AcDbLine
 10
18.003231555235
 20
850.665178574106
 30
0.0
 11
18.340031555235
 21
850.295178574106
 31
0.0
  0
LINE
  5
1109
330
1D
100
AcDbEntity
  8
0
100
AcDbLine
 10
18.340031555235
 20
850.295178574106
 30
0.0
 11
18.772791573573
 21
849.796032793186
 31
0.0
  0
LINE
  5
110A
330
1D
100
AcDbEntity
  8
0
100
AcDbLine
 10
17.921431555235
 20
850.589178574106
 30
0.0
 11
18.235278886839
 21
850.176624172838
 31
0.0
  0
LINE
  5
110B
330
1D
100
AcDbEntity
  8
0
100
AcDbLine
 10
18.068531555235
 20
850.147178574106
 30
0.0
 11
18.131765109509
 21
850.065612476739
 31
0.0
  0
LINE
  5
110C
330
1D
100
AcDbEntity
  8
0
100
AcDbLine
 10
19.993893213717
 20
847.663619990296
 30
0.0
 11
21.018331555235
 21
846.342178574106
 31
0.0
  0
LINE
  5
110D
330
1D
100
AcDbEntity
  8
0
100
AcDbLine
 10
20.491431555235
 20
847.900178574106
 30
0.0
 11
20.820531555235
 21
847.593178574106
 31
0.0
  0
LINE
  5
110E
330
1D
100
AcDbEntity
  8
0
100
AcDbLine
 10
20.164222843389
 20
847.846292636331
 30
0.0
 11
20.532131555235
 21
847.426178574106
 31
0.0
  0
LINE
  5
110F
330
1D
100
AcDbEntity
  8
0
100
AcDbLine
 10
20.164222843389
 20
847.846292636331
 30
0.0
 11
20.274090560368
 21
847.964121968859
 31
0.0
  0
LINE
  5
1110
330
1D
100
AcDbEntity
  8
0
100
AcDbLine
 10
20.820531555235
 20
847.593178574106
 30
0.0
 11
21.97179488084
 21
848.827832527695
 31
0.0
  0
LINE
  5
1111
330
1D
100
AcDbEntity
  8
0
100
AcDbLine
 10
20.532131555235
 20
847.426178574106
 30
0.0
 11
20.913431555235
 21
847.039178574106
 31
0.0
  0
LINE
  5
1112
330
1D
100
AcDbEntity
  8
0
100
AcDbLine
 10
20.175831555235
 20
848.091178574106
 30
0.0
 11
20.866431555235
 21
847.198178574106
 31
0.0
  0
LINE
  5
1113
330
1D
100
AcDbEntity
  8
0
100
AcDbLine
 10
19.723531555235
 20
848.616178574106
 30
0.0
 11
20.491431555235
 21
847.900178574106
 31
0.0
  0
LINE
  5
1114
330
1D
100
AcDbEntity
  8
0
100
AcDbLine
 10
19.673731555235
 20
851.110178574106
 30
0.0
 11
19.810536587095
 21
850.908945847277
 31
0.0
  0
LINE
  5
1115
330
1D
100
AcDbEntity
  8
0
100
AcDbLine
 10
19.827680137889
 20
848.519069073936
 30
0.0
 11
20.175831555235
 21
848.091178574106
 31
0.0
  0
LINE
  5
1116
330
1D
100
AcDbEntity
  8
0
100
AcDbLine
 10
20.809231555235
 20
850.389178574106
 30
0.0
 11
21.97179488084
 21
848.827832527695
 31
0.0
  0
LINE
  5
1117
330
1D
100
AcDbEntity
  8
0
100
AcDbLine
 10
22.185831555235
 20
848.157178574106
 30
0.0
 11
22.251386011289
 21
848.231989268636
 31
0.0
  0
LINE
  5
1118
330
1D
100
AcDbEntity
  8
0
100
AcDbLine
 10
21.717346053765
 20
848.554952949802
 30
0.0
 11
21.838231555235
 21
848.428178574106
 31
0.0
  0
LINE
  5
1119
330
1D
100
AcDbEntity
  8
0
100
AcDbLine
 10
21.838231555235
 20
848.428178574106
 30
0.0
 11
22.185831555235
 21
848.157178574106
 31
0.0
  0
LINE
  5
111A
330
1D
100
AcDbEntity
  8
0
100
AcDbLine
 10
21.962953584945
 20
848.818350821217
 30
0.0
 11
22.275631555235
 21
848.290178574106
 31
0.0
  0
LINE
  5
111B
330
1D
100
AcDbEntity
  8
0
100
AcDbLine
 10
23.300331555235
 20
848.699178574106
 30
0.0
 11
23.629431555235
 21
848.392178574106
 31
0.0
  0
LINE
  5
111C
330
1D
100
AcDbEntity
  8
0
100
AcDbLine
 10
23.300331555235
 20
848.699178574106
 30
0.0
 11
24.677325614269
 21
850.17595715233
 31
0.0
  0
LINE
  5
111D
330
1D
100
AcDbEntity
  8
0
100
AcDbLine
 10
23.629431555235
 20
848.392178574106
 30
0.0
 11
24.397331555235
 21
847.676178574106
 31
0.0
  0
LINE
  5
111E
330
1D
100
AcDbEntity
  8
0
100
AcDbLine
 10
23.658031555235
 20
850.194178574106
 30
0.0
 11
24.055473627213
 21
849.509042369884
 31
0.0
  0
LINE
  5
111F
330
1D
100
AcDbEntity
  8
0
100
AcDbLine
 10
23.501531555235
 20
850.688178574106
 30
0.0
 11
23.658031555235
 21
850.194178574106
 31
0.0
  0
LINE
  5
1120
330
1D
100
AcDbEntity
  8
0
100
AcDbLine
 10
23.501531555235
 20
850.688178574106
 30
0.0
 11
23.606831555235
 21
850.910178574106
 31
0.0
  0
LINE
  5
1121
330
1D
100
AcDbEntity
  8
0
100
AcDbLine
 10
22.251386011289
 20
848.231989268636
 30
0.0
 11
22.275631555235
 21
848.290178574106
 31
0.0
  0
LINE
  5
1122
330
1D
100
AcDbEntity
  8
0
100
AcDbLine
 10
21.571731555235
 20
847.263178574106
 30
0.0
 11
21.760531555235
 21
847.126178574106
 31
0.0
  0
LINE
  5
1123
330
1D
100
AcDbEntity
  8
0
100
AcDbLine
 10
24.055473627213
 20
849.509042369884
 30
0.0
 11
24.677325614269
 21
850.17595715233
 31
0.0
  0
LINE
  5
1124
330
1D
100
AcDbEntity
  8
0
100
AcDbLine
 10
24.397331555235
 20
847.676178574106
 30
0.0
 11
25.165231555235
 21
846.960178574106
 31
0.0
  0
LINE
  5
1125
330
1D
100
AcDbEntity
  8
0
100
AcDbLine
 10
25.279231555235
 20
849.525178574106
 30
0.0
 11
25.351531555235
 21
849.439178574106
 31
0.0
  0
LINE
  5
1126
330
1D
100
AcDbEntity
  8
0
100
AcDbLine
 10
25.994331555235
 20
848.590178574106
 30
0.0
 11
26.650731555235
 21
847.498178574106
 31
0.0
  0
LINE
  5
1127
330
1D
100
AcDbEntity
  8
0
100
AcDbLine
 10
25.859431555235
 20
848.784178574106
 30
0.0
 11
25.994331555235
 21
848.590178574106
 31
0.0
  0
LINE
  5
1128
330
1D
100
AcDbEntity
  8
0
100
AcDbLine
 10
25.793531555235
 20
848.874178574106
 30
0.0
 11
25.859431555235
 21
848.784178574106
 31
0.0
  0
LINE
  5
1129
330
1D
100
AcDbEntity
  8
0
100
AcDbLine
 10
25.725131555235
 20
848.966178574106
 30
0.0
 11
25.793531555235
 21
848.874178574106
 31
0.0
  0
LINE
  5
112A
330
1D
100
AcDbEntity
  8
0
100
AcDbLine
 10
25.651031555235
 20
849.064178574106
 30
0.0
 11
25.725131555235
 21
848.966178574106
 31
0.0
  0
LINE
  5
112B
330
1D
100
AcDbEntity
  8
0
100
AcDbLine
 10
25.583231555235
 20
849.151178574106
 30
0.0
 11
25.651031555235
 21
849.064178574106
 31
0.0
  0
LINE
  5
112C
330
1D
100
AcDbEntity
  8
0
100
AcDbLine
 10
25.506731555235
 20
849.248178574106
 30
0.0
 11
25.577031555235
 21
849.160178574106
 31
0.0
  0
LINE
  5
112D
330
1D
100
AcDbEntity
  8
0
100
AcDbLine
 10
25.422531555235
 20
849.353178574106
 30
0.0
 11
25.506731555235
 21
849.248178574106
 31
0.0
  0
LINE
  5
112E
330
1D
100
AcDbEntity
  8
0
100
AcDbLine
 10
25.351531555235
 20
849.439178574106
 30
0.0
 11
25.422531555235
 21
849.353178574106
 31
0.0
  0
LINE
  5
112F
330
1D
100
AcDbEntity
  8
0
100
AcDbLine
 10
25.130931555235
 20
849.697178574106
 30
0.0
 11
25.205631555235
 21
849.611178574106
 31
0.0
  0
LINE
  5
1130
330
1D
100
AcDbEntity
  8
0
100
AcDbLine
 10
25.099831555235
 20
849.730178574106
 30
0.0
 11
25.183631555235
 21
849.635178574106
 31
0.0
  0
LINE
  5
1131
330
1D
100
AcDbEntity
  8
0
100
AcDbLine
 10
25.055431555235
 20
849.782178574106
 30
0.0
 11
25.099831555235
 21
849.730178574106
 31
0.0
  0
LINE
  5
1132
330
1D
100
AcDbEntity
  8
0
100
AcDbLine
 10
25.055431555235
 20
849.782178574106
 30
0.0
 11
25.130931555235
 21
849.697178574106
 31
0.0
  0
LINE
  5
1133
330
1D
100
AcDbEntity
  8
0
100
AcDbLine
 10
25.018331555235
 20
849.820178574106
 30
0.0
 11
25.055431555235
 21
849.782178574106
 31
0.0
  0
LINE
  5
1134
330
1D
100
AcDbEntity
  8
0
100
AcDbLine
 10
25.018331555235
 20
849.820178574106
 30
0.0
 11
25.099831555235
 21
849.730178574106
 31
0.0
  0
LINE
  5
1135
330
1D
100
AcDbEntity
  8
0
100
AcDbLine
 10
24.979131555235
 20
849.865178574106
 30
0.0
 11
25.055431555235
 21
849.782178574106
 31
0.0
  0
LINE
  5
1136
330
1D
100
AcDbEntity
  8
0
100
AcDbLine
 10
24.936831555235
 20
849.909178574106
 30
0.0
 11
24.979131555235
 21
849.865178574106
 31
0.0
  0
LINE
  5
1137
330
1D
100
AcDbEntity
  8
0
100
AcDbLine
 10
24.936831555235
 20
849.909178574106
 30
0.0
 11
25.018331555235
 21
849.820178574106
 31
0.0
  0
LINE
  5
1138
330
1D
100
AcDbEntity
  8
0
100
AcDbLine
 10
24.902231555235
 20
849.948178574106
 30
0.0
 11
24.936831555235
 21
849.909178574106
 31
0.0
  0
LINE
  5
1139
330
1D
100
AcDbEntity
  8
0
100
AcDbLine
 10
24.902231555235
 20
849.948178574106
 30
0.0
 11
24.979131555235
 21
849.865178574106
 31
0.0
  0
LINE
  5
113A
330
1D
100
AcDbEntity
  8
0
100
AcDbLine
 10
24.854831555235
 20
849.996178574106
 30
0.0
 11
24.902231555235
 21
849.948178574106
 31
0.0
  0
LINE
  5
113B
330
1D
100
AcDbEntity
  8
0
100
AcDbLine
 10
24.854831555235
 20
849.996178574106
 30
0.0
 11
24.936831555235
 21
849.909178574106
 31
0.0
  0
LINE
  5
113C
330
1D
100
AcDbEntity
  8
0
100
AcDbLine
 10
24.825031555235
 20
850.029178574106
 30
0.0
 11
24.902231555235
 21
849.948178574106
 31
0.0
  0
LINE
  5
113D
330
1D
100
AcDbEntity
  8
0
100
AcDbLine
 10
24.772431555235
 20
850.080178574106
 30
0.0
 11
24.825031555235
 21
850.029178574106
 31
0.0
  0
LINE
  5
113E
330
1D
100
AcDbEntity
  8
0
100
AcDbLine
 10
24.772431555235
 20
850.080178574106
 30
0.0
 11
24.854831555235
 21
849.996178574106
 31
0.0
  0
LINE
  5
113F
330
1D
100
AcDbEntity
  8
0
100
AcDbLine
 10
24.692331555235
 20
850.161178574106
 30
0.0
 11
24.772431555235
 21
850.080178574106
 31
0.0
  0
LINE
  5
1140
330
1D
100
AcDbEntity
  8
0
100
AcDbLine
 10
24.748431555235
 20
850.107178574106
 30
0.0
 11
24.825031555235
 21
850.029178574106
 31
0.0
  0
LINE
  5
1141
330
1D
100
AcDbEntity
  8
0
100
AcDbLine
 10
24.672331555235
 20
850.184178574106
 30
0.0
 11
24.748431555235
 21
850.107178574106
 31
0.0
  0
LINE
  5
1142
330
1D
100
AcDbEntity
  8
0
100
AcDbLine
 10
24.596731555235
 20
850.257178574106
 30
0.0
 11
24.672331555235
 21
850.184178574106
 31
0.0
  0
LINE
  5
1143
330
1D
100
AcDbEntity
  8
0
100
AcDbLine
 10
24.522131555235
 20
850.327178574106
 30
0.0
 11
24.596731555235
 21
850.257178574106
 31
0.0
  0
LINE
  5
1144
330
1D
100
AcDbEntity
  8
0
100
AcDbLine
 10
24.449031555235
 20
850.394178574106
 30
0.0
 11
24.522131555235
 21
850.327178574106
 31
0.0
  0
LINE
  5
1145
330
1D
100
AcDbEntity
  8
0
100
AcDbLine
 10
24.383131555235
 20
850.450178574106
 30
0.0
 11
24.449031555235
 21
850.394178574106
 31
0.0
  0
LINE
  5
1146
330
1D
100
AcDbEntity
  8
0
100
AcDbLine
 10
25.205631555235
 20
849.611178574106
 30
0.0
 11
25.266431555235
 21
849.539178574106
 31
0.0
  0
LINE
  5
1147
330
1D
100
AcDbEntity
  8
0
100
AcDbLine
 10
25.183631555235
 20
849.635178574106
 30
0.0
 11
25.266431555235
 21
849.539178574106
 31
0.0
  0
LINE
  5
1148
330
1D
100
AcDbEntity
  8
0
100
AcDbLine
 10
24.310331555235
 20
850.513178574106
 30
0.0
 11
24.383131555235
 21
850.450178574106
 31
0.0
  0
LINE
  5
1149
330
1D
100
AcDbEntity
  8
0
100
AcDbLine
 10
24.240031555235
 20
850.571178574106
 30
0.0
 11
24.310331555235
 21
850.513178574106
 31
0.0
  0
LINE
  5
114A
330
1D
100
AcDbEntity
  8
0
100
AcDbLine
 10
23.962131555235
 20
850.774178574106
 30
0.0
 11
24.240031555235
 21
850.571178574106
 31
0.0
  0
LINE
  5
114B
330
1D
100
AcDbEntity
  8
0
100
AcDbLine
 10
23.606831555235
 20
850.910178574106
 30
0.0
 11
23.962131555235
 21
850.774178574106
 31
0.0
  0
LINE
  5
114C
330
1D
100
AcDbEntity
  8
0
100
AcDbLine
 10
19.530631555235
 20
852.215178574106
 30
0.0
 11
20.431067729626
 21
853.180572900667
 31
0.0
  0
LINE
  5
114D
330
1D
100
AcDbEntity
  8
0
100
AcDbLine
 10
25.607631555235
 20
851.692178574106
 30
0.0
 11
29.047531555235
 21
848.486178574106
 31
0.0
  0
LINE
  5
114E
330
1D
100
AcDbEntity
  8
0
100
AcDbLine
 10
19.691931555235
 20
851.522178574106
 30
0.0
 11
20.144431555235
 21
851.130178574106
 31
0.0
  0
LINE
  5
114F
330
1D
100
AcDbEntity
  8
0
100
AcDbLine
 10
20.144431555235
 20
851.130178574106
 30
0.0
 11
20.809231555235
 21
850.389178574106
 31
0.0
  0
LINE
  5
1150
330
1D
100
AcDbEntity
  8
0
100
AcDbLine
 10
19.459231555235
 20
851.609178574106
 30
0.0
 11
19.691931555235
 21
851.522178574106
 31
0.0
  0
LINE
  5
1151
330
1D
100
AcDbEntity
  8
0
100
AcDbLine
 10
19.459231555235
 20
851.609178574106
 30
0.0
 11
19.673731555235
 21
851.110178574106
 31
0.0
  0
LINE
  5
1152
330
1D
100
AcDbEntity
  8
0
100
AcDbLine
 10
26.032012052865
 20
847.229805430362
 30
0.0
 11
26.206731555235
 21
847.084178574106
 31
0.0
  0
LINE
  5
1153
330
1D
100
AcDbEntity
  8
0
100
AcDbLine
 10
26.253831555235
 20
839.519178574106
 30
0.0
 11
26.658662153955
 21
839.953213960886
 31
0.0
  0
LINE
  5
1154
330
1D
100
AcDbEntity
  8
0
100
AcDbLine
 10
26.253831555235
 20
839.519178574106
 30
0.0
 11
26.658662153955
 21
839.953213960886
 31
0.0
  0
LINE
  5
1155
330
1D
100
AcDbEntity
  8
0
100
AcDbLine
 10
26.334131555235
 20
840.393178574106
 30
0.0
 11
26.889250206849
 21
839.640606817201
 31
0.0
  0
LINE
  5
1156
330
1D
100
AcDbEntity
  8
0
100
AcDbLine
 10
26.873931555235
 20
839.624178574106
 30
0.0
 11
27.203031555235
 21
839.317178574106
 31
0.0
  0
LINE
  5
1157
330
1D
100
AcDbEntity
  8
0
100
AcDbLine
 10
26.873931555235
 20
839.624178574106
 30
0.0
 11
28.255815440441
 21
841.106157860968
 31
0.0
  0
LINE
  5
1158
330
1D
100
AcDbEntity
  8
0
100
AcDbLine
 10
26.663931555235
 20
838.966178574106
 30
0.0
 11
28.024143245951
 21
837.448709073505
 31
0.0
  0
LINE
  5
1159
330
1D
100
AcDbEntity
  8
0
100
AcDbLine
 10
26.247575657104
 20
839.525014370904
 30
0.0
 11
26.663931555235
 21
838.966178574106
 31
0.0
  0
LINE
  5
115A
330
1D
100
AcDbEntity
  8
0
100
AcDbLine
 10
26.281931555235
 20
842.501178574106
 30
0.0
 11
26.611031555235
 21
842.194178574106
 31
0.0
  0
LINE
  5
115B
330
1D
100
AcDbEntity
  8
0
100
AcDbLine
 10
26.261531555235
 20
845.339178574106
 30
0.0
 11
26.781731555235
 21
844.931178574106
 31
0.0
  0
LINE
  5
115C
330
1D
100
AcDbEntity
  8
0
100
AcDbLine
 10
26.206731555235
 20
847.084178574106
 30
0.0
 11
26.642631555235
 21
846.943178574106
 31
0.0
  0
LINE
  5
115D
330
1D
100
AcDbEntity
  8
0
100
AcDbLine
 10
26.611031555235
 20
842.194178574106
 30
0.0
 11
27.854802371192
 21
843.527675965056
 31
0.0
  0
LINE
  5
115E
330
1D
100
AcDbEntity
  8
0
100
AcDbLine
 10
26.781731555235
 20
844.931178574106
 30
0.0
 11
27.528531555235
 21
844.033178574106
 31
0.0
  0
LINE
  5
115F
330
1D
100
AcDbEntity
  8
0
100
AcDbLine
 10
26.642631555235
 20
846.943178574106
 30
0.0
 11
26.650731555235
 21
847.498178574106
 31
0.0
  0
LINE
  5
1160
330
1D
100
AcDbEntity
  8
0
100
AcDbLine
 10
27.082931555235
 20
842.044178574106
 30
0.0
 11
27.329631555235
 21
841.933178574106
 31
0.0
  0
LINE
  5
1161
330
1D
100
AcDbEntity
  8
0
100
AcDbLine
 10
27.082931555235
 20
842.044178574106
 30
0.0
 11
27.096631555235
 21
841.891178574106
 31
0.0
  0
LINE
  5
1162
330
1D
100
AcDbEntity
  8
0
100
AcDbLine
 10
18.433631555235
 20
853.238178574106
 30
0.0
 11
19.201531555235
 21
852.521178574106
 31
0.0
  0
LINE
  5
1163
330
1D
100
AcDbEntity
  8
0
100
AcDbLine
 10
19.408131555235
 20
854.813178574106
 30
0.0
 11
20.001831555235
 21
853.954178574106
 31
0.0
  0
LINE
  5
1164
330
1D
100
AcDbEntity
  8
0
100
AcDbLine
 10
20.001831555235
 20
853.954178574106
 30
0.0
 11
20.415631555235
 21
853.227178574106
 31
0.0
  0
LINE
  5
1165
330
1D
100
AcDbEntity
  8
0
100
AcDbLine
 10
18.065431555235
 20
856.196178574106
 30
0.0
 11
18.571531555235
 21
855.790178574106
 31
0.0
  0
LINE
  5
1166
330
1D
100
AcDbEntity
  8
0
100
AcDbLine
 10
18.571531555235
 20
855.790178574106
 30
0.0
 11
19.408131555235
 21
854.813178574106
 31
0.0
  0
LINE
  5
1167
330
1D
100
AcDbEntity
  8
0
100
AcDbLine
 10
17.904531555235
 20
855.812178574106
 30
0.0
 11
18.247987118195
 21
855.238280022253
 31
0.0
  0
LINE
  5
1168
330
1D
100
AcDbEntity
  8
0
100
AcDbLine
 10
20.103252506603
 20
852.829108837508
 30
0.0
 11
20.365531555235
 21
852.626178574106
 31
0.0
  0
LINE
  5
1169
330
1D
100
AcDbEntity
  8
0
100
AcDbLine
 10
19.265631555235
 20
857.605178574106
 30
0.0
 11
22.339331555235
 21
854.739178574106
 31
0.0
  0
LINE
  5
116A
330
1D
100
AcDbEntity
  8
0
100
AcDbLine
 10
17.833331555235
 20
856.222178574106
 30
0.0
 11
17.904531555235
 21
855.812178574106
 31
0.0
  0
LINE
  5
116B
330
1D
100
AcDbEntity
  8
0
100
AcDbLine
 10
17.833331555235
 20
856.222178574106
 30
0.0
 11
18.065431555235
 21
856.196178574106
 31
0.0
  0
LINE
  5
116C
330
1D
100
AcDbEntity
  8
0
100
AcDbLine
 10
22.339331555235
 20
854.739178574106
 30
0.0
 11
25.607631555235
 21
851.692178574106
 31
0.0
  0
LINE
  5
116D
330
1D
100
AcDbEntity
  8
0
100
AcDbLine
 10
20.415631555235
 20
853.227178574106
 30
0.0
 11
20.613031555235
 21
852.631178574106
 31
0.0
  0
LINE
  5
116E
330
1D
100
AcDbEntity
  8
0
100
AcDbLine
 10
20.365531555235
 20
852.626178574106
 30
0.0
 11
20.613031555235
 21
852.631178574106
 31
0.0
  0
LINE
  5
116F
330
1D
100
AcDbEntity
  8
0
100
AcDbLine
 10
27.203031555235
 20
839.317178574106
 30
0.0
 11
27.970931555235
 21
838.601178574106
 31
0.0
  0
LINE
  5
1170
330
1D
100
AcDbEntity
  8
0
100
AcDbLine
 10
27.921847638569
 20
840.747999429459
 30
0.0
 11
28.255815440441
 21
841.106157860968
 31
0.0
  0
LINE
  5
1171
330
1D
100
AcDbEntity
  8
0
100
AcDbLine
 10
27.970931555235
 20
838.601178574106
 30
0.0
 11
28.738831555235
 21
837.885178574106
 31
0.0
  0
LINE
  5
1172
330
1D
100
AcDbEntity
  8
0
100
AcDbLine
 10
27.302531555235
 20
841.533178574106
 30
0.0
 11
27.913923614919
 21
840.73950143694
 31
0.0
  0
LINE
  5
1173
330
1D
100
AcDbEntity
  8
0
100
AcDbLine
 10
27.784931555235
 20
841.558178574106
 30
0.0
 11
28.326631555235
 21
841.038178574106
 31
0.0
  0
LINE
  5
1174
330
1D
100
AcDbEntity
  8
0
100
AcDbLine
 10
32.273031555235
 20
839.143178574106
 30
0.0
 11
32.390768524216
 21
838.945363264887
 31
0.0
  0
LINE
  5
1175
330
1D
100
AcDbEntity
  8
0
100
AcDbLine
 10
32.273031555235
 20
839.143178574106
 30
0.0
 11
32.394445489919
 21
838.949306567989
 31
0.0
  0
LINE
  5
1176
330
1D
100
AcDbEntity
  8
0
100
AcDbLine
 10
31.967131555235
 20
839.692178574106
 30
0.0
 11
32.229131555235
 21
839.747178574106
 31
0.0
  0
LINE
  5
1177
330
1D
100
AcDbEntity
  8
0
100
AcDbLine
 10
31.967131555235
 20
839.692178574106
 30
0.0
 11
32.273031555235
 21
839.143178574106
 31
0.0
  0
LINE
  5
1178
330
1D
100
AcDbEntity
  8
0
100
AcDbLine
 10
32.120631555235
 20
840.474178574106
 30
0.0
 11
33.164576628461
 21
841.593740783134
 31
0.0
  0
LINE
  5
1179
330
1D
100
AcDbEntity
  8
0
100
AcDbLine
 10
32.229131555235
 20
839.747178574106
 30
0.0
 11
33.266431555235
 21
838.898178574106
 31
0.0
  0
LINE
  5
117A
330
1D
100
AcDbEntity
  8
0
100
AcDbLine
 10
33.266431555235
 20
838.898178574106
 30
0.0
 11
34.209631555235
 21
837.891178574106
 31
0.0
  0
LINE
  5
117B
330
1D
100
AcDbEntity
  8
0
100
AcDbLine
 10
30.012932722924
 20
838.591629973003
 30
0.0
 11
30.405331555235
 21
838.308178574106
 31
0.0
  0
LINE
  5
117C
330
1D
100
AcDbEntity
  8
0
100
AcDbLine
 10
29.568931555235
 20
839.680178574106
 30
0.0
 11
30.399731555235
 21
838.553178574106
 31
0.0
  0
LINE
  5
117D
330
1D
100
AcDbEntity
  8
0
100
AcDbLine
 10
31.791531555235
 20
840.781178574106
 30
0.0
 11
32.120631555235
 21
840.474178574106
 31
0.0
  0
LINE
  5
117E
330
1D
100
AcDbEntity
  8
0
100
AcDbLine
 10
31.023631555235
 20
841.497178574106
 30
0.0
 11
31.791531555235
 21
840.781178574106
 31
0.0
  0
LINE
  5
117F
330
1D
100
AcDbEntity
  8
0
100
AcDbLine
 10
32.73565183702
 20
841.133747245804
 30
0.0
 11
33.068631555235
 21
840.957178574106
 31
0.0
  0
LINE
  5
1180
330
1D
100
AcDbEntity
  8
0
100
AcDbLine
 10
36.481831555235
 20
841.555178574106
 30
0.0
 11
40.362331555235
 21
837.937178574106
 31
0.0
  0
LINE
  5
1181
330
1D
100
AcDbEntity
  8
0
100
AcDbLine
 10
33.290331555235
 20
840.966178574106
 30
0.0
 11
33.308031555235
 21
841.225178574106
 31
0.0
  0
LINE
  5
1182
330
1D
100
AcDbEntity
  8
0
100
AcDbLine
 10
33.068631555235
 20
840.957178574106
 30
0.0
 11
33.290331555235
 21
840.966178574106
 31
0.0
  0
LINE
  5
1183
330
1D
100
AcDbEntity
  8
0
100
AcDbLine
 10
28.834631555235
 20
840.508178574106
 30
0.0
 11
29.568931555235
 21
839.680178574106
 31
0.0
  0
LINE
  5
1184
330
1D
100
AcDbEntity
  8
0
100
AcDbLine
 10
28.326631555235
 20
841.038178574106
 30
0.0
 11
28.834631555235
 21
840.508178574106
 31
0.0
  0
LINE
  5
1185
330
1D
100
AcDbEntity
  8
0
100
AcDbLine
 10
29.926631555235
 20
842.520178574106
 30
0.0
 11
30.255731555235
 21
842.213178574106
 31
0.0
  0
LINE
  5
1186
330
1D
100
AcDbEntity
  8
0
100
AcDbLine
 10
29.926631555235
 20
842.520178574106
 30
0.0
 11
31.242471089147
 21
843.93132965197
 31
0.0
  0
LINE
  5
1187
330
1D
100
AcDbEntity
  8
0
100
AcDbLine
 10
30.255731555235
 20
842.213178574106
 30
0.0
 11
31.023631555235
 21
841.497178574106
 31
0.0
  0
LINE
  5
1188
330
1D
100
AcDbEntity
  8
0
100
AcDbLine
 10
28.257231555235
 20
842.904178574106
 30
0.0
 11
28.265731555235
 21
842.618178574106
 31
0.0
  0
LINE
  5
1189
330
1D
100
AcDbEntity
  8
0
100
AcDbLine
 10
27.924031555235
 20
842.733178574106
 30
0.0
 11
28.265731555235
 21
842.618178574106
 31
0.0
  0
LINE
  5
118A
330
1D
100
AcDbEntity
  8
0
100
AcDbLine
 10
27.472086455145
 20
843.117350631018
 30
0.0
 11
27.924031555235
 21
842.733178574106
 31
0.0
  0
LINE
  5
118B
330
1D
100
AcDbEntity
  8
0
100
AcDbLine
 10
27.528531555235
 20
844.033178574106
 30
0.0
 11
28.257231555235
 21
842.904178574106
 31
0.0
  0
LINE
  5
118C
330
1D
100
AcDbEntity
  8
0
100
AcDbLine
 10
30.283931555235
 20
844.241178574106
 30
0.0
 11
30.590031555235
 21
843.447178574106
 31
0.0
  0
LINE
  5
118D
330
1D
100
AcDbEntity
  8
0
100
AcDbLine
 10
30.283931555235
 20
844.241178574106
 30
0.0
 11
30.533931555235
 21
844.379178574106
 31
0.0
  0
LINE
  5
118E
330
1D
100
AcDbEntity
  8
0
100
AcDbLine
 10
30.680029048294
 20
843.328147674433
 30
0.0
 11
31.242471089147
 21
843.93132965197
 31
0.0
  0
LINE
  5
118F
330
1D
100
AcDbEntity
  8
0
100
AcDbLine
 10
31.578731555235
 20
843.653178574106
 30
0.0
 11
32.220331555235
 21
842.994178574106
 31
0.0
  0
LINE
  5
1190
330
1D
100
AcDbEntity
  8
0
100
AcDbLine
 10
30.590031555235
 20
843.447178574106
 30
0.0
 11
30.672452159688
 21
843.320021961345
 31
0.0
  0
LINE
  5
1191
330
1D
100
AcDbEntity
  8
0
100
AcDbLine
 10
32.220331555235
 20
842.994178574106
 30
0.0
 11
33.040631555235
 21
841.912178574106
 31
0.0
  0
LINE
  5
1192
330
1D
100
AcDbEntity
  8
0
100
AcDbLine
 10
33.040631555235
 20
841.912178574106
 30
0.0
 11
33.308031555235
 21
841.225178574106
 31
0.0
  0
LINE
  5
1193
330
1D
100
AcDbEntity
  8
0
100
AcDbLine
 10
31.022631555235
 20
844.113178574106
 30
0.0
 11
31.578731555235
 21
843.653178574106
 31
0.0
  0
LINE
  5
1194
330
1D
100
AcDbEntity
  8
0
100
AcDbLine
 10
13.836231555235
 20
885.563178574106
 30
0.0
 11
39.281231555235
 21
865.700178574106
 31
0.0
  0
LINE
  5
1195
330
1D
100
AcDbEntity
  8
0
100
AcDbLine
 10
62.209631555235
 20
845.440178574106
 30
0.0
 11
73.496531555235
 21
834.629178574106
 31
0.0
  0
LINE
  5
1196
330
1D
100
AcDbEntity
  8
0
100
AcDbLine
 10
32.701231555235
 20
845.079178574106
 30
0.0
 11
36.481831555235
 21
841.555178574106
 31
0.0
  0
LINE
  5
1197
330
1D
100
AcDbEntity
  8
0
100
AcDbLine
 10
39.281231555235
 20
865.700178574106
 30
0.0
 11
52.261531555235
 21
854.498178574106
 31
0.0
  0
LINE
  5
1198
330
1D
100
AcDbEntity
  8
0
100
AcDbLine
 10
52.261531555235
 20
854.498178574106
 30
0.0
 11
62.209631555235
 21
845.440178574106
 31
0.0
  0
LINE
  5
1199
330
1D
100
AcDbEntity
  8
0
100
AcDbLine
 10
29.047531555235
 20
848.486178574106
 30
0.0
 11
32.701231555235
 21
845.079178574106
 31
0.0
  0
LINE
  5
119A
330
1D
100
AcDbEntity
  8
0
100
AcDbLine
 10
29.136456823715
 20
848.403257592714
 30
0.0
 11
29.185431555235
 21
848.344178574106
 31
0.0
  0
LINE
  5
119B
330
1D
100
AcDbEntity
  8
0
100
AcDbLine
 10
30.533931555235
 20
844.379178574106
 30
0.0
 11
31.022631555235
 21
844.113178574106
 31
0.0
  0
LINE
  5
119C
330
1D
100
AcDbEntity
  8
0
100
AcDbLine
 10
27.329631555235
 20
841.933178574106
 30
0.0
 11
27.784931555235
 21
841.558178574106
 31
0.0
  0
LINE
  5
119D
330
1D
100
AcDbEntity
  8
0
100
AcDbLine
 10
27.096631555235
 20
841.891178574106
 30
0.0
 11
27.302531555235
 21
841.533178574106
 31
0.0
  0
LINE
  5
119E
330
1D
100
AcDbEntity
  8
0
100
AcDbLine
 10
30.399731555235
 20
838.553178574106
 30
0.0
 11
30.405331555235
 21
838.308178574106
 31
0.0
  0
LINE
  5
119F
330
1D
100
AcDbEntity
  8
0
100
AcDbLine
 10
17.709131555235
 20
850.906178574106
 30
0.0
 11
17.921431555235
 21
850.589178574106
 31
0.0
  0
LINE
  5
11A0
330
1D
100
AcDbEntity
  8
0
100
AcDbLine
 10
129.394191890572
 20
700.362675489796
 30
0.0
 11
150.3928
 21
711.991
 31
0.0
  0
LINE
  5
11A1
330
1D
100
AcDbEntity
  8
0
100
AcDbLine
 10
91.352531555235
 20
772.878878574106
 30
0.0
 11
92.125331555235
 21
778.591978574106
 31
0.0
  0
LINE
  5
11A2
330
1D
100
AcDbEntity
  8
0
100
AcDbLine
 10
92.371731555235
 20
782.343678574106
 30
0.0
 11
92.223756489646
 21
784.518150637194
 31
0.0
  0
LINE
  5
11A3
330
1D
100
AcDbEntity
  8
0
100
AcDbLine
 10
92.223756489646
 20
784.518150637194
 30
0.0
 11
91.915519469956
 21
786.096324178008
 31
0.0
  0
LINE
  5
11A4
330
1D
100
AcDbEntity
  8
0
100
AcDbLine
 10
91.915519469956
 20
786.096324178008
 30
0.0
 11
91.267780106221
 21
788.75034670343
 31
0.0
  0
LINE
  5
11A5
330
1D
100
AcDbEntity
  8
0
100
AcDbLine
 10
91.267780106221
 20
788.75034670343
 30
0.0
 11
90.259091102653
 21
790.905273211052
 31
0.0
  0
LINE
  5
11A6
330
1D
100
AcDbEntity
  8
0
100
AcDbLine
 10
90.259091102653
 20
790.905273211052
 30
0.0
 11
89.440731555235
 21
792.163178574106
 31
0.0
  0
LINE
  5
11A7
330
1D
100
AcDbEntity
  8
0
100
AcDbLine
 10
86.449431555235
 20
780.436678574106
 30
0.0
 11
85.88081983018
 21
781.569579229425
 31
0.0
  0
LINE
  5
11A8
330
1D
100
AcDbEntity
  8
0
100
AcDbLine
 10
85.88081983018
 20
781.569579229425
 30
0.0
 11
85.037931555235
 21
782.918078574106
 31
0.0
  0
LINE
  5
11A9
330
1D
100
AcDbEntity
  8
0
100
AcDbLine
 10
84.320631555235
 20
783.726478574106
 30
0.0
 11
83.601831555235
 21
784.424278574106
 31
0.0
  0
LINE
  5
11AA
330
1D
100
AcDbEntity
  8
0
100
AcDbLine
 10
83.601831555235
 20
784.424278574106
 30
0.0
 11
82.342610934365
 21
785.420437109978
 31
0.0
  0
LINE
  5
11AB
330
1D
100
AcDbEntity
  8
0
100
AcDbLine
 10
82.342610934365
 20
785.420437109978
 30
0.0
 11
81.077388458967
 21
786.352100932772
 31
0.0
  0
LINE
  5
11AC
330
1D
100
AcDbEntity
  8
0
100
AcDbLine
 10
81.077388458967
 20
786.352100932772
 30
0.0
 11
80.218382828147
 21
786.902489966347
 31
0.0
  0
LINE
  5
11AD
330
1D
100
AcDbEntity
  8
0
100
AcDbLine
 10
77.043731555235
 20
788.044978574106
 30
0.0
 11
86.646431555235
 21
771.494378574106
 31
0.0
  0
LINE
  5
11AE
330
1D
100
AcDbEntity
  8
0
100
AcDbLine
 10
79.614331555235
 20
798.589178574106
 30
0.0
 11
79.696650321727
 21
798.620974776097
 31
0.0
  0
LINE
  5
11AF
330
1D
100
AcDbEntity
  8
0
100
AcDbLine
 10
79.696650321727
 20
798.620974776097
 30
0.0
 11
79.742374419167
 21
798.712422970977
 31
0.0
  0
LINE
  5
11B0
330
1D
100
AcDbEntity
  8
0
100
AcDbLine
 10
79.742374419167
 20
798.712422970977
 30
0.0
 11
79.727231555235
 21
798.816178574106
 31
0.0
  0
LINE
  5
11B1
330
1D
100
AcDbEntity
  8
0
100
AcDbLine
 10
52.988731555235
 20
823.510178574106
 30
0.0
 11
53.265641632862
 21
823.319296273192
 31
0.0
  0
LINE
  5
11B2
330
1D
100
AcDbEntity
  8
0
100
AcDbLine
 10
53.265641632862
 20
823.319296273192
 30
0.0
 11
54.492644156413
 21
822.344614399315
 31
0.0
  0
LINE
  5
11B3
330
1D
100
AcDbEntity
  8
0
100
AcDbLine
 10
54.492644156413
 20
822.344614399315
 30
0.0
 11
55.314431555235
 21
821.498178574106
 31
0.0
  0
LINE
  5
11B4
330
1D
100
AcDbEntity
  8
0
100
AcDbLine
 10
39.037931555235
 20
836.805178574106
 30
0.0
 11
40.058931555235
 21
835.724178574106
 31
0.0
  0
ENDSEC
  0
SECTION
  2
OBJECTS
  0
DICTIONARY
  5
C
330
0
100
AcDbDictionary
281
     1
  3
ACAD_GROUP
350
D
  3
ACAD_LAYOUT
350
1A
  3
ACAD_MLEADERSTYLE
350
11B7
  3
ACAD_MLINESTYLE
350
17
  3
ACAD_PLOTSETTINGS
350
19
  3
ACAD_PLOTSTYLENAME
350
E
  3
ACAD_SCALELIST
350
A04
  3
AcDbVariableDictionary
350
11B5
  3
DWGPROPS
350
11BA
  0
DICTIONARY
  5
D
102
{ACAD_REACTORS
330
C
102
}
330
C
100
AcDbDictionary
281
     1
  0
DICTIONARY
  5
1A
102
{ACAD_REACTORS
330
C
102
}
330
C
100
AcDbDictionary
281
     1
  3
Layout1
350
1C
  3
Model
350
1E
  0
DICTIONARY
  5
11B7
102
{ACAD_REACTORS
330
C
102
}
330
C
100
AcDbDictionary
281
     1
  0
DICTIONARY
  5
17
102
{ACAD_REACTORS
330
C
102
}
330
C
100
AcDbDictionary
281
     1
  3
Standard
350
18
  0
DICTIONARY
  5
19
102
{ACAD_REACTORS
330
C
102
}
330
C
100
AcDbDictionary
281
     1
  0
ACDBDICTIONARYWDFLT
  5
E
102
{ACAD_REACTORS
330
C
102
}
330
C
100
AcDbDictionary
281
     1
  3
Normal
350
F
100
AcDbDictionaryWithDefault
340
F
  0
DICTIONARY
  5
A04
102
{ACAD_REACTORS
330
C
102
}
330
C
100
AcDbDictionary
281
     1
  3
A0
350
A05
  3
A1
350
A06
  3
A2
350
A07
  3
A3
350
A08
  3
A4
350
A09
  3
A5
350
A0A
  3
A6
350
A0B
  3
A7
350
A0C
  3
A8
350
A0D
  3
A9
350
A0E
  3
B0
350
A0F
  3
B1
350
A10
  3
B2
350
A11
  3
B3
350
A12
  3
B4
350
A13
  3
B5
350
A14
  3
B6
350
A15
  3
B7
350
A16
  3
B8
350
A17
  3
B9
350
A18
  3
C0
350
A19
  3
C1
350
A1A
  3
C2
350
A1B
  3
C3
350
A1C
  3
C4
350
A1D
  3
C5
350
A1E
  3
C6
350
A1F
  3
C7
350
A20
  3
C8
350
A21
  3
C9
350
A22
  3
D0
350
A23
  3
D1
350
A24
  3
D2
350
A25
  0
DICTIONARY
  5
11B5
102
{ACAD_REACTORS
330
C
102
}
330
C
100
AcDbDictionary
281
     1
  3
CANNOSCALE
350
11B8
  0
XRECORD
  5
11BA
102
{ACAD_REACTORS
330
C
102
}
330
C
100
AcDbXrecord
280
     1
  1
DWGPROPS COOKIE
  2

  3

  4

  6

  7

  8
MARTIN
  9

300
=
301
=
302
=
303
=
304
=
305
=
306
=
307
=
308
=
309
=
 40
0.0
 41
2456645.814098484
 42
2456645.817139028
  1

 90
        0
  0
LAYOUT
  5
1C
102
{ACAD_REACTORS
330
1A
102
}
330
1A
100
AcDbPlotSettings
  1

  2
none_device
  4

  6

 40
0.0
 41
0.0
 42
0.0
 43
0.0
 44
0.0
 45
0.0
 46
0.0
 47
0.0
 48
0.0
 49
0.0
140
0.0
141
0.0
142
1.0
143
1.0
 70
   688
 72
     0
 73
     0
 74
     5
  7

 75
    16
147
1.0
148
0.0
149
0.0
100
AcDbLayout
  1
Layout1
 70
     1
 71
     1
 10
0.0
 20
0.0
 11
12.0
 21
9.0
 12
0.0
 22
0.0
 32
0.0
 14
1.000000000000E+20
 24
1.000000000000E+20
 34
1.000000000000E+20
 15
-1.000000000000E+20
 25
-1.000000000000E+20
 35
-1.000000000000E+20
146
0.0
 13
0.0
 23
0.0
 33
0.0
 16
1.0
 26
0.0
 36
0.0
 17
0.0
 27
1.0
 37
0.0
 76
     0
330
1B
  0
LAYOUT
  5
1E
102
{ACAD_REACTORS
330
1A
102
}
330
1A
100
AcDbPlotSettings
  1

  2
none_device
  4

  6

 40
0.0
 41
0.0
 42
0.0
 43
0.0
 44
0.0
 45
0.0
 46
0.0
 47
0.0
 48
0.0
 49
0.0
140
0.0
141
0.0
142
1.0
143
1.0
 70
  1712
 72
     0
 73
     0
 74
     0
  7

 75
     0
147
1.0
148
0.0
149
0.0
100
AcDbLayout
  1
Model
 70
     1
 71
     0
 10
0.0
 20
0.0
 11
12.0
 21
9.0
 12
0.0
 22
0.0
 32
0.0
 14
2.381055555235
 24
0.0
 34
0.0
 15
263.8818
 25
969.0
 35
0.0
146
0.0
 13
0.0
 23
0.0
 33
0.0
 16
1.0
 26
0.0
 36
0.0
 17
0.0
 27
1.0
 37
0.0
 76
     0
330
1D
331
9FF
  0
MLINESTYLE
  5
18
102
{ACAD_REACTORS
330
17
102
}
330
17
100
AcDbMlineStyle
  2
Standard
 70
     0
  3

 62
   256
 51
90.0
 52
90.0
 71
     2
 49
0.5
 62
   256
  6
BYLAYER
 49
-0.5
 62
   256
  6
BYLAYER
  0
ACDBPLACEHOLDER
  5
F
102
{ACAD_REACTORS
330
E
102
}
330
E
  0
SCALE
  5
A05
102
{ACAD_REACTORS
330
A04
102
}
330
A04
100
AcDbScale
 70
     0
300
1:1
140
1.0
141
1.0
290
     1
  0
SCALE
  5
A06
102
{ACAD_REACTORS
330
A04
102
}
330
A04
100
AcDbScale
 70
     0
300
1:2
140
1.0
141
2.0
290
     0
  0
SCALE
  5
A07
102
{ACAD_REACTORS
330
A04
102
}
330
A04
100
AcDbScale
 70
     0
300
1:4
140
1.0
141
4.0
290
     0
  0
SCALE
  5
A08
102
{ACAD_REACTORS
330
A04
102
}
330
A04
100
AcDbScale
 70
     0
300
1:5
140
1.0
141
5.0
290
     0
  0
SCALE
  5
A09
102
{ACAD_REACTORS
330
A04
102
}
330
A04
100
AcDbScale
 70
     0
300
1:8
140
1.0
141
8.0
290
     0
  0
SCALE
  5
A0A
102
{ACAD_REACTORS
330
A04
102
}
330
A04
100
AcDbScale
 70
     0
300
1:10
140
1.0
141
10.0
290
     0
  0
SCALE
  5
A0B
102
{ACAD_REACTORS
330
A04
102
}
330
A04
100
AcDbScale
 70
     0
300
1:16
140
1.0
141
16.0
290
     0
  0
SCALE
  5
A0C
102
{ACAD_REACTORS
330
A04
102
}
330
A04
100
AcDbScale
 70
     0
300
1:20
140
1.0
141
20.0
290
     0
  0
SCALE
  5
A0D
102
{ACAD_REACTORS
330
A04
102
}
330
A04
100
AcDbScale
 70
     0
300
1:30
140
1.0
141
30.0
290
     0
  0
SCALE
  5
A0E
102
{ACAD_REACTORS
330
A04
102
}
330
A04
100
AcDbScale
 70
     0
300
1:40
140
1.0
141
40.0
290
     0
  0
SCALE
  5
A0F
102
{ACAD_REACTORS
330
A04
102
}
330
A04
100
AcDbScale
 70
     0
300
1:50
140
1.0
141
50.0
290
     0
  0
SCALE
  5
A10
102
{ACAD_REACTORS
330
A04
102
}
330
A04
100
AcDbScale
 70
     0
300
1:100
140
1.0
141
100.0
290
     0
  0
SCALE
  5
A11
102
{ACAD_REACTORS
330
A04
102
}
330
A04
100
AcDbScale
 70
     0
300
2:1
140
2.0
141
1.0
290
     0
  0
SCALE
  5
A12
102
{ACAD_REACTORS
330
A04
102
}
330
A04
100
AcDbScale
 70
     0
300
4:1
140
4.0
141
1.0
290
     0
  0
SCALE
  5
A13
102
{ACAD_REACTORS
330
A04
102
}
330
A04
100
AcDbScale
 70
     0
300
8:1
140
8.0
141
1.0
290
     0
  0
SCALE
  5
A14
102
{ACAD_REACTORS
330
A04
102
}
330
A04
100
AcDbScale
 70
     0
300
10:1
140
10.0
141
1.0
290
     0
  0
SCALE
  5
A15
102
{ACAD_REACTORS
330
A04
102
}
330
A04
100
AcDbScale
 70
     0
300
100:1
140
100.0
141
1.0
290
     0
  0
SCALE
  5
A16
102
{ACAD_REACTORS
330
A04
102
}
330
A04
100
AcDbScale
 70
     0
300
1/128" = 1'-0"
140
0.0078125
141
12.0
290
     0
  0
SCALE
  5
A17
102
{ACAD_REACTORS
330
A04
102
}
330
A04
100
AcDbScale
 70
     0
300
1/64" = 1'-0"
140
0.015625
141
12.0
290
     0
  0
SCALE
  5
A18
102
{ACAD_REACTORS
330
A04
102
}
330
A04
100
AcDbScale
 70
     0
300
1/32" = 1'-0"
140
0.03125
141
12.0
290
     0
  0
SCALE
  5
A19
102
{ACAD_REACTORS
330
A04
102
}
330
A04
100
AcDbScale
 70
     0
300
1/16" = 1'-0"
140
0.0625
141
12.0
290
     0
  0
SCALE
  5
A1A
102
{ACAD_REACTORS
330
A04
102
}
330
A04
100
AcDbScale
 70
     0
300
3/32" = 1'-0"
140
0.09375
141
12.0
290
     0
  0
SCALE
  5
A1B
102
{ACAD_REACTORS
330
A04
102
}
330
A04
100
AcDbScale
 70
     0
300
1/8" = 1'-0"
140
0.125
141
12.0
290
     0
  0
SCALE
  5
A1C
102
{ACAD_REACTORS
330
A04
102
}
330
A04
100
AcDbScale
 70
     0
300
3/16" = 1'-0"
140
0.1875
141
12.0
290
     0
  0
SCALE
  5
A1D
102
{ACAD_REACTORS
330
A04
102
}
330
A04
100
AcDbScale
 70
     0
300
1/4" = 1'-0"
140
0.25
141
12.0
290
     0
  0
SCALE
  5
A1E
102
{ACAD_REACTORS
330
A04
102
}
330
A04
100
AcDbScale
 70
     0
300
3/8" = 1'-0"
140
0.375
141
12.0
290
     0
  0
SCALE
  5
A1F
102
{ACAD_REACTORS
330
A04
102
}
330
A04
100
AcDbScale
 70
     0
300
1/2" = 1'-0"
140
0.5
141
12.0
290
     0
  0
SCALE
  5
A20
102
{ACAD_REACTORS
330
A04
102
}
330
A04
100
AcDbScale
 70
     0
300
3/4" = 1'-0"
140
0.75
141
12.0
290
     0
  0
SCALE
  5
A21
102
{ACAD_REACTORS
330
A04
102
}
330
A04
100
AcDbScale
 70
     0
300
1" = 1'-0"
140
1.0
141
12.0
290
     0
  0
SCALE
  5
A22
102
{ACAD_REACTORS
330
A04
102
}
330
A04
100
AcDbScale
 70
     0
300
1-1/2" = 1'-0"
140
1.5
141
12.0
290
     0
  0
SCALE
  5
A23
102
{ACAD_REACTORS
330
A04
102
}
330
A04
100
AcDbScale
 70
     0
300
3" = 1'-0"
140
3.0
141
12.0
290
     0
  0
SCALE
  5
A24
102
{ACAD_REACTORS
330
A04
102
}
330
A04
100
AcDbScale
 70
     0
300
6" = 1'-0"
140
6.0
141
12.0
290
     0
  0
SCALE
  5
A25
102
{ACAD_REACTORS
330
A04
102
}
330
A04
100
AcDbScale
 70
     0
300
1'-0" = 1'-0"
140
12.0
141
12.0
290
     0
  0
DICTIONARYVAR
  5
11B8
102
{ACAD_REACTORS
330
11B5
102
}
330
11B5
100
DictionaryVariables
280
     0
  1
1:1
  0
ENDSEC
  0
SECTION
  2
THUMBNAILIMAGE
 90
    16364
310
28000000B40000005500000001000800000000000000000000000000000000000000000000000000FFFFFF000000FF0000FFFF0000FF0000FFFF0000FF000000FF00FF000000000080808000C0C0C0000000FF007F7FFF000000A5005252A50000007F003F3F7F0000004C0026264C000000260013132600003FFF007F9FFF
310
000029A5005267A500001F7F003F4F7F0000134C00262F4C000009260013172600007FFF007FBFFF000052A500527CA500003F7F003F5F7F0000264C0026394C0000132600131C260000BFFF007FDFFF00007CA5005291A500005F7F003F6F7F0000394C0026424C00001C26001321260000FFFF007FFFFF0000A5A50052A5
310
A500007F7F003F7F7F00004C4C00264C4C00002626001326260000FFBF007FFFDF0000A57C0052A59100007F5F003F7F6F00004C3900264C420000261C001326210000FF7F007FFFBF0000A5520052A57C00007F3F003F7F5F00004C2600264C39000026130013261C0000FF3F007FFF9F0000A5290052A56700007F1F003F
310
7F4F00004C1300264C2F00002609001326170000FF00007FFF7F0000A5000052A55200007F00003F7F3F00004C0000264C260000260000132613003FFF00009FFF7F0029A5000067A552001F7F00004F7F3F00134C00002F4C260009260000172613007FFF0000BFFF7F0052A500007CA552003F7F00005F7F3F00264C0000
310
394C2600132600001C261300BFFF0000DFFF7F007CA5000091A552005F7F00006F7F3F00394C0000424C26001C26000021261300FFFF0000FFFF7F00A5A50000A5A552007F7F00007F7F3F004C4C00004C4C26002626000026261300FFBF0000FFDF7F00A57C0000A59152007F5F00007F6F3F004C3900004C422600261C00
310
0026211300FF7F0000FFBF7F00A5520000A57C52007F3F00007F5F3F004C2600004C39260026130000261C1300FF3F0000FF9F7F00A5290000A56752007F1F00007F4F3F004C1300004C2F26002609000026171300FF000000FF7F7F00A5000000A55252007F0000007F3F3F004C0000004C2626002600000026131300FF00
310
3F00FF7F9F00A5002900A55267007F001F007F3F4F004C0013004C262F002600090026131700FF007F00FF7FBF00A5005200A5527C007F003F007F3F5F004C0026004C2639002600130026131C00FF00BF00FF7FDF00A5007C00A55291007F005F007F3F6F004C0039004C26420026001C0026132100FF00FF00FF7FFF00A5
310
00A500A552A5007F007F007F3F7F004C004C004C264C002600260026132600BF00FF00DF7FFF007C00A5009152A5005F007F006F3F7F0039004C0042264C001C002600211326007F00FF00BF7FFF005200A5007C52A5003F007F005F3F7F0026004C0039264C00130026001C1326003F00FF009F7FFF002900A5006752A500
310
1F007F004F3F7F0013004C002F264C000900260017132600000000002D2D2D005B5B5B0089898900B7B7B700B3B3B30000000000000000000000000000000000000000000000000000000000000000000000000000000000000000000000000000000000000000000000000000000000000000000000000000000000000000
310
00000000000000000000000000000000000000000007070000000000000000000000000000000000000000000000000000000000000000000000000000000000000000000000000000000000000000000000000000000000000000000000000000000000000000000000000000000000000000000000000000000000000000
310
00000000000000000000000000000000000000000000000000000000000000000000000000000000000000000000000000000000000000000000000000000000000000000000000707070707000000000000000000000000000000000000000000000000000000000000000000000000000000000000000000000000000000
310
00000000000000000000000000000000000000000000000000000000000000000000000000000000000000000000000000000000000000000000000000000000000000000000000000000000000000000000000000000000000000000000000000000000000000000000000000000000000000000000000000000707000007
310
07070000000000000000000000000000000000000000000000000000000000000000000000000000000000000000000000000000000000000000000000000000000000000000000000000000000000000000000000000000000000000000000000000000000000000000000000000000000000000000000000000000000000
310
00000000000000000000000000000000000000000000000000000000000000000000000000000000000000000000070707000707070707000000000000000000000000000000000000000000000000000000000000000000000000000000000000000000000000000000000000000000000000000000000000000000000000
310
00000000000000000000000000000000000000000000000000000000000000000000000000000000000000000000000000000000000000000000000000000000000000000000000000000000000000000000000000000000000000000000000000000007070707070007070700000000000000000000000000000000000000
310
00000000000000000000000000000000000000000000000000000000000000000000000000000000000000000000000000000000000000000000000000000000000000000000000000000000000000000000000000000000000000000000000000000000000000000000000000000000000000000000000000000000000000
310
00000000000000000000000000000000000000000000000000070707000700000000000000000000000000000000000000000000000000000000000000000000000000000000000000000000000000000000000000000000000000000000000000000000000000000000000000000000000000000000000000000000000000
310
00000000000000000000000000000000000000000000000000000000000000000000000000000000000000000000000000000000000000000000000000000000000000000000000000000000000007070700070000000000000000000000000000000000000000000000000000000000000000000000000000000000000000
310
00000000000000000000000000000000000000000000000000000000000000000000000000000000000000000000000000000000000000000000000000000000000000000000000000000000000000000000000000000000000000000000000000000000000000000000000000000000000000000000000000000000000000
310
00000000070707000700000000000000000000000000000000000000000000000000000000000000000000000000000000000000000000000000000000000000000000000000000000000000000000000000000000000000000000000000000000000000000000000000000000000000000000000000000000000000000000
310
00000000000000000000000000000000000000000000000000000000000000000000000000000000000000000000000000000000000000000007070700070000000000000000000000000000000000000000000000000000000000000000000000000000000000000000000000000000000000000000000000000000000000
310
00000000000000000000000000000000000000000000000000000000000000000000000000000000000000000000000000000000000000000000000000000000000000000000000000000000000000000000000000000000000000000000000000000000000000000000000000000707070007000000000000000000000000
310
00000000000000000000000000000000000000000000000000000000000000000000000000000000000000000000000000000000000000000000000000000000000000000000000000000000000000000000000000000000000000000000000000000000000000000000000000000000000000000000000000000000000000
310
00000000000000000000000000000000000000000000000000000000000000000000000007070700070000000000000000000000000000000000000000000000000000000000000000000000000000000000000000000000000000000000000000000000000000000000000000000000000000000000000000000000000000
310
00000000000000000000000000000000000000000000000000000000000000000000000000000000000000000000000000000000000000000000000000000000000000000000000000000000000000000000000000000000000707070007000000000000000000000000000000000000000000000000000000000000000000
310
00000000000000000000000000000000000000000000000000000000000000000000000000000000000000000000000000000000000000000000000000000000000000000000000000000000000000000000000000000000000000000000000000000000000000000000000000000000000000000000000000000000000000
310
00000000000000000000000000000007070700070000000000000000000000000000000000000000000000000000000000000000000000000000000000000000000000000000000000000000000000000000000000000000000000000000000000000000000000000000000000000000000000000000000000000000000000
310
00000000000000000000000000000000000000000000000000000000000000000000000000000000000000000000000000000000000000000000000000000000000000000707070007000000000000000000000000000000000000000000000000000000000000000000000000000000000000000000000000000000000000
310
00000000000000000000000000000000000000000000000000000000000000000000000000000000000000000000000000000000000000000000000000000000000000000000000000000000000000000000000000000000000000000000000000000000000000000000000000000000000000000000000000070707000700
310
00000000000000000000000000000000000000000000000000000000000000000000000000000000000000000000000000000000000000000000000000000000000000000000000000000000000000000000000000000000000000000000000000000000000000000000000000000000000000000000000000000000000000
310
00000000000000000000000000000000000000000000000000000000000000000000000000000000000000000000000707070007000000000000000000000000000000000000000000000000000000000000000000000000000000000000000000000000000000000000000000000000000000000000000000000000000000
310
00000000000000000000000000000000000000000000000000000000000000000000000000000000000000000000000000000000000000000000000000000000000000000000000000000000000000000000000000000000000000000000000000000000070707000700000000000000000000000000000000000000000000
310
00000000000000000000000000000000000000000000000000000000000000000000000000000000000000000000000000000000000000000000000000000000000000000000000000000000000000000000000000000000000000000000000000000000000000000000000000000000000000000000000000000000000000
310
00000000000000000000000000000000000000000000000000000707070007000000000000000000000000000000000000000000000000000000000000000000000000000000000000000000000000000000000000000000000000000000000000000000000000000000000000000000000000000000000000000000000000
310
00000000000000000000000000000000000000000000000000000000000000000000000000000000000000000000000000000000000000000000000000000000000000000000000000000000000000070707000700000000000000000000000000000000000000000000000000000000000000000000000000000000000000
310
00000000000000000000000000000000000000000000000000000000000000000000000000000000000000000000000000000000000000000000000000000000000000000000000000000000000000000000000000000000000000000000000000000000000000000000000000000000000000000000000000000000000000
310
00000000000707070007000000000000000000000000000000000000000000000000000000000000000000000000000000000000000000000000000000000000000000000000000000000000000000000000000000000000000000000000000000000000000000000000000000000000000000000000000000000000000000
310
00000000000000000000000000000000000000000000000000000000000000000000000000000000000000000000000000000000000000000000070707000700000000000000000000000000000000000000000000000000000000000000000000000000000000000000000000000000000000000000000000000000000000
310
00000000000000000000000000000000000000000000000000000000000000000000000000000000000000000000000000000000000000000000000000000000000000000000000000000000000000000000000000000000000000000000000000000000000000000000000000000007070700070000000000000000000000
310
00000000000000000000000000000000000000000000000000000000000000000000000000000000000000000000000000000000000000000000000000000000000000000000000000000000000000000000000000000000000000000000000000000000000000000000000000000000000000000000000000000000000000
310
00000000000000000000000000000000000000000000000000000000000000000000000000070707000700000000000000000000000000000000000000000000000000000000000000000000000000000000000000000000000000000000000000000000000000000000000000000000000000000000000000000000000000
310
00000000000000000000000000000000000000000000000000000000000000000000000000000000000000000000000000000000000000000000000000000000000000000000000000000000000000000000000000000000000007070700070000000000000000000000000000000000000000000000000000000000000000
310
00000000000000000000000000000000000000000000000000000000000000000000000000000000000000000000000000000000000000000000000000000000000000000000000000000000000000000000000000000000000000000000000000000000000000000000000000000000000000000000000000000000000000
310
00000000000000000000000000000000070707000700000000000000000000000000000000000000000000000000000000000000000000000000000000000000000000000000000000000000000000000000000000000000000000000000000000000000000000000000000000000000000000000000000000000000000000
310
00000000000000000000000000000000000000000000000000000000000000000000000000000000000000000000000000000000000000000000000000000000000000000007070700070000000000000000000000000000000000000000000000000000000000000000000000000000000000000000000000000000000000
310
00000000000000000000000000000000000000000000000000000000000000000000000000000000000000000000000000000000000000000000000000000000000000000000000000000000000000000000000000000000000000000000000000000000000000000000000000000000000000000000000000000707070007
310
00000000000000000000000000000000000000000000000000000000000000000000000000000000000000000000000000000000000000000000000000000000000000000000000000000000000000000000000000000000000000000000000000000000000000000000000000000000000000000000000000000000000000
310
00000000000000000000000000000000000000000000000000000000000000000000000000000000000000000000000007070700070000000000000000000000000000000000000000000000000000000000000000000000000000000000000000000000000000000000000000000000000000000000000000000000000000
310
00000000000000000000000000000000000000000000000000000000000000000000000000000000000000000000000000000000000000000000000000000000000000000000000000000000000000000000000000000000000000000000000000000000000707070007000000000000000000000000000000000000000000
310
00000000000000000000000000000000000000000000000000000000000000000000000000000000000000000000000000000000000000000000000000000000000000000000000000000000000000000000000000000000000000000000000000000000000000000000000000000000000000000000000000000000000000
310
00000000000000000000000000000000000000000000000000000007070700070000000000000000000000000000000000000000000000000000000000000000000000000000000000000000000000000000000000000000000000000000000000000000000000000000000000000000000000000000000000000000000000
310
00000000000000000000000000000000000000000000000000000000000000000000000000000000000000000000000000000000000000000000000000000000000000000000000000000000000000000707070007000000000000000000000000000000000000000000000000000000000000000000000000000000000000
310
00000000000000000000000000000000000000000000000000000000000000000000000000000000000000000000000000000000000000000000000000000000000000000000000000000000000000000000000000000000000000000000000000000000000000000000000000000000000000000000000000000000000000
310
00000000000007070700070000000000000000000000000000000000000000000000000000000000000000000000000000000000000000000000000000000000000000000000000000000000000000000000000000000000000000000000000000000000000000000000000000000000000000000000000000000000000000
310
00000000000000000000000000000000000000000000000000000000000000000000000000000000000000000000000000000000000000000000000707070007000000000000000000000000000000000000000000000000000000000000000000000000000000000000000000000000000000000000000000000000000000
310
00000000000000000000000000000000000000000000000000000000000000000000000000000000000000000000000000000000000000000000000000000000000000000000000000000000000000000000000000000000000000000000000000000000000000000000000000000000070707000700000000000000000000
310
00000000000000000000000000000000000000000000000000000000000000000000000000000000000000000000000000000000000000000000000000000000000000000000000000000000000000000000000000000000000000000000000000000000000000000000000000000000000000000000000000000000000000
310
00000000000000000000000000000000000000000000000000000000000000000000000000000707070007000000000000000000000000000000000000000000000000000000000000000000000000000000000000000000000000000000000000000000000000000000000000000000000000000000000000000000000000
310
00000000000000000000000000000000000000000000000000000000000000000000000000000000000000000000000000000000000000000000000000000000000000000000000000000000000000000000000000000000000000070707000700000000000000000000000000000000000000000000000000000000000000
310
00000000000000000000000000000000000000000000000000000000000000000000000000000000000000000000000000000000000000000000000000000000000000000000000000000000000000000000000000000000000000000000000000000000000000000000000000000000000000000000000000000000000000
310
00000000000000000000000000000000000707070007000000000000000000000000000000000000000000000000000000000000000000000000000000000000000000000000000000000000000000000000000000000000000000000000000000000000000000000000000000000000000000000000000000000000000000
310
00000000000000000000000000000000000000000000000000000000000000000000000000000000000000000000000000000000000000000000000000000000000000000000070707000700000000000000000000000000000000000000000000000000000000000000000000000000000000000000000000000000000000
310
00000000000000000000000000000000000000000000000000000000000000000000000000000000000000000000000000000000000000000000000000000000000000000000000000000000000000000000000000000000000000000000000000000000000000000000000000000000000000000000000000000007070700
310
07000000000000000000000000000000000000000000000000000000000000000000000000000000000000000000000000000000000000000000000000000000000000000000000000000000000000000000000000000000000000000000000000000000000000000000000000000000000000000000000000000000000000
310
00000000000000000000000000000000000000000000000000000000000000000000000000000000000000000000000000070707000700000000000000000000000000000000000000000000000000000000000000000000000000000000000000000000000000000000000000000000000000000000000000000000000000
310
00000000000000000000000000000000000000000000000000000000000000000000000000000000000000000000000000000000000000000000000000000000000000000000000000000000000000000000000000000000000000000000000000000000000007070700070000000000000000000000000000000000000000
310
00000000000000000000000000000000000000000000000000000000000000000000000000000000000000000000000000000000000000000000000000000000000000000000000000000000000000000000000000000000000000000000000000000000000000000000000000000000000000000000000000000000000000
310
00000000000000000000000000000000000000000000000000000000070707000700000000000000000000000000000000000000000000000000000000000000000000000000000000000000000000000000000000000000000000000000000000000000000000000000000000000000000000000000000000000000000000
310
00000000000000000000000000000000000000000000000000000000000000000000000000000000000000000000000000000000000000000000000000000000000000000000000000000000000000000007070700070000000000000000000000000000000000000000000000000000000000000000000000000000000000
310
00000000000000000000000000000000000000000000000000000000000000000000000000000000000000000000000000000000000000000000000000000000000000000000000000000000000000000000000000000000000000000000000000000000000000000000000000000000000000000000000000000000000000
310
00000000000000070707000700000000000000000000000000000000000000000000000000000000000000000000000000000000000000000000000000000000000000000000000000000000000000000000000000000000000000000000000000000000000000000000000000000000000000000000000000000000000000
310
00000000000000000000000000000000000000000000000000000000000000000000000000000000000000000000000000000000000000000000000007070700070000000000000000000000000000000000000000000000000000000000000000000000000000000000000000000000000000000000000000000000000000
310
00000000000000000000000000000000000000000000000000000000000000000000000000000000000000000000000000000000000000000000000000000000000000000000000000000000000000000000000000000000000000000000000000000000000000000000000000000000000707070007000000000000000000
310
00000000000000000000000000000000000000000000000000000000000000000000000000000000000000000000000000000000000000000000000000000000000000000000000000000000000000000000000000000000000000000000000000000000000000000000000000000000000000000000000000000000000000
310
00000000000000000000000000000000000000000000000000000000000000000000000000000007070700070000000000000000000000000000000000000000000000000000000000000000000000000000000000000000000000000000000000000000000000000000000000000000000000000000000000000000000000
310
00000000000000000000000000000000000000000000000000000000000000000000000000000000000000000000000000000000000000000000000000000000000000000000000000000000000000000000000000000000000000000707070007000000000000000000000000000000000000000000000000000000000000
310
00000000000000000000000000000000000000000000000000000000000000000000000000000000000000000000000000000000000000000000000000000000000000000000000000000000000000000000000000000000000000000000000000000000000000000000000000000000000000000000000000000000000000
310
00000000000000000000000000000000000007070700070000000000000000000000000000000000000000000000000000000000000000000000000000000000000000000000000000000000000000000000000000000000000000000000000000000000000000000000000000000000000000000000000000000000000000
310
00000000000000000000000000000000000000000000000000000000000000000000000000000000000000000000000000000000000000000000000000000000000000000000070007070007000000000000000000000000000000000000000000000000000000000000000000000000000000000000000000000000000000
310
00000000000000000000000000000000000000000000000000000000000000000000000000000000000000000000000000000000000000000000000000000000000000000000000000000000000000000000000000000000000000000000000000000000000000000000000000000000000000000000000000000007000707
310
00070000000000000000000000000000000000000000000000000000000000000000000000000000000000000000000000000000000000000000000000000000000000000000000000000000000000000000000000000000000000000000000000000000000000000000000000000000000000000000000000000000000000
310
00000000000000000000000000000000000000000000000000000000000000000000000000000000000000000000000000070007070007000000000000000000000000000000000000000000000000000000000000000000000000000000000000000000000000000000000000000000000000000000000000000000000000
310
00000000000000000000000000000000000000000000000000000000000000000000000000000000000000000000000000000000000000000000000000000000000000000000000000000000000000000000000000000000000000000000000000000000000007000707000700000000000000000000000000000000000000
310
00000000000000000000000000000000000000000000000000000000000000000000000000000000000000000000000000000000000000000000000000000000000000000000000000000000000000000000000000000000000000000000000000000000000000000000000000000000000000000000000000000000000000
310
00000000000000000000000000000000000000000000000000000000070007070007000000000000000000000000000000000000000000000000000000000000000000000000000000000000000000000000000000000000000000000000000000000000000000000000000000000000000000000000000000000000000000
310
00000000000000000000000000000000000000000000000000000000000000000000000000000000000000000000000000000000000000000000000000000000000000000000000000000000000000000007070007000700000000000000000000000000000000000000000000000000000000000000000000000000000000
310
00000000000000000000000000000000000000000000000000000000000000000000000000000000000000000000000000000000000000000000000000000000000000000000000000000000000000000000000000000000000000000000000000000000000000000000000000000000000000000000000000000000000000
310
00000000000000070707070707000000000000000000000000000000000000000000000000000000000000000000000000000000000000000000000000000000000000000000000000000000000000000000000000000000000000000000000000000000000000000000000000000000000000000000000000000000000000
310
00000000000000000000000000000000000000000000000000000000000000000000000000000000000000000000000000000000000000000000000707000700000700000000000000000000000000000000000000000000000000000000000000000000000000000000000000000000000000000000000000000000000000
310
00000000000000000000000000000000000000000000000000000000000000000000000000000000000000000000000000000000000000000000000000000000000000000000000000000000000000000000000000000000000000000000000000000000000000000000000000000000070700070000070000000000000000
310
00000000000000000000000000000000000000000000000000000000000000000000000000000000000000000000000000000000000000000000000000000000000000000000000000000000000000000000000000000000000000000000000000000000000000000000000000000000000000000000000000000000000000
310
00000000000000000000000000000000000000000000000000000000000000000000000000000707070707070700000000000000000000000000000000000000000000000000000000000000000000000000000000000000000000000000000000000000000000000000000000000000000000000000000000000000000000
310
00000000000000000000000000000000000000000000000000000000000000000000000000000000000000000000000000000000000000000000000000000000000000000000000000000000000000000000000000000000000007000007000700070000000000000000000000000000000000000000000000000000000000
310
00000000000000000000000000000000000000000000000000000000000000000000000000000000000000000000000000000000000000000000000000000000000000000000000000000000000000000000000000000000000000000000000000000000000000000000000000000000000000000000000000000000000000
310
00000000000000000000000000000000070007000007000700000000000000000000000000000000000000000000000000000000000000000000000000000000000000000000000000000000000000000000000000000000000000000000000000000000000000000000000000000000000000000000000000000000000000
310
00000000000000000000000000000000000000000000000000000000000000000000000000000000000000000000000000000000000000000000000000000000000000000700070700000700070000000000000000000000000000000000000000000000000000000000000000000000000000000000000000000000000000
310
00000000000000000000000000000000000000000000000000000000000000000000000000000000000000000000000000000000000000000000000000000000000000000000000000000000000000000000000000000000000000000000000000000000000000000000000000000000000000000000000000070007000000
310
07000700000000000000000000000000000000000000000000000000000000000000000000000000000000000000000000000000000000000000000000000000000000000000000000000000000000000000000000000000000000000000000000000000000000000000000000000000000000000000000000000000000000
310
00000000000000000000000000000000000000000000000000000000000000000000000000000000000000000000070000070000000700070000000000000000000000000000000000000000000000000000000000000000000000000000000000000000000000000000000000000000000000000000000000000000000000
310
00000000000000000000000000000000000000000000000000000000000000000000000000000000000000000000000000000000000000000000000000000000000000000000000000000000000000000000000000000000000000000000000000000700000700000000070007000000000000000000000000000000000000
310
00000000000000000000000000000000000000000000000000000000000000000000000000000000000000000000000000000000000000000000000000000000000000000000000000000000000000000000000000000000000000000000000000000000000000000000000000000000000000000000000000000000000000
310
00000000000000000000000000000000000000000000000007000007000000000700070000000000000000000000000000000000000000000000000000000000000000000000000000000000000000000000000000000000000000000000000000000000000000000000000000000000000000000000000000000000000000
310
00000000000000000000000000000000000000000000000000000000000000000000000000000000000000000000000000000000000000000000000000000000000000000000000000000000070700070000000000070007000000000000000000000000000000000000000000000000000000000000000000000000000000
310
00000000000000000000000000000000000000000000000000000000000000000000000000000000000000000000000000000000000000000000000000000000000000000000000000000000000000000000000000000000000000000000000000000000000000000000000000000000000000000000000000000000000000
310
00070707000700000000000700070000000000000000000000000000000000000000000000000000000000000000000000000000000000000000000000000000000000000000000000000000000000000000000000000000000000000000000000000000000000000000000000000000000000000000000000000000000000
310
00000000000000000000000000000000000000000000000000000000000000000000000000000000000000000000000000000000000007070707000000000000070007000000000000000000000000000000000000000000000000000000000000000000000000000000000000000000000000000000000000000000000000
310
00000000000000000000000000000000000000000000000000000000000000000000000000000000000000000000000000000000000000000000000000000000000000000000000000000000000000000000000000000000000000000000000000000000000000000000070707000700000000000007000700000000000000
310
00000000000000000000000000000000000000000000000000000000000000000000000000000000000000000000000000000000000000000000000000000000000000000000000000000000000000000000000000000000000000000000000000000000000000000000000000000000000000000000000000000000000000
310
00000000000000000000000000000000000000000000000000000000000007070707000700000000000000070007000000000000000000000000000000000000000000000000000000000000000000000000000000000000000000000000000000000000000000000000000000000000000000000000000000000000000000
310
00000000000000000000000000000000000000000000000000000000000000000000000000000000000000000000000000000000000000000000000000000000000000000000000000000000000000000000070707000007000000000000000007000700000000000000000000000000000000000000000000000000000000
310
00000000000000000000000000000000000000000000000000000000000000000000000000000000000000000000000000000000000000000000000000000000000000000000000000000000000000000000000000000000000000000000000000000000000000000000000000000000000000000000000000000000000000
310
00000000000000000707000007000000000000000000070007000000000000000000000000000000000000000000000000000000000000000000000000000000000000000000000000000000000000000000000000000000000000000000000000000000000000000000000000000000000000000000000000000000000000
310
00000000000000000000000000000000000000000000000000000000000000000000000000000000000000000000000000000000000000000000000007070007070000000000000000000007000700000000000000000000000000000000000000000000000000000000000000000000000000000000000000000000000000
310
00000000000000000000000000000000000000000000000000000000000000000000000000000000000000000000000000000000000000000000000000000000000000000000000000000000000000000000000000000000000000000000000000000000000000000000000000000000070700070000000000000000000000
310
00070007000000000000000000000000000000000000000000000000000000000000000000000000000000000000000000000000000000000000000000000000000000000000000000000000000000000000000000000000000000000000000000000000000000000000000000000000000000000000000000000000000000
310
00000000000000000000000000000000000000000000000000000000000000000000000000000700070000000000000000000000000007000700000000000000000000000000000000000000000000000000000000000000000000000000000000000000000000000000000000000000000000000000000000000000000000
310
00000000000000000000000000000000000000000000000000000000000000000000000000000000000000000000000000000000000000000000000000000000000000000000000000000000000000000000000000000000000000000700000000000000000000000000000700070000000000000000000000000000000000
310
00000000000000000000000000000000000000000000000000000000000000000000000000000000000000000000000000000000000000000000000000000000000000000000000000000000000000000000000000000000000000000000000000000000000000000000000000000000000000000000000000000000000000
310
00000000000000000000000000000000000000000000000000000000000000000007000700000000000000000000000000000000000000000000000000000000000000000000000000000000000000000000000000000000000000000000000000000000000000000000000000000000000000000000000000000000000000
310
00000000000000000000000000000000000000000000000000000000000000000000000000000000000000000000000000000000000000000000000000000000000000000000000000000000000000000000000000000700070000000000000000000000000000000000000000000000000000000000000000000000000000
310
00000000000000000000000000000000000000000000000000000000000000000000000000000000000000000000000000000000000000000000000000000000000000000000000000000000000000000000000000000000000000000000000000000000000000000000000000000000000000000000000000000000000000
310
00000000000000000000000007070700070707000000000000000000000000000000000000000000000000000000000000000000000000000000000000000000000000000000000000000000000000000000000000000000000000000000000000000000000000000000000000000000000000000000000000000000000000
310
00000000000000000000000000000000000000000000000000000000000000000000000000000000000000000000000000000000000000000000000000000000000700070707070700000000000000000000000000000000000000000000000000000000000000000000000000000000000000000000000000000000000000
310
00000000000000000000000000000000000000000000000000000000000000000000000000000000000000000000000000000000000000000000000000000000000000000000000000000000000000000000000000000000000000000000000000000000000000000000000000000000000000000000070700000707070000
310
00000000000000000000000000000000000000000000000000000000000000000000000000000000000000000000000000000000000000000000000000000000000000000000000000000000000000000000000000000000000000000000000000000000000000000000000000000000000000000000000000000000000000
310
00000000000000000000000000000000000000000000000000000000000000000000000000000000000000000000070707070700000000000000000000000000000000000000000000000000000000000000000000000000000000000000000000000000000000000000000000000000000000000000000000000000000000
310
00000000000000000000000000000000000000000000000000000000000000000000000000000000000000000000000000000000000000000000000000000000000000000000000000000000000000000000000000000000000000000000000000000000000007070000000000000000000000000000000000000000000000
310
00000000000000000000000000000000000000000000000000000000000000000000000000000000000000000000000000000000000000000000000000000000000000000000000000000000000000000000000000000000000000000000000000000000000000000000000000000000000000000000000000000000000000
310
000000000000000000000000000000000000000000000000000000000000000000000000000000000000000000000000000000000000000000000000000000000000000000000000000000000000000000000000000000000000000000000000000000000000000000000000
  0
ENDSEC
  0
EOF
