  0
SECTION
  2
HEADER
  9
$ACADVER
  1
AC1015
  9
$ACADMAINTVER
 70
     6
  9
$DWGCODEPAGE
  3
ANSI_1252
  9
$INSBASE
 10
0.0
 20
0.0
 30
0.0
  9
$EXTMIN
 10
0.07205
 20
-0.0735
 30
0.0
  9
$EXTMAX
 10
239.92795
 20
254.0735
 30
0.0
  9
$LIMMIN
 10
0.0
 20
0.0
  9
$LIMMAX
 10
12.0
 20
9.0
  9
$ORTHOMODE
 70
     0
  9
$REGENMODE
 70
     1
  9
$FILLMODE
 70
     1
  9
$QTEXTMODE
 70
     0
  9
$MIRRTEXT
 70
     1
  9
$LTSCALE
 40
1.0
  9
$ATTMODE
 70
     1
  9
$TEXTSIZE
 40
0.2
  9
$TRACEWID
 40
0.05
  9
$TEXTSTYLE
  7
Standard
  9
$CLAYER
  8
0
  9
$CELTYPE
  6
ByBlock
  9
$CECOLOR
 62
   256
  9
$CELTSCALE
 40
1.0
  9
$DISPSILH
 70
     0
  9
$DIMSCALE
 40
1.0
  9
$DIMASZ
 40
0.18
  9
$DIMEXO
 40
0.0625
  9
$DIMDLI
 40
0.38
  9
$DIMRND
 40
0.0
  9
$DIMDLE
 40
0.0
  9
$DIMEXE
 40
0.18
  9
$DIMTP
 40
0.0
  9
$DIMTM
 40
0.0
  9
$DIMTXT
 40
0.18
  9
$DIMCEN
 40
0.09
  9
$DIMTSZ
 40
0.0
  9
$DIMTOL
 70
     0
  9
$DIMLIM
 70
     0
  9
$DIMTIH
 70
     1
  9
$DIMTOH
 70
     1
  9
$DIMSE1
 70
     0
  9
$DIMSE2
 70
     0
  9
$DIMTAD
 70
     0
  9
$DIMZIN
 70
     0
  9
$DIMBLK
  1

  9
$DIMASO
 70
     1
  9
$DIMSHO
 70
     1
  9
$DIMPOST
  1

  9
$DIMAPOST
  1

  9
$DIMALT
 70
     0
  9
$DIMALTD
 70
     2
  9
$DIMALTF
 40
25.4
  9
$DIMLFAC
 40
1.0
  9
$DIMTOFL
 70
     0
  9
$DIMTVP
 40
0.0
  9
$DIMTIX
 70
     0
  9
$DIMSOXD
 70
     0
  9
$DIMSAH
 70
     0
  9
$DIMBLK1
  1

  9
$DIMBLK2
  1

  9
$DIMSTYLE
  2
Standard
  9
$DIMCLRD
 70
     0
  9
$DIMCLRE
 70
     0
  9
$DIMCLRT
 70
     0
  9
$DIMTFAC
 40
1.0
  9
$DIMGAP
 40
0.09
  9
$DIMJUST
 70
     0
  9
$DIMSD1
 70
     0
  9
$DIMSD2
 70
     0
  9
$DIMTOLJ
 70
     1
  9
$DIMTZIN
 70
     0
  9
$DIMALTZ
 70
     0
  9
$DIMALTTZ
 70
     0
  9
$DIMUPT
 70
     0
  9
$DIMDEC
 70
     4
  9
$DIMTDEC
 70
     4
  9
$DIMALTU
 70
     2
  9
$DIMALTTD
 70
     2
  9
$DIMTXSTY
  7
Standard
  9
$DIMAUNIT
 70
     0
  9
$DIMADEC
 70
     0
  9
$DIMALTRND
 40
0.0
  9
$DIMAZIN
 70
     0
  9
$DIMDSEP
 70
    46
  9
$DIMATFIT
 70
     3
  9
$DIMFRAC
 70
     0
  9
$DIMLDRBLK
  1

  9
$DIMLUNIT
 70
     2
  9
$DIMLWD
 70
    -2
  9
$DIMLWE
 70
    -2
  9
$DIMTMOVE
 70
     2
  9
$LUNITS
 70
     2
  9
$LUPREC
 70
     4
  9
$SKETCHINC
 40
0.1
  9
$FILLETRAD
 40
0.5
  9
$AUNITS
 70
     0
  9
$AUPREC
 70
     0
  9
$MENU
  1
.
  9
$ELEVATION
 40
0.0
  9
$PELEVATION
 40
0.0
  9
$THICKNESS
 40
0.0
  9
$LIMCHECK
 70
     0
  9
$CHAMFERA
 40
0.5
  9
$CHAMFERB
 40
0.5
  9
$CHAMFERC
 40
1.0
  9
$CHAMFERD
 40
0.0
  9
$SKPOLY
 70
     0
  9
$TDCREATE
 40
2456464.711480394
  9
$TDUCREATE
 40
2456464.62814706
  9
$TDUPDATE
 40
2456464.735344687
  9
$TDUUPDATE
 40
2456464.652011354
  9
$TDINDWG
 40
0.0238637616
  9
$TDUSRTIMER
 40
0.0238637616
  9
$USRTIMER
 70
     1
  9
$ANGBASE
 50
0.0
  9
$ANGDIR
 70
     0
  9
$PDMODE
 70
     0
  9
$PDSIZE
 40
0.0
  9
$PLINEWID
 40
0.0
  9
$SPLFRAME
 70
     0
  9
$SPLINETYPE
 70
     6
  9
$SPLINESEGS
 70
     8
  9
$HANDSEED
  5
A92
  9
$SURFTAB1
 70
     6
  9
$SURFTAB2
 70
     6
  9
$SURFTYPE
 70
     6
  9
$SURFU
 70
     6
  9
$SURFV
 70
     6
  9
$UCSBASE
  2

  9
$UCSNAME
  2

  9
$UCSORG
 10
0.0
 20
0.0
 30
0.0
  9
$UCSXDIR
 10
1.0
 20
0.0
 30
0.0
  9
$UCSYDIR
 10
0.0
 20
1.0
 30
0.0
  9
$UCSORTHOREF
  2

  9
$UCSORTHOVIEW
 70
     0
  9
$UCSORGTOP
 10
0.0
 20
0.0
 30
0.0
  9
$UCSORGBOTTOM
 10
0.0
 20
0.0
 30
0.0
  9
$UCSORGLEFT
 10
0.0
 20
0.0
 30
0.0
  9
$UCSORGRIGHT
 10
0.0
 20
0.0
 30
0.0
  9
$UCSORGFRONT
 10
0.0
 20
0.0
 30
0.0
  9
$UCSORGBACK
 10
0.0
 20
0.0
 30
0.0
  9
$PUCSBASE
  2

  9
$PUCSNAME
  2

  9
$PUCSORG
 10
0.0
 20
0.0
 30
0.0
  9
$PUCSXDIR
 10
1.0
 20
0.0
 30
0.0
  9
$PUCSYDIR
 10
0.0
 20
1.0
 30
0.0
  9
$PUCSORTHOREF
  2

  9
$PUCSORTHOVIEW
 70
     0
  9
$PUCSORGTOP
 10
0.0
 20
0.0
 30
0.0
  9
$PUCSORGBOTTOM
 10
0.0
 20
0.0
 30
0.0
  9
$PUCSORGLEFT
 10
0.0
 20
0.0
 30
0.0
  9
$PUCSORGRIGHT
 10
0.0
 20
0.0
 30
0.0
  9
$PUCSORGFRONT
 10
0.0
 20
0.0
 30
0.0
  9
$PUCSORGBACK
 10
0.0
 20
0.0
 30
0.0
  9
$USERI1
 70
     0
  9
$USERI2
 70
     0
  9
$USERI3
 70
     0
  9
$USERI4
 70
     0
  9
$USERI5
 70
     0
  9
$USERR1
 40
0.0
  9
$USERR2
 40
0.0
  9
$USERR3
 40
0.0
  9
$USERR4
 40
0.0
  9
$USERR5
 40
0.0
  9
$WORLDVIEW
 70
     1
  9
$SHADEDGE
 70
     3
  9
$SHADEDIF
 70
    70
  9
$TILEMODE
 70
     1
  9
$MAXACTVP
 70
    64
  9
$PINSBASE
 10
0.0
 20
0.0
 30
0.0
  9
$PLIMCHECK
 70
     0
  9
$PEXTMIN
 10
1.000000000000E+20
 20
1.000000000000E+20
 30
1.000000000000E+20
  9
$PEXTMAX
 10
-1.000000000000E+20
 20
-1.000000000000E+20
 30
-1.000000000000E+20
  9
$PLIMMIN
 10
0.0
 20
0.0
  9
$PLIMMAX
 10
12.0
 20
9.0
  9
$UNITMODE
 70
     0
  9
$VISRETAIN
 70
     1
  9
$PLINEGEN
 70
     0
  9
$PSLTSCALE
 70
     1
  9
$TREEDEPTH
 70
  3020
  9
$CMLSTYLE
  2
Standard
  9
$CMLJUST
 70
     0
  9
$CMLSCALE
 40
1.0
  9
$PROXYGRAPHICS
 70
     1
  9
$MEASUREMENT
 70
     0
  9
$CELWEIGHT
370
    -1
  9
$ENDCAPS
280
     0
  9
$JOINSTYLE
280
     0
  9
$LWDISPLAY
290
     0
  9
$INSUNITS
 70
     0
  9
$HYPERLINKBASE
  1

  9
$STYLESHEET
  1

  9
$XEDIT
290
     1
  9
$CEPSNTYPE
380
     0
  9
$PSTYLEMODE
290
     1
  9
$FINGERPRINTGUID
  2
{D4A0A94A-EFDF-417F-AE8C-D4C14B6672E6}
  9
$VERSIONGUID
  2
{FAEB1C32-E019-11D5-929B-00C0DF256EC4}
  9
$EXTNAMES
290
     1
  9
$PSVPSCALE
 40
0.0
  9
$OLESTARTUP
290
     0
  0
ENDSEC
  0
SECTION
  2
CLASSES
  0
CLASS
  1
ACDBDICTIONARYWDFLT
  2
AcDbDictionaryWithDefault
  3
ObjectDBX Classes
 90
        0
280
     0
281
     0
  0
CLASS
  1
SCALE
  2
AcDbScale
  3
ObjectDBX Classes
 90
     1153
280
     0
281
     0
  0
CLASS
  1
DICTIONARYVAR
  2
AcDbDictionaryVar
  3
ObjectDBX Classes
 90
        0
280
     0
281
     0
  0
CLASS
  1
ACDBPLACEHOLDER
  2
AcDbPlaceHolder
  3
ObjectDBX Classes
 90
        0
280
     0
281
     0
  0
CLASS
  1
LAYOUT
  2
AcDbLayout
  3
ObjectDBX Classes
 90
        0
280
     0
281
     0
  0
ENDSEC
  0
SECTION
  2
TABLES
  0
TABLE
  2
VPORT
  5
8
330
0
100
AcDbSymbolTable
 70
     1
  0
VPORT
  5
A56
330
8
100
AcDbSymbolTableRecord
100
AcDbViewportTableRecord
  2
*Active
 70
     0
 10
0.0
 20
0.0
 11
1.0
 21
1.0
 12
119.963975
 22
127.0
 13
0.0
 23
0.0
 14
0.5
 24
0.5
 15
0.5
 25
0.5
 16
0.0
 26
0.0
 36
1.0
 17
0.0
 27
0.0
 37
0.0
 40
259.22994
 41
1.863448275862
 42
50.0
 43
0.0
 44
0.0
 50
0.0
 51
0.0
 71
    16
 72
   100
 73
     1
 74
     3
 75
     0
 76
     0
 77
     0
 78
     0
281
     0
 65
     1
110
0.0
120
0.0
130
0.0
111
1.0
121
0.0
131
0.0
112
0.0
122
1.0
132
0.0
 79
     0
146
0.0
  0
ENDTAB
  0
TABLE
  2
LTYPE
  5
5
330
0
100
AcDbSymbolTable
 70
     1
  0
LTYPE
  5
14
330
5
100
AcDbSymbolTableRecord
100
AcDbLinetypeTableRecord
  2
ByBlock
 70
     0
  3

 72
    65
 73
     0
 40
0.0
  0
LTYPE
  5
15
330
5
100
AcDbSymbolTableRecord
100
AcDbLinetypeTableRecord
  2
ByLayer
 70
     0
  3

 72
    65
 73
     0
 40
0.0
  0
LTYPE
  5
16
330
5
100
AcDbSymbolTableRecord
100
AcDbLinetypeTableRecord
  2
Continuous
 70
     0
  3
Solid line
 72
    65
 73
     0
 40
0.0
  0
ENDTAB
  0
TABLE
  2
LAYER
  5
2
330
0
100
AcDbSymbolTable
 70
     1
  0
LAYER
  5
10
330
2
100
AcDbSymbolTableRecord
100
AcDbLayerTableRecord
  2
0
 70
     0
 62
     7
  6
Continuous
370
    -3
390
F
  0
ENDTAB
  0
TABLE
  2
STYLE
  5
3
330
0
100
AcDbSymbolTable
 70
     1
  0
STYLE
  5
11
330
3
100
AcDbSymbolTableRecord
100
AcDbTextStyleTableRecord
  2
Standard
 70
     0
 40
0.0
 41
1.0
 50
0.0
 71
     0
 42
0.2
  3
txt
  4

  0
ENDTAB
  0
TABLE
  2
VIEW
  5
6
330
0
100
AcDbSymbolTable
 70
     0
  0
ENDTAB
  0
TABLE
  2
UCS
  5
7
330
0
100
AcDbSymbolTable
 70
     0
  0
ENDTAB
  0
TABLE
  2
APPID
  5
9
330
0
100
AcDbSymbolTable
 70
     1
  0
APPID
  5
12
330
9
100
AcDbSymbolTableRecord
100
AcDbRegAppTableRecord
  2
ACAD
 70
     0
  0
ENDTAB
  0
TABLE
  2
DIMSTYLE
  5
A
330
0
100
AcDbSymbolTable
 70
     1
100
AcDbDimStyleTable
  0
DIMSTYLE
105
20
330
A
100
AcDbSymbolTableRecord
100
AcDbDimStyleTableRecord
  2
Standard
 70
     0
340
11
  0
ENDTAB
  0
TABLE
  2
BLOCK_RECORD
  5
1
330
0
100
AcDbSymbolTable
 70
     0
  0
BLOCK_RECORD
  5
1D
330
1
100
AcDbSymbolTableRecord
100
AcDbBlockTableRecord
  2
*Model_Space
340
1E
  0
BLOCK_RECORD
  5
1B
330
1
100
AcDbSymbolTableRecord
100
AcDbBlockTableRecord
  2
*Paper_Space
340
1C
  0
ENDTAB
  0
ENDSEC
  0
SECTION
  2
BLOCKS
  0
BLOCK
  5
A59
330
1D
100
AcDbEntity
  8
0
100
AcDbBlockBegin
  2
*Model_Space
 70
     0
 10
0.0
 20
0.0
 30
0.0
  3
*Model_Space
  1
*Model_Space
  0
ENDBLK
  5
A5A
330
1D
100
AcDbEntity
  8
0
100
AcDbBlockEnd
  0
BLOCK
  5
A57
330
1B
100
AcDbEntity
 67
     1
  8
0
100
AcDbBlockBegin
  2
*Paper_Space
 70
     0
 10
0.0
 20
0.0
 30
0.0
  3
*Paper_Space
  1
*Paper_Space
  0
ENDBLK
  5
A58
330
1B
100
AcDbEntity
 67
     1
  8
0
100
AcDbBlockEnd
  0
ENDSEC
  0
SECTION
  2
ENTITIES
  0
LINE
  5
21
330
1D
100
AcDbEntity
  8
0
100
AcDbLine
 10
110.90645
 20
13.994
 30
0.0
 11
111.03005
 21
13.5771
 31
0.0
  0
LINE
  5
22
330
1D
100
AcDbEntity
  8
0
100
AcDbLine
 10
110.70445
 20
14.7506
 30
0.0
 11
110.90645
 21
13.994
 31
0.0
  0
LINE
  5
23
330
1D
100
AcDbEntity
  8
0
100
AcDbLine
 10
110.62905
 20
15.1148
 30
0.0
 11
110.70445
 21
14.7506
 31
0.0
  0
LINE
  5
24
330
1D
100
AcDbEntity
  8
0
100
AcDbLine
 10
113.75775
 20
9.4275
 30
0.0
 11
114.61705
 21
8.6525
 31
0.0
  0
LINE
  5
25
330
1D
100
AcDbEntity
  8
0
100
AcDbLine
 10
113.01395
 20
10.2235
 30
0.0
 11
113.75775
 21
9.4275
 31
0.0
  0
LINE
  5
26
330
1D
100
AcDbEntity
  8
0
100
AcDbLine
 10
112.29035
 20
11.1626
 30
0.0
 11
113.01395
 21
10.2235
 31
0.0
  0
LINE
  5
27
330
1D
100
AcDbEntity
  8
0
100
AcDbLine
 10
111.53755
 20
12.3973
 30
0.0
 11
112.20695
 21
11.2808
 31
0.0
  0
LINE
  5
28
330
1D
100
AcDbEntity
  8
0
100
AcDbLine
 10
112.20695
 20
11.2808
 30
0.0
 11
112.29035
 21
11.1626
 31
0.0
  0
LINE
  5
29
330
1D
100
AcDbEntity
  8
0
100
AcDbLine
 10
111.03005
 20
13.5771
 30
0.0
 11
111.53755
 21
12.3973
 31
0.0
  0
LINE
  5
2A
330
1D
100
AcDbEntity
  8
0
100
AcDbLine
 10
114.61705
 20
8.6525
 30
0.0
 11
115.39095
 21
8.0135
 31
0.0
  0
LINE
  5
2B
330
1D
100
AcDbEntity
  8
0
100
AcDbLine
 10
118.47535
 20
5.9865
 30
0.0
 11
119.94475
 21
5.1855
 31
0.0
  0
LINE
  5
2C
330
1D
100
AcDbEntity
  8
0
100
AcDbLine
 10
116.16275
 20
7.4455
 30
0.0
 11
116.88745
 21
6.9555
 31
0.0
  0
LINE
  5
2D
330
1D
100
AcDbEntity
  8
0
100
AcDbLine
 10
116.88745
 20
6.9555
 30
0.0
 11
118.38795
 21
6.0345
 31
0.0
  0
LINE
  5
2E
330
1D
100
AcDbEntity
  8
0
100
AcDbLine
 10
118.38795
 20
6.0345
 30
0.0
 11
118.47535
 21
5.9865
 31
0.0
  0
LINE
  5
2F
330
1D
100
AcDbEntity
  8
0
100
AcDbLine
 10
115.39095
 20
8.0135
 30
0.0
 11
116.16275
 21
7.4455
 31
0.0
  0
LINE
  5
30
330
1D
100
AcDbEntity
  8
0
100
AcDbLine
 10
109.76565
 20
34.1857
 30
0.0
 11
110.50035
 21
16.2094
 31
0.0
  0
LINE
  5
31
330
1D
100
AcDbEntity
  8
0
100
AcDbLine
 10
110.50035
 20
16.2094
 30
0.0
 11
110.62905
 21
15.1148
 31
0.0
  0
LINE
  5
32
330
1D
100
AcDbEntity
  8
0
100
AcDbLine
 10
119.94475
 20
5.1855
 30
0.0
 11
121.47345
 21
4.4535
 31
0.0
  0
LINE
  5
4D
330
1D
100
AcDbEntity
  8
0
100
AcDbLine
 10
126.05635
 20
2.6965
 30
0.0
 11
128.64135
 21
1.8925
 31
0.0
  0
LINE
  5
7B
330
1D
100
AcDbEntity
  8
0
100
AcDbLine
 10
128.64135
 20
1.8925
 30
0.0
 11
130.76395
 21
1.3335
 31
0.0
  0
LINE
  5
11E
330
1D
100
AcDbEntity
  8
0
100
AcDbLine
 10
123.60305
 20
3.5715
 30
0.0
 11
126.05635
 21
2.6965
 31
0.0
  0
LINE
  5
14B
330
1D
100
AcDbEntity
  8
0
100
AcDbLine
 10
121.47345
 20
4.4535
 30
0.0
 11
123.60305
 21
3.5715
 31
0.0
  0
LINE
  5
1A3
330
1D
100
AcDbEntity
  8
0
100
AcDbLine
 10
129.06235
 20
40.1245
 30
0.0
 11
132.86845
 21
40.6307
 31
0.0
  0
LINE
  5
1A4
330
1D
100
AcDbEntity
  8
0
100
AcDbLine
 10
125.21015
 20
39.9654
 30
0.0
 11
127.35595
 21
39.8507
 31
0.0
  0
LINE
  5
1A5
330
1D
100
AcDbEntity
  8
0
100
AcDbLine
 10
127.35595
 20
39.8507
 30
0.0
 11
129.50465
 21
39.917
 31
0.0
  0
LINE
  5
1C5
330
1D
100
AcDbEntity
  8
0
100
AcDbLine
 10
132.87455
 20
0.8955
 30
0.0
 11
135.75605
 21
0.4215
 31
0.0
  0
LINE
  5
1F0
330
1D
100
AcDbEntity
  8
0
100
AcDbLine
 10
130.76395
 20
1.3335
 30
0.0
 11
132.87455
 21
0.8955
 31
0.0
  0
LINE
  5
1F1
330
1D
100
AcDbEntity
  8
0
100
AcDbLine
 10
129.50465
 20
39.917
 30
0.0
 11
131.62735
 21
40.1642
 31
0.0
  0
LINE
  5
1F2
330
1D
100
AcDbEntity
  8
0
100
AcDbLine
 10
121.42305
 20
40.8213
 30
0.0
 11
125.19095
 21
40.1888
 31
0.0
  0
LINE
  5
1F3
330
1D
100
AcDbEntity
  8
0
100
AcDbLine
 10
121.05325
 20
40.7273
 30
0.0
 11
123.09955
 21
40.259
 31
0.0
  0
LINE
  5
1F4
330
1D
100
AcDbEntity
  8
0
100
AcDbLine
 10
125.19095
 20
40.1888
 30
0.0
 11
129.06235
 21
40.1245
 31
0.0
  0
LINE
  5
1F5
330
1D
100
AcDbEntity
  8
0
100
AcDbLine
 10
132.86845
 20
40.6307
 30
0.0
 11
136.44335
 21
41.6853
 31
0.0
  0
LINE
  5
1F6
330
1D
100
AcDbEntity
  8
0
100
AcDbLine
 10
123.09955
 20
40.259
 30
0.0
 11
125.21015
 21
39.9654
 31
0.0
  0
LINE
  5
1F7
330
1D
100
AcDbEntity
  8
0
100
AcDbLine
 10
131.62735
 20
40.1642
 30
0.0
 11
133.69365
 21
40.5873
 31
0.0
  0
LINE
  5
22C
330
1D
100
AcDbEntity
  8
0
100
AcDbLine
 10
135.75605
 20
0.4215
 30
0.0
 11
138.21935
 21
0.1165
 31
0.0
  0
LINE
  5
22D
330
1D
100
AcDbEntity
  8
0
100
AcDbLine
 10
133.69365
 20
40.5873
 30
0.0
 11
135.67465
 21
41.1809
 31
0.0
  0
LINE
  5
22E
330
1D
100
AcDbEntity
  8
0
100
AcDbLine
 10
117.92245
 20
41.9947
 30
0.0
 11
121.42305
 21
40.8213
 31
0.0
  0
LINE
  5
22F
330
1D
100
AcDbEntity
  8
0
100
AcDbLine
 10
114.84405
 20
43.6565
 30
0.0
 11
117.92245
 21
41.9947
 31
0.0
  0
LINE
  5
234
330
1D
100
AcDbEntity
  8
0
100
AcDbLine
 10
90.16755
 20
110.5225
 30
0.0
 11
93.12495
 21
108.2905
 31
0.0
  0
LINE
  5
235
330
1D
100
AcDbEntity
  8
0
100
AcDbLine
 10
93.12495
 20
108.2905
 30
0.0
 11
108.19945729915
 21
102.26069708034
 31
0.0
  0
LINE
  5
236
330
1D
100
AcDbEntity
  8
0
100
AcDbLine
 10
93.12495
 20
108.2905
 30
0.0
 11
108.19945729915
 21
102.26069708034
 31
0.0
  0
LINE
  5
237
330
1D
100
AcDbEntity
  8
0
100
AcDbLine
 10
93.12495
 20
108.2905
 30
0.0
 11
108.19945729915
 21
102.26069708034
 31
0.0
  0
LINE
  5
238
330
1D
100
AcDbEntity
  8
0
100
AcDbLine
 10
93.12495
 20
108.2905
 30
0.0
 11
108.19945729915
 21
102.26069708034
 31
0.0
  0
LINE
  5
239
330
1D
100
AcDbEntity
  8
0
100
AcDbLine
 10
70.30895
 20
111.2665
 30
0.0
 11
108.057792746694
 21
111.2665
 31
0.0
  0
LINE
  5
23A
330
1D
100
AcDbEntity
  8
0
100
AcDbLine
 10
69.06895
 20
111.7625
 30
0.0
 11
70.30895
 21
111.2665
 31
0.0
  0
LINE
  5
23B
330
1D
100
AcDbEntity
  8
0
100
AcDbLine
 10
68.57295
 20
113.0025
 30
0.0
 11
69.06895
 21
111.7625
 31
0.0
  0
LINE
  5
23C
330
1D
100
AcDbEntity
  8
0
100
AcDbLine
 10
68.57295
 20
113.0025
 30
0.0
 11
68.57295
 21
215.252157779913
 31
0.0
  0
LINE
  5
23D
330
1D
100
AcDbEntity
  8
0
100
AcDbLine
 10
65.59695
 20
135.8185
 30
0.0
 11
67.82895
 21
132.8611
 31
0.0
  0
LINE
  5
23E
330
1D
100
AcDbEntity
  8
0
100
AcDbLine
 10
58.49295
 20
153.5785
 30
0.0
 11
65.59695
 21
135.8185
 31
0.0
  0
LINE
  5
23F
330
1D
100
AcDbEntity
  8
0
100
AcDbLine
 10
55.82895
 20
172.5225
 30
0.0
 11
58.49295
 21
191.4665
 31
0.0
  0
LINE
  5
240
330
1D
100
AcDbEntity
  8
0
100
AcDbLine
 10
55.82895
 20
172.5225
 30
0.0
 11
58.49295
 21
153.5785
 31
0.0
  0
LINE
  5
242
330
1D
100
AcDbEntity
  8
0
100
AcDbLine
 10
106.70225
 20
141.8725
 30
0.0
 11
106.76355
 21
140.5425
 31
0.0
  0
LINE
  5
243
330
1D
100
AcDbEntity
  8
0
100
AcDbLine
 10
106.70225
 20
141.8725
 30
0.0
 11
106.79065
 21
144.6055
 31
0.0
  0
LINE
  5
244
330
1D
100
AcDbEntity
  8
0
100
AcDbLine
 10
106.73745
 20
145.8895
 30
0.0
 11
106.73845
 21
143.1675
 31
0.0
  0
LINE
  5
245
330
1D
100
AcDbEntity
  8
0
100
AcDbLine
 10
106.73745
 20
145.8895
 30
0.0
 11
106.78065
 21
147.1155
 31
0.0
  0
LINE
  5
246
330
1D
100
AcDbEntity
  8
0
100
AcDbLine
 10
106.80875
 20
135.6577
 30
0.0
 11
107.01275
 21
130.7137
 31
0.0
  0
LINE
  5
247
330
1D
100
AcDbEntity
  8
0
100
AcDbLine
 10
106.78065
 20
147.1155
 30
0.0
 11
106.84995
 21
150.2875
 31
0.0
  0
LINE
  5
248
330
1D
100
AcDbEntity
  8
0
100
AcDbLine
 10
106.73845
 20
143.1675
 30
0.0
 11
106.79065
 21
144.6055
 31
0.0
  0
LINE
  5
249
330
1D
100
AcDbEntity
  8
0
100
AcDbLine
 10
106.84995
 20
150.2875
 30
0.0
 11
106.91225
 21
151.5445
 31
0.0
  0
LINE
  5
24A
330
1D
100
AcDbEntity
  8
0
100
AcDbLine
 10
106.91225
 20
151.5445
 30
0.0
 11
106.97765
 21
152.9275
 31
0.0
  0
LINE
  5
24B
330
1D
100
AcDbEntity
  8
0
100
AcDbLine
 10
106.97765
 20
152.9275
 30
0.0
 11
107.10425
 21
155.5325
 31
0.0
  0
LINE
  5
250
330
1D
100
AcDbEntity
  8
0
100
AcDbLine
 10
107.01275
 20
130.7137
 30
0.0
 11
107.52135
 21
121.6658
 31
0.0
  0
LINE
  5
251
330
1D
100
AcDbEntity
  8
0
100
AcDbLine
 10
106.72735
 20
139.0808
 30
0.0
 11
106.80875
 21
135.6577
 31
0.0
  0
LINE
  5
252
330
1D
100
AcDbEntity
  8
0
100
AcDbLine
 10
106.72735
 20
139.0808
 30
0.0
 11
106.76355
 21
140.5425
 31
0.0
  0
LINE
  5
253
330
1D
100
AcDbEntity
  8
0
100
AcDbLine
 10
107.52135
 20
121.6658
 30
0.0
 11
108.02785
 21
113.17
 31
0.0
  0
LINE
  5
259
330
1D
100
AcDbEntity
  8
0
100
AcDbLine
 10
108.96865
 20
53.3621
 30
0.0
 11
109.07005
 21
51.9866
 31
0.0
  0
LINE
  5
25A
330
1D
100
AcDbEntity
  8
0
100
AcDbLine
 10
108.02785
 20
113.17
 30
0.0
 11
108.96865
 21
53.3621
 31
0.0
  0
LINE
  5
25B
330
1D
100
AcDbEntity
  8
0
100
AcDbLine
 10
58.49295
 20
191.4665
 30
0.0
 11
65.59695
 21
209.2265
 31
0.0
  0
LINE
  5
25C
330
1D
100
AcDbEntity
  8
0
100
AcDbLine
 10
65.59695
 20
209.2265
 30
0.0
 11
67.82895
 21
212.1839
 31
0.0
  0
LINE
  5
25E
330
1D
100
AcDbEntity
  8
0
100
AcDbLine
 10
82.61385
 20
215.1335
 30
0.0
 11
103.50205
 21
215.0485
 31
0.0
  0
LINE
  5
25F
330
1D
100
AcDbEntity
  8
0
100
AcDbLine
 10
103.50205
 20
215.0485
 30
0.0
 11
111.99885
 21
214.948343167773
 31
0.0
  0
LINE
  5
260
330
1D
100
AcDbEntity
  8
0
100
AcDbLine
 10
10.32445
 20
217.1335
 30
0.0
 11
14.83355
 21
216.6905
 31
0.0
  0
LINE
  5
261
330
1D
100
AcDbEntity
  8
0
100
AcDbLine
 10
8.29125
 20
217.9795
 30
0.0
 11
10.86695
 21
218.3825
 31
0.0
  0
LINE
  5
262
330
1D
100
AcDbEntity
  8
0
100
AcDbLine
 10
10.86695
 20
218.3825
 30
0.0
 11
16.23325
 21
218.8475
 31
0.0
  0
LINE
  5
263
330
1D
100
AcDbEntity
  8
0
100
AcDbLine
 10
5.00095
 20
218.1715
 30
0.0
 11
7.29455
 21
217.7165
 31
0.0
  0
LINE
  5
264
330
1D
100
AcDbEntity
  8
0
100
AcDbLine
 10
2.39395
 20
219.9635
 30
0.0
 11
5.00095
 21
218.1715
 31
0.0
  0
LINE
  5
265
330
1D
100
AcDbEntity
  8
0
100
AcDbLine
 10
0.68185
 20
222.4565
 30
0.0
 11
2.39395
 21
219.9635
 31
0.0
  0
LINE
  5
266
330
1D
100
AcDbEntity
  8
0
100
AcDbLine
 10
7.29455
 20
217.7165
 30
0.0
 11
10.32445
 21
217.1335
 31
0.0
  0
LINE
  5
267
330
1D
100
AcDbEntity
  8
0
100
AcDbLine
 10
16.23325
 20
218.8475
 30
0.0
 11
23.89375
 21
219.3185
 31
0.0
  0
LINE
  5
268
330
1D
100
AcDbEntity
  8
0
100
AcDbLine
 10
23.89375
 20
219.3185
 30
0.0
 11
35.55135
 21
219.8005
 31
0.0
  0
LINE
  5
269
330
1D
100
AcDbEntity
  8
0
100
AcDbLine
 10
14.83355
 20
216.6905
 30
0.0
 11
23.32575
 21
216.2535
 31
0.0
  0
LINE
  5
26A
330
1D
100
AcDbEntity
  8
0
100
AcDbLine
 10
23.32575
 20
216.2535
 30
0.0
 11
33.09115
 21
215.8705
 31
0.0
  0
LINE
  5
26B
330
1D
100
AcDbEntity
  8
0
100
AcDbLine
 10
35.55135
 20
219.8005
 30
0.0
 11
85.64105
 21
228.6565
 31
0.0
  0
LINE
  5
26C
330
1D
100
AcDbEntity
  8
0
100
AcDbLine
 10
33.09115
 20
215.8705
 30
0.0
 11
46.82945
 21
215.5775
 31
0.0
  0
LINE
  5
26D
330
1D
100
AcDbEntity
  8
0
100
AcDbLine
 10
46.82945
 20
215.5775
 30
0.0
 11
64.62753
 21
215.2855
 31
0.0
  0
LINE
  5
26E
330
1D
100
AcDbEntity
  8
0
100
AcDbLine
 10
64.62753
 20
215.2855
 30
0.0
 11
82.61385
 21
215.1335
 31
0.0
  0
LINE
  5
26F
330
1D
100
AcDbEntity
  8
0
100
AcDbLine
 10
106.02865
 20
229.5755
 30
0.0
 11
111.99885
 21
229.960787610728
 31
0.0
  0
LINE
  5
270
330
1D
100
AcDbEntity
  8
0
100
AcDbLine
 10
96.22545
 20
229.0865
 30
0.0
 11
106.02865
 21
229.5755
 31
0.0
  0
LINE
  5
271
330
1D
100
AcDbEntity
  8
0
100
AcDbLine
 10
85.64105
 20
228.6565
 30
0.0
 11
96.22545
 21
229.0865
 31
0.0
  0
LINE
  5
272
330
1D
100
AcDbEntity
  8
0
100
AcDbLine
 10
8.23275
 20
233.9765
 30
0.0
 11
10.80845
 21
234.3785
 31
0.0
  0
LINE
  5
273
330
1D
100
AcDbEntity
  8
0
100
AcDbLine
 10
10.80845
 20
234.3785
 30
0.0
 11
16.17475
 21
234.8445
 31
0.0
  0
LINE
  5
274
330
1D
100
AcDbEntity
  8
0
100
AcDbLine
 10
16.17475
 20
234.8445
 30
0.0
 11
23.83525
 21
235.3155
 31
0.0
  0
LINE
  5
275
330
1D
100
AcDbEntity
  8
0
100
AcDbLine
 10
23.83525
 20
235.3155
 30
0.0
 11
35.49285
 21
235.7965
 31
0.0
  0
LINE
  5
276
330
1D
100
AcDbEntity
  8
0
100
AcDbLine
 10
105.97035
 20
245.5725
 30
0.0
 11
114.12095
 21
246.0985
 31
0.0
  0
LINE
  5
277
330
1D
100
AcDbEntity
  8
0
100
AcDbLine
 10
96.16615
 20
245.0825
 30
0.0
 11
105.97035
 21
245.5725
 31
0.0
  0
LINE
  5
278
330
1D
100
AcDbEntity
  8
0
100
AcDbLine
 10
85.58175
 20
244.6535
 30
0.0
 11
96.16615
 21
245.0825
 31
0.0
  0
LINE
  5
279
330
1D
100
AcDbEntity
  8
0
100
AcDbLine
 10
35.49285
 20
235.7965
 30
0.0
 11
85.58175
 21
244.6535
 31
0.0
  0
LINE
  5
27A
330
1D
100
AcDbEntity
  8
0
100
AcDbLine
 10
5.14265
 20
233.3695
 30
0.0
 11
8.23275
 21
233.9765
 31
0.0
  0
LINE
  5
27B
330
1D
100
AcDbEntity
  8
0
100
AcDbLine
 10
2.65535
 20
231.5645
 30
0.0
 11
5.14265
 21
233.3695
 31
0.0
  0
LINE
  5
27C
330
1D
100
AcDbEntity
  8
0
100
AcDbLine
 10
0.86895
 20
229.0605
 30
0.0
 11
2.65535
 21
231.5645
 31
0.0
  0
LINE
  5
27D
330
1D
100
AcDbEntity
  8
0
100
AcDbLine
 10
0.65925
 20
228.6555
 30
0.0
 11
0.86895
 21
229.0605
 31
0.0
  0
LINE
  5
27E
330
1D
100
AcDbEntity
  8
0
100
AcDbLine
 10
0.07205
 20
225.5545
 30
0.0
 11
0.65925
 21
228.6555
 31
0.0
  0
LINE
  5
27F
330
1D
100
AcDbEntity
  8
0
100
AcDbLine
 10
0.07205
 20
225.5545
 30
0.0
 11
0.68185
 21
222.4565
 31
0.0
  0
LINE
  5
280
330
1D
100
AcDbEntity
  8
0
100
AcDbLine
 10
68.57295
 20
215.252157779913
 30
0.0
 11
68.57295
 21
113.0025
 31
0.0
  0
LINE
  5
288
330
1D
100
AcDbEntity
  8
0
100
AcDbLine
 10
109.07005
 20
51.9866
 30
0.0
 11
109.37565
 21
50.6259
 31
0.0
  0
LINE
  5
289
330
1D
100
AcDbEntity
  8
0
100
AcDbLine
 10
109.87915
 20
49.2956
 30
0.0
 11
110.46405
 21
48.1397
 31
0.0
  0
LINE
  5
28A
330
1D
100
AcDbEntity
  8
0
100
AcDbLine
 10
111.36665
 20
46.9003
 30
0.0
 11
112.32145
 21
45.736
 31
0.0
  0
LINE
  5
28B
330
1D
100
AcDbEntity
  8
0
100
AcDbLine
 10
110.46405
 20
48.1397
 30
0.0
 11
111.36665
 21
46.9003
 31
0.0
  0
LINE
  5
28C
330
1D
100
AcDbEntity
  8
0
100
AcDbLine
 10
112.32145
 20
45.736
 30
0.0
 11
114.84405
 21
43.6565
 31
0.0
  0
LINE
  5
28D
330
1D
100
AcDbEntity
  8
0
100
AcDbLine
 10
109.37565
 20
50.6259
 30
0.0
 11
109.87915
 21
49.2956
 31
0.0
  0
LINE
  5
291
330
1D
100
AcDbEntity
  8
0
100
AcDbLine
 10
111.31535
 20
179.2865
 30
0.0
 11
112.71235
 21
182.2515
 31
0.0
  0
LINE
  5
292
330
1D
100
AcDbEntity
  8
0
100
AcDbLine
 10
112.71235
 20
182.2515
 30
0.0
 11
114.41085
 21
185.0515
 31
0.0
  0
LINE
  5
293
330
1D
100
AcDbEntity
  8
0
100
AcDbLine
 10
111.99885
 20
243.4395
 30
0.0
 11
111.99885
 21
243.5735
 31
0.0
  0
LINE
  5
294
330
1D
100
AcDbEntity
  8
0
100
AcDbLine
 10
111.99885
 20
242.5735
 30
0.0
 11
111.99885
 21
243.0735
 31
0.0
  0
LINE
  5
295
330
1D
100
AcDbEntity
  8
0
100
AcDbLine
 10
111.99885
 20
243.5735
 30
0.0
 11
111.99885
 21
183.5739
 31
0.0
  0
LINE
  5
296
330
1D
100
AcDbEntity
  8
0
100
AcDbLine
 10
111.99885
 20
243.5735
 30
0.0
 11
111.99885
 21
243.6985
 31
0.0
  0
LINE
  5
297
330
1D
100
AcDbEntity
  8
0
100
AcDbLine
 10
111.99885
 20
183.5739
 30
0.0
 11
111.99885
 21
243.5745
 31
0.0
  0
LINE
  5
298
330
1D
100
AcDbEntity
  8
0
100
AcDbLine
 10
111.99885
 20
183.5739
 30
0.0
 11
112.13285
 21
183.5739
 31
0.0
  0
LINE
  5
299
330
1D
100
AcDbEntity
  8
0
100
AcDbLine
 10
111.99885
 20
243.0735
 30
0.0
 11
111.99885
 21
242.5735
 31
0.0
  0
LINE
  5
29A
330
1D
100
AcDbEntity
  8
0
100
AcDbLine
 10
111.99885
 20
243.0735
 30
0.0
 11
111.99885
 21
243.4395
 31
0.0
  0
LINE
  5
29B
330
1D
100
AcDbEntity
  8
0
100
AcDbLine
 10
111.99885
 20
244.0735
 30
0.0
 11
111.99885
 21
243.5735
 31
0.0
  0
LINE
  5
29C
330
1D
100
AcDbEntity
  8
0
100
AcDbLine
 10
111.99885
 20
244.0745
 30
0.0
 11
111.99885
 21
244.4395
 31
0.0
  0
LINE
  5
29D
330
1D
100
AcDbEntity
  8
0
100
AcDbLine
 10
111.99885
 20
244.5735
 30
0.0
 11
111.99885
 21
244.4395
 31
0.0
  0
LINE
  5
29E
330
1D
100
AcDbEntity
  8
0
100
AcDbLine
 10
111.99885
 20
244.5735
 30
0.0
 11
112.13285
 21
245.0735
 31
0.0
  0
LINE
  5
29F
330
1D
100
AcDbEntity
  8
0
100
AcDbLine
 10
111.99885
 20
244.4395
 30
0.0
 11
111.99885
 21
244.5735
 31
0.0
  0
LINE
  5
2A0
330
1D
100
AcDbEntity
  8
0
100
AcDbLine
 10
111.99885
 20
244.4395
 30
0.0
 11
111.99885
 21
244.0735
 31
0.0
  0
LINE
  5
2A1
330
1D
100
AcDbEntity
  8
0
100
AcDbLine
 10
111.99885
 20
243.6985
 30
0.0
 11
111.99885
 21
243.5745
 31
0.0
  0
LINE
  5
2A2
330
1D
100
AcDbEntity
  8
0
100
AcDbLine
 10
111.99885
 20
243.5745
 30
0.0
 11
111.99885
 21
244.0745
 31
0.0
  0
LINE
  5
2A3
330
1D
100
AcDbEntity
  8
0
100
AcDbLine
 10
111.99885
 20
243.5745
 30
0.0
 11
111.99885
 21
243.4405
 31
0.0
  0
LINE
  5
2A4
330
1D
100
AcDbEntity
  8
0
100
AcDbLine
 10
112.13285
 20
183.5739
 30
0.0
 11
112.49885
 21
183.5739
 31
0.0
  0
LINE
  5
2A5
330
1D
100
AcDbEntity
  8
0
100
AcDbLine
 10
112.13285
 20
183.5739
 30
0.0
 11
112.236740803184
 21
183.5739
 31
0.0
  0
LINE
  5
2A6
330
1D
100
AcDbEntity
  8
0
100
AcDbLine
 10
112.49885
 20
245.4395
 30
0.0
 11
112.99885
 21
245.5735
 31
0.0
  0
LINE
  5
2A7
330
1D
100
AcDbEntity
  8
0
100
AcDbLine
 10
112.13285
 20
245.0735
 30
0.0
 11
112.49885
 21
245.4395
 31
0.0
  0
LINE
  5
2A8
330
1D
100
AcDbEntity
  8
0
100
AcDbLine
 10
112.49885
 20
183.5739
 30
0.0
 11
112.759250411523
 21
183.5739
 31
0.0
  0
LINE
  5
2A9
330
1D
100
AcDbEntity
  8
0
100
AcDbLine
 10
111.99885
 20
243.4405
 30
0.0
 11
111.99885
 21
243.0735
 31
0.0
  0
LINE
  5
2AA
330
1D
100
AcDbEntity
  8
0
100
AcDbLine
 10
111.60095
 20
182.9385
 30
0.0
 11
112.080497169811
 21
183.5739
 31
0.0
  0
LINE
  5
2AF
330
1D
100
AcDbEntity
  8
0
100
AcDbLine
 10
109.05215
 20
51.9683
 30
0.0
 11
109.76565
 21
34.1857
 31
0.0
  0
LINE
  5
2B0
330
1D
100
AcDbEntity
  8
0
100
AcDbLine
 10
109.05215
 20
51.9683
 30
0.0
 11
109.0593743086
 21
52.131416701383
 31
0.0
  0
LINE
  5
2B1
330
1D
100
AcDbEntity
  8
0
100
AcDbLine
 10
112.814573717989
 20
45.329494501087
 30
0.0
 11
112.94765
 21
45.1811
 31
0.0
  0
LINE
  5
2CE
330
1D
100
AcDbEntity
  8
0
100
AcDbLine
 10
115.36755
 20
238.2775
 30
0.0
 11
115.75275
 21
236.6545
 31
0.0
  0
LINE
  5
2D3
330
1D
100
AcDbEntity
  8
0
100
AcDbLine
 10
115.36735
 20
238.2775
 30
0.0
 11
115.75305
 21
236.6545
 31
0.0
  0
LINE
  5
2D4
330
1D
100
AcDbEntity
  8
0
100
AcDbLine
 10
115.17325
 20
239.9345
 30
0.0
 11
115.36735
 21
238.2775
 31
0.0
  0
LINE
  5
2D5
330
1D
100
AcDbEntity
  8
0
100
AcDbLine
 10
115.17325
 20
239.9345
 30
0.0
 11
115.36755
 21
238.2775
 31
0.0
  0
LINE
  5
2F6
330
1D
100
AcDbEntity
  8
0
100
AcDbLine
 10
114.12095
 20
246.0985
 30
0.0
 11
117.70759955328
 21
246.378123883199
 31
0.0
  0
LINE
  5
2F7
330
1D
100
AcDbEntity
  8
0
100
AcDbLine
 10
112.99885
 20
245.5735
 30
0.0
 11
115.09185
 21
245.5735
 31
0.0
  0
LINE
  5
2F8
330
1D
100
AcDbEntity
  8
0
100
AcDbLine
 10
115.09185
 20
245.5735
 30
0.0
 11
116.03485
 21
245.5345
 31
0.0
  0
LINE
  5
2FA
330
1D
100
AcDbEntity
  8
0
100
AcDbLine
 10
115.36605
 20
243.2605
 30
0.0
 11
115.74995
 21
244.8845
 31
0.0
  0
LINE
  5
2FB
330
1D
100
AcDbEntity
  8
0
100
AcDbLine
 10
115.36605
 20
243.2605
 30
0.0
 11
115.75015
 21
244.8845
 31
0.0
  0
LINE
  5
2FC
330
1D
100
AcDbEntity
  8
0
100
AcDbLine
 10
115.17285
 20
241.6035
 30
0.0
 11
115.36605
 21
243.2605
 31
0.0
  0
LINE
  5
2FD
330
1D
100
AcDbEntity
  8
0
100
AcDbLine
 10
115.17285
 20
241.6035
 30
0.0
 11
115.17325
 21
239.9345
 31
0.0
  0
LINE
  5
30E
330
1D
100
AcDbEntity
  8
0
100
AcDbLine
 10
115.50935
 20
245.4685
 30
0.0
 11
115.65495
 21
245.3485
 31
0.0
  0
LINE
  5
30F
330
1D
100
AcDbEntity
  8
0
100
AcDbLine
 10
115.65495
 20
245.3485
 30
0.0
 11
115.74575
 21
245.1855
 31
0.0
  0
LINE
  5
313
330
1D
100
AcDbEntity
  8
0
100
AcDbLine
 10
115.39785
 20
186.4115
 30
0.0
 11
116.34255
 21
187.4685
 31
0.0
  0
LINE
  5
314
330
1D
100
AcDbEntity
  8
0
100
AcDbLine
 10
114.41085
 20
185.0515
 30
0.0
 11
115.39785
 21
186.4115
 31
0.0
  0
LINE
  5
315
330
1D
100
AcDbEntity
  8
0
100
AcDbLine
 10
112.94765
 20
45.1811
 30
0.0
 11
114.25625
 21
44.0371
 31
0.0
  0
LINE
  5
316
330
1D
100
AcDbEntity
  8
0
100
AcDbLine
 10
114.25625
 20
44.0371
 30
0.0
 11
115.74165
 21
43.0068
 31
0.0
  0
LINE
  5
317
330
1D
100
AcDbEntity
  8
0
100
AcDbLine
 10
116.34255
 20
187.4685
 30
0.0
 11
116.47325
 21
187.7035
 31
0.0
  0
LINE
  5
318
330
1D
100
AcDbEntity
  8
0
100
AcDbLine
 10
116.47325
 20
187.7035
 30
0.0
 11
117.61595
 21
188.9155
 31
0.0
  0
LINE
  5
319
330
1D
100
AcDbEntity
  8
0
100
AcDbLine
 10
117.61595
 20
188.9155
 30
0.0
 11
118.62195
 21
189.9865
 31
0.0
  0
LINE
  5
31A
330
1D
100
AcDbEntity
  8
0
100
AcDbLine
 10
115.75275
 20
236.6545
 30
0.0
 11
116.32385
 21
235.0865
 31
0.0
  0
LINE
  5
31B
330
1D
100
AcDbEntity
  8
0
100
AcDbLine
 10
115.75005
 20
244.8845
 30
0.0
 11
115.77105
 21
245.0315
 31
0.0
  0
LINE
  5
31C
330
1D
100
AcDbEntity
  8
0
100
AcDbLine
 10
115.77105
 20
245.0315
 30
0.0
 11
115.98515
 21
245.0335
 31
0.0
  0
LINE
  5
31D
330
1D
100
AcDbEntity
  8
0
100
AcDbLine
 10
115.75305
 20
236.6545
 30
0.0
 11
116.32395
 21
235.0865
 31
0.0
  0
LINE
  5
31E
330
1D
100
AcDbEntity
  8
0
100
AcDbLine
 10
115.74995
 20
244.8845
 30
0.0
 11
115.77095
 21
245.0315
 31
0.0
  0
LINE
  5
31F
330
1D
100
AcDbEntity
  8
0
100
AcDbLine
 10
115.74575
 20
245.1855
 30
0.0
 11
115.77105
 21
245.0315
 31
0.0
  0
LINE
  5
322
330
1D
100
AcDbEntity
  8
0
100
AcDbLine
 10
115.77095
 20
245.0315
 30
0.0
 11
115.98515
 21
245.0335
 31
0.0
  0
LINE
  5
324
330
1D
100
AcDbEntity
  8
0
100
AcDbLine
 10
116.32385
 20
235.0865
 30
0.0
 11
117.07305
 21
233.5965
 31
0.0
  0
LINE
  5
32A
330
1D
100
AcDbEntity
  8
0
100
AcDbLine
 10
116.44895
 20
241.0735
 30
0.0
 11
116.91695
 21
237.7455
 31
0.0
  0
LINE
  5
32B
330
1D
100
AcDbEntity
  8
0
100
AcDbLine
 10
116.44895
 20
241.0735
 30
0.0
 11
116.91695
 21
244.4015
 31
0.0
  0
LINE
  5
32C
330
1D
100
AcDbEntity
  8
0
100
AcDbLine
 10
116.31995
 20
244.9785
 30
0.0
 11
116.56985
 21
244.8515
 31
0.0
  0
LINE
  5
32D
330
1D
100
AcDbEntity
  8
0
100
AcDbLine
 10
116.32395
 20
235.0865
 30
0.0
 11
117.07295
 21
233.5965
 31
0.0
  0
LINE
  5
332
330
1D
100
AcDbEntity
  8
0
100
AcDbLine
 10
116.70615
 20
239.1705
 30
0.0
 11
116.748062758925
 21
238.946475936536
 31
0.0
  0
LINE
  5
333
330
1D
100
AcDbEntity
  8
0
100
AcDbLine
 10
116.70615
 20
239.1705
 30
0.0
 11
116.7479741496
 21
238.947106047288
 31
0.0
  0
LINE
  5
334
330
1D
100
AcDbEntity
  8
0
100
AcDbLine
 10
116.697342448785
 20
239.307153697528
 30
0.0
 11
116.70615
 21
239.1705
 31
0.0
  0
LINE
  5
335
330
1D
100
AcDbEntity
  8
0
100
AcDbLine
 10
116.76575
 20
244.6695
 30
0.0
 11
116.90655
 21
244.4425
 31
0.0
  0
LINE
  5
336
330
1D
100
AcDbEntity
  8
0
100
AcDbLine
 10
116.697374945833
 20
239.306922607409
 30
0.0
 11
116.70615
 21
239.1705
 31
0.0
  0
LINE
  5
338
330
1D
100
AcDbEntity
  8
0
100
AcDbLine
 10
117.07305
 20
233.5965
 30
0.0
 11
117.99015
 21
232.2025
 31
0.0
  0
LINE
  5
33A
330
1D
100
AcDbEntity
  8
0
100
AcDbLine
 10
117.12007133758
 20
237.237696656051
 30
0.0
 11
117.45865
 21
236.1635
 31
0.0
  0
LINE
  5
33D
330
1D
100
AcDbEntity
  8
0
100
AcDbLine
 10
117.07295
 20
233.5965
 30
0.0
 11
117.99015
 21
232.2025
 31
0.0
  0
LINE
  5
34D
330
1D
100
AcDbEntity
  8
0
100
AcDbLine
 10
117.99015
 20
232.2025
 30
0.0
 11
119.06265
 21
230.9245
 31
0.0
  0
LINE
  5
359
330
1D
100
AcDbEntity
  8
0
100
AcDbLine
 10
119.06265
 20
230.9245
 30
0.0
 11
120.27635
 21
229.7795
 31
0.0
  0
LINE
  5
35D
330
1D
100
AcDbEntity
  8
0
100
AcDbLine
 10
118.16495
 20
234.6255
 30
0.0
 11
120.24495
 21
231.8695
 31
0.0
  0
LINE
  5
35E
330
1D
100
AcDbEntity
  8
0
100
AcDbLine
 10
119.04895
 20
235.0735
 30
0.0
 11
120.94895
 21
232.5735
 31
0.0
  0
LINE
  5
363
330
1D
100
AcDbEntity
  8
0
100
AcDbLine
 10
116.91695
 20
237.7455
 30
0.0
 11
118.16495
 21
234.6255
 31
0.0
  0
LINE
  5
364
330
1D
100
AcDbEntity
  8
0
100
AcDbLine
 10
116.91695
 20
244.4015
 30
0.0
 11
118.16495
 21
247.5215
 31
0.0
  0
LINE
  5
365
330
1D
100
AcDbEntity
  8
0
100
AcDbLine
 10
117.44895
 20
241.0735
 30
0.0
 11
117.84895
 21
244.1735
 31
0.0
  0
LINE
  5
366
330
1D
100
AcDbEntity
  8
0
100
AcDbLine
 10
117.44895
 20
241.0735
 30
0.0
 11
117.84895
 21
237.9735
 31
0.0
  0
LINE
  5
367
330
1D
100
AcDbEntity
  8
0
100
AcDbLine
 10
117.84895
 20
237.9735
 30
0.0
 11
119.04895
 21
235.0735
 31
0.0
  0
LINE
  5
368
330
1D
100
AcDbEntity
  8
0
100
AcDbLine
 10
118.44895
 20
241.0735
 30
0.0
 11
118.84895
 21
243.8735
 31
0.0
  0
LINE
  5
369
330
1D
100
AcDbEntity
  8
0
100
AcDbLine
 10
118.44895
 20
241.0735
 30
0.0
 11
118.84895
 21
238.2735
 31
0.0
  0
LINE
  5
36A
330
1D
100
AcDbEntity
  8
0
100
AcDbLine
 10
118.84895
 20
238.2735
 30
0.0
 11
119.94895
 21
235.5735
 31
0.0
  0
LINE
  5
36B
330
1D
100
AcDbEntity
  8
0
100
AcDbLine
 10
118.484664285714
 20
240.8235
 30
0.0
 11
120.983040909091
 21
240.8235
 31
0.0
  0
LINE
  5
36C
330
1D
100
AcDbEntity
  8
0
100
AcDbLine
 10
118.484664285714
 20
240.8235
 30
0.0
 11
127.19895
 21
240.8235
 31
0.0
  0
LINE
  5
36D
330
1D
100
AcDbEntity
  8
0
100
AcDbLine
 10
118.84895
 20
243.8735
 30
0.0
 11
119.94895
 21
246.5735
 31
0.0
  0
LINE
  5
36E
330
1D
100
AcDbEntity
  8
0
100
AcDbLine
 10
118.484664285714
 20
241.3235
 30
0.0
 11
127.19895
 21
241.3235
 31
0.0
  0
LINE
  5
36F
330
1D
100
AcDbEntity
  8
0
100
AcDbLine
 10
118.34895
 20
238.0735
 30
0.0
 11
119.44895
 21
235.3735
 31
0.0
  0
LINE
  5
370
330
1D
100
AcDbEntity
  8
0
100
AcDbLine
 10
118.34895
 20
244.0735
 30
0.0
 11
119.44895
 21
246.7735
 31
0.0
  0
LINE
  5
371
330
1D
100
AcDbEntity
  8
0
100
AcDbLine
 10
117.94895
 20
241.0735
 30
0.0
 11
118.34895
 21
244.0735
 31
0.0
  0
LINE
  5
372
330
1D
100
AcDbEntity
  8
0
100
AcDbLine
 10
117.94895
 20
241.0735
 30
0.0
 11
118.34895
 21
238.0735
 31
0.0
  0
LINE
  5
373
330
1D
100
AcDbEntity
  8
0
100
AcDbLine
 10
117.84895
 20
244.1735
 30
0.0
 11
119.04895
 21
247.0735
 31
0.0
  0
LINE
  5
374
330
1D
100
AcDbEntity
  8
0
100
AcDbLine
 10
117.119256932271
 20
237.239732669323
 30
0.0
 11
117.45855
 21
236.1635
 31
0.0
  0
LINE
  5
375
330
1D
100
AcDbEntity
  8
0
100
AcDbLine
 10
116.56985
 20
244.8515
 30
0.0
 11
116.76575
 21
244.6695
 31
0.0
  0
LINE
  5
376
330
1D
100
AcDbEntity
  8
0
100
AcDbLine
 10
116.76555
 20
244.6695
 30
0.0
 11
116.90675
 21
244.4425
 31
0.0
  0
LINE
  5
377
330
1D
100
AcDbEntity
  8
0
100
AcDbLine
 10
116.56975
 20
244.8515
 30
0.0
 11
116.76555
 21
244.6695
 31
0.0
  0
LINE
  5
37A
330
1D
100
AcDbEntity
  8
0
100
AcDbLine
 10
116.95185
 20
245.2315
 30
0.0
 11
117.165224658254
 21
245.022186645636
 31
0.0
  0
LINE
  5
37B
330
1D
100
AcDbEntity
  8
0
100
AcDbLine
 10
116.61995
 20
245.4205
 30
0.0
 11
116.95185
 21
245.2315
 31
0.0
  0
LINE
  5
37C
330
1D
100
AcDbEntity
  8
0
100
AcDbLine
 10
118.16495
 20
247.5215
 30
0.0
 11
120.24495
 21
250.2775
 31
0.0
  0
LINE
  5
37D
330
1D
100
AcDbEntity
  8
0
100
AcDbLine
 10
119.04895
 20
247.0735
 30
0.0
 11
120.94895
 21
249.5735
 31
0.0
  0
LINE
  5
37E
330
1D
100
AcDbEntity
  8
0
100
AcDbLine
 10
116.25085
 20
245.5205
 30
0.0
 11
116.61995
 21
245.4205
 31
0.0
  0
LINE
  5
37F
330
1D
100
AcDbEntity
  8
0
100
AcDbLine
 10
116.03485
 20
245.5345
 30
0.0
 11
116.25085
 21
245.5205
 31
0.0
  0
LINE
  5
380
330
1D
100
AcDbEntity
  8
0
100
AcDbLine
 10
116.32005
 20
244.9795
 30
0.0
 11
116.56975
 21
244.8515
 31
0.0
  0
LINE
  5
381
330
1D
100
AcDbEntity
  8
0
100
AcDbLine
 10
115.98515
 20
245.0335
 30
0.0
 11
116.32005
 21
244.9795
 31
0.0
  0
LINE
  5
382
330
1D
100
AcDbEntity
  8
0
100
AcDbLine
 10
115.98515
 20
245.0335
 30
0.0
 11
116.31995
 21
244.9785
 31
0.0
  0
LINE
  5
383
330
1D
100
AcDbEntity
  8
0
100
AcDbLine
 10
118.62195
 20
189.9865
 30
0.0
 11
119.86625
 21
191.1435
 31
0.0
  0
LINE
  5
384
330
1D
100
AcDbEntity
  8
0
100
AcDbLine
 10
115.74165
 20
43.0068
 30
0.0
 11
117.38385
 21
42.105
 31
0.0
  0
LINE
  5
385
330
1D
100
AcDbEntity
  8
0
100
AcDbLine
 10
117.38385
 20
42.105
 30
0.0
 11
119.16285
 21
41.341
 31
0.0
  0
LINE
  5
387
330
1D
100
AcDbEntity
  8
0
100
AcDbLine
 10
129.20605
 20
175.8805
 30
0.0
 11
130.20915
 21
174.3125
 31
0.0
  0
LINE
  5
38C
330
1D
100
AcDbEntity
  8
0
100
AcDbLine
 10
127.61305
 20
179.2025
 30
0.0
 11
128.33875
 21
177.5135
 31
0.0
  0
LINE
  5
391
330
1D
100
AcDbEntity
  8
0
100
AcDbLine
 10
127.03715
 20
180.9295
 30
0.0
 11
127.61305
 21
179.2025
 31
0.0
  0
LINE
  5
397
330
1D
100
AcDbEntity
  8
0
100
AcDbLine
 10
128.33875
 20
177.5135
 30
0.0
 11
129.20605
 21
175.8805
 31
0.0
  0
LINE
  5
398
330
1D
100
AcDbEntity
  8
0
100
AcDbLine
 10
133.94085
 20
170.1435
 30
0.0
 11
135.39005
 21
168.9705
 31
0.0
  0
LINE
  5
39C
330
1D
100
AcDbEntity
  8
0
100
AcDbLine
 10
135.39005
 20
168.9705
 30
0.0
 11
136.92175
 21
167.9255
 31
0.0
  0
LINE
  5
3A0
330
1D
100
AcDbEntity
  8
0
100
AcDbLine
 10
131.33975
 20
172.8245
 30
0.0
 11
132.58705
 21
171.4315
 31
0.0
  0
LINE
  5
3A1
330
1D
100
AcDbEntity
  8
0
100
AcDbLine
 10
130.20915
 20
174.3125
 30
0.0
 11
131.33975
 21
172.8245
 31
0.0
  0
LINE
  5
3A4
330
1D
100
AcDbEntity
  8
0
100
AcDbLine
 10
132.58705
 20
171.4315
 30
0.0
 11
133.94085
 21
170.1435
 31
0.0
  0
LINE
  5
3B0
330
1D
100
AcDbEntity
  8
0
100
AcDbLine
 10
126.43315
 20
183.7685
 30
0.0
 11
126.68445
 21
182.3445
 31
0.0
  0
LINE
  5
3B1
330
1D
100
AcDbEntity
  8
0
100
AcDbLine
 10
126.28645
 20
185.1915
 30
0.0
 11
126.43315
 21
183.7685
 31
0.0
  0
LINE
  5
3B2
330
1D
100
AcDbEntity
  8
0
100
AcDbLine
 10
126.24425
 20
186.6075
 30
0.0
 11
126.30755
 21
188.0075
 31
0.0
  0
LINE
  5
3B3
330
1D
100
AcDbEntity
  8
0
100
AcDbLine
 10
126.24425
 20
186.6075
 30
0.0
 11
126.28645
 21
185.1915
 31
0.0
  0
LINE
  5
3B4
330
1D
100
AcDbEntity
  8
0
100
AcDbLine
 10
126.30755
 20
188.0075
 30
0.0
 11
126.50955
 21
189.5885
 31
0.0
  0
LINE
  5
3B5
330
1D
100
AcDbEntity
  8
0
100
AcDbLine
 10
126.68445
 20
182.3445
 30
0.0
 11
127.03715
 21
180.9295
 31
0.0
  0
LINE
  5
3C1
330
1D
100
AcDbEntity
  8
0
100
AcDbLine
 10
136.92175
 20
167.9255
 30
0.0
 11
138.52375
 21
167.0145
 31
0.0
  0
LINE
  5
3C3
330
1D
100
AcDbEntity
  8
0
100
AcDbLine
 10
136.44335
 20
41.6853
 30
0.0
 11
139.62935
 21
43.2428
 31
0.0
  0
LINE
  5
3CE
330
1D
100
AcDbEntity
  8
0
100
AcDbLine
 10
119.44895
 20
235.3735
 30
0.0
 11
121.34895
 21
232.9735
 31
0.0
  0
LINE
  5
3CF
330
1D
100
AcDbEntity
  8
0
100
AcDbLine
 10
119.848567261296
 20
235.819893995
 30
0.0
 11
127.37535
 21
240.1655
 31
0.0
  0
LINE
  5
3D0
330
1D
100
AcDbEntity
  8
0
100
AcDbLine
 10
119.848567261296
 20
235.819893995
 30
0.0
 11
121.978503004941
 21
237.049617487649
 31
0.0
  0
LINE
  5
3D1
330
1D
100
AcDbEntity
  8
0
100
AcDbLine
 10
119.848897087712
 20
246.32791557893
 30
0.0
 11
127.37535
 21
241.9825
 31
0.0
  0
LINE
  5
3D2
330
1D
100
AcDbEntity
  8
0
100
AcDbLine
 10
119.848897087712
 20
246.32791557893
 30
0.0
 11
121.978827959601
 21
245.098194899002
 31
0.0
  0
LINE
  5
3D3
330
1D
100
AcDbEntity
  8
0
100
AcDbLine
 10
119.44895
 20
246.7735
 30
0.0
 11
121.34895
 21
249.1735
 31
0.0
  0
LINE
  5
3D6
330
1D
100
AcDbEntity
  8
0
100
AcDbLine
 10
119.94895
 20
235.5735
 30
0.0
 11
121.64895
 21
233.2735
 31
0.0
  0
LINE
  5
3D7
330
1D
100
AcDbEntity
  8
0
100
AcDbLine
 10
119.94895
 20
246.5735
 30
0.0
 11
121.64895
 21
248.8735
 31
0.0
  0
LINE
  5
3D8
330
1D
100
AcDbEntity
  8
0
100
AcDbLine
 10
120.24495
 20
231.8695
 30
0.0
 11
123.00095
 21
229.7895
 31
0.0
  0
LINE
  5
3D9
330
1D
100
AcDbEntity
  8
0
100
AcDbLine
 10
120.090372990336
 20
235.382163013075
 30
0.0
 11
122.242473867708
 21
236.624683598661
 31
0.0
  0
LINE
  5
3DA
330
1D
100
AcDbEntity
  8
0
100
AcDbLine
 10
120.090372990336
 20
235.382163013075
 30
0.0
 11
127.62535
 21
239.7325
 31
0.0
  0
LINE
  5
3DB
330
1D
100
AcDbEntity
  8
0
100
AcDbLine
 10
120.24495
 20
250.2775
 30
0.0
 11
123.00095
 21
252.3575
 31
0.0
  0
LINE
  5
3DC
330
1D
100
AcDbEntity
  8
0
100
AcDbLine
 10
120.090891046251
 20
246.765537886104
 30
0.0
 11
122.243010617151
 21
245.523006507765
 31
0.0
  0
LINE
  5
3DD
330
1D
100
AcDbEntity
  8
0
100
AcDbLine
 10
120.090891046251
 20
246.765537886104
 30
0.0
 11
127.62535
 21
242.4155
 31
0.0
  0
LINE
  5
3E4
330
1D
100
AcDbEntity
  8
0
100
AcDbLine
 10
120.27635
 20
229.7795
 30
0.0
 11
121.61505
 21
228.7835
 31
0.0
  0
LINE
  5
3E5
330
1D
100
AcDbEntity
  8
0
100
AcDbLine
 10
120.27635
 20
229.7795
 30
0.0
 11
121.61485
 21
228.7835
 31
0.0
  0
LINE
  5
3E9
330
1D
100
AcDbEntity
  8
0
100
AcDbLine
 10
121.61485
 20
228.7835
 30
0.0
 11
123.05995
 21
227.9495
 31
0.0
  0
LINE
  5
3EA
330
1D
100
AcDbEntity
  8
0
100
AcDbLine
 10
120.94895
 20
241.0735
 30
0.0
 11
121.24895
 21
243.2735
 31
0.0
  0
LINE
  5
3EB
330
1D
100
AcDbEntity
  8
0
100
AcDbLine
 10
120.94895
 20
241.0735
 30
0.0
 11
121.24895
 21
238.8735
 31
0.0
  0
LINE
  5
3EC
330
1D
100
AcDbEntity
  8
0
100
AcDbLine
 10
120.983040909091
 20
240.8235
 30
0.0
 11
121.24895
 21
238.8735
 31
0.0
  0
LINE
  5
3ED
330
1D
100
AcDbEntity
  8
0
100
AcDbLine
 10
120.983040909091
 20
241.3235
 30
0.0
 11
121.24895
 21
243.2735
 31
0.0
  0
LINE
  5
3EE
330
1D
100
AcDbEntity
  8
0
100
AcDbLine
 10
120.94895
 20
232.5735
 30
0.0
 11
123.44895
 21
230.6735
 31
0.0
  0
LINE
  5
3EF
330
1D
100
AcDbEntity
  8
0
100
AcDbLine
 10
120.94895
 20
249.5735
 30
0.0
 11
123.44895
 21
251.4735
 31
0.0
  0
LINE
  5
3F0
330
1D
100
AcDbEntity
  8
0
100
AcDbLine
 10
121.24895
 20
238.8735
 30
0.0
 11
121.978503004941
 21
237.049617487649
 31
0.0
  0
LINE
  5
3F1
330
1D
100
AcDbEntity
  8
0
100
AcDbLine
 10
121.24895
 20
238.8735
 30
0.0
 11
122.04895
 21
236.8735
 31
0.0
  0
LINE
  5
3F2
330
1D
100
AcDbEntity
  8
0
100
AcDbLine
 10
121.24895
 20
243.2735
 30
0.0
 11
121.978827959601
 21
245.098194899002
 31
0.0
  0
LINE
  5
3F3
330
1D
100
AcDbEntity
  8
0
100
AcDbLine
 10
121.24895
 20
243.2735
 30
0.0
 11
122.04895
 21
245.2735
 31
0.0
  0
LINE
  5
3F4
330
1D
100
AcDbEntity
  8
0
100
AcDbLine
 10
121.44895
 20
241.0735
 30
0.0
 11
121.74895
 21
243.1735
 31
0.0
  0
LINE
  5
3F5
330
1D
100
AcDbEntity
  8
0
100
AcDbLine
 10
121.44895
 20
241.0735
 30
0.0
 11
121.74895
 21
238.9735
 31
0.0
  0
LINE
  5
3F6
330
1D
100
AcDbEntity
  8
0
100
AcDbLine
 10
121.484664285714
 20
240.8235
 30
0.0
 11
123.984664285714
 21
240.8235
 31
0.0
  0
LINE
  5
3F7
330
1D
100
AcDbEntity
  8
0
100
AcDbLine
 10
121.34895
 20
232.9735
 30
0.0
 11
123.74895
 21
231.0735
 31
0.0
  0
LINE
  5
3F8
330
1D
100
AcDbEntity
  8
0
100
AcDbLine
 10
121.34895
 20
249.1735
 30
0.0
 11
123.74895
 21
251.0735
 31
0.0
  0
LINE
  5
405
330
1D
100
AcDbEntity
  8
0
100
AcDbLine
 10
121.74895
 20
238.9735
 30
0.0
 11
122.54895
 21
237.0735
 31
0.0
  0
LINE
  5
406
330
1D
100
AcDbEntity
  8
0
100
AcDbLine
 10
122.04895
 20
236.8735
 30
0.0
 11
123.44895
 21
235.0735
 31
0.0
  0
LINE
  5
407
330
1D
100
AcDbEntity
  8
0
100
AcDbLine
 10
121.64895
 20
233.2735
 30
0.0
 11
123.94895
 21
231.5735
 31
0.0
  0
LINE
  5
408
330
1D
100
AcDbEntity
  8
0
100
AcDbLine
 10
121.64895
 20
233.2735
 30
0.0
 11
123.75694151946
 21
231.715419311704
 31
0.0
  0
LINE
  5
409
330
1D
100
AcDbEntity
  8
0
100
AcDbLine
 10
121.64895
 20
248.8735
 30
0.0
 11
123.94895
 21
250.5735
 31
0.0
  0
LINE
  5
40A
330
1D
100
AcDbEntity
  8
0
100
AcDbLine
 10
121.74895
 20
243.1735
 30
0.0
 11
122.54895
 21
245.0735
 31
0.0
  0
LINE
  5
40B
330
1D
100
AcDbEntity
  8
0
100
AcDbLine
 10
122.04895
 20
245.2735
 30
0.0
 11
123.44895
 21
247.0735
 31
0.0
  0
LINE
  5
40D
330
1D
100
AcDbEntity
  8
0
100
AcDbLine
 10
121.61505
 20
228.7835
 30
0.0
 11
123.05995
 21
227.9495
 31
0.0
  0
LINE
  5
40E
330
1D
100
AcDbEntity
  8
0
100
AcDbLine
 10
122.17285
 20
193.1175
 30
0.0
 11
124.08135
 21
194.6155
 31
0.0
  0
LINE
  5
40F
330
1D
100
AcDbEntity
  8
0
100
AcDbLine
 10
120.83305
 20
191.9835
 30
0.0
 11
121.01395
 21
192.1505
 31
0.0
  0
LINE
  5
410
330
1D
100
AcDbEntity
  8
0
100
AcDbLine
 10
120.83305
 20
191.9835
 30
0.0
 11
122.17285
 21
193.1175
 31
0.0
  0
LINE
  5
411
330
1D
100
AcDbEntity
  8
0
100
AcDbLine
 10
119.86625
 20
191.1435
 30
0.0
 11
121.01395
 21
192.1505
 31
0.0
  0
LINE
  5
412
330
1D
100
AcDbEntity
  8
0
100
AcDbLine
 10
126.50955
 20
189.5885
 30
0.0
 11
126.84925
 21
191.1265
 31
0.0
  0
LINE
  5
413
330
1D
100
AcDbEntity
  8
0
100
AcDbLine
 10
126.84925
 20
191.1265
 30
0.0
 11
127.32365
 21
192.6105
 31
0.0
  0
LINE
  5
41B
330
1D
100
AcDbEntity
  8
0
100
AcDbLine
 10
122.242473867708
 20
236.624683598661
 30
0.0
 11
123.44895
 21
235.0735
 31
0.0
  0
LINE
  5
41C
330
1D
100
AcDbEntity
  8
0
100
AcDbLine
 10
122.243010617151
 20
245.523006507765
 30
0.0
 11
123.44895
 21
247.0735
 31
0.0
  0
LINE
  5
41D
330
1D
100
AcDbEntity
  8
0
100
AcDbLine
 10
123.00095
 20
229.7895
 30
0.0
 11
126.12095
 21
228.5415
 31
0.0
  0
LINE
  5
41E
330
1D
100
AcDbEntity
  8
0
100
AcDbLine
 10
122.54895
 20
237.0735
 30
0.0
 11
123.84895
 21
235.4735
 31
0.0
  0
LINE
  5
41F
330
1D
100
AcDbEntity
  8
0
100
AcDbLine
 10
122.699311386452
 20
236.888439832059
 30
0.0
 11
124.837066575046
 21
238.122677899939
 31
0.0
  0
LINE
  5
420
330
1D
100
AcDbEntity
  8
0
100
AcDbLine
 10
122.445484565196
 20
237.31923040766
 30
0.0
 11
124.580368861842
 21
238.551810959212
 31
0.0
  0
LINE
  5
421
330
1D
100
AcDbEntity
  8
0
100
AcDbLine
 10
122.54895
 20
245.0735
 30
0.0
 11
123.84895
 21
246.6735
 31
0.0
  0
LINE
  5
422
330
1D
100
AcDbEntity
  8
0
100
AcDbLine
 10
123.00095
 20
252.3575
 30
0.0
 11
126.12095
 21
253.6055
 31
0.0
  0
LINE
  5
423
330
1D
100
AcDbEntity
  8
0
100
AcDbLine
 10
122.699864446594
 20
245.259240857346
 30
0.0
 11
124.837589947355
 21
244.025019929807
 31
0.0
  0
LINE
  5
424
330
1D
100
AcDbEntity
  8
0
100
AcDbLine
 10
122.44582327815
 20
244.828574035607
 30
0.0
 11
124.580683589287
 21
243.596007332146
 31
0.0
  0
LINE
  5
430
330
1D
100
AcDbEntity
  8
0
100
AcDbLine
 10
124.59175
 20
227.2885
 30
0.0
 11
126.19025
 21
226.8105
 31
0.0
  0
LINE
  5
437
330
1D
100
AcDbEntity
  8
0
100
AcDbLine
 10
123.44895
 20
235.0735
 30
0.0
 11
124.99949444838
 21
233.867520984594
 31
0.0
  0
LINE
  5
438
330
1D
100
AcDbEntity
  8
0
100
AcDbLine
 10
123.44895
 20
235.0735
 30
0.0
 11
125.24895
 21
233.6735
 31
0.0
  0
LINE
  5
439
330
1D
100
AcDbEntity
  8
0
100
AcDbLine
 10
123.44895
 20
247.0735
 30
0.0
 11
124.99989289003
 21
248.279788914468
 31
0.0
  0
LINE
  5
43A
330
1D
100
AcDbEntity
  8
0
100
AcDbLine
 10
123.44895
 20
247.0735
 30
0.0
 11
125.24895
 21
248.4735
 31
0.0
  0
LINE
  5
43B
330
1D
100
AcDbEntity
  8
0
100
AcDbLine
 10
123.44895
 20
230.6735
 30
0.0
 11
126.34895
 21
229.4735
 31
0.0
  0
LINE
  5
43C
330
1D
100
AcDbEntity
  8
0
100
AcDbLine
 10
123.44895
 20
251.4735
 30
0.0
 11
126.34895
 21
252.6735
 31
0.0
  0
LINE
  5
43F
330
1D
100
AcDbEntity
  8
0
100
AcDbLine
 10
123.75694151946
 20
231.715419311704
 30
0.0
 11
128.10745
 21
239.2505
 31
0.0
  0
LINE
  5
440
330
1D
100
AcDbEntity
  8
0
100
AcDbLine
 10
123.75694151946
 20
231.715419311704
 30
0.0
 11
124.99949444838
 21
233.867520984594
 31
0.0
  0
LINE
  5
441
330
1D
100
AcDbEntity
  8
0
100
AcDbLine
 10
123.757346192554
 20
250.431879794496
 30
0.0
 11
124.99989289003
 21
248.279788914468
 31
0.0
  0
LINE
  5
442
330
1D
100
AcDbEntity
  8
0
100
AcDbLine
 10
123.757346192554
 20
250.431879794496
 30
0.0
 11
128.10745
 21
242.8975
 31
0.0
  0
LINE
  5
443
330
1D
100
AcDbEntity
  8
0
100
AcDbLine
 10
123.74895
 20
231.0735
 30
0.0
 11
126.44895
 21
229.9735
 31
0.0
  0
LINE
  5
444
330
1D
100
AcDbEntity
  8
0
100
AcDbLine
 10
123.74895
 20
251.0735
 30
0.0
 11
126.44895
 21
252.1735
 31
0.0
  0
LINE
  5
445
330
1D
100
AcDbEntity
  8
0
100
AcDbLine
 10
123.84895
 20
235.4735
 30
0.0
 11
125.44895
 21
234.1735
 31
0.0
  0
LINE
  5
446
330
1D
100
AcDbEntity
  8
0
100
AcDbLine
 10
123.984664285714
 20
240.8235
 30
0.0
 11
124.14895
 21
239.6735
 31
0.0
  0
LINE
  5
447
330
1D
100
AcDbEntity
  8
0
100
AcDbLine
 10
123.94895
 20
231.5735
 30
0.0
 11
126.64895
 21
230.4735
 31
0.0
  0
LINE
  5
448
330
1D
100
AcDbEntity
  8
0
100
AcDbLine
 10
123.84895
 20
246.6735
 30
0.0
 11
125.44895
 21
247.9735
 31
0.0
  0
LINE
  5
449
330
1D
100
AcDbEntity
  8
0
100
AcDbLine
 10
123.84895
 20
246.6735
 30
0.0
 11
125.263657015131
 21
247.822949449794
 31
0.0
  0
LINE
  5
44A
330
1D
100
AcDbEntity
  8
0
100
AcDbLine
 10
123.94895
 20
250.5735
 30
0.0
 11
126.64895
 21
251.6735
 31
0.0
  0
LINE
  5
44B
330
1D
100
AcDbEntity
  8
0
100
AcDbLine
 10
123.94895
 20
241.0735
 30
0.0
 11
124.14895
 21
242.4735
 31
0.0
  0
LINE
  5
44C
330
1D
100
AcDbEntity
  8
0
100
AcDbLine
 10
123.94895
 20
241.0735
 30
0.0
 11
124.14895
 21
239.6735
 31
0.0
  0
LINE
  5
44D
330
1D
100
AcDbEntity
  8
0
100
AcDbLine
 10
124.14895
 20
239.6735
 30
0.0
 11
124.580368861842
 21
238.551810959212
 31
0.0
  0
LINE
  5
44E
330
1D
100
AcDbEntity
  8
0
100
AcDbLine
 10
124.14895
 20
239.6735
 30
0.0
 11
124.64895
 21
238.3735
 31
0.0
  0
LINE
  5
44F
330
1D
100
AcDbEntity
  8
0
100
AcDbLine
 10
124.14895
 20
242.4735
 30
0.0
 11
124.580683589287
 21
243.596007332146
 31
0.0
  0
LINE
  5
450
330
1D
100
AcDbEntity
  8
0
100
AcDbLine
 10
124.14895
 20
242.4735
 30
0.0
 11
124.64895
 21
243.7735
 31
0.0
  0
LINE
  5
451
330
1D
100
AcDbEntity
  8
0
100
AcDbLine
 10
123.984664285714
 20
241.3235
 30
0.0
 11
124.14895
 21
242.4735
 31
0.0
  0
LINE
  5
452
330
1D
100
AcDbEntity
  8
0
100
AcDbLine
 10
124.1945684821
 20
231.473433210996
 30
0.0
 11
128.54045
 21
239.0005
 31
0.0
  0
LINE
  5
453
330
1D
100
AcDbEntity
  8
0
100
AcDbLine
 10
124.64895
 20
239.7735
 30
0.0
 11
125.14895
 21
238.5735
 31
0.0
  0
LINE
  5
454
330
1D
100
AcDbEntity
  8
0
100
AcDbLine
 10
124.64895
 20
238.3735
 30
0.0
 11
125.54895
 21
237.1735
 31
0.0
  0
LINE
  5
455
330
1D
100
AcDbEntity
  8
0
100
AcDbLine
 10
124.44895
 20
241.0735
 30
0.0
 11
124.64895
 21
242.3735
 31
0.0
  0
LINE
  5
456
330
1D
100
AcDbEntity
  8
0
100
AcDbLine
 10
124.44895
 20
241.0735
 30
0.0
 11
124.64895
 21
239.7735
 31
0.0
  0
LINE
  5
457
330
1D
100
AcDbEntity
  8
0
100
AcDbLine
 10
124.64895
 20
242.3735
 30
0.0
 11
125.14895
 21
243.5735
 31
0.0
  0
LINE
  5
458
330
1D
100
AcDbEntity
  8
0
100
AcDbLine
 10
124.64895
 20
243.7735
 30
0.0
 11
125.54895
 21
244.9735
 31
0.0
  0
LINE
  5
459
330
1D
100
AcDbEntity
  8
0
100
AcDbLine
 10
124.487411538462
 20
240.8235
 30
0.0
 11
126.990616666667
 21
240.8235
 31
0.0
  0
LINE
  5
45A
330
1D
100
AcDbEntity
  8
0
100
AcDbLine
 10
124.195035901253
 20
250.673757219029
 30
0.0
 11
128.54045
 21
243.1475
 31
0.0
  0
LINE
  5
45B
330
1D
100
AcDbEntity
  8
0
100
AcDbLine
 10
124.195035901253
 20
250.673757219029
 30
0.0
 11
126.64895
 21
251.6735
 31
0.0
  0
LINE
  5
463
330
1D
100
AcDbEntity
  8
0
100
AcDbLine
 10
123.05995
 20
227.9495
 30
0.0
 11
124.59195
 21
227.2885
 31
0.0
  0
LINE
  5
464
330
1D
100
AcDbEntity
  8
0
100
AcDbLine
 10
123.05995
 20
227.9495
 30
0.0
 11
124.59175
 21
227.2885
 31
0.0
  0
LINE
  5
465
330
1D
100
AcDbEntity
  8
0
100
AcDbLine
 10
124.08135
 20
194.6155
 30
0.0
 11
124.82005
 21
195.1715
 31
0.0
  0
LINE
  5
466
330
1D
100
AcDbEntity
  8
0
100
AcDbLine
 10
127.32365
 20
192.6105
 30
0.0
 11
127.92765
 21
194.0285
 31
0.0
  0
LINE
  5
467
330
1D
100
AcDbEntity
  8
0
100
AcDbLine
 10
127.92765
 20
194.0285
 30
0.0
 11
128.65935
 21
195.3725
 31
0.0
  0
LINE
  5
46D
330
1D
100
AcDbEntity
  8
0
100
AcDbLine
 10
126.75175
 20
196.5475
 30
0.0
 11
128.65735
 21
197.7855
 31
0.0
  0
LINE
  5
46E
330
1D
100
AcDbEntity
  8
0
100
AcDbLine
 10
128.65935
 20
195.3725
 30
0.0
 11
129.13475
 21
196.1355
 31
0.0
  0
LINE
  5
46F
330
1D
100
AcDbEntity
  8
0
100
AcDbLine
 10
130.57995
 20
198.1265
 30
0.0
 11
131.20005
 21
198.8105
 31
0.0
  0
LINE
  5
470
330
1D
100
AcDbEntity
  8
0
100
AcDbLine
 10
129.81315
 20
197.1515
 30
0.0
 11
130.57995
 21
198.1265
 31
0.0
  0
LINE
  5
471
330
1D
100
AcDbEntity
  8
0
100
AcDbLine
 10
129.13475
 20
196.1355
 30
0.0
 11
129.81315
 21
197.1515
 31
0.0
  0
LINE
  5
472
330
1D
100
AcDbEntity
  8
0
100
AcDbLine
 10
128.65735
 20
197.7855
 30
0.0
 11
129.52965
 21
198.3025
 31
0.0
  0
LINE
  5
473
330
1D
100
AcDbEntity
  8
0
100
AcDbLine
 10
124.837066575046
 20
238.122677899939
 30
0.0
 11
125.54895
 21
237.1735
 31
0.0
  0
LINE
  5
474
330
1D
100
AcDbEntity
  8
0
100
AcDbLine
 10
124.837589947355
 20
244.025019929807
 30
0.0
 11
125.54895
 21
244.9735
 31
0.0
  0
LINE
  5
481
330
1D
100
AcDbEntity
  8
0
100
AcDbLine
 10
127.83325
 20
226.5205
 30
0.0
 11
129.49885
 21
226.4245
 31
0.0
  0
LINE
  5
48A
330
1D
100
AcDbEntity
  8
0
100
AcDbLine
 10
126.19025
 20
226.8105
 30
0.0
 11
127.83325
 21
226.5205
 31
0.0
  0
LINE
  5
48D
330
1D
100
AcDbEntity
  8
0
100
AcDbLine
 10
126.19035
 20
226.8105
 30
0.0
 11
127.83335
 21
226.5215
 31
0.0
  0
LINE
  5
48E
330
1D
100
AcDbEntity
  8
0
100
AcDbLine
 10
127.83335
 20
226.5215
 30
0.0
 11
129.49905
 21
226.4235
 31
0.0
  0
LINE
  5
499
330
1D
100
AcDbEntity
  8
0
100
AcDbLine
 10
129.49885
 20
226.4245
 30
0.0
 11
131.16445
 21
226.5205
 31
0.0
  0
LINE
  5
4A4
330
1D
100
AcDbEntity
  8
0
100
AcDbLine
 10
131.16445
 20
226.5205
 30
0.0
 11
132.80745
 21
226.8105
 31
0.0
  0
LINE
  5
4AA
330
1D
100
AcDbEntity
  8
0
100
AcDbLine
 10
129.44895
 20
228.0735
 30
0.0
 11
132.77695
 21
228.5415
 31
0.0
  0
LINE
  5
4B0
330
1D
100
AcDbEntity
  8
0
100
AcDbLine
 10
126.12095
 20
228.5415
 30
0.0
 11
129.44895
 21
228.0735
 31
0.0
  0
LINE
  5
4B1
330
1D
100
AcDbEntity
  8
0
100
AcDbLine
 10
125.045978433928
 20
238.820631758574
 30
0.0
 11
127.187725207477
 21
240.057174377569
 31
0.0
  0
LINE
  5
4B2
330
1D
100
AcDbEntity
  8
0
100
AcDbLine
 10
125.24895
 20
233.6735
 30
0.0
 11
127.24895
 21
232.8735
 31
0.0
  0
LINE
  5
4B3
330
1D
100
AcDbEntity
  8
0
100
AcDbLine
 10
125.14895
 20
238.5735
 30
0.0
 11
125.94895
 21
237.5735
 31
0.0
  0
LINE
  5
4B4
330
1D
100
AcDbEntity
  8
0
100
AcDbLine
 10
125.14895
 20
243.5735
 30
0.0
 11
125.94895
 21
244.5735
 31
0.0
  0
LINE
  5
4B5
330
1D
100
AcDbEntity
  8
0
100
AcDbLine
 10
125.263264010611
 20
234.324369866378
 30
0.0
 11
126.497508420629
 21
236.462081184529
 31
0.0
  0
LINE
  5
4B6
330
1D
100
AcDbEntity
  8
0
100
AcDbLine
 10
125.046314302803
 20
243.327174326728
 30
0.0
 11
127.188004743819
 21
242.090664231456
 31
0.0
  0
LINE
  5
4B7
330
1D
100
AcDbEntity
  8
0
100
AcDbLine
 10
125.046314302803
 20
243.327174326728
 30
0.0
 11
127.188004743819
 21
242.090664231456
 31
0.0
  0
LINE
  5
4B8
330
1D
100
AcDbEntity
  8
0
100
AcDbLine
 10
125.24895
 20
248.4735
 30
0.0
 11
127.24895
 21
249.2735
 31
0.0
  0
LINE
  5
4B9
330
1D
100
AcDbEntity
  8
0
100
AcDbLine
 10
125.263657015131
 20
247.822949449794
 30
0.0
 11
126.497911321515
 21
245.685220991136
 31
0.0
  0
LINE
  5
4BA
330
1D
100
AcDbEntity
  8
0
100
AcDbLine
 10
125.94895
 20
237.5735
 30
0.0
 11
126.94895
 21
236.7735
 31
0.0
  0
LINE
  5
4BB
330
1D
100
AcDbEntity
  8
0
100
AcDbLine
 10
125.54895
 20
237.1735
 30
0.0
 11
126.497508420629
 21
236.462081184529
 31
0.0
  0
LINE
  5
4BC
330
1D
100
AcDbEntity
  8
0
100
AcDbLine
 10
125.54895
 20
237.1735
 30
0.0
 11
126.74895
 21
236.2735
 31
0.0
  0
LINE
  5
4BD
330
1D
100
AcDbEntity
  8
0
100
AcDbLine
 10
125.44895
 20
234.1735
 30
0.0
 11
127.34895
 21
233.3735
 31
0.0
  0
LINE
  5
4BE
330
1D
100
AcDbEntity
  8
0
100
AcDbLine
 10
125.424314915572
 20
233.603354033771
 30
0.0
 11
127.24895
 21
232.8735
 31
0.0
  0
LINE
  5
4BF
330
1D
100
AcDbEntity
  8
0
100
AcDbLine
 10
125.297118169771
 20
238.388289787787
 30
0.0
 11
127.421436594653
 21
239.614770108021
 31
0.0
  0
LINE
  5
4C0
330
1D
100
AcDbEntity
  8
0
100
AcDbLine
 10
125.94895
 20
244.5735
 30
0.0
 11
126.94895
 21
245.3735
 31
0.0
  0
LINE
  5
4C1
330
1D
100
AcDbEntity
  8
0
100
AcDbLine
 10
125.54895
 20
244.9735
 30
0.0
 11
126.497911321515
 21
245.685220991136
 31
0.0
  0
LINE
  5
4C2
330
1D
100
AcDbEntity
  8
0
100
AcDbLine
 10
125.54895
 20
244.9735
 30
0.0
 11
126.74895
 21
245.8735
 31
0.0
  0
LINE
  5
4C3
330
1D
100
AcDbEntity
  8
0
100
AcDbLine
 10
125.694405216584
 20
248.076849564877
 30
0.0
 11
127.34895
 21
248.7735
 31
0.0
  0
LINE
  5
4C4
330
1D
100
AcDbEntity
  8
0
100
AcDbLine
 10
125.44895
 20
247.9735
 30
0.0
 11
127.34895
 21
248.7735
 31
0.0
  0
LINE
  5
4C5
330
1D
100
AcDbEntity
  8
0
100
AcDbLine
 10
125.297665409594
 20
243.759394261993
 30
0.0
 11
127.421917976629
 21
242.532951964944
 31
0.0
  0
LINE
  5
4C6
330
1D
100
AcDbEntity
  8
0
100
AcDbLine
 10
125.263657015131
 20
247.822949449794
 30
0.0
 11
126.497911321515
 21
245.685220991136
 31
0.0
  0
LINE
  5
4C7
330
1D
100
AcDbEntity
  8
0
100
AcDbLine
 10
126.34895
 20
229.4735
 30
0.0
 11
129.44895
 21
229.0735
 31
0.0
  0
LINE
  5
4C8
330
1D
100
AcDbEntity
  8
0
100
AcDbLine
 10
126.94895
 20
236.7735
 30
0.0
 11
128.14895
 21
236.2735
 31
0.0
  0
LINE
  5
4C9
330
1D
100
AcDbEntity
  8
0
100
AcDbLine
 10
126.74895
 20
236.2735
 30
0.0
 11
128.04895
 21
235.7735
 31
0.0
  0
LINE
  5
4CA
330
1D
100
AcDbEntity
  8
0
100
AcDbLine
 10
126.926534459951
 20
236.205198284634
 30
0.0
 11
128.04895
 21
235.7735
 31
0.0
  0
LINE
  5
4CB
330
1D
100
AcDbEntity
  8
0
100
AcDbLine
 10
126.64895
 20
230.4735
 30
0.0
 11
129.44895
 21
230.0735
 31
0.0
  0
LINE
  5
4CC
330
1D
100
AcDbEntity
  8
0
100
AcDbLine
 10
126.990616666667
 20
240.8235
 30
0.0
 11
127.04895
 21
240.4735
 31
0.0
  0
LINE
  5
4CD
330
1D
100
AcDbEntity
  8
0
100
AcDbLine
 10
126.94895
 20
241.0735
 30
0.0
 11
127.04895
 21
241.6735
 31
0.0
  0
LINE
  5
4CE
330
1D
100
AcDbEntity
  8
0
100
AcDbLine
 10
126.94895
 20
241.0735
 30
0.0
 11
127.04895
 21
240.4735
 31
0.0
  0
LINE
  5
4CF
330
1D
100
AcDbEntity
  8
0
100
AcDbLine
 10
127.04895
 20
240.4735
 30
0.0
 11
127.24895
 21
239.8735
 31
0.0
  0
LINE
  5
4D0
330
1D
100
AcDbEntity
  8
0
100
AcDbLine
 10
126.990616666667
 20
241.3235
 30
0.0
 11
127.04895
 21
241.6735
 31
0.0
  0
LINE
  5
4D1
330
1D
100
AcDbEntity
  8
0
100
AcDbLine
 10
126.763137203792
 20
236.922150236967
 30
0.0
 11
127.989606753752
 21
239.046395497499
 31
0.0
  0
LINE
  5
4D2
330
1D
100
AcDbEntity
  8
0
100
AcDbLine
 10
127.24895
 20
239.8735
 30
0.0
 11
127.64895
 21
239.2735
 31
0.0
  0
LINE
  5
4D3
330
1D
100
AcDbEntity
  8
0
100
AcDbLine
 10
127.421436594653
 20
239.614770108021
 30
0.0
 11
127.64895
 21
239.2735
 31
0.0
  0
LINE
  5
4D4
330
1D
100
AcDbEntity
  8
0
100
AcDbLine
 10
127.74895
 20
240.0735
 30
0.0
 11
128.04895
 21
239.6735
 31
0.0
  0
LINE
  5
4D5
330
1D
100
AcDbEntity
  8
0
100
AcDbLine
 10
128.04895
 20
239.6735
 30
0.0
 11
128.44895
 21
239.3735
 31
0.0
  0
LINE
  5
4D6
330
1D
100
AcDbEntity
  8
0
100
AcDbLine
 10
127.64895
 20
239.2735
 30
0.0
 11
127.989606753752
 21
239.046395497499
 31
0.0
  0
LINE
  5
4D7
330
1D
100
AcDbEntity
  8
0
100
AcDbLine
 10
127.64895
 20
239.2735
 30
0.0
 11
128.24895
 21
238.8735
 31
0.0
  0
LINE
  5
4D8
330
1D
100
AcDbEntity
  8
0
100
AcDbLine
 10
128.04895
 20
235.7735
 30
0.0
 11
129.19895
 21
235.609214285714
 31
0.0
  0
LINE
  5
4D9
330
1D
100
AcDbEntity
  8
0
100
AcDbLine
 10
128.04895
 20
235.7735
 30
0.0
 11
129.44895
 21
235.5735
 31
0.0
  0
LINE
  5
4DA
330
1D
100
AcDbEntity
  8
0
100
AcDbLine
 10
127.34895
 20
233.3735
 30
0.0
 11
129.44895
 21
233.0735
 31
0.0
  0
LINE
  5
4DB
330
1D
100
AcDbEntity
  8
0
100
AcDbLine
 10
127.24895
 20
232.8735
 30
0.0
 11
129.19895
 21
232.607590909091
 31
0.0
  0
LINE
  5
4DC
330
1D
100
AcDbEntity
  8
0
100
AcDbLine
 10
127.24895
 20
232.8735
 30
0.0
 11
129.44895
 21
232.5735
 31
0.0
  0
LINE
  5
4DD
330
1D
100
AcDbEntity
  8
0
100
AcDbLine
 10
128.10745
 20
239.2505
 30
0.0
 11
128.54045
 21
239.0005
 31
0.0
  0
LINE
  5
4DE
330
1D
100
AcDbEntity
  8
0
100
AcDbLine
 10
127.54895
 20
240.5735
 30
0.0
 11
127.74895
 21
240.0735
 31
0.0
  0
LINE
  5
4DF
330
1D
100
AcDbEntity
  8
0
100
AcDbLine
 10
127.44895
 20
241.0735
 30
0.0
 11
127.54895
 21
241.5735
 31
0.0
  0
LINE
  5
4E0
330
1D
100
AcDbEntity
  8
0
100
AcDbLine
 10
127.44895
 20
241.0735
 30
0.0
 11
127.54895
 21
240.5735
 31
0.0
  0
LINE
  5
4E1
330
1D
100
AcDbEntity
  8
0
100
AcDbLine
 10
127.37535
 20
240.1655
 30
0.0
 11
127.62535
 21
239.7325
 31
0.0
  0
LINE
  5
4E2
330
1D
100
AcDbEntity
  8
0
100
AcDbLine
 10
127.19895
 20
240.8235
 30
0.0
 11
127.19895
 21
241.3235
 31
0.0
  0
LINE
  5
4E3
330
1D
100
AcDbEntity
  8
0
100
AcDbLine
 10
127.24895
 20
242.2735
 30
0.0
 11
127.64895
 21
242.8735
 31
0.0
  0
LINE
  5
4E4
330
1D
100
AcDbEntity
  8
0
100
AcDbLine
 10
127.04895
 20
241.6735
 30
0.0
 11
127.188004743819
 21
242.090664231456
 31
0.0
  0
LINE
  5
4E5
330
1D
100
AcDbEntity
  8
0
100
AcDbLine
 10
127.04895
 20
241.6735
 30
0.0
 11
127.24895
 21
242.2735
 31
0.0
  0
LINE
  5
4E6
330
1D
100
AcDbEntity
  8
0
100
AcDbLine
 10
128.04895
 20
242.4735
 30
0.0
 11
128.44895
 21
242.7735
 31
0.0
  0
LINE
  5
4E7
330
1D
100
AcDbEntity
  8
0
100
AcDbLine
 10
127.74895
 20
242.0735
 30
0.0
 11
128.04895
 21
242.4735
 31
0.0
  0
LINE
  5
4E8
330
1D
100
AcDbEntity
  8
0
100
AcDbLine
 10
127.54895
 20
241.5735
 30
0.0
 11
127.74895
 21
242.0735
 31
0.0
  0
LINE
  5
4E9
330
1D
100
AcDbEntity
  8
0
100
AcDbLine
 10
127.64895
 20
242.8735
 30
0.0
 11
128.24895
 21
243.2735
 31
0.0
  0
LINE
  5
4EA
330
1D
100
AcDbEntity
  8
0
100
AcDbLine
 10
127.421917976629
 20
242.532951964944
 30
0.0
 11
127.64895
 21
242.8735
 31
0.0
  0
LINE
  5
4EB
330
1D
100
AcDbEntity
  8
0
100
AcDbLine
 10
127.37535
 20
241.9825
 30
0.0
 11
127.62535
 21
242.4155
 31
0.0
  0
LINE
  5
4EC
330
1D
100
AcDbEntity
  8
0
100
AcDbLine
 10
127.19895
 20
241.3235
 30
0.0
 11
127.19895
 21
240.8235
 31
0.0
  0
LINE
  5
4ED
330
1D
100
AcDbEntity
  8
0
100
AcDbLine
 10
128.24895
 20
238.8735
 30
0.0
 11
128.84895
 21
238.6735
 31
0.0
  0
LINE
  5
4EE
330
1D
100
AcDbEntity
  8
0
100
AcDbLine
 10
128.14895
 20
236.2735
 30
0.0
 11
129.44895
 21
236.0735
 31
0.0
  0
LINE
  5
4EF
330
1D
100
AcDbEntity
  8
0
100
AcDbLine
 10
128.44895
 20
239.3735
 30
0.0
 11
128.94895
 21
239.1735
 31
0.0
  0
LINE
  5
4F0
330
1D
100
AcDbEntity
  8
0
100
AcDbLine
 10
128.44895
 20
242.7735
 30
0.0
 11
128.94895
 21
242.9735
 31
0.0
  0
LINE
  5
4F1
330
1D
100
AcDbEntity
  8
0
100
AcDbLine
 10
128.24895
 20
243.2735
 30
0.0
 11
128.84895
 21
243.4735
 31
0.0
  0
LINE
  5
4F2
330
1D
100
AcDbEntity
  8
0
100
AcDbLine
 10
128.432396417043
 20
243.334648805681
 30
0.0
 11
128.84895
 21
243.4735
 31
0.0
  0
LINE
  5
4F3
330
1D
100
AcDbEntity
  8
0
100
AcDbLine
 10
128.10745
 20
242.8975
 30
0.0
 11
128.54045
 21
243.1475
 31
0.0
  0
LINE
  5
4F4
330
1D
100
AcDbEntity
  8
0
100
AcDbLine
 10
126.94895
 20
245.3735
 30
0.0
 11
128.14895
 21
245.8735
 31
0.0
  0
LINE
  5
4F5
330
1D
100
AcDbEntity
  8
0
100
AcDbLine
 10
126.74895
 20
245.8735
 30
0.0
 11
128.04895
 21
246.3735
 31
0.0
  0
LINE
  5
4F6
330
1D
100
AcDbEntity
  8
0
100
AcDbLine
 10
126.927006912342
 20
245.941983427824
 30
0.0
 11
128.04895
 21
246.3735
 31
0.0
  0
LINE
  5
4F7
330
1D
100
AcDbEntity
  8
0
100
AcDbLine
 10
128.14895
 20
245.8735
 30
0.0
 11
129.44895
 21
246.0735
 31
0.0
  0
LINE
  5
4F8
330
1D
100
AcDbEntity
  8
0
100
AcDbLine
 10
128.04895
 20
246.3735
 30
0.0
 11
129.19895
 21
246.537785714286
 31
0.0
  0
LINE
  5
4F9
330
1D
100
AcDbEntity
  8
0
100
AcDbLine
 10
128.04895
 20
246.3735
 30
0.0
 11
129.44895
 21
246.5735
 31
0.0
  0
LINE
  5
4FA
330
1D
100
AcDbEntity
  8
0
100
AcDbLine
 10
127.34895
 20
248.7735
 30
0.0
 11
129.44895
 21
249.0735
 31
0.0
  0
LINE
  5
4FB
330
1D
100
AcDbEntity
  8
0
100
AcDbLine
 10
127.24895
 20
249.2735
 30
0.0
 11
129.44895
 21
249.5735
 31
0.0
  0
LINE
  5
4FC
330
1D
100
AcDbEntity
  8
0
100
AcDbLine
 10
127.24895
 20
249.2735
 30
0.0
 11
129.19895
 21
249.539409090909
 31
0.0
  0
LINE
  5
4FD
330
1D
100
AcDbEntity
  8
0
100
AcDbLine
 10
126.64895
 20
251.6735
 30
0.0
 11
129.44895
 21
252.0735
 31
0.0
  0
LINE
  5
4FE
330
1D
100
AcDbEntity
  8
0
100
AcDbLine
 10
126.64895
 20
251.6735
 30
0.0
 11
129.19895
 21
252.037785714286
 31
0.0
  0
LINE
  5
4FF
330
1D
100
AcDbEntity
  8
0
100
AcDbLine
 10
126.763532148499
 20
245.225165718799
 30
0.0
 11
127.990023652029
 21
243.100882434686
 31
0.0
  0
LINE
  5
500
330
1D
100
AcDbEntity
  8
0
100
AcDbLine
 10
126.44895
 20
229.9735
 30
0.0
 11
129.44895
 21
229.5735
 31
0.0
  0
LINE
  5
501
330
1D
100
AcDbEntity
  8
0
100
AcDbLine
 10
126.44895
 20
252.1735
 30
0.0
 11
129.44895
 21
252.5735
 31
0.0
  0
LINE
  5
502
330
1D
100
AcDbEntity
  8
0
100
AcDbLine
 10
126.34895
 20
252.6735
 30
0.0
 11
129.44895
 21
253.0735
 31
0.0
  0
LINE
  5
506
330
1D
100
AcDbEntity
  8
0
100
AcDbLine
 10
128.84895
 20
238.6735
 30
0.0
 11
129.19895
 21
238.615166666667
 31
0.0
  0
LINE
  5
507
330
1D
100
AcDbEntity
  8
0
100
AcDbLine
 10
128.84895
 20
238.6735
 30
0.0
 11
129.44895
 21
238.5735
 31
0.0
  0
LINE
  5
508
330
1D
100
AcDbEntity
  8
0
100
AcDbLine
 10
128.94895
 20
239.1735
 30
0.0
 11
129.44895
 21
239.0735
 31
0.0
  0
LINE
  5
509
330
1D
100
AcDbEntity
  8
0
100
AcDbLine
 10
128.94895
 20
242.9735
 30
0.0
 11
129.44895
 21
243.0735
 31
0.0
  0
LINE
  5
50A
330
1D
100
AcDbEntity
  8
0
100
AcDbLine
 10
128.84895
 20
243.4735
 30
0.0
 11
129.19895
 21
243.531833333333
 31
0.0
  0
LINE
  5
50B
330
1D
100
AcDbEntity
  8
0
100
AcDbLine
 10
128.84895
 20
243.4735
 30
0.0
 11
129.44895
 21
243.5735
 31
0.0
  0
LINE
  5
50D
330
1D
100
AcDbEntity
  8
0
100
AcDbLine
 10
129.19895
 20
236.111961538462
 30
0.0
 11
129.19895
 21
238.615166666667
 31
0.0
  0
LINE
  5
50E
330
1D
100
AcDbEntity
  8
0
100
AcDbLine
 10
129.19895
 20
233.109214285714
 30
0.0
 11
129.19895
 21
235.609214285714
 31
0.0
  0
LINE
  5
50F
330
1D
100
AcDbEntity
  8
0
100
AcDbLine
 10
129.19895
 20
238.8235
 30
0.0
 11
129.69895
 21
238.8235
 31
0.0
  0
LINE
  5
510
330
1D
100
AcDbEntity
  8
0
100
AcDbLine
 10
129.19895
 20
238.8235
 30
0.0
 11
129.19895
 21
230.109214285714
 31
0.0
  0
LINE
  5
511
330
1D
100
AcDbEntity
  8
0
100
AcDbLine
 10
129.19895
 20
235.609214285714
 30
0.0
 11
129.19895
 21
233.109214285714
 31
0.0
  0
LINE
  5
512
330
1D
100
AcDbEntity
  8
0
100
AcDbLine
 10
129.19895
 20
232.607590909091
 30
0.0
 11
129.19895
 21
230.109214285714
 31
0.0
  0
LINE
  5
513
330
1D
100
AcDbEntity
  8
0
100
AcDbLine
 10
129.19895
 20
238.615166666667
 30
0.0
 11
129.19895
 21
236.111961538462
 31
0.0
  0
LINE
  5
514
330
1D
100
AcDbEntity
  8
0
100
AcDbLine
 10
129.19895
 20
230.109214285714
 30
0.0
 11
129.19895
 21
238.8235
 31
0.0
  0
LINE
  5
515
330
1D
100
AcDbEntity
  8
0
100
AcDbLine
 10
129.19895
 20
230.109214285714
 30
0.0
 11
129.19895
 21
232.607590909091
 31
0.0
  0
LINE
  5
516
330
1D
100
AcDbEntity
  8
0
100
AcDbLine
 10
129.44895
 20
239.0735
 30
0.0
 11
129.94895
 21
239.1735
 31
0.0
  0
LINE
  5
517
330
1D
100
AcDbEntity
  8
0
100
AcDbLine
 10
129.44895
 20
238.5735
 30
0.0
 11
130.04895
 21
238.6735
 31
0.0
  0
LINE
  5
518
330
1D
100
AcDbEntity
  8
0
100
AcDbLine
 10
129.44895
 20
236.0735
 30
0.0
 11
130.74895
 21
236.2735
 31
0.0
  0
LINE
  5
519
330
1D
100
AcDbEntity
  8
0
100
AcDbLine
 10
129.44895
 20
235.5735
 30
0.0
 11
130.84895
 21
235.7735
 31
0.0
  0
LINE
  5
51A
330
1D
100
AcDbEntity
  8
0
100
AcDbLine
 10
129.44895
 20
233.0735
 30
0.0
 11
131.54895
 21
233.3735
 31
0.0
  0
LINE
  5
51B
330
1D
100
AcDbEntity
  8
0
100
AcDbLine
 10
129.44895
 20
232.5735
 30
0.0
 11
131.64895
 21
232.8735
 31
0.0
  0
LINE
  5
51C
330
1D
100
AcDbEntity
  8
0
100
AcDbLine
 10
129.44895
 20
230.0735
 30
0.0
 11
132.24895
 21
230.4735
 31
0.0
  0
LINE
  5
51D
330
1D
100
AcDbEntity
  8
0
100
AcDbLine
 10
129.44895
 20
243.0735
 30
0.0
 11
129.94895
 21
242.9735
 31
0.0
  0
LINE
  5
51E
330
1D
100
AcDbEntity
  8
0
100
AcDbLine
 10
129.19895
 20
243.3235
 30
0.0
 11
129.69895
 21
243.3235
 31
0.0
  0
LINE
  5
51F
330
1D
100
AcDbEntity
  8
0
100
AcDbLine
 10
129.19895
 20
243.3235
 30
0.0
 11
129.19895
 21
252.037785714286
 31
0.0
  0
LINE
  5
520
330
1D
100
AcDbEntity
  8
0
100
AcDbLine
 10
129.19895
 20
246.035038461538
 30
0.0
 11
129.19895
 21
243.531833333333
 31
0.0
  0
LINE
  5
521
330
1D
100
AcDbEntity
  8
0
100
AcDbLine
 10
129.19895
 20
249.037785714286
 30
0.0
 11
129.19895
 21
246.537785714286
 31
0.0
  0
LINE
  5
522
330
1D
100
AcDbEntity
  8
0
100
AcDbLine
 10
129.19895
 20
252.037785714286
 30
0.0
 11
129.19895
 21
243.3235
 31
0.0
  0
LINE
  5
523
330
1D
100
AcDbEntity
  8
0
100
AcDbLine
 10
129.19895
 20
252.037785714286
 30
0.0
 11
129.19895
 21
249.539409090909
 31
0.0
  0
LINE
  5
524
330
1D
100
AcDbEntity
  8
0
100
AcDbLine
 10
129.19895
 20
246.537785714286
 30
0.0
 11
129.19895
 21
249.037785714286
 31
0.0
  0
LINE
  5
525
330
1D
100
AcDbEntity
  8
0
100
AcDbLine
 10
129.44895
 20
243.5735
 30
0.0
 11
130.04895
 21
243.4735
 31
0.0
  0
LINE
  5
526
330
1D
100
AcDbEntity
  8
0
100
AcDbLine
 10
129.44895
 20
246.0735
 30
0.0
 11
130.74895
 21
245.8735
 31
0.0
  0
LINE
  5
527
330
1D
100
AcDbEntity
  8
0
100
AcDbLine
 10
129.44895
 20
246.5735
 30
0.0
 11
130.84895
 21
246.3735
 31
0.0
  0
LINE
  5
528
330
1D
100
AcDbEntity
  8
0
100
AcDbLine
 10
129.44895
 20
249.0735
 30
0.0
 11
131.54895
 21
248.7735
 31
0.0
  0
LINE
  5
529
330
1D
100
AcDbEntity
  8
0
100
AcDbLine
 10
129.44895
 20
249.5735
 30
0.0
 11
131.64895
 21
249.2735
 31
0.0
  0
LINE
  5
52A
330
1D
100
AcDbEntity
  8
0
100
AcDbLine
 10
129.44895
 20
252.0735
 30
0.0
 11
132.24895
 21
251.6735
 31
0.0
  0
LINE
  5
52B
330
1D
100
AcDbEntity
  8
0
100
AcDbLine
 10
129.19895
 20
249.539409090909
 30
0.0
 11
129.19895
 21
252.037785714286
 31
0.0
  0
LINE
  5
52C
330
1D
100
AcDbEntity
  8
0
100
AcDbLine
 10
129.19895
 20
243.531833333333
 30
0.0
 11
129.19895
 21
246.035038461538
 31
0.0
  0
LINE
  5
52D
330
1D
100
AcDbEntity
  8
0
100
AcDbLine
 10
129.44895
 20
229.5735
 30
0.0
 11
132.44895
 21
229.9735
 31
0.0
  0
LINE
  5
52E
330
1D
100
AcDbEntity
  8
0
100
AcDbLine
 10
129.44895
 20
229.0735
 30
0.0
 11
132.54895
 21
229.4735
 31
0.0
  0
LINE
  5
52F
330
1D
100
AcDbEntity
  8
0
100
AcDbLine
 10
129.69895
 20
236.111961538462
 30
0.0
 11
130.74895
 21
236.2735
 31
0.0
  0
LINE
  5
530
330
1D
100
AcDbEntity
  8
0
100
AcDbLine
 10
129.69895
 20
232.607590909091
 30
0.0
 11
131.64895
 21
232.8735
 31
0.0
  0
LINE
  5
531
330
1D
100
AcDbEntity
  8
0
100
AcDbLine
 10
129.69895
 20
230.109214285714
 30
0.0
 11
129.69895
 21
238.8235
 31
0.0
  0
LINE
  5
532
330
1D
100
AcDbEntity
  8
0
100
AcDbLine
 10
129.69895
 20
230.109214285714
 30
0.0
 11
132.24895
 21
230.4735
 31
0.0
  0
LINE
  5
533
330
1D
100
AcDbEntity
  8
0
100
AcDbLine
 10
129.94895
 20
239.1735
 30
0.0
 11
130.44895
 21
239.3735
 31
0.0
  0
LINE
  5
534
330
1D
100
AcDbEntity
  8
0
100
AcDbLine
 10
130.04895
 20
238.6735
 30
0.0
 11
130.64895
 21
238.8735
 31
0.0
  0
LINE
  5
535
330
1D
100
AcDbEntity
  8
0
100
AcDbLine
 10
129.94895
 20
242.9735
 30
0.0
 11
130.44895
 21
242.7735
 31
0.0
  0
LINE
  5
536
330
1D
100
AcDbEntity
  8
0
100
AcDbLine
 10
129.69895
 20
238.8235
 30
0.0
 11
129.69895
 21
230.109214285714
 31
0.0
  0
LINE
  5
537
330
1D
100
AcDbEntity
  8
0
100
AcDbLine
 10
129.69895
 20
246.035038461538
 30
0.0
 11
130.74895
 21
245.8735
 31
0.0
  0
LINE
  5
538
330
1D
100
AcDbEntity
  8
0
100
AcDbLine
 10
129.69895
 20
249.539409090909
 30
0.0
 11
131.64895
 21
249.2735
 31
0.0
  0
LINE
  5
539
330
1D
100
AcDbEntity
  8
0
100
AcDbLine
 10
130.04895
 20
243.4735
 30
0.0
 11
130.64895
 21
243.2735
 31
0.0
  0
LINE
  5
53A
330
1D
100
AcDbEntity
  8
0
100
AcDbLine
 10
129.69895
 20
252.037785714286
 30
0.0
 11
129.69895
 21
243.3235
 31
0.0
  0
LINE
  5
53B
330
1D
100
AcDbEntity
  8
0
100
AcDbLine
 10
129.69895
 20
252.037785714286
 30
0.0
 11
132.24895
 21
251.6735
 31
0.0
  0
LINE
  5
53C
330
1D
100
AcDbEntity
  8
0
100
AcDbLine
 10
129.69895
 20
243.3235
 30
0.0
 11
129.69895
 21
252.037785714286
 31
0.0
  0
LINE
  5
53D
330
1D
100
AcDbEntity
  8
0
100
AcDbLine
 10
129.44895
 20
252.5735
 30
0.0
 11
132.44895
 21
252.1735
 31
0.0
  0
LINE
  5
53E
330
1D
100
AcDbEntity
  8
0
100
AcDbLine
 10
129.44895
 20
253.0735
 30
0.0
 11
132.54895
 21
252.6735
 31
0.0
  0
LINE
  5
540
330
1D
100
AcDbEntity
  8
0
100
AcDbLine
 10
130.74895
 20
236.2735
 30
0.0
 11
131.94895
 21
236.7735
 31
0.0
  0
LINE
  5
541
330
1D
100
AcDbEntity
  8
0
100
AcDbLine
 10
130.74895
 20
236.2735
 30
0.0
 11
131.702528343159
 21
236.670824309649
 31
0.0
  0
LINE
  5
542
330
1D
100
AcDbEntity
  8
0
100
AcDbLine
 10
130.84895
 20
235.7735
 30
0.0
 11
132.14895
 21
236.2735
 31
0.0
  0
LINE
  5
543
330
1D
100
AcDbEntity
  8
0
100
AcDbLine
 10
130.64895
 20
238.8735
 30
0.0
 11
131.24895
 21
239.2735
 31
0.0
  0
LINE
  5
544
330
1D
100
AcDbEntity
  8
0
100
AcDbLine
 10
130.908293246248
 20
239.046395497499
 30
0.0
 11
131.24895
 21
239.2735
 31
0.0
  0
LINE
  5
545
330
1D
100
AcDbEntity
  8
0
100
AcDbLine
 10
130.465987766301
 20
238.812512588767
 30
0.0
 11
131.702528343159
 21
236.670824309649
 31
0.0
  0
LINE
  5
546
330
1D
100
AcDbEntity
  8
0
100
AcDbLine
 10
130.35745
 20
239.0005
 30
0.0
 11
130.79045
 21
239.2505
 31
0.0
  0
LINE
  5
547
330
1D
100
AcDbEntity
  8
0
100
AcDbLine
 10
130.35745
 20
239.0005
 30
0.0
 11
134.7033315179
 21
231.473433210996
 31
0.0
  0
LINE
  5
548
330
1D
100
AcDbEntity
  8
0
100
AcDbLine
 10
130.84895
 20
239.6735
 30
0.0
 11
131.14895
 21
240.0735
 31
0.0
  0
LINE
  5
549
330
1D
100
AcDbEntity
  8
0
100
AcDbLine
 10
131.14895
 20
240.0735
 30
0.0
 11
131.34895
 21
240.5735
 31
0.0
  0
LINE
  5
54A
330
1D
100
AcDbEntity
  8
0
100
AcDbLine
 10
130.44895
 20
239.3735
 30
0.0
 11
130.84895
 21
239.6735
 31
0.0
  0
LINE
  5
54B
330
1D
100
AcDbEntity
  8
0
100
AcDbLine
 10
130.84895
 20
242.4735
 30
0.0
 11
131.14895
 21
242.0735
 31
0.0
  0
LINE
  5
54C
330
1D
100
AcDbEntity
  8
0
100
AcDbLine
 10
131.24895
 20
239.2735
 30
0.0
 11
131.64895
 21
239.8735
 31
0.0
  0
LINE
  5
54D
330
1D
100
AcDbEntity
  8
0
100
AcDbLine
 10
131.14895
 20
242.0735
 30
0.0
 11
131.34895
 21
241.5735
 31
0.0
  0
LINE
  5
54E
330
1D
100
AcDbEntity
  8
0
100
AcDbLine
 10
131.24895
 20
242.8735
 30
0.0
 11
131.64895
 21
242.2735
 31
0.0
  0
LINE
  5
54F
330
1D
100
AcDbEntity
  8
0
100
AcDbLine
 10
130.44895
 20
242.7735
 30
0.0
 11
130.84895
 21
242.4735
 31
0.0
  0
LINE
  5
550
330
1D
100
AcDbEntity
  8
0
100
AcDbLine
 10
131.27255
 20
239.7325
 30
0.0
 11
131.52255
 21
240.1655
 31
0.0
  0
LINE
  5
551
330
1D
100
AcDbEntity
  8
0
100
AcDbLine
 10
131.27255
 20
239.7325
 30
0.0
 11
138.807527009664
 21
235.382163013075
 31
0.0
  0
LINE
  5
552
330
1D
100
AcDbEntity
  8
0
100
AcDbLine
 10
130.79045
 20
239.2505
 30
0.0
 11
135.140958480541
 21
231.715419311704
 31
0.0
  0
LINE
  5
553
330
1D
100
AcDbEntity
  8
0
100
AcDbLine
 10
131.34895
 20
240.5735
 30
0.0
 11
131.44895
 21
241.0735
 31
0.0
  0
LINE
  5
554
330
1D
100
AcDbEntity
  8
0
100
AcDbLine
 10
131.34895
 20
241.5735
 30
0.0
 11
131.44895
 21
241.0735
 31
0.0
  0
LINE
  5
555
330
1D
100
AcDbEntity
  8
0
100
AcDbLine
 10
131.27255
 20
242.4155
 30
0.0
 11
131.52255
 21
241.9825
 31
0.0
  0
LINE
  5
556
330
1D
100
AcDbEntity
  8
0
100
AcDbLine
 10
131.27255
 20
242.4155
 30
0.0
 11
138.807008953749
 21
246.765537886104
 31
0.0
  0
LINE
  5
557
330
1D
100
AcDbEntity
  8
0
100
AcDbLine
 10
130.64895
 20
243.2735
 30
0.0
 11
131.24895
 21
242.8735
 31
0.0
  0
LINE
  5
558
330
1D
100
AcDbEntity
  8
0
100
AcDbLine
 10
130.74895
 20
245.8735
 30
0.0
 11
131.94895
 21
245.3735
 31
0.0
  0
LINE
  5
559
330
1D
100
AcDbEntity
  8
0
100
AcDbLine
 10
130.74895
 20
245.8735
 30
0.0
 11
131.702062938256
 21
245.47636960906
 31
0.0
  0
LINE
  5
55A
330
1D
100
AcDbEntity
  8
0
100
AcDbLine
 10
130.84895
 20
246.3735
 30
0.0
 11
132.14895
 21
245.8735
 31
0.0
  0
LINE
  5
55B
330
1D
100
AcDbEntity
  8
0
100
AcDbLine
 10
130.465503582957
 20
243.334648805681
 30
0.0
 11
131.702062938256
 21
245.47636960906
 31
0.0
  0
LINE
  5
55C
330
1D
100
AcDbEntity
  8
0
100
AcDbLine
 10
130.35745
 20
243.1475
 30
0.0
 11
130.79045
 21
242.8975
 31
0.0
  0
LINE
  5
55D
330
1D
100
AcDbEntity
  8
0
100
AcDbLine
 10
130.35745
 20
243.1475
 30
0.0
 11
134.702864098747
 21
250.673757219029
 31
0.0
  0
LINE
  5
55E
330
1D
100
AcDbEntity
  8
0
100
AcDbLine
 10
130.79045
 20
242.8975
 30
0.0
 11
135.140553807446
 21
250.431879794496
 31
0.0
  0
LINE
  5
566
330
1D
100
AcDbEntity
  8
0
100
AcDbLine
 10
126.12095
 20
253.6055
 30
0.0
 11
129.44895
 21
254.0735
 31
0.0
  0
LINE
  5
567
330
1D
100
AcDbEntity
  8
0
100
AcDbLine
 10
129.44895
 20
254.0735
 30
0.0
 11
132.77695
 21
253.6055
 31
0.0
  0
LINE
  5
56D
330
1D
100
AcDbEntity
  8
0
100
AcDbLine
 10
131.20005
 20
198.8105
 30
0.0
 11
131.85935
 21
199.4555
 31
0.0
  0
LINE
  5
56E
330
1D
100
AcDbEntity
  8
0
100
AcDbLine
 10
132.55585
 20
200.0595
 30
0.0
 11
133.28755
 21
200.6235
 31
0.0
  0
LINE
  5
56F
330
1D
100
AcDbEntity
  8
0
100
AcDbLine
 10
131.85935
 20
199.4555
 30
0.0
 11
132.55585
 21
200.0595
 31
0.0
  0
LINE
  5
57D
330
1D
100
AcDbEntity
  8
0
100
AcDbLine
 10
131.476463405347
 20
239.614770108021
 30
0.0
 11
133.600781830229
 21
238.388289787787
 31
0.0
  0
LINE
  5
57E
330
1D
100
AcDbEntity
  8
0
100
AcDbLine
 10
131.64895
 20
239.8735
 30
0.0
 11
131.84895
 21
240.4735
 31
0.0
  0
LINE
  5
57F
330
1D
100
AcDbEntity
  8
0
100
AcDbLine
 10
131.54895
 20
233.3735
 30
0.0
 11
133.44895
 21
234.1735
 31
0.0
  0
LINE
  5
580
330
1D
100
AcDbEntity
  8
0
100
AcDbLine
 10
131.54895
 20
233.3735
 30
0.0
 11
133.203959240246
 21
234.070345995893
 31
0.0
  0
LINE
  5
581
330
1D
100
AcDbEntity
  8
0
100
AcDbLine
 10
131.64895
 20
232.8735
 30
0.0
 11
133.64895
 21
233.6735
 31
0.0
  0
LINE
  5
582
330
1D
100
AcDbEntity
  8
0
100
AcDbLine
 10
131.52255
 20
240.1655
 30
0.0
 11
139.049332738704
 21
235.819893995
 31
0.0
  0
LINE
  5
583
330
1D
100
AcDbEntity
  8
0
100
AcDbLine
 10
131.69895
 20
240.8235
 30
0.0
 11
140.413235714286
 21
240.8235
 31
0.0
  0
LINE
  5
584
330
1D
100
AcDbEntity
  8
0
100
AcDbLine
 10
131.69895
 20
240.8235
 30
0.0
 11
131.69895
 21
241.3235
 31
0.0
  0
LINE
  5
585
330
1D
100
AcDbEntity
  8
0
100
AcDbLine
 10
131.84895
 20
240.4735
 30
0.0
 11
131.94895
 21
241.0735
 31
0.0
  0
LINE
  5
586
330
1D
100
AcDbEntity
  8
0
100
AcDbLine
 10
131.94895
 20
236.7735
 30
0.0
 11
132.94895
 21
237.5735
 31
0.0
  0
LINE
  5
587
330
1D
100
AcDbEntity
  8
0
100
AcDbLine
 10
131.84895
 20
241.6735
 30
0.0
 11
131.94895
 21
241.0735
 31
0.0
  0
LINE
  5
588
330
1D
100
AcDbEntity
  8
0
100
AcDbLine
 10
131.907283333333
 20
240.8235
 30
0.0
 11
134.410488461538
 21
240.8235
 31
0.0
  0
LINE
  5
589
330
1D
100
AcDbEntity
  8
0
100
AcDbLine
 10
131.69895
 20
241.3235
 30
0.0
 11
140.413235714286
 21
241.3235
 31
0.0
  0
LINE
  5
58A
330
1D
100
AcDbEntity
  8
0
100
AcDbLine
 10
131.69895
 20
241.3235
 30
0.0
 11
131.69895
 21
240.8235
 31
0.0
  0
LINE
  5
58B
330
1D
100
AcDbEntity
  8
0
100
AcDbLine
 10
131.64895
 20
242.2735
 30
0.0
 11
131.84895
 21
241.6735
 31
0.0
  0
LINE
  5
58C
330
1D
100
AcDbEntity
  8
0
100
AcDbLine
 10
131.54895
 20
248.7735
 30
0.0
 11
133.44895
 21
247.9735
 31
0.0
  0
LINE
  5
58D
330
1D
100
AcDbEntity
  8
0
100
AcDbLine
 10
131.54895
 20
248.7735
 30
0.0
 11
133.203494783416
 21
248.076849564877
 31
0.0
  0
LINE
  5
58E
330
1D
100
AcDbEntity
  8
0
100
AcDbLine
 10
131.94895
 20
245.3735
 30
0.0
 11
132.94895
 21
244.5735
 31
0.0
  0
LINE
  5
58F
330
1D
100
AcDbEntity
  8
0
100
AcDbLine
 10
131.64895
 20
249.2735
 30
0.0
 11
133.64895
 21
248.4735
 31
0.0
  0
LINE
  5
590
330
1D
100
AcDbEntity
  8
0
100
AcDbLine
 10
131.475982023371
 20
242.532951964944
 30
0.0
 11
133.600234590406
 21
243.759394261993
 31
0.0
  0
LINE
  5
591
330
1D
100
AcDbEntity
  8
0
100
AcDbLine
 10
131.475982023371
 20
242.532951964944
 30
0.0
 11
133.600234590406
 21
243.759394261993
 31
0.0
  0
LINE
  5
592
330
1D
100
AcDbEntity
  8
0
100
AcDbLine
 10
131.52255
 20
241.9825
 30
0.0
 11
139.049002912288
 21
246.32791557893
 31
0.0
  0
LINE
  5
593
330
1D
100
AcDbEntity
  8
0
100
AcDbLine
 10
132.24895
 20
230.4735
 30
0.0
 11
134.94895
 21
231.5735
 31
0.0
  0
LINE
  5
594
330
1D
100
AcDbEntity
  8
0
100
AcDbLine
 10
132.24895
 20
230.4735
 30
0.0
 11
134.7033315179
 21
231.473433210996
 31
0.0
  0
LINE
  5
595
330
1D
100
AcDbEntity
  8
0
100
AcDbLine
 10
132.134762796209
 20
236.922150236967
 30
0.0
 11
132.94895
 21
237.5735
 31
0.0
  0
LINE
  5
596
330
1D
100
AcDbEntity
  8
0
100
AcDbLine
 10
132.14895
 20
236.2735
 30
0.0
 11
133.34895
 21
237.1735
 31
0.0
  0
LINE
  5
597
330
1D
100
AcDbEntity
  8
0
100
AcDbLine
 10
132.134367851501
 20
245.225165718799
 30
0.0
 11
132.94895
 21
244.5735
 31
0.0
  0
LINE
  5
598
330
1D
100
AcDbEntity
  8
0
100
AcDbLine
 10
132.14895
 20
245.8735
 30
0.0
 11
133.34895
 21
244.9735
 31
0.0
  0
LINE
  5
599
330
1D
100
AcDbEntity
  8
0
100
AcDbLine
 10
132.24895
 20
251.6735
 30
0.0
 11
134.94895
 21
250.5735
 31
0.0
  0
LINE
  5
59A
330
1D
100
AcDbEntity
  8
0
100
AcDbLine
 10
132.24895
 20
251.6735
 30
0.0
 11
134.702864098747
 21
250.673757219029
 31
0.0
  0
LINE
  5
59B
330
1D
100
AcDbEntity
  8
0
100
AcDbLine
 10
131.971365540049
 20
236.205198284634
 30
0.0
 11
133.203959240246
 21
234.070345995893
 31
0.0
  0
LINE
  5
59C
330
1D
100
AcDbEntity
  8
0
100
AcDbLine
 10
131.970893087658
 20
245.941983427824
 30
0.0
 11
133.203494783416
 21
248.076849564877
 31
0.0
  0
LINE
  5
59D
330
1D
100
AcDbEntity
  8
0
100
AcDbLine
 10
132.44895
 20
229.9735
 30
0.0
 11
135.14895
 21
231.0735
 31
0.0
  0
LINE
  5
59E
330
1D
100
AcDbEntity
  8
0
100
AcDbLine
 10
132.54895
 20
229.4735
 30
0.0
 11
135.44895
 21
230.6735
 31
0.0
  0
LINE
  5
59F
330
1D
100
AcDbEntity
  8
0
100
AcDbLine
 10
132.44895
 20
252.1735
 30
0.0
 11
135.14895
 21
251.0735
 31
0.0
  0
LINE
  5
5A0
330
1D
100
AcDbEntity
  8
0
100
AcDbLine
 10
132.77695
 20
253.6055
 30
0.0
 11
135.89695
 21
252.3575
 31
0.0
  0
LINE
  5
5A1
330
1D
100
AcDbEntity
  8
0
100
AcDbLine
 10
132.77695
 20
228.5415
 30
0.0
 11
135.89695
 21
229.7895
 31
0.0
  0
LINE
  5
5A2
330
1D
100
AcDbEntity
  8
0
100
AcDbLine
 10
132.54895
 20
252.6735
 30
0.0
 11
135.44895
 21
251.4735
 31
0.0
  0
LINE
  5
5B0
330
1D
100
AcDbEntity
  8
0
100
AcDbLine
 10
132.80745
 20
226.8105
 30
0.0
 11
134.40595
 21
227.2885
 31
0.0
  0
LINE
  5
5B3
330
1D
100
AcDbEntity
  8
0
100
AcDbLine
 10
134.40595
 20
227.2885
 30
0.0
 11
135.93785
 21
227.9495
 31
0.0
  0
LINE
  5
5B5
330
1D
100
AcDbEntity
  8
0
100
AcDbLine
 10
134.40575
 20
227.2885
 30
0.0
 11
135.93775
 21
227.9495
 31
0.0
  0
LINE
  5
5B6
330
1D
100
AcDbEntity
  8
0
100
AcDbLine
 10
132.94895
 20
237.5735
 30
0.0
 11
133.74895
 21
238.5735
 31
0.0
  0
LINE
  5
5B7
330
1D
100
AcDbEntity
  8
0
100
AcDbLine
 10
133.34895
 20
237.1735
 30
0.0
 11
134.24895
 21
238.3735
 31
0.0
  0
LINE
  5
5B8
330
1D
100
AcDbEntity
  8
0
100
AcDbLine
 10
132.94895
 20
244.5735
 30
0.0
 11
133.74895
 21
243.5735
 31
0.0
  0
LINE
  5
5B9
330
1D
100
AcDbEntity
  8
0
100
AcDbLine
 10
132.94895
 20
244.5735
 30
0.0
 11
133.600234590406
 21
243.759394261993
 31
0.0
  0
LINE
  5
5BA
330
1D
100
AcDbEntity
  8
0
100
AcDbLine
 10
133.44895
 20
234.1735
 30
0.0
 11
135.04895
 21
235.4735
 31
0.0
  0
LINE
  5
5BB
330
1D
100
AcDbEntity
  8
0
100
AcDbLine
 10
133.34895
 20
244.9735
 30
0.0
 11
134.24895
 21
243.7735
 31
0.0
  0
LINE
  5
5BC
330
1D
100
AcDbEntity
  8
0
100
AcDbLine
 10
133.44895
 20
247.9735
 30
0.0
 11
135.04895
 21
246.6735
 31
0.0
  0
LINE
  5
5BD
330
1D
100
AcDbEntity
  8
0
100
AcDbLine
 10
133.473585084428
 20
233.603354033771
 30
0.0
 11
134.7033315179
 21
231.473433210996
 31
0.0
  0
LINE
  5
5BE
330
1D
100
AcDbEntity
  8
0
100
AcDbLine
 10
133.473116041276
 20
248.54383358349
 30
0.0
 11
134.702864098747
 21
250.673757219029
 31
0.0
  0
LINE
  5
5C0
330
1D
100
AcDbEntity
  8
0
100
AcDbLine
 10
133.74895
 20
238.5735
 30
0.0
 11
134.24895
 21
239.7735
 31
0.0
  0
LINE
  5
5C1
330
1D
100
AcDbEntity
  8
0
100
AcDbLine
 10
133.634635989389
 20
234.324369866379
 30
0.0
 11
135.04895
 21
235.4735
 31
0.0
  0
LINE
  5
5C2
330
1D
100
AcDbEntity
  8
0
100
AcDbLine
 10
133.64895
 20
233.6735
 30
0.0
 11
135.44895
 21
235.0735
 31
0.0
  0
LINE
  5
5C3
330
1D
100
AcDbEntity
  8
0
100
AcDbLine
 10
133.851921566072
 20
238.820631758574
 30
0.0
 11
134.24895
 21
239.7735
 31
0.0
  0
LINE
  5
5C4
330
1D
100
AcDbEntity
  8
0
100
AcDbLine
 10
133.851585697197
 20
243.327174326728
 30
0.0
 11
134.24895
 21
242.3735
 31
0.0
  0
LINE
  5
5C5
330
1D
100
AcDbEntity
  8
0
100
AcDbLine
 10
133.74895
 20
243.5735
 30
0.0
 11
134.24895
 21
242.3735
 31
0.0
  0
LINE
  5
5C6
330
1D
100
AcDbEntity
  8
0
100
AcDbLine
 10
133.634242984869
 20
247.822949449794
 30
0.0
 11
135.04895
 21
246.6735
 31
0.0
  0
LINE
  5
5C7
330
1D
100
AcDbEntity
  8
0
100
AcDbLine
 10
133.64895
 20
248.4735
 30
0.0
 11
135.44895
 21
247.0735
 31
0.0
  0
LINE
  5
5C8
330
1D
100
AcDbEntity
  8
0
100
AcDbLine
 10
134.24895
 20
239.7735
 30
0.0
 11
134.44895
 21
241.0735
 31
0.0
  0
LINE
  5
5C9
330
1D
100
AcDbEntity
  8
0
100
AcDbLine
 10
134.24895
 20
239.7735
 30
0.0
 11
134.410488461538
 21
240.8235
 31
0.0
  0
LINE
  5
5CA
330
1D
100
AcDbEntity
  8
0
100
AcDbLine
 10
134.24895
 20
238.3735
 30
0.0
 11
134.74895
 21
239.6735
 31
0.0
  0
LINE
  5
5CB
330
1D
100
AcDbEntity
  8
0
100
AcDbLine
 10
134.24895
 20
242.3735
 30
0.0
 11
134.44895
 21
241.0735
 31
0.0
  0
LINE
  5
5CC
330
1D
100
AcDbEntity
  8
0
100
AcDbLine
 10
134.24895
 20
242.3735
 30
0.0
 11
134.410488461538
 21
241.3235
 31
0.0
  0
LINE
  5
5CD
330
1D
100
AcDbEntity
  8
0
100
AcDbLine
 10
134.24895
 20
243.7735
 30
0.0
 11
134.74895
 21
242.4735
 31
0.0
  0
LINE
  5
5CE
330
1D
100
AcDbEntity
  8
0
100
AcDbLine
 10
134.060833424954
 20
238.122677899939
 30
0.0
 11
136.198588613548
 21
236.888439832059
 31
0.0
  0
LINE
  5
5CF
330
1D
100
AcDbEntity
  8
0
100
AcDbLine
 10
134.060833424954
 20
238.122677899939
 30
0.0
 11
136.198588613548
 21
236.888439832059
 31
0.0
  0
LINE
  5
5D0
330
1D
100
AcDbEntity
  8
0
100
AcDbLine
 10
134.060310052645
 20
244.025019929807
 30
0.0
 11
136.198035553406
 21
245.259240857346
 31
0.0
  0
LINE
  5
5D2
330
1D
100
AcDbEntity
  8
0
100
AcDbLine
 10
134.74895
 20
239.6735
 30
0.0
 11
134.94895
 21
241.0735
 31
0.0
  0
LINE
  5
5D3
330
1D
100
AcDbEntity
  8
0
100
AcDbLine
 10
134.74895
 20
242.4735
 30
0.0
 11
134.94895
 21
241.0735
 31
0.0
  0
LINE
  5
5D9
330
1D
100
AcDbEntity
  8
0
100
AcDbLine
 10
132.80735
 20
226.8105
 30
0.0
 11
134.40575
 21
227.2885
 31
0.0
  0
LINE
  5
5DA
330
1D
100
AcDbEntity
  8
0
100
AcDbLine
 10
134.05335
 20
201.1415
 30
0.0
 11
134.84935
 21
201.6165
 31
0.0
  0
LINE
  5
5E7
330
1D
100
AcDbEntity
  8
0
100
AcDbLine
 10
135.93785
 20
227.9495
 30
0.0
 11
137.38285
 21
228.7835
 31
0.0
  0
LINE
  5
5E9
330
1D
100
AcDbEntity
  8
0
100
AcDbLine
 10
135.93775
 20
227.9495
 30
0.0
 11
137.38265
 21
228.7835
 31
0.0
  0
LINE
  5
5EA
330
1D
100
AcDbEntity
  8
0
100
AcDbLine
 10
135.04895
 20
235.4735
 30
0.0
 11
136.34895
 21
237.0735
 31
0.0
  0
LINE
  5
5EB
330
1D
100
AcDbEntity
  8
0
100
AcDbLine
 10
135.04895
 20
235.4735
 30
0.0
 11
136.198588613548
 21
236.888439832059
 31
0.0
  0
LINE
  5
5EC
330
1D
100
AcDbEntity
  8
0
100
AcDbLine
 10
134.94895
 20
231.5735
 30
0.0
 11
137.24895
 21
233.2735
 31
0.0
  0
LINE
  5
5ED
330
1D
100
AcDbEntity
  8
0
100
AcDbLine
 10
135.04895
 20
246.6735
 30
0.0
 11
136.34895
 21
245.0735
 31
0.0
  0
LINE
  5
5EE
330
1D
100
AcDbEntity
  8
0
100
AcDbLine
 10
135.04895
 20
246.6735
 30
0.0
 11
136.198035553406
 21
245.259240857346
 31
0.0
  0
LINE
  5
5EF
330
1D
100
AcDbEntity
  8
0
100
AcDbLine
 10
135.140958480541
 20
231.715419311704
 30
0.0
 11
137.24895
 21
233.2735
 31
0.0
  0
LINE
  5
5F0
330
1D
100
AcDbEntity
  8
0
100
AcDbLine
 10
135.140553807446
 20
250.431879794496
 30
0.0
 11
137.24895
 21
248.8735
 31
0.0
  0
LINE
  5
5F1
330
1D
100
AcDbEntity
  8
0
100
AcDbLine
 10
134.94895
 20
250.5735
 30
0.0
 11
137.24895
 21
248.8735
 31
0.0
  0
LINE
  5
5F2
330
1D
100
AcDbEntity
  8
0
100
AcDbLine
 10
134.913235714286
 20
240.8235
 30
0.0
 11
137.413235714286
 21
240.8235
 31
0.0
  0
LINE
  5
5F3
330
1D
100
AcDbEntity
  8
0
100
AcDbLine
 10
135.14895
 20
231.0735
 30
0.0
 11
137.54895
 21
232.9735
 31
0.0
  0
LINE
  5
5F4
330
1D
100
AcDbEntity
  8
0
100
AcDbLine
 10
135.89695
 20
229.7895
 30
0.0
 11
138.65295
 21
231.8695
 31
0.0
  0
LINE
  5
5F5
330
1D
100
AcDbEntity
  8
0
100
AcDbLine
 10
135.44895
 20
235.0735
 30
0.0
 11
136.84895
 21
236.8735
 31
0.0
  0
LINE
  5
5F6
330
1D
100
AcDbEntity
  8
0
100
AcDbLine
 10
136.34895
 20
237.0735
 30
0.0
 11
137.14895
 21
238.9735
 31
0.0
  0
LINE
  5
5F7
330
1D
100
AcDbEntity
  8
0
100
AcDbLine
 10
136.34895
 20
245.0735
 30
0.0
 11
137.14895
 21
243.1735
 31
0.0
  0
LINE
  5
5F8
330
1D
100
AcDbEntity
  8
0
100
AcDbLine
 10
135.44895
 20
247.0735
 30
0.0
 11
136.84895
 21
245.2735
 31
0.0
  0
LINE
  5
5F9
330
1D
100
AcDbEntity
  8
0
100
AcDbLine
 10
135.44895
 20
230.6735
 30
0.0
 11
137.94895
 21
232.5735
 31
0.0
  0
LINE
  5
5FA
330
1D
100
AcDbEntity
  8
0
100
AcDbLine
 10
135.14895
 20
251.0735
 30
0.0
 11
137.54895
 21
249.1735
 31
0.0
  0
LINE
  5
5FB
330
1D
100
AcDbEntity
  8
0
100
AcDbLine
 10
135.89695
 20
252.3575
 30
0.0
 11
138.65295
 21
250.2775
 31
0.0
  0
LINE
  5
5FC
330
1D
100
AcDbEntity
  8
0
100
AcDbLine
 10
135.44895
 20
251.4735
 30
0.0
 11
137.94895
 21
249.5735
 31
0.0
  0
LINE
  5
5FF
330
1D
100
AcDbEntity
  8
0
100
AcDbLine
 10
136.452415434804
 20
237.31923040766
 30
0.0
 11
137.14895
 21
238.9735
 31
0.0
  0
LINE
  5
600
330
1D
100
AcDbEntity
  8
0
100
AcDbLine
 10
136.45207672185
 20
244.828574035607
 30
0.0
 11
137.14895
 21
243.1735
 31
0.0
  0
LINE
  5
601
330
1D
100
AcDbEntity
  8
0
100
AcDbLine
 10
136.84895
 20
236.8735
 30
0.0
 11
137.64895
 21
238.8735
 31
0.0
  0
LINE
  5
602
330
1D
100
AcDbEntity
  8
0
100
AcDbLine
 10
136.84895
 20
245.2735
 30
0.0
 11
137.64895
 21
243.2735
 31
0.0
  0
LINE
  5
603
330
1D
100
AcDbEntity
  8
0
100
AcDbLine
 10
136.655426132292
 20
236.624683598661
 30
0.0
 11
138.807527009664
 21
235.382163013075
 31
0.0
  0
LINE
  5
604
330
1D
100
AcDbEntity
  8
0
100
AcDbLine
 10
136.654889382849
 20
245.523006507765
 30
0.0
 11
138.807008953749
 21
246.765537886104
 31
0.0
  0
LINE
  5
605
330
1D
100
AcDbEntity
  8
0
100
AcDbLine
 10
137.14895
 20
238.9735
 30
0.0
 11
137.44895
 21
241.0735
 31
0.0
  0
LINE
  5
606
330
1D
100
AcDbEntity
  8
0
100
AcDbLine
 10
137.14895
 20
238.9735
 30
0.0
 11
137.413235714286
 21
240.8235
 31
0.0
  0
LINE
  5
607
330
1D
100
AcDbEntity
  8
0
100
AcDbLine
 10
137.14895
 20
243.1735
 30
0.0
 11
137.44895
 21
241.0735
 31
0.0
  0
LINE
  5
608
330
1D
100
AcDbEntity
  8
0
100
AcDbLine
 10
137.14895
 20
243.1735
 30
0.0
 11
137.413235714286
 21
241.3235
 31
0.0
  0
LINE
  5
60C
330
1D
100
AcDbEntity
  8
0
100
AcDbLine
 10
136.43435
 20
202.1415
 30
0.0
 11
136.83335
 21
202.4755
 31
0.0
  0
LINE
  5
60D
330
1D
100
AcDbEntity
  8
0
100
AcDbLine
 10
136.42325
 20
202.1315
 30
0.0
 11
136.83335
 21
202.4755
 31
0.0
  0
LINE
  5
616
330
1D
100
AcDbEntity
  8
0
100
AcDbLine
 10
137.38285
 20
228.7835
 30
0.0
 11
138.72135
 21
229.7795
 31
0.0
  0
LINE
  5
617
330
1D
100
AcDbEntity
  8
0
100
AcDbLine
 10
137.24895
 20
233.2735
 30
0.0
 11
138.94895
 21
235.5735
 31
0.0
  0
LINE
  5
618
330
1D
100
AcDbEntity
  8
0
100
AcDbLine
 10
137.24895
 20
233.2735
 30
0.0
 11
138.807527009664
 21
235.382163013075
 31
0.0
  0
LINE
  5
619
330
1D
100
AcDbEntity
  8
0
100
AcDbLine
 10
137.24895
 20
248.8735
 30
0.0
 11
138.94895
 21
246.5735
 31
0.0
  0
LINE
  5
61A
330
1D
100
AcDbEntity
  8
0
100
AcDbLine
 10
137.24895
 20
248.8735
 30
0.0
 11
138.807008953749
 21
246.765537886104
 31
0.0
  0
LINE
  5
61F
330
1D
100
AcDbEntity
  8
0
100
AcDbLine
 10
137.38265
 20
228.7835
 30
0.0
 11
138.72145
 21
229.7795
 31
0.0
  0
LINE
  5
620
330
1D
100
AcDbEntity
  8
0
100
AcDbLine
 10
137.18205
 20
202.9235
 30
0.0
 11
138.94285
 21
203.8965
 31
0.0
  0
LINE
  5
621
330
1D
100
AcDbEntity
  8
0
100
AcDbLine
 10
136.00015
 20
201.7485
 30
0.0
 11
136.42325
 21
202.1315
 31
0.0
  0
LINE
  5
622
330
1D
100
AcDbEntity
  8
0
100
AcDbLine
 10
136.00015
 20
201.7485
 30
0.0
 11
136.43435
 21
202.1415
 31
0.0
  0
LINE
  5
623
330
1D
100
AcDbEntity
  8
0
100
AcDbLine
 10
134.84935
 20
201.6165
 30
0.0
 11
137.18205
 21
202.9235
 31
0.0
  0
LINE
  5
624
330
1D
100
AcDbEntity
  8
0
100
AcDbLine
 10
133.28755
 20
200.6235
 30
0.0
 11
134.05335
 21
201.1415
 31
0.0
  0
LINE
  5
625
330
1D
100
AcDbEntity
  8
0
100
AcDbLine
 10
131.37295
 20
199.4005
 30
0.0
 11
132.585086052582
 21
200.082035374684
 31
0.0
  0
LINE
  5
626
330
1D
100
AcDbEntity
  8
0
100
AcDbLine
 10
129.52965
 20
198.3025
 30
0.0
 11
131.37295
 21
199.4005
 31
0.0
  0
LINE
  5
627
330
1D
100
AcDbEntity
  8
0
100
AcDbLine
 10
124.82005
 20
195.1715
 30
0.0
 11
126.75175
 21
196.5475
 31
0.0
  0
LINE
  5
629
330
1D
100
AcDbEntity
  8
0
100
AcDbLine
 10
119.16285
 20
41.341
 30
0.0
 11
121.05325
 21
40.7273
 31
0.0
  0
LINE
  5
62A
330
1D
100
AcDbEntity
  8
0
100
AcDbLine
 10
135.67465
 20
41.1809
 30
0.0
 11
137.54195
 21
41.9365
 31
0.0
  0
LINE
  5
64F
330
1D
100
AcDbEntity
  8
0
100
AcDbLine
 10
138.21935
 20
0.1165
 30
0.0
 11
140.15605
 21
-0.0345
 31
0.0
  0
LINE
  5
691
330
1D
100
AcDbEntity
  8
0
100
AcDbLine
 10
140.15605
 20
-0.0345
 30
0.0
 11
141.85155
 21
-0.0735
 31
0.0
  0
LINE
  5
692
330
1D
100
AcDbEntity
  8
0
100
AcDbLine
 10
141.85155
 20
-0.0735
 30
0.0
 11
142.91995
 21
-0.0335
 31
0.0
  0
LINE
  5
69C
330
1D
100
AcDbEntity
  8
0
100
AcDbLine
 10
139.62935
 20
43.2428
 30
0.0
 11
142.28865
 21
45.235
 31
0.0
  0
LINE
  5
69F
330
1D
100
AcDbEntity
  8
0
100
AcDbLine
 10
139.26865
 20
42.8438
 30
0.0
 11
140.83145
 21
43.8887
 31
0.0
  0
LINE
  5
6A0
330
1D
100
AcDbEntity
  8
0
100
AcDbLine
 10
140.83145
 20
43.8887
 30
0.0
 11
142.20735
 21
45.059
 31
0.0
  0
LINE
  5
6A1
330
1D
100
AcDbEntity
  8
0
100
AcDbLine
 10
143.88075
 20
0.0645
 30
0.0
 11
144.73205
 21
0.2245
 31
0.0
  0
LINE
  5
6A2
330
1D
100
AcDbEntity
  8
0
100
AcDbLine
 10
142.91995
 20
-0.0335
 30
0.0
 11
143.88075
 21
0.0645
 31
0.0
  0
LINE
  5
715
330
1D
100
AcDbEntity
  8
0
100
AcDbLine
 10
144.73205
 20
0.2245
 30
0.0
 11
145.46575
 21
0.4525
 31
0.0
  0
LINE
  5
721
330
1D
100
AcDbEntity
  8
0
100
AcDbLine
 10
145.46575
 20
0.4525
 30
0.0
 11
146.05565
 21
0.7295
 31
0.0
  0
LINE
  5
740
330
1D
100
AcDbEntity
  8
0
100
AcDbLine
 10
146.05565
 20
0.7295
 30
0.0
 11
146.56125
 21
1.0995
 31
0.0
  0
LINE
  5
759
330
1D
100
AcDbEntity
  8
0
100
AcDbLine
 10
146.56125
 20
1.0995
 30
0.0
 11
147.01845
 21
1.5855
 31
0.0
  0
LINE
  5
770
330
1D
100
AcDbEntity
  8
0
100
AcDbLine
 10
142.28865
 20
45.235
 30
0.0
 11
142.981377662504
 21
46.041093038469
 31
0.0
  0
LINE
  5
771
330
1D
100
AcDbEntity
  8
0
100
AcDbLine
 10
142.28865
 20
45.235
 30
0.0
 11
142.981377662504
 21
46.041093038469
 31
0.0
  0
LINE
  5
772
330
1D
100
AcDbEntity
  8
0
100
AcDbLine
 10
142.28865
 20
45.235
 30
0.0
 11
143.16805
 21
46.212
 31
0.0
  0
LINE
  5
773
330
1D
100
AcDbEntity
  8
0
100
AcDbLine
 10
143.16805
 20
46.212
 30
0.0
 11
144.06255
 21
47.2992
 31
0.0
  0
LINE
  5
77C
330
1D
100
AcDbEntity
  8
0
100
AcDbLine
 10
147.01845
 20
1.5855
 30
0.0
 11
147.09585
 21
1.7035
 31
0.0
  0
LINE
  5
790
330
1D
100
AcDbEntity
  8
0
100
AcDbLine
 10
147.09585
 20
1.7035
 30
0.0
 11
147.47985
 21
2.2885
 31
0.0
  0
LINE
  5
7B3
330
1D
100
AcDbEntity
  8
0
100
AcDbLine
 10
147.81755
 20
15.1015
 30
0.0
 11
148.23965
 21
11.2791
 31
0.0
  0
LINE
  5
7E8
330
1D
100
AcDbEntity
  8
0
100
AcDbLine
 10
147.42255
 20
19.1532
 30
0.0
 11
147.81755
 21
15.1015
 31
0.0
  0
LINE
  5
7E9
330
1D
100
AcDbEntity
  8
0
100
AcDbLine
 10
147.33705
 20
19.9604
 30
0.0
 11
147.42255
 21
19.1532
 31
0.0
  0
LINE
  5
84D
330
1D
100
AcDbEntity
  8
0
100
AcDbLine
 10
148.36525
 20
10.0395
 30
0.0
 11
148.42755
 21
9.1185
 31
0.0
  0
LINE
  5
85D
330
1D
100
AcDbEntity
  8
0
100
AcDbLine
 10
148.42755
 20
9.1185
 30
0.0
 11
148.43255
 21
8.7975
 31
0.0
  0
LINE
  5
85E
330
1D
100
AcDbEntity
  8
0
100
AcDbLine
 10
148.42755
 20
9.1185
 30
0.0
 11
148.42902706913
 21
8.82973298509
 31
0.0
  0
LINE
  5
85F
330
1D
100
AcDbEntity
  8
0
100
AcDbLine
 10
148.23965
 20
11.2791
 30
0.0
 11
148.36525
 21
10.0395
 31
0.0
  0
LINE
  5
88D
330
1D
100
AcDbEntity
  8
0
100
AcDbLine
 10
142.20735
 20
45.059
 30
0.0
 11
143.37825
 21
46.3356
 31
0.0
  0
LINE
  5
88E
330
1D
100
AcDbEntity
  8
0
100
AcDbLine
 10
143.975679816668
 20
47.193615580416
 30
0.0
 11
144.30375
 21
47.5745
 31
0.0
  0
LINE
  5
88F
330
1D
100
AcDbEntity
  8
0
100
AcDbLine
 10
144.30375
 20
47.5745
 30
0.0
 11
144.80525
 21
48.4431
 31
0.0
  0
LINE
  5
890
330
1D
100
AcDbEntity
  8
0
100
AcDbLine
 10
145.58725
 20
50.1603
 30
0.0
 11
145.81435
 21
50.8552
 31
0.0
  0
LINE
  5
891
330
1D
100
AcDbEntity
  8
0
100
AcDbLine
 10
145.81435
 20
50.8552
 30
0.0
 11
146.06965
 21
52.1034
 31
0.0
  0
LINE
  5
892
330
1D
100
AcDbEntity
  8
0
100
AcDbLine
 10
145.39125
 20
49.6313
 30
0.0
 11
145.58725
 21
50.1603
 31
0.0
  0
LINE
  5
893
330
1D
100
AcDbEntity
  8
0
100
AcDbLine
 10
144.80525
 20
48.4431
 30
0.0
 11
145.39125
 21
49.6313
 31
0.0
  0
LINE
  5
894
330
1D
100
AcDbEntity
  8
0
100
AcDbLine
 10
146.06965
 20
52.1034
 30
0.0
 11
146.15505
 21
53.3621
 31
0.0
  0
LINE
  5
895
330
1D
100
AcDbEntity
  8
0
100
AcDbLine
 10
138.52375
 20
167.0145
 30
0.0
 11
140.18215
 21
166.2445
 31
0.0
  0
LINE
  5
896
330
1D
100
AcDbEntity
  8
0
100
AcDbLine
 10
137.64895
 20
238.8735
 30
0.0
 11
137.94895
 21
241.0735
 31
0.0
  0
LINE
  5
897
330
1D
100
AcDbEntity
  8
0
100
AcDbLine
 10
137.64895
 20
243.2735
 30
0.0
 11
137.94895
 21
241.0735
 31
0.0
  0
LINE
  5
898
330
1D
100
AcDbEntity
  8
0
100
AcDbLine
 10
137.54895
 20
232.9735
 30
0.0
 11
139.44895
 21
235.3735
 31
0.0
  0
LINE
  5
899
330
1D
100
AcDbEntity
  8
0
100
AcDbLine
 10
137.54895
 20
249.1735
 30
0.0
 11
139.44895
 21
246.7735
 31
0.0
  0
LINE
  5
89F
330
1D
100
AcDbEntity
  8
0
100
AcDbLine
 10
137.914859090909
 20
240.8235
 30
0.0
 11
140.413235714286
 21
240.8235
 31
0.0
  0
LINE
  5
8A0
330
1D
100
AcDbEntity
  8
0
100
AcDbLine
 10
137.94895
 20
232.5735
 30
0.0
 11
139.84895
 21
235.0735
 31
0.0
  0
LINE
  5
8A1
330
1D
100
AcDbEntity
  8
0
100
AcDbLine
 10
137.94895
 20
249.5735
 30
0.0
 11
139.84895
 21
247.0735
 31
0.0
  0
LINE
  5
8A3
330
1D
100
AcDbEntity
  8
0
100
AcDbLine
 10
138.65295
 20
231.8695
 30
0.0
 11
140.73295
 21
234.6255
 31
0.0
  0
LINE
  5
8A4
330
1D
100
AcDbEntity
  8
0
100
AcDbLine
 10
138.65295
 20
250.2775
 30
0.0
 11
140.73295
 21
247.5215
 31
0.0
  0
LINE
  5
8AA
330
1D
100
AcDbEntity
  8
0
100
AcDbLine
 10
141.88165
 20
165.6265
 30
0.0
 11
143.60925
 21
165.1615
 31
0.0
  0
LINE
  5
8AB
330
1D
100
AcDbEntity
  8
0
100
AcDbLine
 10
143.60925
 20
165.1615
 30
0.0
 11
145.35005
 21
164.8555
 31
0.0
  0
LINE
  5
8B0
330
1D
100
AcDbEntity
  8
0
100
AcDbLine
 10
140.18215
 20
166.2445
 30
0.0
 11
141.88165
 21
165.6265
 31
0.0
  0
LINE
  5
8B4
330
1D
100
AcDbEntity
  8
0
100
AcDbLine
 10
145.35005
 20
164.8555
 30
0.0
 11
147.08875
 21
164.7115
 31
0.0
  0
LINE
  5
8BA
330
1D
100
AcDbEntity
  8
0
100
AcDbLine
 10
138.72135
 20
229.7795
 30
0.0
 11
139.93505
 21
230.9245
 31
0.0
  0
LINE
  5
8BD
330
1D
100
AcDbEntity
  8
0
100
AcDbLine
 10
138.72145
 20
229.7795
 30
0.0
 11
139.93505
 21
230.9245
 31
0.0
  0
LINE
  5
8C7
330
1D
100
AcDbEntity
  8
0
100
AcDbLine
 10
139.049332738704
 20
235.819893995
 30
0.0
 11
140.04895
 21
238.2735
 31
0.0
  0
LINE
  5
8C8
330
1D
100
AcDbEntity
  8
0
100
AcDbLine
 10
138.94895
 20
235.5735
 30
0.0
 11
140.04895
 21
238.2735
 31
0.0
  0
LINE
  5
8C9
330
1D
100
AcDbEntity
  8
0
100
AcDbLine
 10
139.44895
 20
235.3735
 30
0.0
 11
140.54895
 21
238.0735
 31
0.0
  0
LINE
  5
8CA
330
1D
100
AcDbEntity
  8
0
100
AcDbLine
 10
139.84895
 20
235.0735
 30
0.0
 11
141.04895
 21
237.9735
 31
0.0
  0
LINE
  5
8DE
330
1D
100
AcDbEntity
  8
0
100
AcDbLine
 10
140.04895
 20
238.2735
 30
0.0
 11
140.44895
 21
241.0735
 31
0.0
  0
LINE
  5
8DF
330
1D
100
AcDbEntity
  8
0
100
AcDbLine
 10
140.04895
 20
238.2735
 30
0.0
 11
140.413235714286
 21
240.8235
 31
0.0
  0
LINE
  5
8E0
330
1D
100
AcDbEntity
  8
0
100
AcDbLine
 10
140.04895
 20
243.8735
 30
0.0
 11
140.44895
 21
241.0735
 31
0.0
  0
LINE
  5
8E1
330
1D
100
AcDbEntity
  8
0
100
AcDbLine
 10
140.04895
 20
243.8735
 30
0.0
 11
140.413235714286
 21
241.3235
 31
0.0
  0
LINE
  5
8E9
330
1D
100
AcDbEntity
  8
0
100
AcDbLine
 10
141.92465
 20
233.5965
 30
0.0
 11
142.67385
 21
235.0865
 31
0.0
  0
LINE
  5
8EA
330
1D
100
AcDbEntity
  8
0
100
AcDbLine
 10
140.73295
 20
234.6255
 30
0.0
 11
141.98095
 21
237.7455
 31
0.0
  0
LINE
  5
8EB
330
1D
100
AcDbEntity
  8
0
100
AcDbLine
 10
140.54895
 20
238.0735
 30
0.0
 11
140.94895
 21
241.0735
 31
0.0
  0
LINE
  5
8EC
330
1D
100
AcDbEntity
  8
0
100
AcDbLine
 10
140.54895
 20
244.0735
 30
0.0
 11
140.94895
 21
241.0735
 31
0.0
  0
LINE
  5
8F2
330
1D
100
AcDbEntity
  8
0
100
AcDbLine
 10
142.67385
 20
235.0865
 30
0.0
 11
143.24495
 21
236.6545
 31
0.0
  0
LINE
  5
8F3
330
1D
100
AcDbEntity
  8
0
100
AcDbLine
 10
141.04895
 20
237.9735
 30
0.0
 11
141.44895
 21
241.0735
 31
0.0
  0
LINE
  5
8F9
330
1D
100
AcDbEntity
  8
0
100
AcDbLine
 10
143.24495
 20
236.6545
 30
0.0
 11
143.63015
 21
238.2775
 31
0.0
  0
LINE
  5
8FA
330
1D
100
AcDbEntity
  8
0
100
AcDbLine
 10
141.98095
 20
237.7455
 30
0.0
 11
142.44895
 21
241.0735
 31
0.0
  0
LINE
  5
8FE
330
1D
100
AcDbEntity
  8
0
100
AcDbLine
 10
143.63015
 20
238.2775
 30
0.0
 11
143.82445
 21
239.9345
 31
0.0
  0
LINE
  5
8FF
330
1D
100
AcDbEntity
  8
0
100
AcDbLine
 10
142.017337096774
 20
244.142747311828
 30
0.0
 11
142.04205
 21
244.3075
 31
0.0
  0
LINE
  5
90A
330
1D
100
AcDbEntity
  8
0
100
AcDbLine
 10
143.63035
 20
238.2775
 30
0.0
 11
143.82445
 21
239.9345
 31
0.0
  0
LINE
  5
90C
330
1D
100
AcDbEntity
  8
0
100
AcDbLine
 10
143.24465
 20
236.6545
 30
0.0
 11
143.63035
 21
238.2775
 31
0.0
  0
LINE
  5
90E
330
1D
100
AcDbEntity
  8
0
100
AcDbLine
 10
142.67375
 20
235.0865
 30
0.0
 11
143.24465
 21
236.6545
 31
0.0
  0
LINE
  5
910
330
1D
100
AcDbEntity
  8
0
100
AcDbLine
 10
141.92475
 20
233.5965
 30
0.0
 11
142.67375
 21
235.0865
 31
0.0
  0
LINE
  5
912
330
1D
100
AcDbEntity
  8
0
100
AcDbLine
 10
141.00755
 20
232.2025
 30
0.0
 11
141.92475
 21
233.5965
 31
0.0
  0
LINE
  5
913
330
1D
100
AcDbEntity
  8
0
100
AcDbLine
 10
141.00755
 20
232.2025
 30
0.0
 11
141.92465
 21
233.5965
 31
0.0
  0
LINE
  5
914
330
1D
100
AcDbEntity
  8
0
100
AcDbLine
 10
139.93505
 20
230.9245
 30
0.0
 11
141.00755
 21
232.2025
 31
0.0
  0
LINE
  5
915
330
1D
100
AcDbEntity
  8
0
100
AcDbLine
 10
141.98095
 20
244.4015
 30
0.0
 11
142.44895
 21
241.0735
 31
0.0
  0
LINE
  5
916
330
1D
100
AcDbEntity
  8
0
100
AcDbLine
 10
141.04895
 20
244.1735
 30
0.0
 11
141.44895
 21
241.0735
 31
0.0
  0
LINE
  5
918
330
1D
100
AcDbEntity
  8
0
100
AcDbLine
 10
142.04205
 20
244.3075
 30
0.0
 11
142.14405
 21
244.5445
 31
0.0
  0
LINE
  5
919
330
1D
100
AcDbEntity
  8
0
100
AcDbLine
 10
142.14405
 20
244.5445
 30
0.0
 11
142.30315
 21
244.7475
 31
0.0
  0
LINE
  5
91B
330
1D
100
AcDbEntity
  8
0
100
AcDbLine
 10
142.04195
 20
244.3075
 30
0.0
 11
142.14425
 21
244.5445
 31
0.0
  0
LINE
  5
91C
330
1D
100
AcDbEntity
  8
0
100
AcDbLine
 10
142.017320072064
 20
244.142868376431
 30
0.0
 11
142.04195
 21
244.3075
 31
0.0
  0
LINE
  5
924
330
1D
100
AcDbEntity
  8
0
100
AcDbLine
 10
143.63175
 20
243.2605
 30
0.0
 11
143.82485
 21
241.6035
 31
0.0
  0
LINE
  5
928
330
1D
100
AcDbEntity
  8
0
100
AcDbLine
 10
143.63165
 20
243.2605
 30
0.0
 11
143.82485
 21
241.6035
 31
0.0
  0
LINE
  5
92A
330
1D
100
AcDbEntity
  8
0
100
AcDbLine
 10
142.30315
 20
244.7475
 30
0.0
 11
142.50885
 21
244.9025
 31
0.0
  0
LINE
  5
92C
330
1D
100
AcDbEntity
  8
0
100
AcDbLine
 10
142.30335
 20
244.7475
 30
0.0
 11
142.50885
 21
244.9025
 31
0.0
  0
LINE
  5
92D
330
1D
100
AcDbEntity
  8
0
100
AcDbLine
 10
142.74745
 20
245.0005
 30
0.0
 11
143.01255
 21
245.0335
 31
0.0
  0
LINE
  5
92E
330
1D
100
AcDbEntity
  8
0
100
AcDbLine
 10
141.77265
 20
244.9635
 30
0.0
 11
142.04585
 21
245.2315
 31
0.0
  0
LINE
  5
92F
330
1D
100
AcDbEntity
  8
0
100
AcDbLine
 10
142.50885
 20
244.9025
 30
0.0
 11
142.74755
 21
245.0005
 31
0.0
  0
LINE
  5
930
330
1D
100
AcDbEntity
  8
0
100
AcDbLine
 10
142.50885
 20
244.9025
 30
0.0
 11
142.74745
 21
245.0005
 31
0.0
  0
LINE
  5
931
330
1D
100
AcDbEntity
  8
0
100
AcDbLine
 10
143.22665
 20
245.0315
 30
0.0
 11
143.23345
 21
245.1095
 31
0.0
  0
LINE
  5
932
330
1D
100
AcDbEntity
  8
0
100
AcDbLine
 10
143.22665
 20
245.0315
 30
0.0
 11
143.24765
 21
244.8845
 31
0.0
  0
LINE
  5
933
330
1D
100
AcDbEntity
  8
0
100
AcDbLine
 10
143.24755
 20
244.8845
 30
0.0
 11
143.63175
 21
243.2605
 31
0.0
  0
LINE
  5
934
330
1D
100
AcDbEntity
  8
0
100
AcDbLine
 10
143.22675
 20
245.0315
 30
0.0
 11
143.24775
 21
244.8845
 31
0.0
  0
LINE
  5
935
330
1D
100
AcDbEntity
  8
0
100
AcDbLine
 10
142.74755
 20
245.0005
 30
0.0
 11
143.01255
 21
245.0335
 31
0.0
  0
LINE
  5
936
330
1D
100
AcDbEntity
  8
0
100
AcDbLine
 10
142.04585
 20
245.2315
 30
0.0
 11
142.37775
 21
245.4205
 31
0.0
  0
LINE
  5
937
330
1D
100
AcDbEntity
  8
0
100
AcDbLine
 10
142.37775
 20
245.4205
 30
0.0
 11
142.74685
 21
245.5205
 31
0.0
  0
LINE
  5
93C
330
1D
100
AcDbEntity
  8
0
100
AcDbLine
 10
142.74685
 20
245.5205
 30
0.0
 11
142.96285
 21
245.5345
 31
0.0
  0
LINE
  5
93D
330
1D
100
AcDbEntity
  8
0
100
AcDbLine
 10
139.049002912288
 20
246.32791557893
 30
0.0
 11
140.04895
 21
243.8735
 31
0.0
  0
LINE
  5
93E
330
1D
100
AcDbEntity
  8
0
100
AcDbLine
 10
138.94895
 20
246.5735
 30
0.0
 11
140.04895
 21
243.8735
 31
0.0
  0
LINE
  5
93F
330
1D
100
AcDbEntity
  8
0
100
AcDbLine
 10
139.44895
 20
246.7735
 30
0.0
 11
140.54895
 21
244.0735
 31
0.0
  0
LINE
  5
940
330
1D
100
AcDbEntity
  8
0
100
AcDbLine
 10
140.73295
 20
247.5215
 30
0.0
 11
141.98095
 21
244.4015
 31
0.0
  0
LINE
  5
941
330
1D
100
AcDbEntity
  8
0
100
AcDbLine
 10
139.84895
 20
247.0735
 30
0.0
 11
141.04895
 21
244.1735
 31
0.0
  0
LINE
  5
944
330
1D
100
AcDbEntity
  8
0
100
AcDbLine
 10
143.23345
 20
245.1095
 30
0.0
 11
143.28115
 21
245.2555
 31
0.0
  0
LINE
  5
946
330
1D
100
AcDbEntity
  8
0
100
AcDbLine
 10
143.01255
 20
245.0335
 30
0.0
 11
143.22675
 21
245.0315
 31
0.0
  0
LINE
  5
948
330
1D
100
AcDbEntity
  8
0
100
AcDbLine
 10
143.01255
 20
245.0335
 30
0.0
 11
143.22665
 21
245.0315
 31
0.0
  0
LINE
  5
950
330
1D
100
AcDbEntity
  8
0
100
AcDbLine
 10
143.34275
 20
245.3485
 30
0.0
 11
143.48835
 21
245.4685
 31
0.0
  0
LINE
  5
951
330
1D
100
AcDbEntity
  8
0
100
AcDbLine
 10
143.28115
 20
245.2555
 30
0.0
 11
143.34275
 21
245.3485
 31
0.0
  0
LINE
  5
954
330
1D
100
AcDbEntity
  8
0
100
AcDbLine
 10
142.14425
 20
244.5445
 30
0.0
 11
142.30335
 21
244.7475
 31
0.0
  0
LINE
  5
978
330
1D
100
AcDbEntity
  8
0
100
AcDbLine
 10
143.90585
 20
245.5735
 30
0.0
 11
145.99885
 21
245.5735
 31
0.0
  0
LINE
  5
97F
330
1D
100
AcDbEntity
  8
0
100
AcDbLine
 10
145.99885
 20
245.5735
 30
0.0
 11
146.49885
 21
245.4395
 31
0.0
  0
LINE
  5
984
330
1D
100
AcDbEntity
  8
0
100
AcDbLine
 10
143.82445
 20
239.9345
 30
0.0
 11
143.82485
 21
241.6035
 31
0.0
  0
LINE
  5
985
330
1D
100
AcDbEntity
  8
0
100
AcDbLine
 10
143.79225
 20
206.5425
 30
0.0
 11
146.18825
 21
207.8445
 31
0.0
  0
LINE
  5
986
330
1D
100
AcDbEntity
  8
0
100
AcDbLine
 10
141.29265
 20
205.1805
 30
0.0
 11
143.79225
 21
206.5425
 31
0.0
  0
LINE
  5
987
330
1D
100
AcDbEntity
  8
0
100
AcDbLine
 10
138.94285
 20
203.8965
 30
0.0
 11
141.29265
 21
205.1805
 31
0.0
  0
LINE
  5
98A
330
1D
100
AcDbEntity
  8
0
100
AcDbLine
 10
146.15505
 20
53.3621
 30
0.0
 11
146.51785
 21
106.4565
 31
0.0
  0
LINE
  5
98B
330
1D
100
AcDbEntity
  8
0
100
AcDbLine
 10
146.479635837642
 20
100.864002695918
 30
0.0
 11
148.77295
 21
101.1865
 31
0.0
  0
LINE
  5
98C
330
1D
100
AcDbEntity
  8
0
100
AcDbLine
 10
146.479635837642
 20
100.864002695918
 30
0.0
 11
148.77295
 21
101.1865
 31
0.0
  0
LINE
  5
98E
330
1D
100
AcDbEntity
  8
0
100
AcDbLine
 10
146.746369630016
 20
111.2665
 30
0.0
 11
189.34895
 21
111.2665
 31
0.0
  0
LINE
  5
98F
330
1D
100
AcDbEntity
  8
0
100
AcDbLine
 10
148.77295
 20
101.1865
 30
0.0
 11
166.53295
 21
108.2905
 31
0.0
  0
LINE
  5
990
330
1D
100
AcDbEntity
  8
0
100
AcDbLine
 10
148.06965
 20
127.7668
 30
0.0
 11
148.93395
 21
134.0294
 31
0.0
  0
LINE
  5
994
330
1D
100
AcDbEntity
  8
0
100
AcDbLine
 10
147.52495
 20
122.4879
 30
0.0
 11
148.06965
 21
127.7668
 31
0.0
  0
LINE
  5
995
330
1D
100
AcDbEntity
  8
0
100
AcDbLine
 10
146.84555
 20
113.3541
 30
0.0
 11
147.52495
 21
122.4879
 31
0.0
  0
LINE
  5
998
330
1D
100
AcDbEntity
  8
0
100
AcDbLine
 10
146.51785
 20
106.4565
 30
0.0
 11
146.84555
 21
113.3541
 31
0.0
  0
LINE
  5
99F
330
1D
100
AcDbEntity
  8
0
100
AcDbLine
 10
147.08875
 20
164.7115
 30
0.0
 11
148.81035
 21
164.7285
 31
0.0
  0
LINE
  5
9AA
330
1D
100
AcDbEntity
  8
0
100
AcDbLine
 10
152.14505
 20
165.2485
 30
0.0
 11
153.73005
 21
165.7465
 31
0.0
  0
LINE
  5
9AB
330
1D
100
AcDbEntity
  8
0
100
AcDbLine
 10
150.50085
 20
164.9085
 30
0.0
 11
152.14505
 21
165.2485
 31
0.0
  0
LINE
  5
9AC
330
1D
100
AcDbEntity
  8
0
100
AcDbLine
 10
148.81035
 20
164.7285
 30
0.0
 11
150.50085
 21
164.9085
 31
0.0
  0
LINE
  5
9B5
330
1D
100
AcDbEntity
  8
0
100
AcDbLine
 10
153.73005
 20
165.7465
 30
0.0
 11
155.053038336563
 21
166.316270711235
 31
0.0
  0
LINE
  5
9B8
330
1D
100
AcDbEntity
  8
0
100
AcDbLine
 10
155.06675
 20
166.3215
 30
0.0
 11
155.92105
 21
166.7065
 31
0.0
  0
LINE
  5
9BA
330
1D
100
AcDbEntity
  8
0
100
AcDbLine
 10
155.92105
 20
166.7065
 30
0.0
 11
156.68685
 21
167.1035
 31
0.0
  0
LINE
  5
9BB
330
1D
100
AcDbEntity
  8
0
100
AcDbLine
 10
155.100559058089
 20
166.336736436105
 30
0.0
 11
155.24165
 21
166.3975
 31
0.0
  0
LINE
  5
9BC
330
1D
100
AcDbEntity
  8
0
100
AcDbLine
 10
156.68685
 20
167.1035
 30
0.0
 11
157.42655
 21
167.5405
 31
0.0
  0
LINE
  5
9BD
330
1D
100
AcDbEntity
  8
0
100
AcDbLine
 10
157.42655
 20
167.5405
 30
0.0
 11
158.14015
 21
168.0165
 31
0.0
  0
LINE
  5
9BE
330
1D
100
AcDbEntity
  8
0
100
AcDbLine
 10
158.14015
 20
168.0165
 30
0.0
 11
158.88995
 21
168.5805
 31
0.0
  0
LINE
  5
9C0
330
1D
100
AcDbEntity
  8
0
100
AcDbLine
 10
158.88995
 20
168.5805
 30
0.0
 11
159.59445
 21
169.1815
 31
0.0
  0
LINE
  5
9C1
330
1D
100
AcDbEntity
  8
0
100
AcDbLine
 10
159.59445
 20
169.1815
 30
0.0
 11
160.26175
 21
169.8235
 31
0.0
  0
LINE
  5
9C2
330
1D
100
AcDbEntity
  8
0
100
AcDbLine
 10
160.88995
 20
170.5045
 30
0.0
 11
161.47685
 21
171.2225
 31
0.0
  0
LINE
  5
9C3
330
1D
100
AcDbEntity
  8
0
100
AcDbLine
 10
160.26175
 20
169.8235
 30
0.0
 11
160.88995
 21
170.5045
 31
0.0
  0
LINE
  5
9C4
330
1D
100
AcDbEntity
  8
0
100
AcDbLine
 10
159.02255
 20
168.1525
 30
0.0
 11
159.993711375815
 21
169.565623787312
 31
0.0
  0
LINE
  5
9C5
330
1D
100
AcDbEntity
  8
0
100
AcDbLine
 10
156.987320168637
 20
164.590258670309
 30
0.0
 11
159.02255
 21
168.1525
 31
0.0
  0
LINE
  5
9C6
330
1D
100
AcDbEntity
  8
0
100
AcDbLine
 10
156.15525
 20
162.8595
 30
0.0
 11
156.987320168635
 21
164.590258670304
 31
0.0
  0
LINE
  5
9CC
330
1D
100
AcDbEntity
  8
0
100
AcDbLine
 10
146.99885
 20
208.283672906545
 30
0.0
 11
146.99885
 21
243.5735
 31
0.0
  0
LINE
  5
9CD
330
1D
100
AcDbEntity
  8
0
100
AcDbLine
 10
148.63755
 20
209.1715
 30
0.0
 11
151.16115
 21
210.5375
 31
0.0
  0
LINE
  5
9CE
330
1D
100
AcDbEntity
  8
0
100
AcDbLine
 10
146.18825
 20
207.8445
 30
0.0
 11
148.63755
 21
209.1715
 31
0.0
  0
LINE
  5
9CF
330
1D
100
AcDbEntity
  8
0
100
AcDbLine
 10
153.65265
 20
211.6205
 30
0.0
 11
154.36125
 21
211.8225
 31
0.0
  0
LINE
  5
9D0
330
1D
100
AcDbEntity
  8
0
100
AcDbLine
 10
155.08385
 20
211.9855
 30
0.0
 11
155.82055
 21
212.1085
 31
0.0
  0
LINE
  5
9D1
330
1D
100
AcDbEntity
  8
0
100
AcDbLine
 10
154.36125
 20
211.8225
 30
0.0
 11
155.08385
 21
211.9855
 31
0.0
  0
LINE
  5
9D2
330
1D
100
AcDbEntity
  8
0
100
AcDbLine
 10
152.96115
 20
211.3815
 30
0.0
 11
153.65265
 21
211.6205
 31
0.0
  0
LINE
  5
9D3
330
1D
100
AcDbEntity
  8
0
100
AcDbLine
 10
152.28685
 20
211.1045
 30
0.0
 11
152.96115
 21
211.3815
 31
0.0
  0
LINE
  5
9D4
330
1D
100
AcDbEntity
  8
0
100
AcDbLine
 10
151.16115
 20
210.5375
 30
0.0
 11
152.28685
 21
211.1045
 31
0.0
  0
LINE
  5
9D5
330
1D
100
AcDbEntity
  8
0
100
AcDbLine
 10
146.99885
 20
223.237852416357
 30
0.0
 11
149.31165
 21
223.4635
 31
0.0
  0
LINE
  5
9D6
330
1D
100
AcDbEntity
  8
0
100
AcDbLine
 10
149.31165
 20
223.4635
 30
0.0
 11
157.41825
 21
224.1355
 31
0.0
  0
LINE
  5
9D7
330
1D
100
AcDbEntity
  8
0
100
AcDbLine
 10
146.99885
 20
231.099808513794
 30
0.0
 11
157.07025
 21
231.1745
 31
0.0
  0
LINE
  5
9D8
330
1D
100
AcDbEntity
  8
0
100
AcDbLine
 10
146.99885
 20
244.1079828125
 30
0.0
 11
148.77295
 21
243.8585
 31
0.0
  0
LINE
  5
9D9
330
1D
100
AcDbEntity
  8
0
100
AcDbLine
 10
146.99885
 20
243.5745
 30
0.0
 11
146.99885
 21
208.283672906545
 31
0.0
  0
LINE
  5
9DA
330
1D
100
AcDbEntity
  8
0
100
AcDbLine
 10
146.99885
 20
244.0745
 30
0.0
 11
146.99885
 21
243.5745
 31
0.0
  0
LINE
  5
9DB
330
1D
100
AcDbEntity
  8
0
100
AcDbLine
 10
146.99885
 20
243.5735
 30
0.0
 11
146.99885
 21
244.0735
 31
0.0
  0
LINE
  5
9DC
330
1D
100
AcDbEntity
  8
0
100
AcDbLine
 10
146.99885
 20
244.0735
 30
0.0
 11
146.99885
 21
244.4395
 31
0.0
  0
LINE
  5
9DD
330
1D
100
AcDbEntity
  8
0
100
AcDbLine
 10
146.99885
 20
244.5735
 30
0.0
 11
146.99885
 21
244.4395
 31
0.0
  0
LINE
  5
9DE
330
1D
100
AcDbEntity
  8
0
100
AcDbLine
 10
146.99885
 20
244.4395
 30
0.0
 11
146.99885
 21
244.5735
 31
0.0
  0
LINE
  5
9DF
330
1D
100
AcDbEntity
  8
0
100
AcDbLine
 10
146.99885
 20
244.4395
 30
0.0
 11
146.99885
 21
244.0745
 31
0.0
  0
LINE
  5
9E0
330
1D
100
AcDbEntity
  8
0
100
AcDbLine
 10
146.86485
 20
245.0735
 30
0.0
 11
146.99885
 21
244.5735
 31
0.0
  0
LINE
  5
9E1
330
1D
100
AcDbEntity
  8
0
100
AcDbLine
 10
146.49885
 20
245.4395
 30
0.0
 11
146.86485
 21
245.0735
 31
0.0
  0
LINE
  5
9E2
330
1D
100
AcDbEntity
  8
0
100
AcDbLine
 10
148.77295
 20
243.8585
 30
0.0
 11
166.53295
 21
236.7545
 31
0.0
  0
LINE
  5
9E4
330
1D
100
AcDbEntity
  8
0
100
AcDbLine
 10
146.99885
 20
233.7785
 30
0.0
 11
189.34895
 21
233.7785
 31
0.0
  0
LINE
  5
9E5
330
1D
100
AcDbEntity
  8
0
100
AcDbLine
 10
157.07025
 20
231.1745
 30
0.0
 11
175.07095
 21
231.2215
 31
0.0
  0
LINE
  5
9E6
330
1D
100
AcDbEntity
  8
0
100
AcDbLine
 10
157.41825
 20
224.1355
 30
0.0
 11
167.18455
 21
224.7865
 31
0.0
  0
LINE
  5
9E7
330
1D
100
AcDbEntity
  8
0
100
AcDbLine
 10
157.32305
 20
212.2345
 30
0.0
 11
158.17935
 21
212.2335
 31
0.0
  0
LINE
  5
9E8
330
1D
100
AcDbEntity
  8
0
100
AcDbLine
 10
158.17935
 20
212.2335
 30
0.0
 11
158.52915
 21
212.2205
 31
0.0
  0
LINE
  5
9E9
330
1D
100
AcDbEntity
  8
0
100
AcDbLine
 10
158.52915
 20
212.2205
 30
0.0
 11
159.94925
 21
212.0835
 31
0.0
  0
LINE
  5
9EA
330
1D
100
AcDbEntity
  8
0
100
AcDbLine
 10
156.56725
 20
212.1925
 30
0.0
 11
157.32305
 21
212.2345
 31
0.0
  0
LINE
  5
9EB
330
1D
100
AcDbEntity
  8
0
100
AcDbLine
 10
155.82055
 20
212.1085
 30
0.0
 11
156.56725
 21
212.1925
 31
0.0
  0
LINE
  5
9EC
330
1D
100
AcDbEntity
  8
0
100
AcDbLine
 10
159.94925
 20
212.0835
 30
0.0
 11
160.84475
 21
211.9295
 31
0.0
  0
LINE
  5
9ED
330
1D
100
AcDbEntity
  8
0
100
AcDbLine
 10
160.84475
 20
211.9295
 30
0.0
 11
161.73615
 21
211.7215
 31
0.0
  0
LINE
  5
9EE
330
1D
100
AcDbEntity
  8
0
100
AcDbLine
 10
164.33115
 20
175.0855
 30
0.0
 11
165.77345
 21
177.0645
 31
0.0
  0
LINE
  5
9EF
330
1D
100
AcDbEntity
  8
0
100
AcDbLine
 10
166.53295
 20
108.2905
 30
0.0
 11
169.49035
 21
110.5225
 31
0.0
  0
LINE
  5
9F0
330
1D
100
AcDbEntity
  8
0
100
AcDbLine
 10
167.54835
 20
179.4965
 30
0.0
 11
168.58195
 21
180.9125
 31
0.0
  0
LINE
  5
9F1
330
1D
100
AcDbEntity
  8
0
100
AcDbLine
 10
165.77345
 20
177.0645
 30
0.0
 11
167.54835
 21
179.4965
 31
0.0
  0
LINE
  5
9F2
330
1D
100
AcDbEntity
  8
0
100
AcDbLine
 10
170.67295
 20
183.7845
 30
0.0
 11
172.53295
 21
186.3365
 31
0.0
  0
LINE
  5
9F3
330
1D
100
AcDbEntity
  8
0
100
AcDbLine
 10
169.66995
 20
182.4075
 30
0.0
 11
170.67295
 21
183.7845
 31
0.0
  0
LINE
  5
9F4
330
1D
100
AcDbEntity
  8
0
100
AcDbLine
 10
168.58195
 20
180.9125
 30
0.0
 11
169.66995
 21
182.4075
 31
0.0
  0
LINE
  5
9F5
330
1D
100
AcDbEntity
  8
0
100
AcDbLine
 10
201.16495
 20
153.5785
 30
0.0
 11
203.82895
 21
172.5225
 31
0.0
  0
LINE
  5
9F6
330
1D
100
AcDbEntity
  8
0
100
AcDbLine
 10
194.06095
 20
135.8185
 30
0.0
 11
201.16495
 21
153.5785
 31
0.0
  0
LINE
  5
9F7
330
1D
100
AcDbEntity
  8
0
100
AcDbLine
 10
191.82895
 20
132.8611
 30
0.0
 11
194.06095
 21
135.8185
 31
0.0
  0
LINE
  5
9F8
330
1D
100
AcDbEntity
  8
0
100
AcDbLine
 10
191.82895
 20
156.944899951687
 30
0.0
 11
191.90695
 21
156.924
 31
0.0
  0
LINE
  5
9F9
330
1D
100
AcDbEntity
  8
0
100
AcDbLine
 10
191.08495
 20
113.0025
 30
0.0
 11
191.08495
 21
210.025934498802
 31
0.0
  0
LINE
  5
9FA
330
1D
100
AcDbEntity
  8
0
100
AcDbLine
 10
190.58895
 20
111.7625
 30
0.0
 11
191.08495
 21
113.0025
 31
0.0
  0
LINE
  5
9FC
330
1D
100
AcDbEntity
  8
0
100
AcDbLine
 10
189.34895
 20
111.2665
 30
0.0
 11
190.58895
 21
111.7625
 31
0.0
  0
LINE
  5
9FD
330
1D
100
AcDbEntity
  8
0
100
AcDbLine
 10
191.82895
 20
188.100100048312
 30
0.0
 11
191.90695
 21
188.121
 31
0.0
  0
LINE
  5
9FE
330
1D
100
AcDbEntity
  8
0
100
AcDbLine
 10
174.73995
 20
191.3075
 30
0.0
 11
174.92095
 21
192.1805
 31
0.0
  0
LINE
  5
9FF
330
1D
100
AcDbEntity
  8
0
100
AcDbLine
 10
174.50895
 20
190.4555
 30
0.0
 11
174.73995
 21
191.3075
 31
0.0
  0
LINE
  5
A00
330
1D
100
AcDbEntity
  8
0
100
AcDbLine
 10
201.16495
 20
191.4665
 30
0.0
 11
203.82895
 21
172.5225
 31
0.0
  0
LINE
  5
A01
330
1D
100
AcDbEntity
  8
0
100
AcDbLine
 10
175.12395
 20
193.9755
 30
0.0
 11
175.13095
 21
194.0655
 31
0.0
  0
LINE
  5
A02
330
1D
100
AcDbEntity
  8
0
100
AcDbLine
 10
175.04995
 20
193.0705
 30
0.0
 11
175.12395
 21
193.9755
 31
0.0
  0
LINE
  5
A03
330
1D
100
AcDbEntity
  8
0
100
AcDbLine
 10
174.92095
 20
192.1805
 30
0.0
 11
175.04995
 21
193.0705
 31
0.0
  0
LINE
  5
A04
330
1D
100
AcDbEntity
  8
0
100
AcDbLine
 10
174.20595
 20
189.5635
 30
0.0
 11
174.50895
 21
190.4555
 31
0.0
  0
LINE
  5
A05
330
1D
100
AcDbEntity
  8
0
100
AcDbLine
 10
173.84995
 20
188.7015
 30
0.0
 11
174.20595
 21
189.5635
 31
0.0
  0
LINE
  5
A06
330
1D
100
AcDbEntity
  8
0
100
AcDbLine
 10
173.23995
 20
187.4865
 30
0.0
 11
173.84995
 21
188.7015
 31
0.0
  0
LINE
  5
A07
330
1D
100
AcDbEntity
  8
0
100
AcDbLine
 10
172.53295
 20
186.3365
 30
0.0
 11
173.23995
 21
187.4865
 31
0.0
  0
LINE
  5
A08
330
1D
100
AcDbEntity
  8
0
100
AcDbLine
 10
174.88595
 20
197.6615
 30
0.0
 11
175.01795
 21
196.6995
 31
0.0
  0
LINE
  5
A09
330
1D
100
AcDbEntity
  8
0
100
AcDbLine
 10
175.01795
 20
196.6995
 30
0.0
 11
175.11295
 21
195.8905
 31
0.0
  0
LINE
  5
A0A
330
1D
100
AcDbEntity
  8
0
100
AcDbLine
 10
167.733211348809
 20
208.809067280048
 30
0.0
 11
177.98695
 21
209.3871
 31
0.0
  0
LINE
  5
A0B
330
1D
100
AcDbEntity
  8
0
100
AcDbLine
 10
168.32095
 20
208.3865
 30
0.0
 11
169.15595
 21
207.6745
 31
0.0
  0
LINE
  5
A0C
330
1D
100
AcDbEntity
  8
0
100
AcDbLine
 10
169.15595
 20
207.6745
 30
0.0
 11
169.84795
 21
207.0155
 31
0.0
  0
LINE
  5
A0D
330
1D
100
AcDbEntity
  8
0
100
AcDbLine
 10
169.84795
 20
207.0155
 30
0.0
 11
171.12495
 21
205.5975
 31
0.0
  0
LINE
  5
A0E
330
1D
100
AcDbEntity
  8
0
100
AcDbLine
 10
171.12495
 20
205.5975
 30
0.0
 11
172.25295
 21
204.0625
 31
0.0
  0
LINE
  5
A0F
330
1D
100
AcDbEntity
  8
0
100
AcDbLine
 10
172.25295
 20
204.0625
 30
0.0
 11
173.21595
 21
202.4305
 31
0.0
  0
LINE
  5
A10
330
1D
100
AcDbEntity
  8
0
100
AcDbLine
 10
173.21595
 20
202.4305
 30
0.0
 11
173.99895
 21
200.7225
 31
0.0
  0
LINE
  5
A11
330
1D
100
AcDbEntity
  8
0
100
AcDbLine
 10
173.99895
 20
200.7225
 30
0.0
 11
174.45395
 21
199.4225
 31
0.0
  0
LINE
  5
A12
330
1D
100
AcDbEntity
  8
0
100
AcDbLine
 10
174.45395
 20
199.4225
 30
0.0
 11
174.88595
 21
197.6615
 31
0.0
  0
LINE
  5
A13
330
1D
100
AcDbEntity
  8
0
100
AcDbLine
 10
194.06095
 20
209.2265
 30
0.0
 11
201.16495
 21
191.4665
 31
0.0
  0
LINE
  5
A14
330
1D
100
AcDbEntity
  8
0
100
AcDbLine
 10
177.98695
 20
209.3871
 30
0.0
 11
192.17295
 21
210.079
 31
0.0
  0
LINE
  5
A15
330
1D
100
AcDbEntity
  8
0
100
AcDbLine
 10
175.11295
 20
195.8905
 30
0.0
 11
175.14995
 21
194.9735
 31
0.0
  0
LINE
  5
A16
330
1D
100
AcDbEntity
  8
0
100
AcDbLine
 10
175.13095
 20
194.0655
 30
0.0
 11
175.14995
 21
194.9735
 31
0.0
  0
LINE
  5
A17
330
1D
100
AcDbEntity
  8
0
100
AcDbLine
 10
161.47685
 20
171.2225
 30
0.0
 11
164.33115
 21
175.0855
 31
0.0
  0
LINE
  5
A18
330
1D
100
AcDbEntity
  8
0
100
AcDbLine
 10
161.73615
 20
211.7215
 30
0.0
 11
162.55025
 21
211.4625
 31
0.0
  0
LINE
  5
A19
330
1D
100
AcDbEntity
  8
0
100
AcDbLine
 10
162.55025
 20
211.4625
 30
0.0
 11
163.49705
 21
211.1545
 31
0.0
  0
LINE
  5
A1A
330
1D
100
AcDbEntity
  8
0
100
AcDbLine
 10
163.49705
 20
211.1545
 30
0.0
 11
165.18045
 21
210.4075
 31
0.0
  0
LINE
  5
A1B
330
1D
100
AcDbEntity
  8
0
100
AcDbLine
 10
167.18455
 20
224.7865
 30
0.0
 11
177.73395
 21
225.3805
 31
0.0
  0
LINE
  5
A1C
330
1D
100
AcDbEntity
  8
0
100
AcDbLine
 10
177.73395
 20
225.3805
 30
0.0
 11
191.91995
 21
226.0735
 31
0.0
  0
LINE
  5
A1D
330
1D
100
AcDbEntity
  8
0
100
AcDbLine
 10
175.07095
 20
231.2215
 30
0.0
 11
192.89895
 21
231.1125
 31
0.0
  0
LINE
  5
A1E
330
1D
100
AcDbEntity
  8
0
100
AcDbLine
 10
191.08495
 20
231.123590756114
 30
0.0
 11
191.08495
 21
232.0425
 31
0.0
  0
LINE
  5
A1F
330
1D
100
AcDbEntity
  8
0
100
AcDbLine
 10
193.421773480288
 20
210.073408888618
 30
0.0
 11
194.06095
 21
209.2265
 31
0.0
  0
LINE
  5
A24
330
1D
100
AcDbEntity
  8
0
100
AcDbLine
 10
192.17295
 20
210.079
 30
0.0
 11
204.78695
 21
210.6375
 31
0.0
  0
LINE
  5
A28
330
1D
100
AcDbEntity
  8
0
100
AcDbLine
 10
204.78695
 20
210.6375
 30
0.0
 11
216.40595
 21
211.3025
 31
0.0
  0
LINE
  5
A2D
330
1D
100
AcDbEntity
  8
0
100
AcDbLine
 10
191.91995
 20
226.0735
 30
0.0
 11
204.53395
 21
226.6315
 31
0.0
  0
LINE
  5
A30
330
1D
100
AcDbEntity
  8
0
100
AcDbLine
 10
204.53395
 20
226.6315
 30
0.0
 11
216.15295
 21
227.2955
 31
0.0
  0
LINE
  5
A34
330
1D
100
AcDbEntity
  8
0
100
AcDbLine
 10
229.35695
 20
212.4795
 30
0.0
 11
231.89995
 21
212.9495
 31
0.0
  0
LINE
  5
A35
330
1D
100
AcDbEntity
  8
0
100
AcDbLine
 10
224.02895
 20
211.9075
 30
0.0
 11
229.35695
 21
212.4795
 31
0.0
  0
LINE
  5
A36
330
1D
100
AcDbEntity
  8
0
100
AcDbLine
 10
216.40595
 20
211.3025
 30
0.0
 11
224.02895
 21
211.9075
 31
0.0
  0
LINE
  5
A37
330
1D
100
AcDbEntity
  8
0
100
AcDbLine
 10
229.10395
 20
228.4735
 30
0.0
 11
231.64595
 21
228.9445
 31
0.0
  0
LINE
  5
A38
330
1D
100
AcDbEntity
  8
0
100
AcDbLine
 10
223.77495
 20
227.9015
 30
0.0
 11
229.10395
 21
228.4735
 31
0.0
  0
LINE
  5
A39
330
1D
100
AcDbEntity
  8
0
100
AcDbLine
 10
216.15295
 20
227.2955
 30
0.0
 11
223.77495
 21
227.9015
 31
0.0
  0
LINE
  5
A3A
330
1D
100
AcDbEntity
  8
0
100
AcDbLine
 10
224.99395
 20
230.2755
 30
0.0
 11
229.54195
 21
229.8445
 31
0.0
  0
LINE
  5
A3B
330
1D
100
AcDbEntity
  8
0
100
AcDbLine
 10
231.89995
 20
212.9495
 30
0.0
 11
234.98195
 21
213.5935
 31
0.0
  0
LINE
  5
A3C
330
1D
100
AcDbEntity
  8
0
100
AcDbLine
 10
234.98195
 20
213.5935
 30
0.0
 11
237.44695
 21
215.4285
 31
0.0
  0
LINE
  5
A3D
330
1D
100
AcDbEntity
  8
0
100
AcDbLine
 10
239.20395
 20
217.9535
 30
0.0
 11
239.37995
 21
218.3995
 31
0.0
  0
LINE
  5
A3E
330
1D
100
AcDbEntity
  8
0
100
AcDbLine
 10
239.37995
 20
218.3995
 30
0.0
 11
239.92795
 21
221.5065
 31
0.0
  0
LINE
  5
A3F
330
1D
100
AcDbEntity
  8
0
100
AcDbLine
 10
237.44695
 20
215.4285
 30
0.0
 11
239.20395
 21
217.9535
 31
0.0
  0
LINE
  5
A40
330
1D
100
AcDbEntity
  8
0
100
AcDbLine
 10
232.57795
 20
229.2995
 30
0.0
 11
234.90995
 21
228.8295
 31
0.0
  0
LINE
  5
A41
330
1D
100
AcDbEntity
  8
0
100
AcDbLine
 10
234.90995
 20
228.8295
 30
0.0
 11
237.53895
 21
227.0695
 31
0.0
  0
LINE
  5
A42
330
1D
100
AcDbEntity
  8
0
100
AcDbLine
 10
237.53895
 20
227.0695
 30
0.0
 11
239.28095
 21
224.5965
 31
0.0
  0
LINE
  5
A43
330
1D
100
AcDbEntity
  8
0
100
AcDbLine
 10
239.28095
 20
224.5965
 30
0.0
 11
239.92795
 21
221.5065
 31
0.0
  0
LINE
  5
A44
330
1D
100
AcDbEntity
  8
0
100
AcDbLine
 10
229.54195
 20
229.8445
 30
0.0
 11
232.57795
 21
229.2995
 31
0.0
  0
LINE
  5
A45
330
1D
100
AcDbEntity
  8
0
100
AcDbLine
 10
216.46295
 20
230.6525
 30
0.0
 11
224.99395
 21
230.2755
 31
0.0
  0
LINE
  5
A46
330
1D
100
AcDbEntity
  8
0
100
AcDbLine
 10
206.66395
 20
230.9545
 30
0.0
 11
216.46295
 21
230.6525
 31
0.0
  0
LINE
  5
A47
330
1D
100
AcDbEntity
  8
0
100
AcDbLine
 10
192.89895
 20
231.1125
 30
0.0
 11
206.66395
 21
230.9545
 31
0.0
  0
LINE
  5
A48
330
1D
100
AcDbEntity
  8
0
100
AcDbLine
 10
191.08495
 20
210.025934498802
 30
0.0
 11
191.08495
 21
113.0025
 31
0.0
  0
LINE
  5
A49
330
1D
100
AcDbEntity
  8
0
100
AcDbLine
 10
166.53295
 20
236.7545
 30
0.0
 11
169.49035
 21
234.5225
 31
0.0
  0
LINE
  5
A4B
330
1D
100
AcDbEntity
  8
0
100
AcDbLine
 10
189.34895
 20
233.7785
 30
0.0
 11
190.58895
 21
233.2825
 31
0.0
  0
LINE
  5
A4D
330
1D
100
AcDbEntity
  8
0
100
AcDbLine
 10
190.58895
 20
233.2825
 30
0.0
 11
191.08495
 21
232.0425
 31
0.0
  0
LINE
  5
A4F
330
1D
100
AcDbEntity
  8
0
100
AcDbLine
 10
191.08495
 20
232.0425
 30
0.0
 11
191.08495
 21
231.123590756114
 31
0.0
  0
LINE
  5
A50
330
1D
100
AcDbEntity
  8
0
100
AcDbLine
 10
165.18045
 20
210.4075
 30
0.0
 11
166.79655
 21
209.4825
 31
0.0
  0
LINE
  5
A51
330
1D
100
AcDbEntity
  8
0
100
AcDbLine
 10
166.79655
 20
209.4825
 30
0.0
 11
168.32095
 21
208.3865
 31
0.0
  0
LINE
  5
A53
330
1D
100
AcDbEntity
  8
0
100
AcDbLine
 10
146.155556734823
 20
53.436258713864
 30
0.0
 11
146.17525
 21
53.3364
 31
0.0
  0
LINE
  5
A54
330
1D
100
AcDbEntity
  8
0
100
AcDbLine
 10
143.37825
 20
46.3356
 30
0.0
 11
143.961914175874
 21
47.17688444048
 31
0.0
  0
LINE
  5
A55
330
1D
100
AcDbEntity
  8
0
100
AcDbLine
 10
137.54195
 20
41.9365
 30
0.0
 11
139.26865
 21
42.8438
 31
0.0
  0
LINE
  5
A7D
330
1D
100
AcDbEntity
  8
0
100
AcDbLine
 10
156.15525
 20
162.8595
 30
0.0
 11
153.698593127897
 21
157.475371974117
 31
0.0
  0
LINE
  5
A7E
330
1D
100
AcDbEntity
  8
0
100
AcDbLine
 10
153.698593127897
 20
157.475371974117
 30
0.0
 11
151.250039954292
 21
149.653604891768
 31
0.0
  0
LINE
  5
A7F
330
1D
100
AcDbEntity
  8
0
100
AcDbLine
 10
151.250039954292
 20
149.653604891768
 30
0.0
 11
149.209578976288
 21
138.839161708347
 31
0.0
  0
LINE
  5
A80
330
1D
100
AcDbEntity
  8
0
100
AcDbLine
 10
149.209578976288
 20
138.839161708347
 30
0.0
 11
148.93395
 21
134.0294
 31
0.0
  0
LINE
  5
A81
330
1D
100
AcDbEntity
  8
0
100
AcDbLine
 10
111.31535
 20
179.2865
 30
0.0
 11
109.171008647721
 21
173.008841276765
 31
0.0
  0
LINE
  5
A82
330
1D
100
AcDbEntity
  8
0
100
AcDbLine
 10
109.171008647721
 20
173.008841276765
 30
0.0
 11
107.96070879724
 21
165.795454167897
 31
0.0
  0
LINE
  5
A83
330
1D
100
AcDbEntity
  8
0
100
AcDbLine
 10
107.96070879724
 20
165.795454167897
 30
0.0
 11
107.10425
 21
155.5325
 31
0.0
  0
LINE
  5
A84
330
1D
100
AcDbEntity
  8
0
100
AcDbLine
 10
142.988776758977
 20
245.534601500488
 30
0.0
 11
143.882179058426
 21
245.576589075919
 31
0.0
  0
LINE
  5
A85
330
1D
100
AcDbEntity
  8
0
100
AcDbLine
 10
143.882179058426
 20
245.576589075919
 30
0.0
 11
143.90585
 21
245.5735
 31
0.0
  0
LINE
  5
A86
330
1D
100
AcDbEntity
  8
0
100
AcDbLine
 10
146.06965
 20
52.1034
 30
0.0
 11
146.362581157616
 21
42.712908630017
 31
0.0
  0
LINE
  5
A87
330
1D
100
AcDbEntity
  8
0
100
AcDbLine
 10
146.362581157616
 20
42.712908630017
 30
0.0
 11
147.33705
 21
19.9604
 31
0.0
  0
LINE
  5
A88
330
1D
100
AcDbEntity
  8
0
100
AcDbLine
 10
148.42902706913
 20
8.82973298509
 30
0.0
 11
148.272905743289
 21
6.240954500931
 31
0.0
  0
LINE
  5
A89
330
1D
100
AcDbEntity
  8
0
100
AcDbLine
 10
148.272905743289
 20
6.240954500931
 30
0.0
 11
148.095346581032
 21
4.690271150551
 31
0.0
  0
LINE
  5
A8A
330
1D
100
AcDbEntity
  8
0
100
AcDbLine
 10
148.095346581032
 20
4.690271150551
 30
0.0
 11
147.81125192142
 21
3.411845182298
 31
0.0
  0
LINE
  5
A8B
330
1D
100
AcDbEntity
  8
0
100
AcDbLine
 10
147.81125192142
 20
3.411845182298
 30
0.0
 11
147.47985
 21
2.2885
 31
0.0
  0
ENDSEC
  0
SECTION
  2
OBJECTS
  0
DICTIONARY
  5
C
330
0
100
AcDbDictionary
281
     1
  3
ACAD_GROUP
350
D
  3
ACAD_LAYOUT
350
1A
  3
ACAD_MLEADERSTYLE
350
A8E
  3
ACAD_MLINESTYLE
350
17
  3
ACAD_PLOTSETTINGS
350
19
  3
ACAD_PLOTSTYLENAME
350
E
  3
ACAD_SCALELIST
350
A5B
  3
AcDbVariableDictionary
350
A8C
  3
DWGPROPS
350
A91
  0
DICTIONARY
  5
D
102
{ACAD_REACTORS
330
C
102
}
330
C
100
AcDbDictionary
281
     1
  0
DICTIONARY
  5
1A
102
{ACAD_REACTORS
330
C
102
}
330
C
100
AcDbDictionary
281
     1
  3
Layout1
350
1C
  3
Model
350
1E
  0
DICTIONARY
  5
A8E
102
{ACAD_REACTORS
330
C
102
}
330
C
100
AcDbDictionary
281
     1
  0
DICTIONARY
  5
17
102
{ACAD_REACTORS
330
C
102
}
330
C
100
AcDbDictionary
281
     1
  3
Standard
350
18
  0
DICTIONARY
  5
19
102
{ACAD_REACTORS
330
C
102
}
330
C
100
AcDbDictionary
281
     1
  0
ACDBDICTIONARYWDFLT
  5
E
102
{ACAD_REACTORS
330
C
102
}
330
C
100
AcDbDictionary
281
     1
  3
Normal
350
F
100
AcDbDictionaryWithDefault
340
F
  0
DICTIONARY
  5
A5B
102
{ACAD_REACTORS
330
C
102
}
330
C
100
AcDbDictionary
281
     1
  3
A0
350
A5C
  3
A1
350
A5D
  3
A2
350
A5E
  3
A3
350
A5F
  3
A4
350
A60
  3
A5
350
A61
  3
A6
350
A62
  3
A7
350
A63
  3
A8
350
A64
  3
A9
350
A65
  3
B0
350
A66
  3
B1
350
A67
  3
B2
350
A68
  3
B3
350
A69
  3
B4
350
A6A
  3
B5
350
A6B
  3
B6
350
A6C
  3
B7
350
A6D
  3
B8
350
A6E
  3
B9
350
A6F
  3
C0
350
A70
  3
C1
350
A71
  3
C2
350
A72
  3
C3
350
A73
  3
C4
350
A74
  3
C5
350
A75
  3
C6
350
A76
  3
C7
350
A77
  3
C8
350
A78
  3
C9
350
A79
  3
D0
350
A7A
  3
D1
350
A7B
  3
D2
350
A7C
  0
DICTIONARY
  5
A8C
102
{ACAD_REACTORS
330
C
102
}
330
C
100
AcDbDictionary
281
     1
  3
CANNOSCALE
350
A8F
  0
XRECORD
  5
A91
102
{ACAD_REACTORS
330
C
102
}
330
C
100
AcDbXrecord
280
     1
  1
DWGPROPS COOKIE
  2

  3

  4

  6

  7

  8
MARTIN
  9

300
=
301
=
302
=
303
=
304
=
305
=
306
=
307
=
308
=
309
=
 40
0.0
 41
2456464.62814706
 42
2456464.652011354
  1

 90
        0
  0
LAYOUT
  5
1C
102
{ACAD_REACTORS
330
1A
102
}
330
1A
100
AcDbPlotSettings
  1

  2
none_device
  4

  6

 40
0.0
 41
0.0
 42
0.0
 43
0.0
 44
0.0
 45
0.0
 46
0.0
 47
0.0
 48
0.0
 49
0.0
140
0.0
141
0.0
142
1.0
143
1.0
 70
   688
 72
     0
 73
     0
 74
     5
  7

 75
    16
147
1.0
148
0.0
149
0.0
100
AcDbLayout
  1
Layout1
 70
     1
 71
     1
 10
0.0
 20
0.0
 11
12.0
 21
9.0
 12
0.0
 22
0.0
 32
0.0
 14
1.000000000000E+20
 24
1.000000000000E+20
 34
1.000000000000E+20
 15
-1.000000000000E+20
 25
-1.000000000000E+20
 35
-1.000000000000E+20
146
0.0
 13
0.0
 23
0.0
 33
0.0
 16
1.0
 26
0.0
 36
0.0
 17
0.0
 27
1.0
 37
0.0
 76
     0
330
1B
  0
LAYOUT
  5
1E
102
{ACAD_REACTORS
330
1A
102
}
330
1A
100
AcDbPlotSettings
  1

  2
none_device
  4

  6

 40
0.0
 41
0.0
 42
0.0
 43
0.0
 44
0.0
 45
0.0
 46
0.0
 47
0.0
 48
0.0
 49
0.0
140
0.0
141
0.0
142
1.0
143
1.0
 70
  1712
 72
     0
 73
     0
 74
     0
  7

 75
     0
147
1.0
148
0.0
149
0.0
100
AcDbLayout
  1
Model
 70
     1
 71
     0
 10
0.0
 20
0.0
 11
12.0
 21
9.0
 12
0.0
 22
0.0
 32
0.0
 14
0.07205
 24
-0.0735
 34
0.0
 15
239.92795
 25
254.0735
 35
0.0
146
0.0
 13
0.0
 23
0.0
 33
0.0
 16
1.0
 26
0.0
 36
0.0
 17
0.0
 27
1.0
 37
0.0
 76
     0
330
1D
331
A56
  0
MLINESTYLE
  5
18
102
{ACAD_REACTORS
330
17
102
}
330
17
100
AcDbMlineStyle
  2
Standard
 70
     0
  3

 62
   256
 51
90.0
 52
90.0
 71
     2
 49
0.5
 62
   256
  6
BYLAYER
 49
-0.5
 62
   256
  6
BYLAYER
  0
ACDBPLACEHOLDER
  5
F
102
{ACAD_REACTORS
330
E
102
}
330
E
  0
SCALE
  5
A5C
102
{ACAD_REACTORS
330
A5B
102
}
330
A5B
100
AcDbScale
 70
     0
300
1:1
140
1.0
141
1.0
290
     1
  0
SCALE
  5
A5D
102
{ACAD_REACTORS
330
A5B
102
}
330
A5B
100
AcDbScale
 70
     0
300
1:2
140
1.0
141
2.0
290
     0
  0
SCALE
  5
A5E
102
{ACAD_REACTORS
330
A5B
102
}
330
A5B
100
AcDbScale
 70
     0
300
1:4
140
1.0
141
4.0
290
     0
  0
SCALE
  5
A5F
102
{ACAD_REACTORS
330
A5B
102
}
330
A5B
100
AcDbScale
 70
     0
300
1:5
140
1.0
141
5.0
290
     0
  0
SCALE
  5
A60
102
{ACAD_REACTORS
330
A5B
102
}
330
A5B
100
AcDbScale
 70
     0
300
1:8
140
1.0
141
8.0
290
     0
  0
SCALE
  5
A61
102
{ACAD_REACTORS
330
A5B
102
}
330
A5B
100
AcDbScale
 70
     0
300
1:10
140
1.0
141
10.0
290
     0
  0
SCALE
  5
A62
102
{ACAD_REACTORS
330
A5B
102
}
330
A5B
100
AcDbScale
 70
     0
300
1:16
140
1.0
141
16.0
290
     0
  0
SCALE
  5
A63
102
{ACAD_REACTORS
330
A5B
102
}
330
A5B
100
AcDbScale
 70
     0
300
1:20
140
1.0
141
20.0
290
     0
  0
SCALE
  5
A64
102
{ACAD_REACTORS
330
A5B
102
}
330
A5B
100
AcDbScale
 70
     0
300
1:30
140
1.0
141
30.0
290
     0
  0
SCALE
  5
A65
102
{ACAD_REACTORS
330
A5B
102
}
330
A5B
100
AcDbScale
 70
     0
300
1:40
140
1.0
141
40.0
290
     0
  0
SCALE
  5
A66
102
{ACAD_REACTORS
330
A5B
102
}
330
A5B
100
AcDbScale
 70
     0
300
1:50
140
1.0
141
50.0
290
     0
  0
SCALE
  5
A67
102
{ACAD_REACTORS
330
A5B
102
}
330
A5B
100
AcDbScale
 70
     0
300
1:100
140
1.0
141
100.0
290
     0
  0
SCALE
  5
A68
102
{ACAD_REACTORS
330
A5B
102
}
330
A5B
100
AcDbScale
 70
     0
300
2:1
140
2.0
141
1.0
290
     0
  0
SCALE
  5
A69
102
{ACAD_REACTORS
330
A5B
102
}
330
A5B
100
AcDbScale
 70
     0
300
4:1
140
4.0
141
1.0
290
     0
  0
SCALE
  5
A6A
102
{ACAD_REACTORS
330
A5B
102
}
330
A5B
100
AcDbScale
 70
     0
300
8:1
140
8.0
141
1.0
290
     0
  0
SCALE
  5
A6B
102
{ACAD_REACTORS
330
A5B
102
}
330
A5B
100
AcDbScale
 70
     0
300
10:1
140
10.0
141
1.0
290
     0
  0
SCALE
  5
A6C
102
{ACAD_REACTORS
330
A5B
102
}
330
A5B
100
AcDbScale
 70
     0
300
100:1
140
100.0
141
1.0
290
     0
  0
SCALE
  5
A6D
102
{ACAD_REACTORS
330
A5B
102
}
330
A5B
100
AcDbScale
 70
     0
300
1/128" = 1'-0"
140
0.0078125
141
12.0
290
     0
  0
SCALE
  5
A6E
102
{ACAD_REACTORS
330
A5B
102
}
330
A5B
100
AcDbScale
 70
     0
300
1/64" = 1'-0"
140
0.015625
141
12.0
290
     0
  0
SCALE
  5
A6F
102
{ACAD_REACTORS
330
A5B
102
}
330
A5B
100
AcDbScale
 70
     0
300
1/32" = 1'-0"
140
0.03125
141
12.0
290
     0
  0
SCALE
  5
A70
102
{ACAD_REACTORS
330
A5B
102
}
330
A5B
100
AcDbScale
 70
     0
300
1/16" = 1'-0"
140
0.0625
141
12.0
290
     0
  0
SCALE
  5
A71
102
{ACAD_REACTORS
330
A5B
102
}
330
A5B
100
AcDbScale
 70
     0
300
3/32" = 1'-0"
140
0.09375
141
12.0
290
     0
  0
SCALE
  5
A72
102
{ACAD_REACTORS
330
A5B
102
}
330
A5B
100
AcDbScale
 70
     0
300
1/8" = 1'-0"
140
0.125
141
12.0
290
     0
  0
SCALE
  5
A73
102
{ACAD_REACTORS
330
A5B
102
}
330
A5B
100
AcDbScale
 70
     0
300
3/16" = 1'-0"
140
0.1875
141
12.0
290
     0
  0
SCALE
  5
A74
102
{ACAD_REACTORS
330
A5B
102
}
330
A5B
100
AcDbScale
 70
     0
300
1/4" = 1'-0"
140
0.25
141
12.0
290
     0
  0
SCALE
  5
A75
102
{ACAD_REACTORS
330
A5B
102
}
330
A5B
100
AcDbScale
 70
     0
300
3/8" = 1'-0"
140
0.375
141
12.0
290
     0
  0
SCALE
  5
A76
102
{ACAD_REACTORS
330
A5B
102
}
330
A5B
100
AcDbScale
 70
     0
300
1/2" = 1'-0"
140
0.5
141
12.0
290
     0
  0
SCALE
  5
A77
102
{ACAD_REACTORS
330
A5B
102
}
330
A5B
100
AcDbScale
 70
     0
300
3/4" = 1'-0"
140
0.75
141
12.0
290
     0
  0
SCALE
  5
A78
102
{ACAD_REACTORS
330
A5B
102
}
330
A5B
100
AcDbScale
 70
     0
300
1" = 1'-0"
140
1.0
141
12.0
290
     0
  0
SCALE
  5
A79
102
{ACAD_REACTORS
330
A5B
102
}
330
A5B
100
AcDbScale
 70
     0
300
1-1/2" = 1'-0"
140
1.5
141
12.0
290
     0
  0
SCALE
  5
A7A
102
{ACAD_REACTORS
330
A5B
102
}
330
A5B
100
AcDbScale
 70
     0
300
3" = 1'-0"
140
3.0
141
12.0
290
     0
  0
SCALE
  5
A7B
102
{ACAD_REACTORS
330
A5B
102
}
330
A5B
100
AcDbScale
 70
     0
300
6" = 1'-0"
140
6.0
141
12.0
290
     0
  0
SCALE
  5
A7C
102
{ACAD_REACTORS
330
A5B
102
}
330
A5B
100
AcDbScale
 70
     0
300
1'-0" = 1'-0"
140
12.0
141
12.0
290
     0
  0
DICTIONARYVAR
  5
A8F
102
{ACAD_REACTORS
330
A8C
102
}
330
A8C
100
DictionaryVariables
280
     0
  1
1:1
  0
ENDSEC
  0
SECTION
  2
THUMBNAILIMAGE
 90
    16364
310
28000000B40000005500000001000800000000000000000000000000000000000000000000000000FFFFFF000000FF0000FFFF0000FF0000FFFF0000FF000000FF00FF000000000080808000C0C0C0000000FF007F7FFF000000A5005252A50000007F003F3F7F0000004C0026264C000000260013132600003FFF007F9FFF
310
000029A5005267A500001F7F003F4F7F0000134C00262F4C000009260013172600007FFF007FBFFF000052A500527CA500003F7F003F5F7F0000264C0026394C0000132600131C260000BFFF007FDFFF00007CA5005291A500005F7F003F6F7F0000394C0026424C00001C26001321260000FFFF007FFFFF0000A5A50052A5
310
A500007F7F003F7F7F00004C4C00264C4C00002626001326260000FFBF007FFFDF0000A57C0052A59100007F5F003F7F6F00004C3900264C420000261C001326210000FF7F007FFFBF0000A5520052A57C00007F3F003F7F5F00004C2600264C39000026130013261C0000FF3F007FFF9F0000A5290052A56700007F1F003F
310
7F4F00004C1300264C2F00002609001326170000FF00007FFF7F0000A5000052A55200007F00003F7F3F00004C0000264C260000260000132613003FFF00009FFF7F0029A5000067A552001F7F00004F7F3F00134C00002F4C260009260000172613007FFF0000BFFF7F0052A500007CA552003F7F00005F7F3F00264C0000
310
394C2600132600001C261300BFFF0000DFFF7F007CA5000091A552005F7F00006F7F3F00394C0000424C26001C26000021261300FFFF0000FFFF7F00A5A50000A5A552007F7F00007F7F3F004C4C00004C4C26002626000026261300FFBF0000FFDF7F00A57C0000A59152007F5F00007F6F3F004C3900004C422600261C00
310
0026211300FF7F0000FFBF7F00A5520000A57C52007F3F00007F5F3F004C2600004C39260026130000261C1300FF3F0000FF9F7F00A5290000A56752007F1F00007F4F3F004C1300004C2F26002609000026171300FF000000FF7F7F00A5000000A55252007F0000007F3F3F004C0000004C2626002600000026131300FF00
310
3F00FF7F9F00A5002900A55267007F001F007F3F4F004C0013004C262F002600090026131700FF007F00FF7FBF00A5005200A5527C007F003F007F3F5F004C0026004C2639002600130026131C00FF00BF00FF7FDF00A5007C00A55291007F005F007F3F6F004C0039004C26420026001C0026132100FF00FF00FF7FFF00A5
310
00A500A552A5007F007F007F3F7F004C004C004C264C002600260026132600BF00FF00DF7FFF007C00A5009152A5005F007F006F3F7F0039004C0042264C001C002600211326007F00FF00BF7FFF005200A5007C52A5003F007F005F3F7F0026004C0039264C00130026001C1326003F00FF009F7FFF002900A5006752A500
310
1F007F004F3F7F0013004C002F264C000900260017132600000000002D2D2D005B5B5B0089898900B7B7B700B3B3B30000000000000000000000000000000000000000000000000000000000000000000000000000000000000000000000000000000000000000000000000000000000000000000000000000000000000000
310
00000000000000000000000000000707070707070700000000000000000000000000000000000000000000000000000000000000000000000000000000000000000000000000000000000000000000000000000000000000000000000000000000000000000000000000000000000000000000000000000000000000000000
310
00000000000000000000000000000000000000000000000000000000000000000000000000000000000000000000000000000000000000000000000000000000070707000000000000070000000000000000000000000000000000000000000000000000000000000000000000000000000000000000000000000000000000
310
00000000000000000000000000000000000000000000000000000000000000000000000000000000000000000000000000000000000000000000000000000000000000000000000000000000000000000000000000000000000000000000000000000000000000000000000000000000000000000707000000000000000007
310
00000000000000000000000000000000000000000000000000000000000000000000000000000000000000000000000000000000000000000000000000000000000000000000000000000000000000000000000000000000000000000000000000000000000000000000000000000000000000000000000000000000000000
310
00000000000000000000000000000000000000000000000000000000000000000000000000000000000700000000000000000000070000000000000000000000000000000000000000000000000000000000000000000000000000000000000000000000000000000000000000000000000000000000000000000000000000
310
00000000000000000000000000000000000000000000000000000000000000000000000000000000000000000000000000000000000000000000000000000000000000000000000000000000000000000000000000000000000000000007000000000000000000000007000000000000000000000000000000000000000000
310
00000000000000000000000000000000000000000000000000000000000000000000000000000000000000000000000000000000000000000000000000000000000000000000000000000000000000000000000000000000000000000000000000000000000000000000000000000000000000000000000000000000000000
310
00000000000000000000000000000000000000070000000000000000000000070000000000000000000000000000000000000000000000000000000000000000000000000000000000000000000000000000000000000000000000000000000000000000000000000000000000000000000000000000000000000000000000
310
00000000000000000000000000000000000000000000000000000000000000000000000000000000000000000000000000000000000000000000000000000000000000000000000007000000000000000000000007000000000000000000000000000000000000000000000000000000000000000000000000000000000000
310
00000000000000000000000000000000000000000000000000000000000000000000000000000000000000000000000000000000000000000000000000000000000000000000000000000000000000000000000000000000000000000000000000000000000000000000000000000000000000000000000000000000000700
310
00000000000000000000070000000000000000000000000000000000000000000000000000000000000000000000000000000000000000000000000000000000000000000000000000000000000000000000000000000000000000000000000000000000000000000000000000000000000000000000000000000000000000
310
00000000000000000000000000000000000000000000000000000000000000000000000000000000000000000000000000000007000000000000000000000007000000000000000000000000000000000000000000000000000000000000000000000000000000000000000000000000000000000000000000000000000000
310
00000000000000000000000000000000000000000000000000000000000000000000000000000000000000000000000000000000000000000000000000000000000000000000000000000000000000000000000000000000000000000000000000000000000000000700000000000000000000000700000000000000000000
310
00000000000000000000000000000000000000000000000000000000000000000000000000000000000000000000000000000000000000000000000000000000000000000000000000000000000000000000000000000000000000000000000000000000000000000000000000000000000000000000000000000000000000
310
00000000000000000000000000000000000000000000000000000000000007000000000000000000000007000000000000000000000000000000000000000000000000000000000000000000000000000000000000000000000000000000000000000000000000000000000000000000000000000000000000000000000000
310
00000000000000000000000000000000000000000000000000000000000000000000000000000000000000000000000000000000000000000000000000000000000000000000000000000000000000000000000700000000000000000000000700000000000000000000000000000000000000000000000000000000000000
310
00000000000000000000000000000000000000000000000000000000000000000000000000000000000000000000000000000000000000000000000000000000000000000000000000000000000000000000000000000000000000000000000000000000000000000000000000000000000000000000000000000000000000
310
00000000000000000007000000000000000000000007000000000000000000000000000000000000000000000000000000000000000000000000000000000000000000000000000000000000000000000000000000000000000000000000000000000000000000000000000000000000000000000000000000000000000000
310
00000000000000000000000000000000000000000000000000000000000000000000000000000000000000000000000000000000000000000000000000000700000707070707070000000700000000000000000000000000000000000000000000000000000000000000000000000000000000000000000000000000000000
310
00000000000000000000000000000000000000000000000000000000000000000000000000000000000000000000000000000000000000000000000000000000000000000000000000000000000000000000000000000000000000000000000000000000000000000000000000000000000007000707000000000007070700
310
07000000000000000000000000000000000000000000000000000000000000000000000000000000000000000000000000000000000000000000000000000000000000000000000000000000000000000000000000000000000000000000000000000000000000000000000000000000000000000000000000000000000000
310
00000000000000000000000000000000000000000000000000000000000000000000000000000000070707000000000000000007070700000000000000000000000000000000000000000000000000000000000000000000000000000000000000000000000000000000000000000000000000000000000000000000000000
310
00000000000000000000000000000000000000000000000000000000000000000000000000000000000000000000000000000000000000000000000000000000000000000000000000000000000000000000000000000000000000000007070000000000000000000007070000000000000000000000000000000000000000
310
00000000000000000000000000000000000000000000000000000000000000000000000000000000000000000000000000000000000000000000000000000000000000000000000000000000000000000000000000000000000000000000000000000000000000000000000000000000000000000000000000000000000000
310
00000000000000000000000000000000000000070000000000000000000000070700000000000000000000000000000000000000000000000000000000000000000000000000000000000000000000000000000000000000000000000000000000000000000000000000000000000000000000000000000000000000000000
310
00000000000000000000000000000000000000000000000000000000000000000000000000000000000000000000000000000000000000000000000000000000000000000000000007000000000000000000000000070000000000000000000000000000000000000000000000000000000000000000000000000000000000
310
00000000000000000000000000000000000000000000000000000000000000000000000000000000000000000000000000000000000000000000000000000000000000000000000000000000000000000000000000000000000000000000000000000000000000000000000000000000000000000000000000000000000700
310
00000000000000000000000700000000000000000000000000000000000000000000000000000000000000000000000000000000000000000000000000000000000000000000000000000000000000000000000000000000000000000000000000000000000000000000000000000000000000000000000000000000000000
310
00000000000000000000000000000000000000000000000000000000000000000000000000000000000000000000000000000007000000000000000000000000070000000000000000000000000000000000000000000000000000000000000000000000000000000000000000000000000000000000000000000000000000
310
00000000000000000000000000000000000000000000000000000000000000000000000000000000000000000000000000000000000000000000000000000000000000000000000000000000000000000000000000000000000000000000000000000000000000000700000000000000000000000007000000000000000000
310
00000000000000000000000000000000000000000000000000000000000000000000000000000000000000000000000000000000000000000000000000000000000000000000000000000000000000000000000000000000000000000000000000000000000000000000000000000000000000000000000000000000000000
310
00000000000000000000000000000000000000000000000000000000000007000000000000000000000000070000000000000000000000000000000000000000000000000000000000000000000000000000000000000000000000000000000000000000000000000000000000000000000000000000000000000000000000
310
00000000000000000000000000000000000000000000000000000000000000000000000000000000000000000000000000000000000000000000000000000000000000000000000000000000000000000000000700000000000000000000000007000000000000000000000000000000000000000000000000000000000000
310
00000000000000000000000000000000000000000000000000000000000000000000000000000000000000000000000000000000000000000000000000000000000000000000000000000000000000000000000000000000000000000000000000000000000000000000000000000000000000000000000000000000000000
310
00000000000000000007000000000000000000000000070000000000000000000000000000000000000000000000000000000000000000000000000000000000000000000000000000000000000000000000000000000000000000000000000000000000000000000000000000000000000000000000000000000000000000
310
00000000000000000000000000000000000000000000000000000000000000000000000000000000000000000000000000000000000000000000000000000700000000000000000000000007000000000000000000000000000000000000000000000000000000000000000000000000000000000000000000000000000000
310
00000000000000000000000000000000000000000000000000000000000000000000000000000000000000000000000000000000000000000000000000000000000000000000000000000000000000000000000000000000000000000000000000000000000000000000000000000000000000070000000000000000000000
310
00070000000000000000000000000000000000000000000000000000000000000000000000000000000000000000000000000000000000000000000000000000000000000000000000000000000000000000000000000000000000000000000000000000000000000000000000000000000000000000000000000000000000
310
00000000000000000000000000000000000000000000000000000000000000000000000000000000000700000000000000000000000007000000000000000000000000000000000000000000000000000000000000000000000000000000000000000000000000000000000000000000000000000000000000000000000000
310
00000000000000000000000000000000000000000000000000000000000000000000000000000000000000000000000000000000000000000000000000000000000000000000000000000000000000000000000000000000000000000000070000000000000000000000000700000000000000000000000000000000000000
310
00000000000000000000000000000000000000000000000000000000000000000000000000000000000000000000000000000000000000000000000000000000000000000000000000000000000000000000000000000000000000000000000000000000000000000000000000000000000000000000000000000000000000
310
00000000000000000000000000000000000000000700000000000000000000000007000000000000000000000000000000000000000000000000000000000000000000000000000000000000000000000000000000000000000000000000000000000000000000000000000000000000000000000000000000000000000000
310
00000000000000000000000000000000000000000000000000000000000000000000000000000000000000000000000000000000000000000000000000000000000000000000000000070000000000000000000000000700000000000000000000000000000000000000000000000000000000000000000000000000000000
310
00000000000000000000000000000000000000000000000000000000000000000000000000000000000000000000000000000000000000000000000000000000000000000000000000000000000000000000000000000000000000000000000000000000000000000000000000000000000000000000000000000000000007
310
00000000000000000000000007000000000000000000000000000000000000000000000000000000000000000000000000000000000000000000000000000000000000000000000000000000000000000000000000000000000000000000000000000000000000000000000000000000000000000000000000000000000000
310
00000000000000000000000000000000000000000000000000000000000000000000000000000000000000000000000000000000070000000000000000000000000700000000000000000000000000000000000000000000000000000000000000000000000000000000000000000000000000000000000000000000000000
310
00000000000000000000000000000000000000000000000000000000000000000000000000000000000000000000000000000000000000000000000000000000000000000000000000000000000000000000000000000000000000000000000000000000000000000707000000000000000000000000070700000000000000
310
00000000000000000000000000000000000000000000000000000000000000000000000000000000000000000000000000000000000000000000000000000000000000000000000000000000000000000000000000000000000000000000000000000000000000000000000000000000000000000000000000000000000000
310
00000000000000000000000000000000000000000000000000000000070700070000000000000000000000000700070707000000000000000000000000000000000000000000000000000000000000000000000000000000000000000000000000000000000000000000000000000000000000000000000000000000000000
310
00000000000000000000000000000000000000000000000000000000000000000000000000000000000000000000000000000000000000000000000000000000000000000000000000000000000000070700000007000000000000000000000000070000000007070000000000000000000000000000000000000000000000
310
00000000000000000000000000000000000000000000000000000000000000000000000000000000000000000000000000000000000000000000000000000000000000000000000000000000000000000000000000000000000000000000000000000000000000000000000000000000000000000000000000000000000707
310
07070707070707070707070000000000000000000000000707070707070707070707070707070000000000000000000000000000000000000000000000000000000000000000000000000000000000000000000000000000000000000000000000000000000000000000000000000000000000000000000000000000000000
310
00000000000000000000000000000000000000000000000000000000000000000000000000000000000000000000000000000700000000000000000000000007000000000000000000000000070000000000000000000000000007000000000000000000000000000000000000000000000000000000000000000000000000
310
00000000000000000000000000000000000000000000000000000000000000000000000000000000000000000000000000000000000000000000000000000000000000000000000000000000000000000000000000000000000000000000000000000000000000070000000000000000000000000700000000000000000000
310
00000700000000000000000000000000070000000000000000000000000000000000000000000000000000000000000000000000000000000000000000000000000000000000000000000000000000000000000000000000000000000000000000000000000000000000000000000000000000000000000000000000000000
310
00000000000000000000000000000000000000000000000000000000000700000000000000000000000007000000000000000000000000070000000000000000000000000007000000000000000000000000000000000000000000000000000000000000000000000000000000000000000000000000000000000000000000
310
00000000000000000000000000000000000000000000000000000000000000000000000000000000000000000000000000000000000000000000000000000000000000000000000000000000000000000000070000000000000000000000000700000000000000000000000007000000000000000000000000000700000000
310
00000000000000000000000000000000000000000000000000000000000000000000000000000000000000000000000000000000000000000000000000000000000000000000000000000000000000000000000000000000000000000000000000000000000000000000000000000000000000000000000000000000000000
310
00000000000000000700000000000000000000000007000000000000000000000000070000000000000000000000000007000000000000000000000000000000000000000000000000000000000000000000000000000000000000000000000000000000000000000000000000000000000000000000000000000000000000
310
00000000000000000000000000000000000000000000000000000000000000000000000000000000000000000000000000000000000000000000000000070000000000000000000000000700000000000000000000000007000000000000000000000000000700000000000000000000000000000000000000000000000000
310
00000000000000000000000000000000000000000000000000000000000000000000000000000000000000000000000000000000000000000000000000000000000000000000000000000000000000000000000000000000000000000000000000000000000000000000000000000000000007000000000000000000000000
310
07000000000000000000000000070000000000000000000000000007070000000000000000000000000000000000000000000000000000000000000000000000000000000000000000000000000000000000000000000000000000000000000000000000000000000000000000000000000000000000000000000000000000
310
00000000000000000000000000000000000000000000000000000000000000000000000000000007070000000000000000000000000700000000000000000000000000000000000000000000000000000707000000000000000000000000000000000000000000000000000000000000000000000000000000000000000000
310
00000000000000000000000000000000000000000000000000000000000000000000000000000000000000000000000000000000000000000000000000000000000000000000000000000000000000000000000000000000000000000707000000000000000000000000070000000000000000000000000007000000000000
310
00000000000007070000000000000000000000000000000000000000000000000000000000000000000000000000000000000000000000000000000000000000000000000000000000000000000000000000000000000000000000000000000000000000000000000000000000000000000000000000000000000000000000
310
00000000000000000000000000000000000700070000000000000000000000000700000000000000000000000000070000000000000000000000000700070000000000000000000000000000000000000000000000000000000000000000000000000000000000000000000000000000000000000000000000000000000000
310
00000000000000000000000000000000000000000000000000000000000000000000000000000000000000000000000000000000000000000000000000000000000000000000070007000000000000000000000000070000000000000000000000000007000000000000000000000000070007000000000000000000000000
310
00000000000000000000000000000000000000000000000000000000000000000000000000000000000000000000000000000000000000000000000000000000000000000000000000000000000000000000000000000000000000000000000000000000000000000000000000000000000000000000000000000007000700
310
00000000000000000000000700000000000000000000000000070000000000000000000000000700000700000000000000000000000000000000000000000000000000000000000000000000000000000000000000000000000000000000000000000000000000000000000000000000000000000000000000000000000000
310
00000000000000000000000000000000000000000000000000000000000000000000000000000000000000000000000007000007000000000000000000000000070000000000000000000000000007000000000000000000000000070000070000000000000000000000000000000000000000000000000000000000000000
310
00000000000000000000000000000000000000000000000000000000000000000000000000000000000000000000000000000000000000000000000000000000000000000000000000000000000000000000000000000000000000000000000000000000000700000700000000000000000000000007000000000000000000
310
00000000070000000000000000000000000700000007000000000000000000000000000000000000000000000000000000000000000000000000000000000000000000000000000000000000000000000000000000000000000000000000000000000000000000000000000000000000000000000000000000000000000000
310
00000000000000000000000000000000000000000000000000000007000007000000000000000000000000000000000000000000000000000000070000000000000000000000070700000700000000000000000000000000000000000000000000000000000000000000000000000000000000000000000000000000000000
310
00000000000000000000000000000000000000000000000000000000000000000000000000000000000000000000000000000000000000000000000000000000000000000000000000000000000000000700000700000000000000000000000007000000000000000000000000000007000000000000000000000007000000
310
07000000000000000000000000000000000000000000000000000000000000000000000000000000000000000000000000000000000000000000000000000000000000000000000000000000000000000000000000000000000000000000000000000000000000000000000000000000000000000000000000000000000000
310
00000000000700000007000000000000000000000000070000000000000000000000000000000700000000000000000000070000000700000000000000000000000000000000000000000000000000000000000000000000000000000000000000000000000000000000000000000000000000000000000000000000000000
310
00000000000000000000000000000000000000000000000000000000000000000000000000000000000000000000000000000000000000000000070000000700000000000000000000000007000000000000000000000707070707070000000000000000000007000000070000000000000000000000000000000000000000
310
00000000000000000000000000000000000000000000000000000000000000000000000000000000000000000000000000000000000000000000000000000000000000000000000000000000000000000000000000000000000000000000000000000000000000000000000000000007000000070000000000000000000000
310
00070000000000000000070700000000000707000000000000000000070000000700000000000000000000000000000000000000000000000000000000000000000000000000000000000000000000000000000000000000000000000000000000000000000000000000000000000000000000000000000000000000000000
310
00000000000000000000000000000000000000000000000000000000000000000000000000070000000700000000000000000000000007000000000000000707000000000000000707000000000000000007000000000000000000000000000000000000000000000000000000000000000000000000000000000000000000
310
00000000000000000000000000000000000000000000000000000000000000000000000000000000000000000000000000000000000000000000000000000000000000000000000000000000000000000000000000000000000007000000070000000000000000000000000700000000000007070000000000000000000007
310
00000000000000070000000700000000000000000000000000000000000000000000000000000000000000000000000000000000000000000000000000000000000000000000000000000000000000000000000000000000000000000000000000000000000000000000000000000000000000000000000000000000000000
310
00000000000000000000000000000000070000000700000000000000000000000007000000000000070000000000000000000000070000000000000007000000070000000000000000000000000000000000000000000000000000000000000000000000000000000000000000000000000000000000000000000000000000
310
00000000000000000000000000000000000000000000000000000000000000000000000000000000000000000000000000000000000000000000000000000000000000000007000000070000000000000000000000000007000000000707000000000000000000000000070000000000000700000007000000000000000000
310
00000000000000000000000000000000000000000000000000000000000000000000000000000000000000000000000000000000000000000000000000000000000000000000000000000000000000000000000000000000000000000000000000000000000000000000000000000000000000000000000000000007000007
310
00000000000000000000000000070700000007000000000000000000000000000707000000000007000000070000000000000000000000000000000000000000000000000000000000000000000000000000000000000000000000000000000000000000000000000000000000000000000000000000000000000000000000
310
00000000000000000000000000000000000000000000000000000000000000000000000000000000000000000000000000070000070000000000000000000000000007070700000700000000000000000000000000000700000000000700000007000000000000000000000000000000000000000000000000000000000000
310
00000000000000000000000000000000000000000000000000000000000000000000000000000000000000000000000000000000000000000000000000000000000000000000000000000000000000000000000000000000000000000000000000000000000007000007000000000000000000000000000700070700070000
310
00000000000000000000000000070000000007070000070000000000000000000000000000000000000000000000000000000000000000000000000000000000000000000000000000000000000000000000000000000000000000000000000000000000000000000000000000000000000000000000000000000000000000
310
00000000000000000000000000000000000000000000000000000000070000070000000000000000000000000007000007070707000000000000000000000000000007000000000700000007000000000000000000000000000000000000000000000000000000000000000000000000000000000000000000000000000000
310
00000000000000000000000000000000000000000000000000000000000000000000000000000000000000000000000000000000000000000000000000000000000000000000000000000000000000000007000007000000000000000000000000000700000007070700000000000000000000000000000700000000070000
310
07000000000000000000000000000000000000000000000000000000000000000000000000000000000000000000000000000000000000000000000000000000000000000000000000000000000000000000000000000000000000000000000000000000000000000000000000000000000000000000000000000000000000
310
00000000000000000700070000000000000000000000000007000000000007070000000000000000000000000007000000000700000700000000000000000000000000000000000000000000000000000000000000000000000000000000000000000000000000000000000000000000000000000000000000000000000000
310
00000000000000000000000000000000000000000000000000000000000000000000000000000000000000000000000000000000000000000000000000070007000000000000000000000000000700000000000007070700000000000000000000070700000000070007000000000000000000000000000000000000000000
310
00000000000000000000000000000000000000000000000000000000000000000000000000000000000000000000000000000000000000000000000000000000000000000000000000000000000000000000000000000000000000000000000000000000000000000000000000000000000000070700000000000000000000
310
00000007000000000000000007070000000000000000000700000000000700070000000000000000000000000000000000000000000000000000000000000000000000000000000000000000000000000000000000000000000000000000000000000000000000000000000000000000000000000000000000000000000000
310
00000000000000000000000000000000000000000000000000000000000000000000000000000000000707000000000000000000000000000700000000000000000000070700000000000007070000000000070700000000000000000000000000000000000000000000000000000000000000000000000000000000000000
310
00000000000000000000000000000000000000000000000000000000000000000000000000000000000000000000000000000000000000000000000000000000000000000000000000000000000000000000000000000000000000000000000700000000000000000000000000070000000000000000000000070707070707
310
07000007070707070707070707070707070707070000000000000000000000000000000000000000000000000000000000000000000000000000000000000000000000000000000000000000000000000000000000000000000000000000000000000000000000000000000000000000000000000000000000000000000000
310
00000000000000000000000000000000000007070707070707070707070707070707070700000000000000000000000700000000000000000000000000000000000000000000000000070707070700000000000000000000000000000000000000000000000000000000000000000000000000000000000000000000000000
310
00000000000000000000000000000000000000000000000000000000000000000000000000000000000000000000000000000000000707070707070707070707070707070707070000000000000000000000000000000000070000000000000000000000070000000000000000000000000000000000000000000000000000
310
00000007000000000000000000000000000000000000000000000000000000000000000000000000000000000000000000000000000000000000000000000000000000000000000000000000000000000000000000000000000000000000000000000000000000000007000000070707070707070707070000000000000000
310
00000000000000000000000000000700000000000000000000000700000000000000000000000000000000000000000000000000000000000000000000000000000000000000000000000000000000000000000000000000000000000000000000000000000000000000000000000000000000000000000000000000000000
310
00000000000000000000000000000000000000000000000000000000000000070000000000000000000000000007070707070700000000000000000000000000000000070000000000000000000000070707070700000000000000000000000000000000000000000000000000070000000000000000000000000000000000
310
00000000000000000000000000000000000000000000000000000000000000000000000000000000000000000000000000000000000000000000000000000000000000000000000000000000000000000000000007000000000000000000000000000000000000000707070707070000000000000000000007000000000707
310
07070000000700000000070707070707070707070707070707070707070000000000000700000000000000000000000000000000000000000000000000000000000000000000000000000000000000000000000000000000000000000000000000000000000000000000000000000000000000000000000000000000000000
310
00000000000000000000070000000000000000000000000000000000000000000000000007070707070707070707070000070707070707070000070000000000000000000000000000000000000000000707070707070707000000000000000000000000000000000000000000000000000000000000000000000000000000
310
00000000000000000000000000000000000000000000000000000000000000000000000000000000000000000000000000000000000000000000000000000000070000000000000000000000000000000000000000000000000000000000000000000007000707070707070707070007070707070707070707070707070707
310
07070707070700000000000000000000000000000000000000000000000000000000000000000000000000000000000000000000000000000000000000000000000000000000000000000000000000000000000000000000000000000000000000000000000000000000000000000000000000000000070707070707070707
310
07070700000000000000000000000000000000000000000000070007070707070707070707070707070707070707070707070707000000000000000000000000000000000000000000000000000000000000000000000000000000000000000000000000000000000000000000000000000000000000000000000000000000
310
00000000000000000000000000000000000000000000000000000000000000000000000000000000000000000000000000000000000000000707070707070000000000000000000000000000000007070707070707070707070707000000070700000000000000000000000000000000000000000000000000000000000000
310
00000000000000000000000000000000000000000000000000000000000000000000000000000000000000000000000000000000000000000000000000000000000000000000000000000000000000000000000000000000000000000000000000000000000000000000000000000000000000070707070707000000000000
310
00000000070707070707070707070007070007070000000000000000000000000000000000000000000000000000000000000000000000000000000000000000000000000000000000000000000000000000000000000000000000000000000000000000000000000000000000000000000000000000000000000000000000
310
00000000000000000000000000000000000000000000000000000000000000000000000000000000000000000000000707070707070707070707070707070707070707070707070000000000000000000000000000000000000000000000000000000000000000000000000000000000000000000000000000000000000000
310
00000000000000000000000000000000000000000000000000000000000000000000000000000000000000000000000000000000000000000000000000000000000000000000000000000000000000000000000000000000000000000000000000000000000000000000000000000707070707070707070707000000000000
310
00000000000000000000000000000000000000000000000000000000000000000000000000000000000000000000000000000000000000000000000000000000000000000000000000000000000000000000000000000000000000000000000000000000000000000000000000000000000000000000000000000000000000
310
00000000000000000000000000000000000000000000000000000000000000000000000000000007070707070707000000000000000000000000000000000000000000000000000000000000000000000000000000000000000000000000000000000000000000000000000000000000000000000000000000000000000000
310
00000000000000000000000000000000000000000000000000000000000000000000000000000000000000000000000000000000000000000000000000000000000000000000000000000000000000000000000000000000000000000007070707070000000000000000000000000000000000000000000000000000000000
310
00000000000000000000000000000000000000000000000000000000000000000000000000000000000000000000000000000000000000000000000000000000000000000000000000000000000000000000000000000000000000000000000000000000000000000000000000000000000000000000000000000000000000
310
000000000000000000000000000000000000000000000000000000000000000000000000000000000000000000000000000000000000000000000000000000000000000000000000000000000000000000000000000000000000000000000000000000000000000000000000
  0
ENDSEC
  0
EOF
