  0
SECTION
  2
HEADER
  9
$ACADVER
  1
AC1015
  9
$ACADMAINTVER
 70
     6
  9
$DWGCODEPAGE
  3
ANSI_1252
  9
$INSBASE
 10
0.0
 20
0.0
 30
0.0
  9
$EXTMIN
 10
0.07205
 20
-0.16
 30
0.0
  9
$EXTMAX
 10
239.92795
 20
1002.16
 30
0.0
  9
$LIMMIN
 10
0.0
 20
0.0
  9
$LIMMAX
 10
12.0
 20
9.0
  9
$ORTHOMODE
 70
     0
  9
$REGENMODE
 70
     1
  9
$FILLMODE
 70
     1
  9
$QTEXTMODE
 70
     0
  9
$MIRRTEXT
 70
     1
  9
$LTSCALE
 40
1.0
  9
$ATTMODE
 70
     1
  9
$TEXTSIZE
 40
0.2
  9
$TRACEWID
 40
0.05
  9
$TEXTSTYLE
  7
Standard
  9
$CLAYER
  8
0
  9
$CELTYPE
  6
ByBlock
  9
$CECOLOR
 62
   256
  9
$CELTSCALE
 40
1.0
  9
$DISPSILH
 70
     0
  9
$DIMSCALE
 40
1.0
  9
$DIMASZ
 40
0.18
  9
$DIMEXO
 40
0.0625
  9
$DIMDLI
 40
0.38
  9
$DIMRND
 40
0.0
  9
$DIMDLE
 40
0.0
  9
$DIMEXE
 40
0.18
  9
$DIMTP
 40
0.0
  9
$DIMTM
 40
0.0
  9
$DIMTXT
 40
0.18
  9
$DIMCEN
 40
0.09
  9
$DIMTSZ
 40
0.0
  9
$DIMTOL
 70
     0
  9
$DIMLIM
 70
     0
  9
$DIMTIH
 70
     1
  9
$DIMTOH
 70
     1
  9
$DIMSE1
 70
     0
  9
$DIMSE2
 70
     0
  9
$DIMTAD
 70
     0
  9
$DIMZIN
 70
     0
  9
$DIMBLK
  1

  9
$DIMASO
 70
     1
  9
$DIMSHO
 70
     1
  9
$DIMPOST
  1

  9
$DIMAPOST
  1

  9
$DIMALT
 70
     0
  9
$DIMALTD
 70
     2
  9
$DIMALTF
 40
25.4
  9
$DIMLFAC
 40
1.0
  9
$DIMTOFL
 70
     0
  9
$DIMTVP
 40
0.0
  9
$DIMTIX
 70
     0
  9
$DIMSOXD
 70
     0
  9
$DIMSAH
 70
     0
  9
$DIMBLK1
  1

  9
$DIMBLK2
  1

  9
$DIMSTYLE
  2
Standard
  9
$DIMCLRD
 70
     0
  9
$DIMCLRE
 70
     0
  9
$DIMCLRT
 70
     0
  9
$DIMTFAC
 40
1.0
  9
$DIMGAP
 40
0.09
  9
$DIMJUST
 70
     0
  9
$DIMSD1
 70
     0
  9
$DIMSD2
 70
     0
  9
$DIMTOLJ
 70
     1
  9
$DIMTZIN
 70
     0
  9
$DIMALTZ
 70
     0
  9
$DIMALTTZ
 70
     0
  9
$DIMUPT
 70
     0
  9
$DIMDEC
 70
     4
  9
$DIMTDEC
 70
     4
  9
$DIMALTU
 70
     2
  9
$DIMALTTD
 70
     2
  9
$DIMTXSTY
  7
Standard
  9
$DIMAUNIT
 70
     0
  9
$DIMADEC
 70
     0
  9
$DIMALTRND
 40
0.0
  9
$DIMAZIN
 70
     0
  9
$DIMDSEP
 70
    46
  9
$DIMATFIT
 70
     3
  9
$DIMFRAC
 70
     0
  9
$DIMLDRBLK
  1

  9
$DIMLUNIT
 70
     2
  9
$DIMLWD
 70
    -2
  9
$DIMLWE
 70
    -2
  9
$DIMTMOVE
 70
     2
  9
$LUNITS
 70
     2
  9
$LUPREC
 70
     4
  9
$SKETCHINC
 40
0.1
  9
$FILLETRAD
 40
0.5
  9
$AUNITS
 70
     0
  9
$AUPREC
 70
     0
  9
$MENU
  1
.
  9
$ELEVATION
 40
0.0
  9
$PELEVATION
 40
0.0
  9
$THICKNESS
 40
0.0
  9
$LIMCHECK
 70
     0
  9
$CHAMFERA
 40
0.5
  9
$CHAMFERB
 40
0.5
  9
$CHAMFERC
 40
1.0
  9
$CHAMFERD
 40
0.0
  9
$SKPOLY
 70
     0
  9
$TDCREATE
 40
2456464.711483287
  9
$TDUCREATE
 40
2456464.628149954
  9
$TDUPDATE
 40
2456464.729530162
  9
$TDUUPDATE
 40
2456464.646196829
  9
$TDINDWG
 40
0.0180465278
  9
$TDUSRTIMER
 40
0.0180465278
  9
$USRTIMER
 70
     1
  9
$ANGBASE
 50
0.0
  9
$ANGDIR
 70
     0
  9
$PDMODE
 70
     0
  9
$PDSIZE
 40
0.0
  9
$PLINEWID
 40
0.0
  9
$SPLFRAME
 70
     0
  9
$SPLINETYPE
 70
     6
  9
$SPLINESEGS
 70
     8
  9
$HANDSEED
  5
82A
  9
$SURFTAB1
 70
     6
  9
$SURFTAB2
 70
     6
  9
$SURFTYPE
 70
     6
  9
$SURFU
 70
     6
  9
$SURFV
 70
     6
  9
$UCSBASE
  2

  9
$UCSNAME
  2

  9
$UCSORG
 10
0.0
 20
0.0
 30
0.0
  9
$UCSXDIR
 10
1.0
 20
0.0
 30
0.0
  9
$UCSYDIR
 10
0.0
 20
1.0
 30
0.0
  9
$UCSORTHOREF
  2

  9
$UCSORTHOVIEW
 70
     0
  9
$UCSORGTOP
 10
0.0
 20
0.0
 30
0.0
  9
$UCSORGBOTTOM
 10
0.0
 20
0.0
 30
0.0
  9
$UCSORGLEFT
 10
0.0
 20
0.0
 30
0.0
  9
$UCSORGRIGHT
 10
0.0
 20
0.0
 30
0.0
  9
$UCSORGFRONT
 10
0.0
 20
0.0
 30
0.0
  9
$UCSORGBACK
 10
0.0
 20
0.0
 30
0.0
  9
$PUCSBASE
  2

  9
$PUCSNAME
  2

  9
$PUCSORG
 10
0.0
 20
0.0
 30
0.0
  9
$PUCSXDIR
 10
1.0
 20
0.0
 30
0.0
  9
$PUCSYDIR
 10
0.0
 20
1.0
 30
0.0
  9
$PUCSORTHOREF
  2

  9
$PUCSORTHOVIEW
 70
     0
  9
$PUCSORGTOP
 10
0.0
 20
0.0
 30
0.0
  9
$PUCSORGBOTTOM
 10
0.0
 20
0.0
 30
0.0
  9
$PUCSORGLEFT
 10
0.0
 20
0.0
 30
0.0
  9
$PUCSORGRIGHT
 10
0.0
 20
0.0
 30
0.0
  9
$PUCSORGFRONT
 10
0.0
 20
0.0
 30
0.0
  9
$PUCSORGBACK
 10
0.0
 20
0.0
 30
0.0
  9
$USERI1
 70
     0
  9
$USERI2
 70
     0
  9
$USERI3
 70
     0
  9
$USERI4
 70
     0
  9
$USERI5
 70
     0
  9
$USERR1
 40
0.0
  9
$USERR2
 40
0.0
  9
$USERR3
 40
0.0
  9
$USERR4
 40
0.0
  9
$USERR5
 40
0.0
  9
$WORLDVIEW
 70
     1
  9
$SHADEDGE
 70
     3
  9
$SHADEDIF
 70
    70
  9
$TILEMODE
 70
     1
  9
$MAXACTVP
 70
    64
  9
$PINSBASE
 10
0.0
 20
0.0
 30
0.0
  9
$PLIMCHECK
 70
     0
  9
$PEXTMIN
 10
1.000000000000E+20
 20
1.000000000000E+20
 30
1.000000000000E+20
  9
$PEXTMAX
 10
-1.000000000000E+20
 20
-1.000000000000E+20
 30
-1.000000000000E+20
  9
$PLIMMIN
 10
0.0
 20
0.0
  9
$PLIMMAX
 10
12.0
 20
9.0
  9
$UNITMODE
 70
     0
  9
$VISRETAIN
 70
     1
  9
$PLINEGEN
 70
     0
  9
$PSLTSCALE
 70
     1
  9
$TREEDEPTH
 70
  3020
  9
$CMLSTYLE
  2
Standard
  9
$CMLJUST
 70
     0
  9
$CMLSCALE
 40
1.0
  9
$PROXYGRAPHICS
 70
     1
  9
$MEASUREMENT
 70
     0
  9
$CELWEIGHT
370
    -1
  9
$ENDCAPS
280
     0
  9
$JOINSTYLE
280
     0
  9
$LWDISPLAY
290
     0
  9
$INSUNITS
 70
     0
  9
$HYPERLINKBASE
  1

  9
$STYLESHEET
  1

  9
$XEDIT
290
     1
  9
$CEPSNTYPE
380
     0
  9
$PSTYLEMODE
290
     1
  9
$FINGERPRINTGUID
  2
{7FC746B8-C0CC-4850-AA4D-F1962F47A9D2}
  9
$VERSIONGUID
  2
{FAEB1C32-E019-11D5-929B-00C0DF256EC4}
  9
$EXTNAMES
290
     1
  9
$PSVPSCALE
 40
0.0
  9
$OLESTARTUP
290
     0
  0
ENDSEC
  0
SECTION
  2
CLASSES
  0
CLASS
  1
ACDBDICTIONARYWDFLT
  2
AcDbDictionaryWithDefault
  3
ObjectDBX Classes
 90
        0
280
     0
281
     0
  0
CLASS
  1
SCALE
  2
AcDbScale
  3
ObjectDBX Classes
 90
     1153
280
     0
281
     0
  0
CLASS
  1
DICTIONARYVAR
  2
AcDbDictionaryVar
  3
ObjectDBX Classes
 90
        0
280
     0
281
     0
  0
CLASS
  1
ACDBPLACEHOLDER
  2
AcDbPlaceHolder
  3
ObjectDBX Classes
 90
        0
280
     0
281
     0
  0
CLASS
  1
LAYOUT
  2
AcDbLayout
  3
ObjectDBX Classes
 90
        0
280
     0
281
     0
  0
ENDSEC
  0
SECTION
  2
TABLES
  0
TABLE
  2
VPORT
  5
8
330
0
100
AcDbSymbolTable
 70
     1
  0
VPORT
  5
7EE
330
8
100
AcDbSymbolTableRecord
100
AcDbViewportTableRecord
  2
*Active
 70
     0
 10
0.0
 20
0.0
 11
1.0
 21
1.0
 12
119.963975
 22
501.0
 13
0.0
 23
0.0
 14
0.5
 24
0.5
 15
0.5
 25
0.5
 16
0.0
 26
0.0
 36
1.0
 17
0.0
 27
0.0
 37
0.0
 40
1022.3664
 41
1.863448275862
 42
50.0
 43
0.0
 44
0.0
 50
0.0
 51
0.0
 71
    16
 72
   100
 73
     1
 74
     3
 75
     0
 76
     0
 77
     0
 78
     0
281
     0
 65
     1
110
0.0
120
0.0
130
0.0
111
1.0
121
0.0
131
0.0
112
0.0
122
1.0
132
0.0
 79
     0
146
0.0
  0
ENDTAB
  0
TABLE
  2
LTYPE
  5
5
330
0
100
AcDbSymbolTable
 70
     1
  0
LTYPE
  5
14
330
5
100
AcDbSymbolTableRecord
100
AcDbLinetypeTableRecord
  2
ByBlock
 70
     0
  3

 72
    65
 73
     0
 40
0.0
  0
LTYPE
  5
15
330
5
100
AcDbSymbolTableRecord
100
AcDbLinetypeTableRecord
  2
ByLayer
 70
     0
  3

 72
    65
 73
     0
 40
0.0
  0
LTYPE
  5
16
330
5
100
AcDbSymbolTableRecord
100
AcDbLinetypeTableRecord
  2
Continuous
 70
     0
  3
Solid line
 72
    65
 73
     0
 40
0.0
  0
ENDTAB
  0
TABLE
  2
LAYER
  5
2
330
0
100
AcDbSymbolTable
 70
     1
  0
LAYER
  5
10
330
2
100
AcDbSymbolTableRecord
100
AcDbLayerTableRecord
  2
0
 70
     0
 62
     7
  6
Continuous
370
    -3
390
F
  0
ENDTAB
  0
TABLE
  2
STYLE
  5
3
330
0
100
AcDbSymbolTable
 70
     1
  0
STYLE
  5
11
330
3
100
AcDbSymbolTableRecord
100
AcDbTextStyleTableRecord
  2
Standard
 70
     0
 40
0.0
 41
1.0
 50
0.0
 71
     0
 42
0.2
  3
txt
  4

  0
ENDTAB
  0
TABLE
  2
VIEW
  5
6
330
0
100
AcDbSymbolTable
 70
     0
  0
ENDTAB
  0
TABLE
  2
UCS
  5
7
330
0
100
AcDbSymbolTable
 70
     0
  0
ENDTAB
  0
TABLE
  2
APPID
  5
9
330
0
100
AcDbSymbolTable
 70
     1
  0
APPID
  5
12
330
9
100
AcDbSymbolTableRecord
100
AcDbRegAppTableRecord
  2
ACAD
 70
     0
  0
ENDTAB
  0
TABLE
  2
DIMSTYLE
  5
A
330
0
100
AcDbSymbolTable
 70
     1
100
AcDbDimStyleTable
  0
DIMSTYLE
105
20
330
A
100
AcDbSymbolTableRecord
100
AcDbDimStyleTableRecord
  2
Standard
 70
     0
340
11
  0
ENDTAB
  0
TABLE
  2
BLOCK_RECORD
  5
1
330
0
100
AcDbSymbolTable
 70
     0
  0
BLOCK_RECORD
  5
1D
330
1
100
AcDbSymbolTableRecord
100
AcDbBlockTableRecord
  2
*Model_Space
340
1E
  0
BLOCK_RECORD
  5
1B
330
1
100
AcDbSymbolTableRecord
100
AcDbBlockTableRecord
  2
*Paper_Space
340
1C
  0
ENDTAB
  0
ENDSEC
  0
SECTION
  2
BLOCKS
  0
BLOCK
  5
7F1
330
1D
100
AcDbEntity
  8
0
100
AcDbBlockBegin
  2
*Model_Space
 70
     0
 10
0.0
 20
0.0
 30
0.0
  3
*Model_Space
  1
*Model_Space
  0
ENDBLK
  5
7F2
330
1D
100
AcDbEntity
  8
0
100
AcDbBlockEnd
  0
BLOCK
  5
7EF
330
1B
100
AcDbEntity
 67
     1
  8
0
100
AcDbBlockBegin
  2
*Paper_Space
 70
     0
 10
0.0
 20
0.0
 30
0.0
  3
*Paper_Space
  1
*Paper_Space
  0
ENDBLK
  5
7F0
330
1B
100
AcDbEntity
 67
     1
  8
0
100
AcDbBlockEnd
  0
ENDSEC
  0
SECTION
  2
ENTITIES
  0
LINE
  5
21
330
1D
100
AcDbEntity
  8
0
100
AcDbLine
 10
55.82895
 20
34.7714
 30
0.0
 11
57.60495
 21
34.84
 31
0.0
  0
LINE
  5
22
330
1D
100
AcDbEntity
  8
0
100
AcDbLine
 10
55.82895
 20
34.7714
 30
0.0
 11
55.82895
 21
32.84
 31
0.0
  0
LINE
  5
23
330
1D
100
AcDbEntity
  8
0
100
AcDbLine
 10
55.82895
 20
34.7714
 30
0.0
 11
58.49295
 21
34.7714
 31
0.0
  0
LINE
  5
24
330
1D
100
AcDbEntity
  8
0
100
AcDbLine
 10
55.82895
 20
32.84
 30
0.0
 11
57.60495
 21
32.84
 31
0.0
  0
LINE
  5
25
330
1D
100
AcDbEntity
  8
0
100
AcDbLine
 10
55.82895
 20
32.84
 30
0.0
 11
55.82895
 21
34.7714
 31
0.0
  0
LINE
  5
26
330
1D
100
AcDbEntity
  8
0
100
AcDbLine
 10
55.82895
 20
32.84
 30
0.0
 11
58.49295
 21
32.84
 31
0.0
  0
LINE
  5
27
330
1D
100
AcDbEntity
  8
0
100
AcDbLine
 10
55.82895
 20
31.7086
 30
0.0
 11
57.60495
 21
32.84
 31
0.0
  0
LINE
  5
28
330
1D
100
AcDbEntity
  8
0
100
AcDbLine
 10
55.82895
 20
31.7086
 30
0.0
 11
55.82895
 21
-0.16
 31
0.0
  0
LINE
  5
29
330
1D
100
AcDbEntity
  8
0
100
AcDbLine
 10
55.82895
 20
31.7086
 30
0.0
 11
58.49295
 21
31.7086
 31
0.0
  0
LINE
  5
2A
330
1D
100
AcDbEntity
  8
0
100
AcDbLine
 10
58.49295
 20
-0.16
 30
0.0
 11
65.59695
 21
-0.16
 31
0.0
  0
LINE
  5
2B
330
1D
100
AcDbEntity
  8
0
100
AcDbLine
 10
57.60495
 20
34.84
 30
0.0
 11
60.26895
 21
34.84
 31
0.0
  0
LINE
  5
2C
330
1D
100
AcDbEntity
  8
0
100
AcDbLine
 10
60.26895
 20
34.84
 30
0.0
 11
67.37295
 21
34.84
 31
0.0
  0
LINE
  5
2D
330
1D
100
AcDbEntity
  8
0
100
AcDbLine
 10
58.49295
 20
34.7714
 30
0.0
 11
65.59695
 21
34.7714
 31
0.0
  0
LINE
  5
2E
330
1D
100
AcDbEntity
  8
0
100
AcDbLine
 10
58.49295
 20
32.84
 30
0.0
 11
65.59695
 21
32.84
 31
0.0
  0
LINE
  5
2F
330
1D
100
AcDbEntity
  8
0
100
AcDbLine
 10
65.59695
 20
34.7714
 30
0.0
 11
77.43695
 21
34.7714
 31
0.0
  0
LINE
  5
30
330
1D
100
AcDbEntity
  8
0
100
AcDbLine
 10
65.59695
 20
32.84
 30
0.0
 11
77.43695
 21
32.84
 31
0.0
  0
LINE
  5
31
330
1D
100
AcDbEntity
  8
0
100
AcDbLine
 10
60.26895
 20
32.84
 30
0.0
 11
67.37295
 21
32.84
 31
0.0
  0
LINE
  5
32
330
1D
100
AcDbEntity
  8
0
100
AcDbLine
 10
58.49295
 20
31.7086
 30
0.0
 11
65.59695
 21
31.7086
 31
0.0
  0
LINE
  5
33
330
1D
100
AcDbEntity
  8
0
100
AcDbLine
 10
65.59695
 20
31.7086
 30
0.0
 11
77.43695
 21
31.7086
 31
0.0
  0
LINE
  5
34
330
1D
100
AcDbEntity
  8
0
100
AcDbLine
 10
65.59695
 20
-0.16
 30
0.0
 11
77.43695
 21
-0.16
 31
0.0
  0
LINE
  5
35
330
1D
100
AcDbEntity
  8
0
100
AcDbLine
 10
55.82895
 20
-0.16
 30
0.0
 11
58.49295
 21
-0.16
 31
0.0
  0
LINE
  5
36
330
1D
100
AcDbEntity
  8
0
100
AcDbLine
 10
55.82895
 20
-0.16
 30
0.0
 11
55.82895
 21
31.7086
 31
0.0
  0
LINE
  5
37
330
1D
100
AcDbEntity
  8
0
100
AcDbLine
 10
55.82895
 20
-0.16
 30
0.0
 11
58.49295
 21
-0.16
 31
0.0
  0
LINE
  5
38
330
1D
100
AcDbEntity
  8
0
100
AcDbLine
 10
58.49295
 20
-0.16
 30
0.0
 11
65.59695
 21
-0.16
 31
0.0
  0
LINE
  5
39
330
1D
100
AcDbEntity
  8
0
100
AcDbLine
 10
67.37295
 20
34.84
 30
0.0
 11
78.91695
 21
34.84
 31
0.0
  0
LINE
  5
3A
330
1D
100
AcDbEntity
  8
0
100
AcDbLine
 10
67.37295
 20
32.84
 30
0.0
 11
78.91695
 21
32.84
 31
0.0
  0
LINE
  5
3B
330
1D
100
AcDbEntity
  8
0
100
AcDbLine
 10
65.59695
 20
-0.16
 30
0.0
 11
77.43695
 21
-0.16
 31
0.0
  0
LINE
  5
3C
330
1D
100
AcDbEntity
  8
0
100
AcDbLine
 10
67.82895
 20
101.84
 30
0.0
 11
68.57295
 21
101.84
 31
0.0
  0
LINE
  5
3D
330
1D
100
AcDbEntity
  8
0
100
AcDbLine
 10
67.82895
 20
101.84
 30
0.0
 11
67.82895
 21
114.84
 31
0.0
  0
LINE
  5
3E
330
1D
100
AcDbEntity
  8
0
100
AcDbLine
 10
68.57295
 20
101.84
 30
0.0
 11
70.30895
 21
101.84
 31
0.0
  0
LINE
  5
3F
330
1D
100
AcDbEntity
  8
0
100
AcDbLine
 10
68.57295
 20
101.84
 30
0.0
 11
68.57295
 21
114.84
 31
0.0
  0
LINE
  5
40
330
1D
100
AcDbEntity
  8
0
100
AcDbLine
 10
68.57295
 20
101.84
 30
0.0
 11
70.30895
 21
101.84
 31
0.0
  0
LINE
  5
41
330
1D
100
AcDbEntity
  8
0
100
AcDbLine
 10
67.82895
 20
101.84
 30
0.0
 11
68.57295
 21
101.84
 31
0.0
  0
LINE
  5
42
330
1D
100
AcDbEntity
  8
0
100
AcDbLine
 10
67.82895
 20
114.84
 30
0.0
 11
68.57295
 21
116.24
 31
0.0
  0
LINE
  5
43
330
1D
100
AcDbEntity
  8
0
100
AcDbLine
 10
67.82895
 20
114.84
 30
0.0
 11
67.82895
 21
101.84
 31
0.0
  0
LINE
  5
44
330
1D
100
AcDbEntity
  8
0
100
AcDbLine
 10
68.57295
 20
114.84
 30
0.0
 11
69.06895
 21
116.24
 31
0.0
  0
LINE
  5
45
330
1D
100
AcDbEntity
  8
0
100
AcDbLine
 10
68.57295
 20
114.84
 30
0.0
 11
68.57295
 21
101.84
 31
0.0
  0
LINE
  5
46
330
1D
100
AcDbEntity
  8
0
100
AcDbLine
 10
69.973419126214
 20
34.84
 30
0.0
 11
79.82895
 21
43.597735921982
 31
0.0
  0
LINE
  5
48
330
1D
100
AcDbEntity
  8
0
100
AcDbLine
 10
70.30895
 20
101.84
 30
0.0
 11
189.34895
 21
101.84
 31
0.0
  0
LINE
  5
4A
330
1D
100
AcDbEntity
  8
0
100
AcDbLine
 10
77.43695
 20
34.7714
 30
0.0
 11
93.12495
 21
34.7714
 31
0.0
  0
LINE
  5
4B
330
1D
100
AcDbEntity
  8
0
100
AcDbLine
 10
77.43695
 20
32.84
 30
0.0
 11
93.12495
 21
32.84
 31
0.0
  0
LINE
  5
4C
330
1D
100
AcDbEntity
  8
0
100
AcDbLine
 10
77.43695
 20
31.7086
 30
0.0
 11
93.12495
 21
31.7086
 31
0.0
  0
LINE
  5
4D
330
1D
100
AcDbEntity
  8
0
100
AcDbLine
 10
77.43695
 20
-0.16
 30
0.0
 11
93.12495
 21
-0.16
 31
0.0
  0
LINE
  5
4E
330
1D
100
AcDbEntity
  8
0
100
AcDbLine
 10
77.43695
 20
-0.16
 30
0.0
 11
93.12495
 21
-0.16
 31
0.0
  0
LINE
  5
52
330
1D
100
AcDbEntity
  8
0
100
AcDbLine
 10
93.12495
 20
32.84
 30
0.0
 11
110.88495
 21
32.84
 31
0.0
  0
LINE
  5
53
330
1D
100
AcDbEntity
  8
0
100
AcDbLine
 10
93.12495
 20
31.7086
 30
0.0
 11
110.88495
 21
31.7086
 31
0.0
  0
LINE
  5
54
330
1D
100
AcDbEntity
  8
0
100
AcDbLine
 10
93.12495
 20
-0.16
 30
0.0
 11
110.88495
 21
-0.16
 31
0.0
  0
LINE
  5
55
330
1D
100
AcDbEntity
  8
0
100
AcDbLine
 10
94.01295
 20
32.84
 30
0.0
 11
111.18095
 21
32.84
 31
0.0
  0
LINE
  5
56
330
1D
100
AcDbEntity
  8
0
100
AcDbLine
 10
93.12495
 20
-0.16
 30
0.0
 11
110.88495
 21
-0.16
 31
0.0
  0
LINE
  5
57
330
1D
100
AcDbEntity
  8
0
100
AcDbLine
 10
93.12495
 20
34.7714
 30
0.0
 11
110.88495
 21
34.7714
 31
0.0
  0
LINE
  5
5B
330
1D
100
AcDbEntity
  8
0
100
AcDbLine
 10
79.82895
 20
43.597735921982
 30
0.0
 11
79.82895
 21
99.279915
 31
0.0
  0
LINE
  5
5C
330
1D
100
AcDbEntity
  8
0
100
AcDbLine
 10
88.50545
 20
101.36
 30
0.0
 11
96.00545
 21
101.36
 31
0.0
  0
LINE
  5
5D
330
1D
100
AcDbEntity
  8
0
100
AcDbLine
 10
83.79955
 20
101.36
 30
0.0
 11
88.50545
 21
101.36
 31
0.0
  0
LINE
  5
5E
330
1D
100
AcDbEntity
  8
0
100
AcDbLine
 10
82.03485
 20
101.36
 30
0.0
 11
83.79955
 21
101.36
 31
0.0
  0
LINE
  5
5F
330
1D
100
AcDbEntity
  8
0
100
AcDbLine
 10
80.56425
 20
100.666295
 30
0.0
 11
82.03485
 21
101.36
 31
0.0
  0
LINE
  5
60
330
1D
100
AcDbEntity
  8
0
100
AcDbLine
 10
79.82895
 20
99.279915
 30
0.0
 11
79.82895
 21
43.597735921982
 31
0.0
  0
LINE
  5
61
330
1D
100
AcDbEntity
  8
0
100
AcDbLine
 10
79.82895
 20
99.279915
 30
0.0
 11
80.56425
 21
100.666295
 31
0.0
  0
LINE
  5
64
330
1D
100
AcDbEntity
  8
0
100
AcDbLine
 10
96.00545
 20
101.36
 30
0.0
 11
106.00545
 21
101.36
 31
0.0
  0
LINE
  5
65
330
1D
100
AcDbEntity
  8
0
100
AcDbLine
 10
106.00545
 20
101.36
 30
0.0
 11
117.47595
 21
101.36
 31
0.0
  0
LINE
  5
66
330
1D
100
AcDbEntity
  8
0
100
AcDbLine
 10
70.30895
 20
101.84
 30
0.0
 11
189.34895
 21
101.84
 31
0.0
  0
LINE
  5
67
330
1D
100
AcDbEntity
  8
0
100
AcDbLine
 10
70.30895
 20
116.24
 30
0.0
 11
189.34895
 21
116.24
 31
0.0
  0
LINE
  5
68
330
1D
100
AcDbEntity
  8
0
100
AcDbLine
 10
69.06895
 20
116.24
 30
0.0
 11
70.30895
 21
116.24
 31
0.0
  0
LINE
  5
69
330
1D
100
AcDbEntity
  8
0
100
AcDbLine
 10
16.08855
 20
338.323
 30
0.0
 11
18.27405
 21
316.721
 31
0.0
  0
LINE
  5
6A
330
1D
100
AcDbEntity
  8
0
100
AcDbLine
 10
16.08855
 20
338.323
 30
0.0
 11
16.24215
 21
357.556
 31
0.0
  0
LINE
  5
6B
330
1D
100
AcDbEntity
  8
0
100
AcDbLine
 10
0.28185
 20
358.683
 30
0.0
 11
2.88575
 21
378.545
 31
0.0
  0
LINE
  5
6C
330
1D
100
AcDbEntity
  8
0
100
AcDbLine
 10
16.24215
 20
357.556
 30
0.0
 11
18.78975
 21
376.62
 31
0.0
  0
LINE
  5
6D
330
1D
100
AcDbEntity
  8
0
100
AcDbLine
 10
2.88575
 20
378.545
 30
0.0
 11
8.42205
 21
401.607
 31
0.0
  0
LINE
  5
6E
330
1D
100
AcDbEntity
  8
0
100
AcDbLine
 10
8.42205
 20
401.607
 30
0.0
 11
16.58005
 21
424.886
 31
0.0
  0
LINE
  5
6F
330
1D
100
AcDbEntity
  8
0
100
AcDbLine
 10
16.58005
 20
424.886
 30
0.0
 11
28.92055
 21
447.769
 31
0.0
  0
LINE
  5
70
330
1D
100
AcDbEntity
  8
0
100
AcDbLine
 10
0.07205
 20
338.652
 30
0.0
 11
2.31625
 21
315.04
 31
0.0
  0
LINE
  5
71
330
1D
100
AcDbEntity
  8
0
100
AcDbLine
 10
0.07205
 20
338.652
 30
0.0
 11
0.28185
 21
358.683
 31
0.0
  0
LINE
  5
72
330
1D
100
AcDbEntity
  8
0
100
AcDbLine
 10
18.78975
 20
376.62
 30
0.0
 11
23.98595
 21
397.703
 31
0.0
  0
LINE
  5
73
330
1D
100
AcDbEntity
  8
0
100
AcDbLine
 10
18.27405
 20
316.721
 30
0.0
 11
22.47555
 21
295.276
 31
0.0
  0
LINE
  5
74
330
1D
100
AcDbEntity
  8
0
100
AcDbLine
 10
2.31625
 20
315.04
 30
0.0
 11
7.12605
 21
290.847
 31
0.0
  0
LINE
  5
75
330
1D
100
AcDbEntity
  8
0
100
AcDbLine
 10
23.98595
 20
397.703
 30
0.0
 11
31.15595
 21
418.345
 31
0.0
  0
LINE
  5
76
330
1D
100
AcDbEntity
  8
0
100
AcDbLine
 10
28.92055
 20
447.769
 30
0.0
 11
79.45835
 21
542.148
 31
0.0
  0
LINE
  5
77
330
1D
100
AcDbEntity
  8
0
100
AcDbLine
 10
22.47555
 20
295.276
 30
0.0
 11
30.56055
 21
273.458
 31
0.0
  0
LINE
  5
78
330
1D
100
AcDbEntity
  8
0
100
AcDbLine
 10
7.12605
 20
290.847
 30
0.0
 11
16.13225
 21
266.457
 31
0.0
  0
LINE
  5
79
330
1D
100
AcDbEntity
  8
0
100
AcDbLine
 10
31.15595
 20
418.345
 30
0.0
 11
42.22345
 21
438.812
 31
0.0
  0
LINE
  5
7A
330
1D
100
AcDbEntity
  8
0
100
AcDbLine
 10
30.56055
 20
273.458
 30
0.0
 11
39.50595
 21
253.883
 31
0.0
  0
LINE
  5
7B
330
1D
100
AcDbEntity
  8
0
100
AcDbLine
 10
16.13225
 20
266.457
 30
0.0
 11
26.61125
 21
244.47
 31
0.0
  0
LINE
  5
7C
330
1D
100
AcDbEntity
  8
0
100
AcDbLine
 10
42.22345
 20
438.812
 30
0.0
 11
91.76455
 21
531.858
 31
0.0
  0
LINE
  5
7D
330
1D
100
AcDbEntity
  8
0
100
AcDbLine
 10
39.50595
 20
253.883
 30
0.0
 11
52.41555
 21
237.938
 31
0.0
  0
LINE
  5
7E
330
1D
100
AcDbEntity
  8
0
100
AcDbLine
 10
26.61125
 20
244.47
 30
0.0
 11
41.29665
 21
226.695
 31
0.0
  0
LINE
  5
7F
330
1D
100
AcDbEntity
  8
0
100
AcDbLine
 10
52.41555
 20
237.938
 30
0.0
 11
69.07409
 21
221.126
 31
0.0
  0
LINE
  5
80
330
1D
100
AcDbEntity
  8
0
100
AcDbLine
 10
41.29665
 20
226.695
 30
0.0
 11
60.11569
 21
207.827
 31
0.0
  0
LINE
  5
81
330
1D
100
AcDbEntity
  8
0
100
AcDbLine
 10
69.07409
 20
221.126
 30
0.0
 11
85.90405
 21
211.018
 31
0.0
  0
LINE
  5
82
330
1D
100
AcDbEntity
  8
0
100
AcDbLine
 10
60.11569
 20
207.827
 30
0.0
 11
79.36305
 21
196.4463
 31
0.0
  0
LINE
  5
83
330
1D
100
AcDbEntity
  8
0
100
AcDbLine
 10
79.45835
 20
542.148
 30
0.0
 11
89.81445
 21
561.061
 31
0.0
  0
LINE
  5
84
330
1D
100
AcDbEntity
  8
0
100
AcDbLine
 10
99.29855
 20
583.244
 30
0.0
 11
107.19995
 21
607.142
 31
0.0
  0
LINE
  5
85
330
1D
100
AcDbEntity
  8
0
100
AcDbLine
 10
102.56925
 20
551.441
 30
0.0
 11
108.82895
 21
565.69558322452
 31
0.0
  0
LINE
  5
86
330
1D
100
AcDbEntity
  8
0
100
AcDbLine
 10
89.81445
 20
561.061
 30
0.0
 11
99.29855
 21
583.244
 31
0.0
  0
LINE
  5
87
330
1D
100
AcDbEntity
  8
0
100
AcDbLine
 10
91.76455
 20
531.858
 30
0.0
 11
102.56925
 21
551.441
 31
0.0
  0
LINE
  5
88
330
1D
100
AcDbEntity
  8
0
100
AcDbLine
 10
85.90405
 20
211.018
 30
0.0
 11
105.42545
 21
203.526
 31
0.0
  0
LINE
  5
89
330
1D
100
AcDbEntity
  8
0
100
AcDbLine
 10
79.36305
 20
196.4463
 30
0.0
 11
101.52135
 21
187.9663
 31
0.0
  0
LINE
  5
8A
330
1D
100
AcDbEntity
  8
0
100
AcDbLine
 10
107.19995
 20
607.142
 30
0.0
 11
108.82895
 21
613.308401398935
 31
0.0
  0
LINE
  5
8B
330
1D
100
AcDbEntity
  8
0
100
AcDbLine
 10
105.42545
 20
203.526
 30
0.0
 11
108.82895
 21
203.064862490926
 31
0.0
  0
LINE
  5
8C
330
1D
100
AcDbEntity
  8
0
100
AcDbLine
 10
101.52135
 20
187.9663
 30
0.0
 11
108.82895
 21
187.078912861685
 31
0.0
  0
LINE
  5
8D
330
1D
100
AcDbEntity
  8
0
100
AcDbLine
 10
70.30895
 20
116.84
 30
0.0
 11
189.34895
 21
116.84
 31
0.0
  0
LINE
  5
8E
330
1D
100
AcDbEntity
  8
0
100
AcDbLine
 10
68.57295
 20
116.24
 30
0.0
 11
70.30895
 21
116.84
 31
0.0
  0
LINE
  5
8F
330
1D
100
AcDbEntity
  8
0
100
AcDbLine
 10
68.57295
 20
116.24
 30
0.0
 11
69.06895
 21
116.24
 31
0.0
  0
LINE
  5
90
330
1D
100
AcDbEntity
  8
0
100
AcDbLine
 10
108.82895
 20
116.84
 30
0.0
 11
108.82895
 21
701.255
 31
0.0
  0
LINE
  5
91
330
1D
100
AcDbEntity
  8
0
100
AcDbLine
 10
108.82895
 20
701.255
 30
0.0
 11
108.82895
 21
116.84
 31
0.0
  0
LINE
  5
92
330
1D
100
AcDbEntity
  8
0
100
AcDbLine
 10
108.82895
 20
701.255
 30
0.0
 11
109.33295
 21
701.84
 31
0.0
  0
LINE
  5
93
330
1D
100
AcDbEntity
  8
0
100
AcDbLine
 10
108.82895
 20
701.255
 30
0.0
 11
109.58495
 21
701.255
 31
0.0
  0
LINE
  5
94
330
1D
100
AcDbEntity
  8
0
100
AcDbLine
 10
109.58495
 20
701.255
 30
0.0
 11
111.60095
 21
701.255
 31
0.0
  0
LINE
  5
95
330
1D
100
AcDbEntity
  8
0
100
AcDbLine
 10
109.33295
 20
701.84
 30
0.0
 11
110.08895
 21
701.84
 31
0.0
  0
LINE
  5
96
330
1D
100
AcDbEntity
  8
0
100
AcDbLine
 10
108.82895
 20
702.44
 30
0.0
 11
108.82895
 21
707.84
 31
0.0
  0
LINE
  5
97
330
1D
100
AcDbEntity
  8
0
100
AcDbLine
 10
108.82895
 20
702.44
 30
0.0
 11
109.58495
 21
702.44
 31
0.0
  0
LINE
  5
98
330
1D
100
AcDbEntity
  8
0
100
AcDbLine
 10
108.82895
 20
702.44
 30
0.0
 11
109.33295
 21
701.84
 31
0.0
  0
LINE
  5
99
330
1D
100
AcDbEntity
  8
0
100
AcDbLine
 10
110.08895
 20
701.84
 30
0.0
 11
112.10495
 21
701.84
 31
0.0
  0
LINE
  5
9A
330
1D
100
AcDbEntity
  8
0
100
AcDbLine
 10
109.58495
 20
702.44
 30
0.0
 11
111.60095
 21
702.44
 31
0.0
  0
LINE
  5
9B
330
1D
100
AcDbEntity
  8
0
100
AcDbLine
 10
108.82895
 20
707.84
 30
0.0
 11
109.014098829196
 21
796.576452660867
 31
0.0
  0
LINE
  5
9C
330
1D
100
AcDbEntity
  8
0
100
AcDbLine
 10
108.82895
 20
707.84
 30
0.0
 11
108.82895
 21
702.44
 31
0.0
  0
LINE
  5
9D
330
1D
100
AcDbEntity
  8
0
100
AcDbLine
 10
110.88495
 20
34.7714
 30
0.0
 11
129.82895
 21
34.7714
 31
0.0
  0
LINE
  5
9E
330
1D
100
AcDbEntity
  8
0
100
AcDbLine
 10
110.88495
 20
32.84
 30
0.0
 11
129.82895
 21
32.84
 31
0.0
  0
LINE
  5
9F
330
1D
100
AcDbEntity
  8
0
100
AcDbLine
 10
110.88495
 20
31.7086
 30
0.0
 11
129.82895
 21
31.7086
 31
0.0
  0
LINE
  5
A0
330
1D
100
AcDbEntity
  8
0
100
AcDbLine
 10
110.88495
 20
-0.16
 30
0.0
 11
129.82895
 21
-0.16
 31
0.0
  0
LINE
  5
A1
330
1D
100
AcDbEntity
  8
0
100
AcDbLine
 10
111.18095
 20
34.84
 30
0.0
 11
129.82895
 21
34.84
 31
0.0
  0
LINE
  5
A2
330
1D
100
AcDbEntity
  8
0
100
AcDbLine
 10
111.18095
 20
32.84
 30
0.0
 11
129.82895
 21
32.84
 31
0.0
  0
LINE
  5
A3
330
1D
100
AcDbEntity
  8
0
100
AcDbLine
 10
110.88495
 20
-0.16
 30
0.0
 11
129.82895
 21
-0.16
 31
0.0
  0
LINE
  5
A4
330
1D
100
AcDbEntity
  8
0
100
AcDbLine
 10
111.60095
 20
701.255
 30
0.0
 11
114.96095
 21
701.255
 31
0.0
  0
LINE
  5
A6
330
1D
100
AcDbEntity
  8
0
100
AcDbLine
 10
112.10495
 20
701.84
 30
0.0
 11
115.38095
 21
701.84
 31
0.0
  0
LINE
  5
A7
330
1D
100
AcDbEntity
  8
0
100
AcDbLine
 10
111.60095
 20
702.44
 30
0.0
 11
114.96095
 21
702.44
 31
0.0
  0
LINE
  5
A9
330
1D
100
AcDbEntity
  8
0
100
AcDbLine
 10
114.96095
 20
701.255
 30
0.0
 11
119.41295
 21
701.255
 31
0.0
  0
LINE
  5
AA
330
1D
100
AcDbEntity
  8
0
100
AcDbLine
 10
115.38095
 20
701.84
 30
0.0
 11
119.66495
 21
701.84
 31
0.0
  0
LINE
  5
AB
330
1D
100
AcDbEntity
  8
0
100
AcDbLine
 10
114.96095
 20
702.44
 30
0.0
 11
119.41295
 21
702.44
 31
0.0
  0
LINE
  5
AC
330
1D
100
AcDbEntity
  8
0
100
AcDbLine
 10
114.37275
 20
751.553
 30
0.0
 11
115.51355
 21
750.653
 31
0.0
  0
LINE
  5
AD
330
1D
100
AcDbEntity
  8
0
100
AcDbLine
 10
113.40395
 20
752.495
 30
0.0
 11
114.37275
 21
751.553
 31
0.0
  0
LINE
  5
AE
330
1D
100
AcDbEntity
  8
0
100
AcDbLine
 10
112.54765
 20
753.523
 30
0.0
 11
113.40395
 21
752.495
 31
0.0
  0
LINE
  5
AF
330
1D
100
AcDbEntity
  8
0
100
AcDbLine
 10
117.47595
 20
101.36
 30
0.0
 11
129.82895
 21
101.36
 31
0.0
  0
LINE
  5
B0
330
1D
100
AcDbEntity
  8
0
100
AcDbLine
 10
119.41295
 20
701.255
 30
0.0
 11
124.45295
 21
701.255
 31
0.0
  0
LINE
  5
B1
330
1D
100
AcDbEntity
  8
0
100
AcDbLine
 10
124.45295
 20
701.255
 30
0.0
 11
129.82895
 21
701.255
 31
0.0
  0
LINE
  5
B2
330
1D
100
AcDbEntity
  8
0
100
AcDbLine
 10
119.66495
 20
701.84
 30
0.0
 11
124.53695
 21
701.84
 31
0.0
  0
LINE
  5
B3
330
1D
100
AcDbEntity
  8
0
100
AcDbLine
 10
119.41295
 20
702.44
 30
0.0
 11
124.45295
 21
702.44
 31
0.0
  0
LINE
  5
B4
330
1D
100
AcDbEntity
  8
0
100
AcDbLine
 10
124.53695
 20
701.84
 30
0.0
 11
129.82895
 21
701.84
 31
0.0
  0
LINE
  5
B5
330
1D
100
AcDbEntity
  8
0
100
AcDbLine
 10
124.45295
 20
702.44
 30
0.0
 11
129.82895
 21
702.44
 31
0.0
  0
LINE
  5
B9
330
1D
100
AcDbEntity
  8
0
100
AcDbLine
 10
116.67435
 20
749.895
 30
0.0
 11
117.88035
 21
749.249
 31
0.0
  0
LINE
  5
BA
330
1D
100
AcDbEntity
  8
0
100
AcDbLine
 10
117.88035
 20
749.249
 30
0.0
 11
117.95975
 21
749.206
 31
0.0
  0
LINE
  5
BB
330
1D
100
AcDbEntity
  8
0
100
AcDbLine
 10
120.86935
 20
748.067
 30
0.0
 11
122.43625
 21
747.653
 31
0.0
  0
LINE
  5
BC
330
1D
100
AcDbEntity
  8
0
100
AcDbLine
 10
119.40005
 20
748.573
 30
0.0
 11
120.86935
 21
748.067
 31
0.0
  0
LINE
  5
BD
330
1D
100
AcDbEntity
  8
0
100
AcDbLine
 10
117.95975
 20
749.206
 30
0.0
 11
119.40005
 21
748.573
 31
0.0
  0
LINE
  5
BE
330
1D
100
AcDbEntity
  8
0
100
AcDbLine
 10
122.43625
 20
747.653
 30
0.0
 11
123.66235
 21
747.406
 31
0.0
  0
LINE
  5
C1
330
1D
100
AcDbEntity
  8
0
100
AcDbLine
 10
123.66235
 20
747.406
 30
0.0
 11
125.07045
 21
747.208
 31
0.0
  0
LINE
  5
C2
330
1D
100
AcDbEntity
  8
0
100
AcDbLine
 10
125.07045
 20
747.208
 30
0.0
 11
126.69455
 21
747.094
 31
0.0
  0
LINE
  5
C3
330
1D
100
AcDbEntity
  8
0
100
AcDbLine
 10
115.51355
 20
750.653
 30
0.0
 11
116.67435
 21
749.895
 31
0.0
  0
LINE
  5
C4
330
1D
100
AcDbEntity
  8
0
100
AcDbLine
 10
110.59385
 20
757.984
 30
0.0
 11
110.64515
 21
757.72
 31
0.0
  0
LINE
  5
C5
330
1D
100
AcDbEntity
  8
0
100
AcDbLine
 10
110.64515
 20
757.72
 30
0.0
 11
110.72855
 21
757.299
 31
0.0
  0
LINE
  5
C6
330
1D
100
AcDbEntity
  8
0
100
AcDbLine
 10
110.72855
 20
757.299
 30
0.0
 11
110.92755
 21
756.551
 31
0.0
  0
LINE
  5
C7
330
1D
100
AcDbEntity
  8
0
100
AcDbLine
 10
110.92755
 20
756.551
 30
0.0
 11
111.37475
 21
755.424
 31
0.0
  0
LINE
  5
C8
330
1D
100
AcDbEntity
  8
0
100
AcDbLine
 10
111.37475
 20
755.424
 30
0.0
 11
111.90245
 21
754.464
 31
0.0
  0
LINE
  5
C9
330
1D
100
AcDbEntity
  8
0
100
AcDbLine
 10
111.90245
 20
754.464
 30
0.0
 11
111.98685
 21
754.34
 31
0.0
  0
LINE
  5
CA
330
1D
100
AcDbEntity
  8
0
100
AcDbLine
 10
111.98685
 20
754.34
 30
0.0
 11
112.54765
 21
753.523
 31
0.0
  0
LINE
  5
CB
330
1D
100
AcDbEntity
  8
0
100
AcDbLine
 10
110.51745
 20
758.628
 30
0.0
 11
110.59385
 21
757.984
 31
0.0
  0
LINE
  5
CC
330
1D
100
AcDbEntity
  8
0
100
AcDbLine
 10
108.96865
 20
797.075
 30
0.0
 11
109.070081486373
 21
795.9623553284
 31
0.0
  0
LINE
  5
CD
330
1D
100
AcDbEntity
  8
0
100
AcDbLine
 10
112.71145
 20
762.391
 30
0.0
 11
113.11655
 21
763.198
 31
0.0
  0
LINE
  5
CE
330
1D
100
AcDbEntity
  8
0
100
AcDbLine
 10
109.22195
 20
797.894
 30
0.0
 11
109.35965
 21
798.398
 31
0.0
  0
LINE
  5
CF
330
1D
100
AcDbEntity
  8
0
100
AcDbLine
 10
109.35965
 20
798.398
 30
0.0
 11
109.62195
 21
799.34
 31
0.0
  0
LINE
  5
D0
330
1D
100
AcDbEntity
  8
0
100
AcDbLine
 10
109.62195
 20
799.34
 30
0.0
 11
109.82395
 21
799.868
 31
0.0
  0
LINE
  5
D1
330
1D
100
AcDbEntity
  8
0
100
AcDbLine
 10
109.82395
 20
799.868
 30
0.0
 11
110.24915
 21
800.746
 31
0.0
  0
LINE
  5
D2
330
1D
100
AcDbEntity
  8
0
100
AcDbLine
 10
110.24915
 20
800.746
 30
0.0
 11
110.52555
 21
801.289
 31
0.0
  0
LINE
  5
D3
330
1D
100
AcDbEntity
  8
0
100
AcDbLine
 10
109.76565
 20
778.055
 30
0.0
 11
109.80595
 21
776.845
 31
0.0
  0
LINE
  5
D4
330
1D
100
AcDbEntity
  8
0
100
AcDbLine
 10
109.80595
 20
776.845
 30
0.0
 11
110.51745
 21
758.628
 31
0.0
  0
LINE
  5
D5
330
1D
100
AcDbEntity
  8
0
100
AcDbLine
 10
109.05215
 20
796.424
 30
0.0
 11
109.76565
 21
778.055
 31
0.0
  0
LINE
  5
D6
330
1D
100
AcDbEntity
  8
0
100
AcDbLine
 10
109.05215
 20
796.424
 30
0.0
 11
109.22195
 21
797.894
 31
0.0
  0
LINE
  5
D7
330
1D
100
AcDbEntity
  8
0
100
AcDbLine
 10
112.59385
 20
803.917
 30
0.0
 11
113.93355
 21
805.087
 31
0.0
  0
LINE
  5
D8
330
1D
100
AcDbEntity
  8
0
100
AcDbLine
 10
111.45215
 20
802.645
 30
0.0
 11
112.59385
 21
803.917
 31
0.0
  0
LINE
  5
D9
330
1D
100
AcDbEntity
  8
0
100
AcDbLine
 10
110.52555
 20
801.289
 30
0.0
 11
111.45215
 21
802.645
 31
0.0
  0
LINE
  5
DA
330
1D
100
AcDbEntity
  8
0
100
AcDbLine
 10
114.12255
 20
764.641
 30
0.0
 11
114.84115
 21
765.415
 31
0.0
  0
LINE
  5
DB
330
1D
100
AcDbEntity
  8
0
100
AcDbLine
 10
114.84115
 20
765.415
 30
0.0
 11
116.22305
 21
766.629
 31
0.0
  0
LINE
  5
DF
330
1D
100
AcDbEntity
  8
0
100
AcDbLine
 10
113.640896832469
 20
764.020220664146
 30
0.0
 11
114.12255
 21
764.641
 31
0.0
  0
LINE
  5
E4
330
1D
100
AcDbEntity
  8
0
100
AcDbLine
 10
116.22305
 20
766.629
 30
0.0
 11
117.46935
 21
767.531
 31
0.0
  0
LINE
  5
E8
330
1D
100
AcDbEntity
  8
0
100
AcDbLine
 10
117.46935
 20
767.531
 30
0.0
 11
119.03715
 21
768.507
 31
0.0
  0
LINE
  5
F6
330
1D
100
AcDbEntity
  8
0
100
AcDbLine
 10
119.03715
 20
768.507
 30
0.0
 11
121.08245
 21
769.6
 31
0.0
  0
LINE
  5
12B
330
1D
100
AcDbEntity
  8
0
100
AcDbLine
 10
118.95875
 20
807.846
 30
0.0
 11
120.89455
 21
808.474
 31
0.0
  0
LINE
  5
12C
330
1D
100
AcDbEntity
  8
0
100
AcDbLine
 10
117.13765
 20
807.066
 30
0.0
 11
118.95875
 21
807.846
 31
0.0
  0
LINE
  5
12D
330
1D
100
AcDbEntity
  8
0
100
AcDbLine
 10
115.45525
 20
806.141
 30
0.0
 11
117.13765
 21
807.066
 31
0.0
  0
LINE
  5
12E
330
1D
100
AcDbEntity
  8
0
100
AcDbLine
 10
113.93355
 20
805.087
 30
0.0
 11
115.45525
 21
806.141
 31
0.0
  0
LINE
  5
183
330
1D
100
AcDbEntity
  8
0
100
AcDbLine
 10
124.54985
 20
771.106
 30
0.0
 11
126.35285
 21
771.749
 31
0.0
  0
LINE
  5
185
330
1D
100
AcDbEntity
  8
0
100
AcDbLine
 10
122.73475
 20
770.366
 30
0.0
 11
124.54985
 21
771.106
 31
0.0
  0
LINE
  5
186
330
1D
100
AcDbEntity
  8
0
100
AcDbLine
 10
121.08245
 20
769.6
 30
0.0
 11
122.73475
 21
770.366
 31
0.0
  0
LINE
  5
190
330
1D
100
AcDbEntity
  8
0
100
AcDbLine
 10
120.89455
 20
808.474
 30
0.0
 11
122.99105
 21
808.953
 31
0.0
  0
LINE
  5
191
330
1D
100
AcDbEntity
  8
0
100
AcDbLine
 10
122.99105
 20
808.953
 30
0.0
 11
125.15185
 21
809.254
 31
0.0
  0
LINE
  5
192
330
1D
100
AcDbEntity
  8
0
100
AcDbLine
 10
113.11655
 20
763.198
 30
0.0
 11
113.640896832471
 21
764.020220664148
 31
0.0
  0
LINE
  5
194
330
1D
100
AcDbEntity
  8
0
100
AcDbLine
 10
112.42705
 20
761.655
 30
0.0
 11
112.71145
 21
762.391
 31
0.0
  0
LINE
  5
196
330
1D
100
AcDbEntity
  8
0
100
AcDbLine
 10
126.35285
 20
771.749
 30
0.0
 11
128.01625
 21
772.273
 31
0.0
  0
LINE
  5
1BC
330
1D
100
AcDbEntity
  8
0
100
AcDbLine
 10
126.69455
 20
747.094
 30
0.0
 11
128.34885
 21
747.101
 31
0.0
  0
LINE
  5
207
330
1D
100
AcDbEntity
  8
0
100
AcDbLine
 10
106.80875
 20
879.874
 30
0.0
 11
107.01275
 21
874.215
 31
0.0
  0
LINE
  5
208
330
1D
100
AcDbEntity
  8
0
100
AcDbLine
 10
106.73745
 20
891.873
 30
0.0
 11
106.76355
 21
888.269
 31
0.0
  0
LINE
  5
209
330
1D
100
AcDbEntity
  8
0
100
AcDbLine
 10
106.73745
 20
891.873
 30
0.0
 11
106.88515
 21
896.987
 31
0.0
  0
LINE
  5
20A
330
1D
100
AcDbEntity
  8
0
100
AcDbLine
 10
106.88515
 20
896.987
 30
0.0
 11
106.98165
 21
899.023
 31
0.0
  0
LINE
  5
20B
330
1D
100
AcDbEntity
  8
0
100
AcDbLine
 10
107.10025
 20
901.542
 30
0.0
 11
107.36955
 21
905.369
 31
0.0
  0
LINE
  5
20C
330
1D
100
AcDbEntity
  8
0
100
AcDbLine
 10
106.91225
 20
897.634
 30
0.0
 11
107.10025
 21
901.542
 31
0.0
  0
LINE
  5
20D
330
1D
100
AcDbEntity
  8
0
100
AcDbLine
 10
106.91225
 20
897.634
 30
0.0
 11
106.98165
 21
899.023
 31
0.0
  0
LINE
  5
20E
330
1D
100
AcDbEntity
  8
0
100
AcDbLine
 10
107.36955
 20
905.369
 30
0.0
 11
107.56055
 21
906.992
 31
0.0
  0
LINE
  5
211
330
1D
100
AcDbEntity
  8
0
100
AcDbLine
 10
107.56055
 20
906.992
 30
0.0
 11
108.03285
 21
911.835
 31
0.0
  0
LINE
  5
212
330
1D
100
AcDbEntity
  8
0
100
AcDbLine
 10
107.01275
 20
874.215
 30
0.0
 11
107.52135
 21
864.688
 31
0.0
  0
LINE
  5
213
330
1D
100
AcDbEntity
  8
0
100
AcDbLine
 10
106.72735
 20
883.714
 30
0.0
 11
106.80875
 21
879.874
 31
0.0
  0
LINE
  5
214
330
1D
100
AcDbEntity
  8
0
100
AcDbLine
 10
106.72735
 20
883.714
 30
0.0
 11
106.76355
 21
888.269
 31
0.0
  0
LINE
  5
215
330
1D
100
AcDbEntity
  8
0
100
AcDbLine
 10
107.52135
 20
864.688
 30
0.0
 11
108.02785
 21
856.896
 31
0.0
  0
LINE
  5
216
330
1D
100
AcDbEntity
  8
0
100
AcDbLine
 10
108.03285
 20
911.835
 30
0.0
 11
108.81075
 21
917.138
 31
0.0
  0
LINE
  5
217
330
1D
100
AcDbEntity
  8
0
100
AcDbLine
 10
108.81075
 20
917.138
 30
0.0
 11
109.71135
 21
922.136
 31
0.0
  0
LINE
  5
21D
330
1D
100
AcDbEntity
  8
0
100
AcDbLine
 10
109.71135
 20
922.136
 30
0.0
 11
110.318205814722
 21
924.774956773588
 31
0.0
  0
LINE
  5
21E
330
1D
100
AcDbEntity
  8
0
100
AcDbLine
 10
113.01385
 20
934.935
 30
0.0
 11
113.36165
 21
935.92
 31
0.0
  0
LINE
  5
21F
330
1D
100
AcDbEntity
  8
0
100
AcDbLine
 10
110.318205814722
 20
924.774956773588
 30
0.0
 11
113.01385
 21
934.935
 31
0.0
  0
LINE
  5
220
330
1D
100
AcDbEntity
  8
0
100
AcDbLine
 10
115.76165
 20
942.731
 30
0.0
 11
117.51245
 21
946.884
 31
0.0
  0
LINE
  5
221
330
1D
100
AcDbEntity
  8
0
100
AcDbLine
 10
117.51245
 20
946.884
 30
0.0
 11
119.40995
 21
950.992
 31
0.0
  0
LINE
  5
222
330
1D
100
AcDbEntity
  8
0
100
AcDbLine
 10
119.40995
 20
950.992
 30
0.0
 11
121.50745
 21
955.138
 31
0.0
  0
LINE
  5
223
330
1D
100
AcDbEntity
  8
0
100
AcDbLine
 10
123.75975
 20
959.245
 30
0.0
 11
125.94675
 21
962.852
 31
0.0
  0
LINE
  5
224
330
1D
100
AcDbEntity
  8
0
100
AcDbLine
 10
126.617332922014
 20
963.874265547877
 30
0.0
 11
126.69345
 21
964.424
 31
0.0
  0
LINE
  5
226
330
1D
100
AcDbEntity
  8
0
100
AcDbLine
 10
125.94675
 20
962.852
 30
0.0
 11
126.63815
 21
963.906
 31
0.0
  0
LINE
  5
227
330
1D
100
AcDbEntity
  8
0
100
AcDbLine
 10
121.50745
 20
955.138
 30
0.0
 11
123.75975
 21
959.245
 31
0.0
  0
LINE
  5
228
330
1D
100
AcDbEntity
  8
0
100
AcDbLine
 10
126.693572640892
 20
963.939144081963
 30
0.0
 11
126.92465
 21
964.469
 31
0.0
  0
LINE
  5
229
330
1D
100
AcDbEntity
  8
0
100
AcDbLine
 10
126.69345
 20
964.424
 30
0.0
 11
126.77685
 21
964.772
 31
0.0
  0
LINE
  5
22B
330
1D
100
AcDbEntity
  8
0
100
AcDbLine
 10
126.705597544287
 20
963.947537160163
 30
0.0
 11
126.92465
 21
964.469
 31
0.0
  0
LINE
  5
22C
330
1D
100
AcDbEntity
  8
0
100
AcDbLine
 10
126.91055
 20
965.1
 30
0.0
 11
128.34975
 21
967.752
 31
0.0
  0
LINE
  5
22D
330
1D
100
AcDbEntity
  8
0
100
AcDbLine
 10
126.77685
 20
964.772
 30
0.0
 11
126.91055
 21
965.1
 31
0.0
  0
LINE
  5
22E
330
1D
100
AcDbEntity
  8
0
100
AcDbLine
 10
126.92465
 20
964.469
 30
0.0
 11
127.29955
 21
964.953
 31
0.0
  0
LINE
  5
22F
330
1D
100
AcDbEntity
  8
0
100
AcDbLine
 10
127.29955
 20
964.953
 30
0.0
 11
127.81505
 21
965.369
 31
0.0
  0
LINE
  5
236
330
1D
100
AcDbEntity
  8
0
100
AcDbLine
 10
113.88325
 20
937.544
 30
0.0
 11
115.76165
 21
942.731
 31
0.0
  0
LINE
  5
237
330
1D
100
AcDbEntity
  8
0
100
AcDbLine
 10
113.36165
 20
935.92
 30
0.0
 11
113.88325
 21
937.544
 31
0.0
  0
LINE
  5
238
330
1D
100
AcDbEntity
  8
0
100
AcDbLine
 10
108.02785
 20
856.896
 30
0.0
 11
108.96865
 21
797.075
 31
0.0
  0
LINE
  5
239
330
1D
100
AcDbEntity
  8
0
100
AcDbLine
 10
125.17695
 20
809.257
 30
0.0
 11
127.35185
 21
809.373
 31
0.0
  0
LINE
  5
25D
330
1D
100
AcDbEntity
  8
0
100
AcDbLine
 10
128.01625
 20
772.273
 30
0.0
 11
130.24435
 21
772.885
 31
0.0
  0
LINE
  5
286
330
1D
100
AcDbEntity
  8
0
100
AcDbLine
 10
129.82895
 20
-0.16
 30
0.0
 11
148.77295
 21
-0.16
 31
0.0
  0
LINE
  5
287
330
1D
100
AcDbEntity
  8
0
100
AcDbLine
 10
129.82895
 20
34.84
 30
0.0
 11
148.47695
 21
34.84
 31
0.0
  0
LINE
  5
288
330
1D
100
AcDbEntity
  8
0
100
AcDbLine
 10
129.82895
 20
34.7714
 30
0.0
 11
148.77295
 21
34.7714
 31
0.0
  0
LINE
  5
289
330
1D
100
AcDbEntity
  8
0
100
AcDbLine
 10
129.82895
 20
32.84
 30
0.0
 11
148.47695
 21
32.84
 31
0.0
  0
LINE
  5
28A
330
1D
100
AcDbEntity
  8
0
100
AcDbLine
 10
129.82895
 20
32.84
 30
0.0
 11
148.77295
 21
32.84
 31
0.0
  0
LINE
  5
28B
330
1D
100
AcDbEntity
  8
0
100
AcDbLine
 10
129.82895
 20
31.7086
 30
0.0
 11
148.77295
 21
31.7086
 31
0.0
  0
LINE
  5
28C
330
1D
100
AcDbEntity
  8
0
100
AcDbLine
 10
129.82895
 20
-0.16
 30
0.0
 11
148.77295
 21
-0.16
 31
0.0
  0
LINE
  5
28D
330
1D
100
AcDbEntity
  8
0
100
AcDbLine
 10
129.82895
 20
101.36
 30
0.0
 11
142.18195
 21
101.36
 31
0.0
  0
LINE
  5
28E
330
1D
100
AcDbEntity
  8
0
100
AcDbLine
 10
129.82895
 20
702.44
 30
0.0
 11
135.20495
 21
702.44
 31
0.0
  0
LINE
  5
28F
330
1D
100
AcDbEntity
  8
0
100
AcDbLine
 10
129.82895
 20
701.84
 30
0.0
 11
135.12095
 21
701.84
 31
0.0
  0
LINE
  5
290
330
1D
100
AcDbEntity
  8
0
100
AcDbLine
 10
129.82895
 20
701.255
 30
0.0
 11
135.20495
 21
701.255
 31
0.0
  0
LINE
  5
291
330
1D
100
AcDbEntity
  8
0
100
AcDbLine
 10
129.85645
 20
747.206
 30
0.0
 11
131.19015
 21
747.378
 31
0.0
  0
LINE
  5
292
330
1D
100
AcDbEntity
  8
0
100
AcDbLine
 10
131.19015
 20
747.378
 30
0.0
 11
132.87755
 21
747.707
 31
0.0
  0
LINE
  5
295
330
1D
100
AcDbEntity
  8
0
100
AcDbLine
 10
142.18195
 20
101.36
 30
0.0
 11
153.65245
 21
101.36
 31
0.0
  0
LINE
  5
296
330
1D
100
AcDbEntity
  8
0
100
AcDbLine
 10
144.69695
 20
701.255
 30
0.0
 11
148.05695
 21
701.255
 31
0.0
  0
LINE
  5
297
330
1D
100
AcDbEntity
  8
0
100
AcDbLine
 10
140.24495
 20
701.255
 30
0.0
 11
144.69695
 21
701.255
 31
0.0
  0
LINE
  5
298
330
1D
100
AcDbEntity
  8
0
100
AcDbLine
 10
144.27695
 20
701.84
 30
0.0
 11
147.55295
 21
701.84
 31
0.0
  0
LINE
  5
299
330
1D
100
AcDbEntity
  8
0
100
AcDbLine
 10
144.69695
 20
702.44
 30
0.0
 11
148.05695
 21
702.44
 31
0.0
  0
LINE
  5
29A
330
1D
100
AcDbEntity
  8
0
100
AcDbLine
 10
140.24495
 20
702.44
 30
0.0
 11
144.69695
 21
702.44
 31
0.0
  0
LINE
  5
29B
330
1D
100
AcDbEntity
  8
0
100
AcDbLine
 10
135.20495
 20
702.44
 30
0.0
 11
140.24495
 21
702.44
 31
0.0
  0
LINE
  5
29C
330
1D
100
AcDbEntity
  8
0
100
AcDbLine
 10
139.99295
 20
701.84
 30
0.0
 11
144.27695
 21
701.84
 31
0.0
  0
LINE
  5
29D
330
1D
100
AcDbEntity
  8
0
100
AcDbLine
 10
135.12095
 20
701.84
 30
0.0
 11
139.99295
 21
701.84
 31
0.0
  0
LINE
  5
29E
330
1D
100
AcDbEntity
  8
0
100
AcDbLine
 10
135.20495
 20
701.255
 30
0.0
 11
140.24495
 21
701.255
 31
0.0
  0
LINE
  5
29F
330
1D
100
AcDbEntity
  8
0
100
AcDbLine
 10
132.87755
 20
747.707
 30
0.0
 11
134.43335
 21
748.132
 31
0.0
  0
LINE
  5
2A1
330
1D
100
AcDbEntity
  8
0
100
AcDbLine
 10
132.83835
 20
773.472
 30
0.0
 11
135.49875
 21
773.947
 31
0.0
  0
LINE
  5
2A5
330
1D
100
AcDbEntity
  8
0
100
AcDbLine
 10
130.24435
 20
772.885
 30
0.0
 11
132.83835
 21
773.472
 31
0.0
  0
LINE
  5
2AA
330
1D
100
AcDbEntity
  8
0
100
AcDbLine
 10
135.49875
 20
773.947
 30
0.0
 11
137.95005
 21
774.272
 31
0.0
  0
LINE
  5
2AB
330
1D
100
AcDbEntity
  8
0
100
AcDbLine
 10
135.96605
 20
748.682
 30
0.0
 11
137.38315
 21
749.332
 31
0.0
  0
LINE
  5
2AD
330
1D
100
AcDbEntity
  8
0
100
AcDbLine
 10
139.62545
 20
750.699
 30
0.0
 11
140.66365
 21
751.526
 31
0.0
  0
LINE
  5
2B0
330
1D
100
AcDbEntity
  8
0
100
AcDbLine
 10
140.66365
 20
751.526
 30
0.0
 11
141.32195
 21
752.092
 31
0.0
  0
LINE
  5
2BC
330
1D
100
AcDbEntity
  8
0
100
AcDbLine
 10
143.55615
 20
754.521
 30
0.0
 11
144.47075
 21
755.754
 31
0.0
  0
LINE
  5
2BD
330
1D
100
AcDbEntity
  8
0
100
AcDbLine
 10
144.47075
 20
755.754
 30
0.0
 11
145.25965
 21
757.012
 31
0.0
  0
LINE
  5
2CA
330
1D
100
AcDbEntity
  8
0
100
AcDbLine
 10
142.53505
 20
753.317
 30
0.0
 11
143.55615
 21
754.521
 31
0.0
  0
LINE
  5
2CB
330
1D
100
AcDbEntity
  8
0
100
AcDbLine
 10
141.97725
 20
752.728
 30
0.0
 11
142.53505
 21
753.317
 31
0.0
  0
LINE
  5
2CC
330
1D
100
AcDbEntity
  8
0
100
AcDbLine
 10
141.32195
 20
752.092
 30
0.0
 11
141.97725
 21
752.728
 31
0.0
  0
LINE
  5
2CD
330
1D
100
AcDbEntity
  8
0
100
AcDbLine
 10
145.25965
 20
757.012
 30
0.0
 11
146.12405
 21
758.659
 31
0.0
  0
LINE
  5
307
330
1D
100
AcDbEntity
  8
0
100
AcDbLine
 10
146.91895
 20
760.528
 30
0.0
 11
147.59135
 21
762.474
 31
0.0
  0
LINE
  5
308
330
1D
100
AcDbEntity
  8
0
100
AcDbLine
 10
146.12405
 20
758.659
 30
0.0
 11
146.91895
 21
760.528
 31
0.0
  0
LINE
  5
309
330
1D
100
AcDbEntity
  8
0
100
AcDbLine
 10
138.64555
 20
750.043
 30
0.0
 11
139.62545
 21
750.699
 31
0.0
  0
LINE
  5
30A
330
1D
100
AcDbEntity
  8
0
100
AcDbLine
 10
137.46455
 20
749.376
 30
0.0
 11
138.64555
 21
750.043
 31
0.0
  0
LINE
  5
30B
330
1D
100
AcDbEntity
  8
0
100
AcDbLine
 10
137.38315
 20
749.332
 30
0.0
 11
137.46455
 21
749.376
 31
0.0
  0
LINE
  5
30C
330
1D
100
AcDbEntity
  8
0
100
AcDbLine
 10
134.43335
 20
748.132
 30
0.0
 11
135.96605
 21
748.682
 31
0.0
  0
LINE
  5
30D
330
1D
100
AcDbEntity
  8
0
100
AcDbLine
 10
128.34885
 20
747.101
 30
0.0
 11
129.85645
 21
747.206
 31
0.0
  0
LINE
  5
3C1
330
1D
100
AcDbEntity
  8
0
100
AcDbLine
 10
147.55295
 20
701.84
 30
0.0
 11
149.56895
 21
701.84
 31
0.0
  0
LINE
  5
3C3
330
1D
100
AcDbEntity
  8
0
100
AcDbLine
 10
147.693116321548
 20
762.864707784979
 30
0.0
 11
147.72505
 21
762.971
 31
0.0
  0
LINE
  5
3C7
330
1D
100
AcDbEntity
  8
0
100
AcDbLine
 10
147.79435
 20
763.222
 30
0.0
 11
147.90795
 21
763.657
 31
0.0
  0
LINE
  5
3C8
330
1D
100
AcDbEntity
  8
0
100
AcDbLine
 10
147.72505
 20
762.971
 30
0.0
 11
147.79435
 21
763.222
 31
0.0
  0
LINE
  5
3CD
330
1D
100
AcDbEntity
  8
0
100
AcDbLine
 10
147.90795
 20
763.657
 30
0.0
 11
147.99188450036
 21
764.016605631874
 31
0.0
  0
LINE
  5
3CF
330
1D
100
AcDbEntity
  8
0
100
AcDbLine
 10
148.77295
 20
-0.16
 30
0.0
 11
166.53295
 21
-0.16
 31
0.0
  0
LINE
  5
3D0
330
1D
100
AcDbEntity
  8
0
100
AcDbLine
 10
148.77295
 20
32.84
 30
0.0
 11
166.53295
 21
32.84
 31
0.0
  0
LINE
  5
3D1
330
1D
100
AcDbEntity
  8
0
100
AcDbLine
 10
148.77295
 20
34.7714
 30
0.0
 11
166.53295
 21
34.7714
 31
0.0
  0
LINE
  5
3D2
330
1D
100
AcDbEntity
  8
0
100
AcDbLine
 10
148.47695
 20
32.84
 30
0.0
 11
165.64495
 21
32.84
 31
0.0
  0
LINE
  5
3D3
330
1D
100
AcDbEntity
  8
0
100
AcDbLine
 10
148.77295
 20
31.7086
 30
0.0
 11
166.53295
 21
31.7086
 31
0.0
  0
LINE
  5
3D4
330
1D
100
AcDbEntity
  8
0
100
AcDbLine
 10
148.77295
 20
-0.16
 30
0.0
 11
166.53295
 21
-0.16
 31
0.0
  0
LINE
  5
3D5
330
1D
100
AcDbEntity
  8
0
100
AcDbLine
 10
165.64495
 20
32.84
 30
0.0
 11
180.74095
 21
32.84
 31
0.0
  0
LINE
  5
3D6
330
1D
100
AcDbEntity
  8
0
100
AcDbLine
 10
165.64495
 20
34.84
 30
0.0
 11
180.74095
 21
34.84
 31
0.0
  0
LINE
  5
3DB
330
1D
100
AcDbEntity
  8
0
100
AcDbLine
 10
166.53295
 20
-0.16
 30
0.0
 11
182.22095
 21
-0.16
 31
0.0
  0
LINE
  5
3DC
330
1D
100
AcDbEntity
  8
0
100
AcDbLine
 10
166.53295
 20
34.7714
 30
0.0
 11
182.22095
 21
34.7714
 31
0.0
  0
LINE
  5
3DD
330
1D
100
AcDbEntity
  8
0
100
AcDbLine
 10
166.53295
 20
32.84
 30
0.0
 11
182.22095
 21
32.84
 31
0.0
  0
LINE
  5
3DE
330
1D
100
AcDbEntity
  8
0
100
AcDbLine
 10
166.53295
 20
31.7086
 30
0.0
 11
182.22095
 21
31.7086
 31
0.0
  0
LINE
  5
3DF
330
1D
100
AcDbEntity
  8
0
100
AcDbLine
 10
182.22095
 20
-0.16
 30
0.0
 11
194.06095
 21
-0.16
 31
0.0
  0
LINE
  5
3E0
330
1D
100
AcDbEntity
  8
0
100
AcDbLine
 10
180.74095
 20
34.84
 30
0.0
 11
192.28495
 21
34.84
 31
0.0
  0
LINE
  5
3E1
330
1D
100
AcDbEntity
  8
0
100
AcDbLine
 10
182.22095
 20
34.7714
 30
0.0
 11
194.06095
 21
34.7714
 31
0.0
  0
LINE
  5
3E2
330
1D
100
AcDbEntity
  8
0
100
AcDbLine
 10
182.22095
 20
32.84
 30
0.0
 11
194.06095
 21
32.84
 31
0.0
  0
LINE
  5
3E3
330
1D
100
AcDbEntity
  8
0
100
AcDbLine
 10
182.22095
 20
31.7086
 30
0.0
 11
194.06095
 21
31.7086
 31
0.0
  0
LINE
  5
3E4
330
1D
100
AcDbEntity
  8
0
100
AcDbLine
 10
182.22095
 20
-0.16
 30
0.0
 11
194.06095
 21
-0.16
 31
0.0
  0
LINE
  5
3E5
330
1D
100
AcDbEntity
  8
0
100
AcDbLine
 10
166.53295
 20
-0.16
 30
0.0
 11
182.22095
 21
-0.16
 31
0.0
  0
LINE
  5
3E7
330
1D
100
AcDbEntity
  8
0
100
AcDbLine
 10
179.82895
 20
43.597572986403
 30
0.0
 11
189.684365533981
 21
34.84
 31
0.0
  0
LINE
  5
3EB
330
1D
100
AcDbEntity
  8
0
100
AcDbLine
 10
179.82895
 20
43.597572986403
 30
0.0
 11
179.82895
 21
99.279915
 31
0.0
  0
LINE
  5
3EC
330
1D
100
AcDbEntity
  8
0
100
AcDbLine
 10
163.65295
 20
101.36
 30
0.0
 11
171.15295
 21
101.36
 31
0.0
  0
LINE
  5
3ED
330
1D
100
AcDbEntity
  8
0
100
AcDbLine
 10
171.15295
 20
101.36
 30
0.0
 11
175.85795
 21
101.36
 31
0.0
  0
LINE
  5
3EE
330
1D
100
AcDbEntity
  8
0
100
AcDbLine
 10
175.85795
 20
101.36
 30
0.0
 11
177.62295
 21
101.36
 31
0.0
  0
LINE
  5
3EF
330
1D
100
AcDbEntity
  8
0
100
AcDbLine
 10
153.65245
 20
101.36
 30
0.0
 11
163.65295
 21
101.36
 31
0.0
  0
LINE
  5
3F0
330
1D
100
AcDbEntity
  8
0
100
AcDbLine
 10
177.62295
 20
101.36
 30
0.0
 11
179.09395
 21
100.666295
 31
0.0
  0
LINE
  5
3F1
330
1D
100
AcDbEntity
  8
0
100
AcDbLine
 10
179.09395
 20
100.666295
 30
0.0
 11
179.82895
 21
99.279915
 31
0.0
  0
LINE
  5
3F2
330
1D
100
AcDbEntity
  8
0
100
AcDbLine
 10
179.82895
 20
99.279915
 30
0.0
 11
179.82895
 21
43.597572986403
 31
0.0
  0
LINE
  5
3F3
330
1D
100
AcDbEntity
  8
0
100
AcDbLine
 10
189.34895
 20
101.84
 30
0.0
 11
191.08495
 21
101.84
 31
0.0
  0
LINE
  5
3F4
330
1D
100
AcDbEntity
  8
0
100
AcDbLine
 10
189.34895
 20
101.84
 30
0.0
 11
191.08495
 21
101.84
 31
0.0
  0
LINE
  5
3F5
330
1D
100
AcDbEntity
  8
0
100
AcDbLine
 10
191.08495
 20
101.84
 30
0.0
 11
191.82895
 21
101.84
 31
0.0
  0
LINE
  5
3F6
330
1D
100
AcDbEntity
  8
0
100
AcDbLine
 10
191.08495
 20
101.84
 30
0.0
 11
191.08495
 21
114.84
 31
0.0
  0
LINE
  5
3F7
330
1D
100
AcDbEntity
  8
0
100
AcDbLine
 10
191.08495
 20
101.84
 30
0.0
 11
191.82895
 21
101.84
 31
0.0
  0
LINE
  5
3F8
330
1D
100
AcDbEntity
  8
0
100
AcDbLine
 10
194.06095
 20
-0.16
 30
0.0
 11
201.16495
 21
-0.16
 31
0.0
  0
LINE
  5
3F9
330
1D
100
AcDbEntity
  8
0
100
AcDbLine
 10
192.28495
 20
34.84
 30
0.0
 11
199.38895
 21
34.84
 31
0.0
  0
LINE
  5
3FA
330
1D
100
AcDbEntity
  8
0
100
AcDbLine
 10
194.06095
 20
34.7714
 30
0.0
 11
201.16495
 21
34.7714
 31
0.0
  0
LINE
  5
3FB
330
1D
100
AcDbEntity
  8
0
100
AcDbLine
 10
194.06095
 20
32.84
 30
0.0
 11
201.16495
 21
32.84
 31
0.0
  0
LINE
  5
3FC
330
1D
100
AcDbEntity
  8
0
100
AcDbLine
 10
192.28495
 20
32.84
 30
0.0
 11
199.38895
 21
32.84
 31
0.0
  0
LINE
  5
3FD
330
1D
100
AcDbEntity
  8
0
100
AcDbLine
 10
194.06095
 20
31.7086
 30
0.0
 11
201.16495
 21
31.7086
 31
0.0
  0
LINE
  5
3FE
330
1D
100
AcDbEntity
  8
0
100
AcDbLine
 10
201.16495
 20
-0.16
 30
0.0
 11
203.82895
 21
-0.16
 31
0.0
  0
LINE
  5
3FF
330
1D
100
AcDbEntity
  8
0
100
AcDbLine
 10
203.82895
 20
-0.16
 30
0.0
 11
203.82895
 21
31.7086
 31
0.0
  0
LINE
  5
400
330
1D
100
AcDbEntity
  8
0
100
AcDbLine
 10
201.16495
 20
34.7714
 30
0.0
 11
203.82895
 21
34.7714
 31
0.0
  0
LINE
  5
401
330
1D
100
AcDbEntity
  8
0
100
AcDbLine
 10
201.16495
 20
32.84
 30
0.0
 11
203.82895
 21
32.84
 31
0.0
  0
LINE
  5
402
330
1D
100
AcDbEntity
  8
0
100
AcDbLine
 10
203.82895
 20
32.84
 30
0.0
 11
203.82895
 21
34.7714
 31
0.0
  0
LINE
  5
403
330
1D
100
AcDbEntity
  8
0
100
AcDbLine
 10
203.82895
 20
31.7086
 30
0.0
 11
203.82895
 21
-0.16
 31
0.0
  0
LINE
  5
404
330
1D
100
AcDbEntity
  8
0
100
AcDbLine
 10
203.82895
 20
34.7714
 30
0.0
 11
203.82895
 21
32.84
 31
0.0
  0
LINE
  5
405
330
1D
100
AcDbEntity
  8
0
100
AcDbLine
 10
202.05295
 20
34.84
 30
0.0
 11
203.82895
 21
34.7714
 31
0.0
  0
LINE
  5
406
330
1D
100
AcDbEntity
  8
0
100
AcDbLine
 10
202.05295
 20
32.84
 30
0.0
 11
203.82895
 21
31.7086
 31
0.0
  0
LINE
  5
407
330
1D
100
AcDbEntity
  8
0
100
AcDbLine
 10
202.05295
 20
32.84
 30
0.0
 11
203.82895
 21
32.84
 31
0.0
  0
LINE
  5
408
330
1D
100
AcDbEntity
  8
0
100
AcDbLine
 10
201.16495
 20
31.7086
 30
0.0
 11
203.82895
 21
31.7086
 31
0.0
  0
LINE
  5
409
330
1D
100
AcDbEntity
  8
0
100
AcDbLine
 10
201.16495
 20
-0.16
 30
0.0
 11
203.82895
 21
-0.16
 31
0.0
  0
LINE
  5
40A
330
1D
100
AcDbEntity
  8
0
100
AcDbLine
 10
194.06095
 20
-0.16
 30
0.0
 11
201.16495
 21
-0.16
 31
0.0
  0
LINE
  5
40B
330
1D
100
AcDbEntity
  8
0
100
AcDbLine
 10
191.08495
 20
114.84
 30
0.0
 11
191.08495
 21
101.84
 31
0.0
  0
LINE
  5
40C
330
1D
100
AcDbEntity
  8
0
100
AcDbLine
 10
191.08495
 20
116.24
 30
0.0
 11
191.82895
 21
114.84
 31
0.0
  0
LINE
  5
40D
330
1D
100
AcDbEntity
  8
0
100
AcDbLine
 10
190.58895
 20
116.24
 30
0.0
 11
191.08495
 21
116.24
 31
0.0
  0
LINE
  5
40E
330
1D
100
AcDbEntity
  8
0
100
AcDbLine
 10
190.58895
 20
116.24
 30
0.0
 11
191.08495
 21
114.84
 31
0.0
  0
LINE
  5
40F
330
1D
100
AcDbEntity
  8
0
100
AcDbLine
 10
150.07295
 20
701.255
 30
0.0
 11
150.82895
 21
701.255
 31
0.0
  0
LINE
  5
410
330
1D
100
AcDbEntity
  8
0
100
AcDbLine
 10
148.05695
 20
702.44
 30
0.0
 11
150.07295
 21
702.44
 31
0.0
  0
LINE
  5
411
330
1D
100
AcDbEntity
  8
0
100
AcDbLine
 10
150.07295
 20
702.44
 30
0.0
 11
150.82895
 21
702.44
 31
0.0
  0
LINE
  5
412
330
1D
100
AcDbEntity
  8
0
100
AcDbLine
 10
149.56895
 20
701.84
 30
0.0
 11
150.32495
 21
701.84
 31
0.0
  0
LINE
  5
413
330
1D
100
AcDbEntity
  8
0
100
AcDbLine
 10
148.05695
 20
701.255
 30
0.0
 11
150.07295
 21
701.255
 31
0.0
  0
LINE
  5
414
330
1D
100
AcDbEntity
  8
0
100
AcDbLine
 10
150.82895
 20
576.457828917051
 30
0.0
 11
156.39425
 21
555.246
 31
0.0
  0
LINE
  5
415
330
1D
100
AcDbEntity
  8
0
100
AcDbLine
 10
150.82895
 20
522.720711467815
 30
0.0
 11
150.93755
 21
522.401
 31
0.0
  0
LINE
  5
416
330
1D
100
AcDbEntity
  8
0
100
AcDbLine
 10
150.82895
 20
210.379488538909
 30
0.0
 11
153.88925
 21
211.549
 31
0.0
  0
LINE
  5
417
330
1D
100
AcDbEntity
  8
0
100
AcDbLine
 10
150.93755
 20
522.401
 30
0.0
 11
160.92915
 21
499.542
 31
0.0
  0
LINE
  5
418
330
1D
100
AcDbEntity
  8
0
100
AcDbLine
 10
156.39425
 20
555.246
 30
0.0
 11
164.25375
 21
531.338
 31
0.0
  0
LINE
  5
419
330
1D
100
AcDbEntity
  8
0
100
AcDbLine
 10
164.25375
 20
531.338
 30
0.0
 11
173.69795
 21
509.143
 31
0.0
  0
LINE
  5
41A
330
1D
100
AcDbEntity
  8
0
100
AcDbLine
 10
160.92915
 20
499.542
 30
0.0
 11
171.69895
 21
479.943
 31
0.0
  0
LINE
  5
41B
330
1D
100
AcDbEntity
  8
0
100
AcDbLine
 10
173.69795
 20
509.143
 30
0.0
 11
184.02195
 21
490.216
 31
0.0
  0
LINE
  5
41C
330
1D
100
AcDbEntity
  8
0
100
AcDbLine
 10
171.69895
 20
479.943
 30
0.0
 11
186.31195
 21
458.406
 31
0.0
  0
LINE
  5
41E
330
1D
100
AcDbEntity
  8
0
100
AcDbLine
 10
186.38095
 20
458.304306097311
 30
0.0
 11
197.95295
 21
439.271
 31
0.0
  0
LINE
  5
427
330
1D
100
AcDbEntity
  8
0
100
AcDbLine
 10
184.02195
 20
490.216
 30
0.0
 11
197.77395
 21
469.521
 31
0.0
  0
LINE
  5
428
330
1D
100
AcDbEntity
  8
0
100
AcDbLine
 10
187.41995
 20
238.419
 30
0.0
 11
200.35495
 21
254.346
 31
0.0
  0
LINE
  5
429
330
1D
100
AcDbEntity
  8
0
100
AcDbLine
 10
170.73495
 20
221.632
 30
0.0
 11
187.41995
 21
238.419
 31
0.0
  0
LINE
  5
42A
330
1D
100
AcDbEntity
  8
0
100
AcDbLine
 10
179.66995
 20
208.321
 30
0.0
 11
198.51895
 21
227.161
 31
0.0
  0
LINE
  5
42B
330
1D
100
AcDbEntity
  8
0
100
AcDbLine
 10
153.88925
 20
211.549
 30
0.0
 11
170.73495
 21
221.632
 31
0.0
  0
LINE
  5
42C
330
1D
100
AcDbEntity
  8
0
100
AcDbLine
 10
160.40525
 20
196.9673
 30
0.0
 11
179.66995
 21
208.321
 31
0.0
  0
LINE
  5
42D
330
1D
100
AcDbEntity
  8
0
100
AcDbLine
 10
150.82895
 20
193.318663266908
 30
0.0
 11
160.40525
 21
196.9673
 31
0.0
  0
LINE
  5
42E
330
1D
100
AcDbEntity
  8
0
100
AcDbLine
 10
150.82895
 20
702.44
 30
0.0
 11
150.82895
 21
707.84
 31
0.0
  0
LINE
  5
42F
330
1D
100
AcDbEntity
  8
0
100
AcDbLine
 10
150.82895
 20
707.84
 30
0.0
 11
150.82895
 21
702.44
 31
0.0
  0
LINE
  5
430
330
1D
100
AcDbEntity
  8
0
100
AcDbLine
 10
150.82895
 20
701.255
 30
0.0
 11
150.82895
 21
116.84
 31
0.0
  0
LINE
  5
431
330
1D
100
AcDbEntity
  8
0
100
AcDbLine
 10
150.32495
 20
701.84
 30
0.0
 11
150.82895
 21
701.255
 31
0.0
  0
LINE
  5
432
330
1D
100
AcDbEntity
  8
0
100
AcDbLine
 10
150.32495
 20
701.84
 30
0.0
 11
150.82895
 21
702.44
 31
0.0
  0
LINE
  5
433
330
1D
100
AcDbEntity
  8
0
100
AcDbLine
 10
150.82895
 20
116.84
 30
0.0
 11
150.82895
 21
701.255
 31
0.0
  0
LINE
  5
440
330
1D
100
AcDbEntity
  8
0
100
AcDbLine
 10
208.98395
 20
418.789
 30
0.0
 11
216.11795
 21
398.138
 31
0.0
  0
LINE
  5
442
330
1D
100
AcDbEntity
  8
0
100
AcDbLine
 10
197.95295
 20
439.271
 30
0.0
 11
208.98395
 21
418.789
 31
0.0
  0
LINE
  5
445
330
1D
100
AcDbEntity
  8
0
100
AcDbLine
 10
197.77395
 20
469.521
 30
0.0
 11
211.26895
 21
448.208
 31
0.0
  0
LINE
  5
446
330
1D
100
AcDbEntity
  8
0
100
AcDbLine
 10
211.26895
 20
448.208
 30
0.0
 11
223.56895
 21
425.309
 31
0.0
  0
LINE
  5
447
330
1D
100
AcDbEntity
  8
0
100
AcDbLine
 10
209.33295
 20
273.907
 30
0.0
 11
217.45395
 21
295.713
 31
0.0
  0
LINE
  5
448
330
1D
100
AcDbEntity
  8
0
100
AcDbLine
 10
200.35495
 20
254.346
 30
0.0
 11
209.33295
 21
273.907
 31
0.0
  0
LINE
  5
449
330
1D
100
AcDbEntity
  8
0
100
AcDbLine
 10
221.27795
 20
377.049
 30
0.0
 11
223.79295
 21
357.982
 31
0.0
  0
LINE
  5
44A
330
1D
100
AcDbEntity
  8
0
100
AcDbLine
 10
216.11795
 20
398.138
 30
0.0
 11
221.27795
 21
377.049
 31
0.0
  0
LINE
  5
44B
330
1D
100
AcDbEntity
  8
0
100
AcDbLine
 10
231.68695
 20
402.02
 30
0.0
 11
237.18395
 21
378.95
 31
0.0
  0
LINE
  5
44C
330
1D
100
AcDbEntity
  8
0
100
AcDbLine
 10
223.56895
 20
425.309
 30
0.0
 11
231.68695
 21
402.02
 31
0.0
  0
LINE
  5
44D
330
1D
100
AcDbEntity
  8
0
100
AcDbLine
 10
223.79295
 20
357.982
 30
0.0
 11
223.91395
 21
338.749
 31
0.0
  0
LINE
  5
44E
330
1D
100
AcDbEntity
  8
0
100
AcDbLine
 10
221.69095
 20
317.151
 30
0.0
 11
223.91395
 21
338.749
 31
0.0
  0
LINE
  5
44F
330
1D
100
AcDbEntity
  8
0
100
AcDbLine
 10
217.45395
 20
295.713
 30
0.0
 11
221.69095
 21
317.151
 31
0.0
  0
LINE
  5
450
330
1D
100
AcDbEntity
  8
0
100
AcDbLine
 10
237.18395
 20
378.95
 30
0.0
 11
239.75395
 21
359.085
 31
0.0
  0
LINE
  5
451
330
1D
100
AcDbEntity
  8
0
100
AcDbLine
 10
239.75395
 20
359.085
 30
0.0
 11
239.92795
 21
339.055
 31
0.0
  0
LINE
  5
452
330
1D
100
AcDbEntity
  8
0
100
AcDbLine
 10
237.64495
 20
315.448
 30
0.0
 11
239.92795
 21
339.055
 31
0.0
  0
LINE
  5
453
330
1D
100
AcDbEntity
  8
0
100
AcDbLine
 10
232.79495
 20
291.262
 30
0.0
 11
237.64495
 21
315.448
 31
0.0
  0
LINE
  5
454
330
1D
100
AcDbEntity
  8
0
100
AcDbLine
 10
223.74795
 20
266.886
 30
0.0
 11
232.79495
 21
291.262
 31
0.0
  0
LINE
  5
455
330
1D
100
AcDbEntity
  8
0
100
AcDbLine
 10
213.23195
 20
244.914
 30
0.0
 11
223.74795
 21
266.886
 31
0.0
  0
LINE
  5
456
330
1D
100
AcDbEntity
  8
0
100
AcDbLine
 10
198.51895
 20
227.161
 30
0.0
 11
213.23195
 21
244.914
 31
0.0
  0
LINE
  5
457
330
1D
100
AcDbEntity
  8
0
100
AcDbLine
 10
189.34895
 20
116.84
 30
0.0
 11
191.08495
 21
116.24
 31
0.0
  0
LINE
  5
458
330
1D
100
AcDbEntity
  8
0
100
AcDbLine
 10
189.34895
 20
116.24
 30
0.0
 11
190.58895
 21
116.24
 31
0.0
  0
LINE
  5
45D
330
1D
100
AcDbEntity
  8
0
100
AcDbLine
 10
147.99188450036
 20
764.016605631874
 30
0.0
 11
148.10995
 21
764.609
 31
0.0
  0
LINE
  5
468
330
1D
100
AcDbEntity
  8
0
100
AcDbLine
 10
148.18935
 20
765.079
 30
0.0
 11
148.25365
 21
765.536
 31
0.0
  0
LINE
  5
479
330
1D
100
AcDbEntity
  8
0
100
AcDbLine
 10
148.25365
 20
765.536
 30
0.0
 11
148.30795
 21
766.023
 31
0.0
  0
LINE
  5
47F
330
1D
100
AcDbEntity
  8
0
100
AcDbLine
 10
148.30795
 20
766.023
 30
0.0
 11
148.36325
 21
766.605
 31
0.0
  0
LINE
  5
485
330
1D
100
AcDbEntity
  8
0
100
AcDbLine
 10
148.36325
 20
766.605
 30
0.0
 11
148.40645
 21
767.21
 31
0.0
  0
LINE
  5
498
330
1D
100
AcDbEntity
  8
0
100
AcDbLine
 10
148.431618566589
 20
767.690159728985
 30
0.0
 11
148.43665
 21
767.762
 31
0.0
  0
LINE
  5
4A3
330
1D
100
AcDbEntity
  8
0
100
AcDbLine
 10
148.43665
 20
767.762
 30
0.0
 11
148.45975
 21
768.452
 31
0.0
  0
LINE
  5
4B3
330
1D
100
AcDbEntity
  8
0
100
AcDbLine
 10
148.45975
 20
768.452
 30
0.0
 11
148.46475
 21
769.055
 31
0.0
  0
LINE
  5
4B5
330
1D
100
AcDbEntity
  8
0
100
AcDbLine
 10
148.46475
 20
769.055
 30
0.0
 11
148.46275
 21
769.667
 31
0.0
  0
LINE
  5
4C4
330
1D
100
AcDbEntity
  8
0
100
AcDbLine
 10
148.10995
 20
764.609
 30
0.0
 11
148.18935
 21
765.079
 31
0.0
  0
LINE
  5
509
330
1D
100
AcDbEntity
  8
0
100
AcDbLine
 10
148.38535
 20
770.914
 30
0.0
 11
148.46275
 21
769.667
 31
0.0
  0
LINE
  5
518
330
1D
100
AcDbEntity
  8
0
100
AcDbLine
 10
148.27175
 20
771.774
 30
0.0
 11
148.38535
 21
770.914
 31
0.0
  0
LINE
  5
567
330
1D
100
AcDbEntity
  8
0
100
AcDbLine
 10
148.00145
 20
773.002
 30
0.0
 11
148.15725
 21
772.391
 31
0.0
  0
LINE
  5
579
330
1D
100
AcDbEntity
  8
0
100
AcDbLine
 10
148.15725
 20
772.391
 30
0.0
 11
148.27175
 21
771.774
 31
0.0
  0
LINE
  5
5E4
330
1D
100
AcDbEntity
  8
0
100
AcDbLine
 10
127.81505
 20
965.369
 30
0.0
 11
128.46935
 21
965.711
 31
0.0
  0
LINE
  5
5E7
330
1D
100
AcDbEntity
  8
0
100
AcDbLine
 10
128.46935
 20
965.711
 30
0.0
 11
129.25635
 21
965.98
 31
0.0
  0
LINE
  5
5E9
330
1D
100
AcDbEntity
  8
0
100
AcDbLine
 10
128.34975
 20
967.752
 30
0.0
 11
129.74575
 21
970.372
 31
0.0
  0
LINE
  5
5EB
330
1D
100
AcDbEntity
  8
0
100
AcDbLine
 10
129.25635
 20
965.98
 30
0.0
 11
130.16885
 21
966.172
 31
0.0
  0
LINE
  5
5F0
330
1D
100
AcDbEntity
  8
0
100
AcDbLine
 10
129.74575
 20
970.372
 30
0.0
 11
131.24525
 21
973.291
 31
0.0
  0
LINE
  5
5F5
330
1D
100
AcDbEntity
  8
0
100
AcDbLine
 10
132.34585
 20
966.32
 30
0.0
 11
133.59205
 21
966.275
 31
0.0
  0
LINE
  5
5F6
330
1D
100
AcDbEntity
  8
0
100
AcDbLine
 10
131.20205
 20
966.286
 30
0.0
 11
132.34585
 21
966.32
 31
0.0
  0
LINE
  5
5F7
330
1D
100
AcDbEntity
  8
0
100
AcDbLine
 10
130.16885
 20
966.172
 30
0.0
 11
131.20205
 21
966.286
 31
0.0
  0
LINE
  5
5FA
330
1D
100
AcDbEntity
  8
0
100
AcDbLine
 10
132.774390675882
 20
976.333470164043
 30
0.0
 11
134.21315
 21
979.281
 31
0.0
  0
LINE
  5
5FB
330
1D
100
AcDbEntity
  8
0
100
AcDbLine
 10
131.24525
 20
973.291
 30
0.0
 11
132.74585
 21
976.275
 31
0.0
  0
LINE
  5
5FC
330
1D
100
AcDbEntity
  8
0
100
AcDbLine
 10
133.59205
 20
966.275
 30
0.0
 11
134.93175
 21
966.152
 31
0.0
  0
LINE
  5
600
330
1D
100
AcDbEntity
  8
0
100
AcDbLine
 10
129.54995
 20
809.303
 30
0.0
 11
131.72275
 21
809.051
 31
0.0
  0
LINE
  5
601
330
1D
100
AcDbEntity
  8
0
100
AcDbLine
 10
131.72275
 20
809.051
 30
0.0
 11
133.83945
 21
808.618
 31
0.0
  0
LINE
  5
604
330
1D
100
AcDbEntity
  8
0
100
AcDbLine
 10
134.93175
 20
966.152
 30
0.0
 11
136.35295
 21
965.95
 31
0.0
  0
LINE
  5
606
330
1D
100
AcDbEntity
  8
0
100
AcDbLine
 10
134.305649711491
 20
979.47575102556
 30
0.0
 11
135.52975
 21
982.053
 31
0.0
  0
LINE
  5
607
330
1D
100
AcDbEntity
  8
0
100
AcDbLine
 10
134.305649711491
 20
979.47575102556
 30
0.0
 11
135.52975
 21
982.053
 31
0.0
  0
LINE
  5
608
330
1D
100
AcDbEntity
  8
0
100
AcDbLine
 10
135.52975
 20
982.053
 30
0.0
 11
137.04435
 21
985.282
 31
0.0
  0
LINE
  5
60A
330
1D
100
AcDbEntity
  8
0
100
AcDbLine
 10
136.82025
 20
984.841
 30
0.0
 11
138.08655
 21
987.642
 31
0.0
  0
LINE
  5
60B
330
1D
100
AcDbEntity
  8
0
100
AcDbLine
 10
136.82025
 20
984.841
 30
0.0
 11
137.04435
 21
985.282
 31
0.0
  0
LINE
  5
60C
330
1D
100
AcDbEntity
  8
0
100
AcDbLine
 10
136.35295
 20
965.95
 30
0.0
 11
137.84535
 21
965.672
 31
0.0
  0
LINE
  5
60F
330
1D
100
AcDbEntity
  8
0
100
AcDbLine
 10
133.83945
 20
808.618
 30
0.0
 11
135.86755
 21
808.011
 31
0.0
  0
LINE
  5
610
330
1D
100
AcDbEntity
  8
0
100
AcDbLine
 10
135.86755
 20
808.011
 30
0.0
 11
137.77915
 21
807.237
 31
0.0
  0
LINE
  5
713
330
1D
100
AcDbEntity
  8
0
100
AcDbLine
 10
146.41945
 20
784.972
 30
0.0
 11
146.54215
 21
782.192
 31
0.0
  0
LINE
  5
717
330
1D
100
AcDbEntity
  8
0
100
AcDbLine
 10
146.15505
 20
797.075
 30
0.0
 11
146.51785
 21
849.749
 31
0.0
  0
LINE
  5
718
330
1D
100
AcDbEntity
  8
0
100
AcDbLine
 10
146.19335
 20
794.377
 30
0.0
 11
146.24465
 21
793.527
 31
0.0
  0
LINE
  5
719
330
1D
100
AcDbEntity
  8
0
100
AcDbLine
 10
146.19335
 20
794.377
 30
0.0
 11
146.21845
 21
796.62
 31
0.0
  0
LINE
  5
71A
330
1D
100
AcDbEntity
  8
0
100
AcDbLine
 10
146.24465
 20
793.527
 30
0.0
 11
146.278758626137
 21
790.360048074627
 31
0.0
  0
LINE
  5
71F
330
1D
100
AcDbEntity
  8
0
100
AcDbLine
 10
146.67875
 20
780.305
 30
0.0
 11
146.930743453892
 21
778.248446706843
 31
0.0
  0
LINE
  5
722
330
1D
100
AcDbEntity
  8
0
100
AcDbLine
 10
146.930743453891
 20
778.248446706848
 30
0.0
 11
147.264069673657
 21
776.221725025381
 31
0.0
  0
LINE
  5
72F
330
1D
100
AcDbEntity
  8
0
100
AcDbLine
 10
139.20015
 20
990.203
 30
0.0
 11
140.09965
 21
992.323
 31
0.0
  0
LINE
  5
730
330
1D
100
AcDbEntity
  8
0
100
AcDbLine
 10
138.08655
 20
987.642
 30
0.0
 11
139.20015
 21
990.203
 31
0.0
  0
LINE
  5
731
330
1D
100
AcDbEntity
  8
0
100
AcDbLine
 10
140.09965
 20
992.323
 30
0.0
 11
142.02135
 21
997.032
 31
0.0
  0
LINE
  5
732
330
1D
100
AcDbEntity
  8
0
100
AcDbLine
 10
137.84535
 20
965.672
 30
0.0
 11
139.39815
 21
965.319
 31
0.0
  0
LINE
  5
733
330
1D
100
AcDbEntity
  8
0
100
AcDbLine
 10
139.39815
 20
965.319
 30
0.0
 11
140.99715
 21
964.895
 31
0.0
  0
LINE
  5
736
330
1D
100
AcDbEntity
  8
0
100
AcDbLine
 10
140.99715
 20
964.895
 30
0.0
 11
142.63135
 21
964.403
 31
0.0
  0
LINE
  5
739
330
1D
100
AcDbEntity
  8
0
100
AcDbLine
 10
139.53095
 20
806.324
 30
0.0
 11
141.14905
 21
805.238
 31
0.0
  0
LINE
  5
73C
330
1D
100
AcDbEntity
  8
0
100
AcDbLine
 10
141.85345
 20
996.58
 30
0.0
 11
142.02135
 21
997.032
 31
0.0
  0
LINE
  5
73D
330
1D
100
AcDbEntity
  8
0
100
AcDbLine
 10
142.62435
 20
998.591
 30
0.0
 11
142.73895
 21
998.865
 31
0.0
  0
LINE
  5
73E
330
1D
100
AcDbEntity
  8
0
100
AcDbLine
 10
142.1467027684
 20
997.344990682646
 30
0.0
 11
142.62435
 21
998.591
 31
0.0
  0
LINE
  5
73F
330
1D
100
AcDbEntity
  8
0
100
AcDbLine
 10
142.63135
 20
964.403
 30
0.0
 11
144.28865
 21
963.847
 31
0.0
  0
LINE
  5
741
330
1D
100
AcDbEntity
  8
0
100
AcDbLine
 10
142.73895
 20
998.865
 30
0.0
 11
142.93295
 21
999.308
 31
0.0
  0
LINE
  5
742
330
1D
100
AcDbEntity
  8
0
100
AcDbLine
 10
142.93295
 20
999.308
 30
0.0
 11
143.06055
 21
999.573
 31
0.0
  0
LINE
  5
744
330
1D
100
AcDbEntity
  8
0
100
AcDbLine
 10
143.60625
 20
1000.568
 30
0.0
 11
143.81035
 21
1000.85
 31
0.0
  0
LINE
  5
745
330
1D
100
AcDbEntity
  8
0
100
AcDbLine
 10
143.34195
 20
1000.106
 30
0.0
 11
143.60625
 21
1000.568
 31
0.0
  0
LINE
  5
746
330
1D
100
AcDbEntity
  8
0
100
AcDbLine
 10
143.06055
 20
999.573
 30
0.0
 11
143.34195
 21
1000.106
 31
0.0
  0
LINE
  5
748
330
1D
100
AcDbEntity
  8
0
100
AcDbLine
 10
141.14905
 20
805.238
 30
0.0
 11
142.55815
 21
804.042
 31
0.0
  0
LINE
  5
749
330
1D
100
AcDbEntity
  8
0
100
AcDbLine
 10
142.55815
 20
804.042
 30
0.0
 11
143.75615
 21
802.735
 31
0.0
  0
LINE
  5
74B
330
1D
100
AcDbEntity
  8
0
100
AcDbLine
 10
144.05055
 20
1001.117
 30
0.0
 11
144.39325
 21
1001.456
 31
0.0
  0
LINE
  5
74C
330
1D
100
AcDbEntity
  8
0
100
AcDbLine
 10
144.022933518211
 20
1001.07100808378
 30
0.0
 11
144.39325
 21
1001.456
 31
0.0
  0
LINE
  5
74D
330
1D
100
AcDbEntity
  8
0
100
AcDbLine
 10
143.81035
 20
1000.85
 30
0.0
 11
144.15105
 21
1001.232
 31
0.0
  0
LINE
  5
74E
330
1D
100
AcDbEntity
  8
0
100
AcDbLine
 10
143.81035
 20
1000.85
 30
0.0
 11
144.018028237842
 21
1001.0659084099
 31
0.0
  0
LINE
  5
74F
330
1D
100
AcDbEntity
  8
0
100
AcDbLine
 10
143.81035
 20
1000.85
 30
0.0
 11
144.05055
 21
1001.117
 31
0.0
  0
LINE
  5
750
330
1D
100
AcDbEntity
  8
0
100
AcDbLine
 10
144.28865
 20
963.847
 30
0.0
 11
145.95505
 21
963.229
 31
0.0
  0
LINE
  5
752
330
1D
100
AcDbEntity
  8
0
100
AcDbLine
 10
144.39325
 20
1001.456
 30
0.0
 11
144.84645
 21
1001.751
 31
0.0
  0
LINE
  5
753
330
1D
100
AcDbEntity
  8
0
100
AcDbLine
 10
144.15105
 20
1001.232
 30
0.0
 11
144.39325
 21
1001.456
 31
0.0
  0
LINE
  5
754
330
1D
100
AcDbEntity
  8
0
100
AcDbLine
 10
145.36305
 20
1001.946
 30
0.0
 11
145.88875
 21
1002.091
 31
0.0
  0
LINE
  5
755
330
1D
100
AcDbEntity
  8
0
100
AcDbLine
 10
145.14905
 20
1001.883
 30
0.0
 11
145.36305
 21
1001.946
 31
0.0
  0
LINE
  5
756
330
1D
100
AcDbEntity
  8
0
100
AcDbLine
 10
144.84645
 20
1001.751
 30
0.0
 11
145.14905
 21
1001.883
 31
0.0
  0
LINE
  5
758
330
1D
100
AcDbEntity
  8
0
100
AcDbLine
 10
143.75615
 20
802.735
 30
0.0
 11
144.72705
 21
801.338
 31
0.0
  0
LINE
  5
759
330
1D
100
AcDbEntity
  8
0
100
AcDbLine
 10
144.72705
 20
801.338
 30
0.0
 11
145.45565
 21
799.868
 31
0.0
  0
LINE
  5
75A
330
1D
100
AcDbEntity
  8
0
100
AcDbLine
 10
147.92295
 20
870.499
 30
0.0
 11
148.33195
 21
873.943
 31
0.0
  0
LINE
  5
75B
330
1D
100
AcDbEntity
  8
0
100
AcDbLine
 10
149.09785
 20
880.11
 30
0.0
 11
149.56115
 21
883.208
 31
0.0
  0
LINE
  5
75C
330
1D
100
AcDbEntity
  8
0
100
AcDbLine
 10
148.58125
 20
876.009
 30
0.0
 11
149.09785
 21
880.11
 31
0.0
  0
LINE
  5
75D
330
1D
100
AcDbEntity
  8
0
100
AcDbLine
 10
148.33195
 20
873.943
 30
0.0
 11
148.58125
 21
876.009
 31
0.0
  0
LINE
  5
75E
330
1D
100
AcDbEntity
  8
0
100
AcDbLine
 10
147.439440391529
 20
865.569781641106
 30
0.0
 11
147.92295
 21
870.499
 31
0.0
  0
LINE
  5
75F
330
1D
100
AcDbEntity
  8
0
100
AcDbLine
 10
146.84555
 20
856.713
 30
0.0
 11
147.52495
 21
866.845
 31
0.0
  0
LINE
  5
762
330
1D
100
AcDbEntity
  8
0
100
AcDbLine
 10
146.51785
 20
849.749
 30
0.0
 11
146.84555
 21
856.713
 31
0.0
  0
LINE
  5
763
330
1D
100
AcDbEntity
  8
0
100
AcDbLine
 10
156.12905
 20
914.546
 30
0.0
 11
156.52605
 21
916.918
 31
0.0
  0
LINE
  5
764
330
1D
100
AcDbEntity
  8
0
100
AcDbLine
 10
155.87785
 20
912.45
 30
0.0
 11
156.12905
 21
914.546
 31
0.0
  0
LINE
  5
765
330
1D
100
AcDbEntity
  8
0
100
AcDbLine
 10
155.58535
 20
910.207
 30
0.0
 11
155.87785
 21
912.45
 31
0.0
  0
LINE
  5
766
330
1D
100
AcDbEntity
  8
0
100
AcDbLine
 10
155.26375
 20
907.827
 30
0.0
 11
155.58535
 21
910.207
 31
0.0
  0
LINE
  5
767
330
1D
100
AcDbEntity
  8
0
100
AcDbLine
 10
154.833852849131
 20
904.690557089208
 30
0.0
 11
155.26375
 21
907.827
 31
0.0
  0
LINE
  5
768
330
1D
100
AcDbEntity
  8
0
100
AcDbLine
 10
154.44565
 20
901.409
 30
0.0
 11
154.95315
 21
905.699
 31
0.0
  0
LINE
  5
769
330
1D
100
AcDbEntity
  8
0
100
AcDbLine
 10
154.07575
 20
898.388
 30
0.0
 11
154.44565
 21
901.409
 31
0.0
  0
LINE
  5
76A
330
1D
100
AcDbEntity
  8
0
100
AcDbLine
 10
153.31895
 20
892.138
 30
0.0
 11
154.07575
 21
898.388
 31
0.0
  0
LINE
  5
76B
330
1D
100
AcDbEntity
  8
0
100
AcDbLine
 10
152.66265
 20
886.372
 30
0.0
 11
153.31895
 21
892.138
 31
0.0
  0
LINE
  5
76C
330
1D
100
AcDbEntity
  8
0
100
AcDbLine
 10
152.10185
 20
880.898
 30
0.0
 11
152.66265
 21
886.372
 31
0.0
  0
LINE
  5
76D
330
1D
100
AcDbEntity
  8
0
100
AcDbLine
 10
151.66365
 20
875.949
 30
0.0
 11
152.10185
 21
880.898
 31
0.0
  0
LINE
  5
76E
330
1D
100
AcDbEntity
  8
0
100
AcDbLine
 10
151.47575
 20
873.468
 30
0.0
 11
151.66365
 21
875.949
 31
0.0
  0
LINE
  5
76F
330
1D
100
AcDbEntity
  8
0
100
AcDbLine
 10
151.32495
 20
871.21
 30
0.0
 11
151.47575
 21
873.468
 31
0.0
  0
LINE
  5
770
330
1D
100
AcDbEntity
  8
0
100
AcDbLine
 10
151.17225
 20
868.536
 30
0.0
 11
151.32495
 21
871.21
 31
0.0
  0
LINE
  5
771
330
1D
100
AcDbEntity
  8
0
100
AcDbLine
 10
151.093404133783
 20
866.988141348718
 30
0.0
 11
151.17225
 21
868.536
 31
0.0
  0
LINE
  5
772
330
1D
100
AcDbEntity
  8
0
100
AcDbLine
 10
151.06765
 20
865.475
 30
0.0
 11
151.09185
 21
866.935
 31
0.0
  0
LINE
  5
773
330
1D
100
AcDbEntity
  8
0
100
AcDbLine
 10
151.02955
 20
862.803
 30
0.0
 11
151.02955
 21
862.573
 31
0.0
  0
LINE
  5
774
330
1D
100
AcDbEntity
  8
0
100
AcDbLine
 10
151.02955
 20
862.803
 30
0.0
 11
151.06765
 21
865.475
 31
0.0
  0
LINE
  5
775
330
1D
100
AcDbEntity
  8
0
100
AcDbLine
 10
151.02955
 20
862.573
 30
0.0
 11
151.02955
 21
862.803
 31
0.0
  0
LINE
  5
776
330
1D
100
AcDbEntity
  8
0
100
AcDbLine
 10
150.77325
 20
834.944
 30
0.0
 11
151.02955
 21
862.573
 31
0.0
  0
LINE
  5
777
330
1D
100
AcDbEntity
  8
0
100
AcDbLine
 10
150.76615
 20
812.386
 30
0.0
 11
150.77325
 21
834.944
 31
0.0
  0
LINE
  5
778
330
1D
100
AcDbEntity
  8
0
100
AcDbLine
 10
150.76615
 20
812.386
 30
0.0
 11
150.82895
 21
707.84
 31
0.0
  0
LINE
  5
77C
330
1D
100
AcDbEntity
  8
0
100
AcDbLine
 10
147.61835
 20
962.558
 30
0.0
 11
149.32895
 21
961.806
 31
0.0
  0
LINE
  5
77E
330
1D
100
AcDbEntity
  8
0
100
AcDbLine
 10
145.95505
 20
963.229
 30
0.0
 11
147.61835
 21
962.558
 31
0.0
  0
LINE
  5
781
330
1D
100
AcDbEntity
  8
0
100
AcDbLine
 10
147.88175
 20
1002.042
 30
0.0
 11
148.73805
 21
1001.851
 31
0.0
  0
LINE
  5
782
330
1D
100
AcDbEntity
  8
0
100
AcDbLine
 10
147.42045
 20
1002.112
 30
0.0
 11
147.88175
 21
1002.042
 31
0.0
  0
LINE
  5
783
330
1D
100
AcDbEntity
  8
0
100
AcDbLine
 10
146.94705
 20
1002.155
 30
0.0
 11
147.42045
 21
1002.112
 31
0.0
  0
LINE
  5
784
330
1D
100
AcDbEntity
  8
0
100
AcDbLine
 10
146.51885
 20
1002.16
 30
0.0
 11
146.94705
 21
1002.155
 31
0.0
  0
LINE
  5
785
330
1D
100
AcDbEntity
  8
0
100
AcDbLine
 10
145.88875
 20
1002.091
 30
0.0
 11
146.51885
 21
1002.16
 31
0.0
  0
LINE
  5
789
330
1D
100
AcDbEntity
  8
0
100
AcDbLine
 10
154.20945
 20
959.293
 30
0.0
 11
155.70795
 21
958.393
 31
0.0
  0
LINE
  5
78D
330
1D
100
AcDbEntity
  8
0
100
AcDbLine
 10
155.70795
 20
958.393
 30
0.0
 11
157.12005
 21
957.473
 31
0.0
  0
LINE
  5
790
330
1D
100
AcDbEntity
  8
0
100
AcDbLine
 10
152.63755
 20
960.168
 30
0.0
 11
154.20945
 21
959.293
 31
0.0
  0
LINE
  5
791
330
1D
100
AcDbEntity
  8
0
100
AcDbLine
 10
149.32895
 20
961.806
 30
0.0
 11
151.00635
 21
961.008
 31
0.0
  0
LINE
  5
792
330
1D
100
AcDbEntity
  8
0
100
AcDbLine
 10
151.00635
 20
961.008
 30
0.0
 11
152.63755
 21
960.168
 31
0.0
  0
LINE
  5
795
330
1D
100
AcDbEntity
  8
0
100
AcDbLine
 10
150.98325
 20
1001.13
 30
0.0
 11
151.20535
 21
1001.048
 31
0.0
  0
LINE
  5
796
330
1D
100
AcDbEntity
  8
0
100
AcDbLine
 10
151.20535
 20
1001.048
 30
0.0
 11
152.48985
 21
1000.537
 31
0.0
  0
LINE
  5
797
330
1D
100
AcDbEntity
  8
0
100
AcDbLine
 10
152.48985
 20
1000.537
 30
0.0
 11
153.33705
 21
1000.178
 31
0.0
  0
LINE
  5
798
330
1D
100
AcDbEntity
  8
0
100
AcDbLine
 10
155.01045
 20
999.43
 30
0.0
 11
157.61755
 21
998.195
 31
0.0
  0
LINE
  5
799
330
1D
100
AcDbEntity
  8
0
100
AcDbLine
 10
153.33705
 20
1000.178
 30
0.0
 11
155.01045
 21
999.43
 31
0.0
  0
LINE
  5
79A
330
1D
100
AcDbEntity
  8
0
100
AcDbLine
 10
149.77625
 20
1001.548
 30
0.0
 11
150.98325
 21
1001.13
 31
0.0
  0
LINE
  5
79B
330
1D
100
AcDbEntity
  8
0
100
AcDbLine
 10
148.73805
 20
1001.851
 30
0.0
 11
149.77625
 21
1001.548
 31
0.0
  0
LINE
  5
79E
330
1D
100
AcDbEntity
  8
0
100
AcDbLine
 10
156.87485
 20
919.04
 30
0.0
 11
157.26175
 21
921.414
 31
0.0
  0
LINE
  5
79F
330
1D
100
AcDbEntity
  8
0
100
AcDbLine
 10
157.26175
 20
921.414
 30
0.0
 11
157.75025
 21
923.604
 31
0.0
  0
LINE
  5
7A0
330
1D
100
AcDbEntity
  8
0
100
AcDbLine
 10
158.16935
 20
925.638
 30
0.0
 11
158.89495
 21
928.697
 31
0.0
  0
LINE
  5
7A1
330
1D
100
AcDbEntity
  8
0
100
AcDbLine
 10
157.75025
 20
923.604
 30
0.0
 11
158.16935
 21
925.638
 31
0.0
  0
LINE
  5
7A2
330
1D
100
AcDbEntity
  8
0
100
AcDbLine
 10
156.52605
 20
916.918
 30
0.0
 11
156.87485
 21
919.04
 31
0.0
  0
LINE
  5
7AA
330
1D
100
AcDbEntity
  8
0
100
AcDbLine
 10
164.04475
 20
947.353
 30
0.0
 11
164.036181711593
 21
947.719975548675
 31
0.0
  0
LINE
  5
7AC
330
1D
100
AcDbEntity
  8
0
100
AcDbLine
 10
164.39755
 20
948.085
 30
0.0
 11
164.54325
 21
948.303
 31
0.0
  0
LINE
  5
7AD
330
1D
100
AcDbEntity
  8
0
100
AcDbLine
 10
164.27795
 20
948.27
 30
0.0
 11
164.38145
 21
948.913
 31
0.0
  0
LINE
  5
7AE
330
1D
100
AcDbEntity
  8
0
100
AcDbLine
 10
164.036181711593
 20
947.719975548675
 30
0.0
 11
164.27795
 21
948.27
 31
0.0
  0
LINE
  5
7AF
330
1D
100
AcDbEntity
  8
0
100
AcDbLine
 10
164.31915
 20
949.619
 30
0.0
 11
164.38145
 21
948.913
 31
0.0
  0
LINE
  5
7B1
330
1D
100
AcDbEntity
  8
0
100
AcDbLine
 10
164.09805
 20
950.365
 30
0.0
 11
164.31915
 21
949.619
 31
0.0
  0
LINE
  5
7B2
330
1D
100
AcDbEntity
  8
0
100
AcDbLine
 10
164.70705
 20
948.618
 30
0.0
 11
164.81965
 21
948.955
 31
0.0
  0
LINE
  5
7B3
330
1D
100
AcDbEntity
  8
0
100
AcDbLine
 10
164.81965
 20
948.955
 30
0.0
 11
166.08395
 21
953.119
 31
0.0
  0
LINE
  5
7B4
330
1D
100
AcDbEntity
  8
0
100
AcDbLine
 10
164.54325
 20
948.303
 30
0.0
 11
164.70705
 21
948.618
 31
0.0
  0
LINE
  5
7B5
330
1D
100
AcDbEntity
  8
0
100
AcDbLine
 10
164.040046726144
 20
947.664761055082
 30
0.0
 11
164.39755
 21
948.085
 31
0.0
  0
LINE
  5
7B6
330
1D
100
AcDbEntity
  8
0
100
AcDbLine
 10
163.87595
 20
946.657
 30
0.0
 11
164.04475
 21
947.353
 31
0.0
  0
LINE
  5
7B7
330
1D
100
AcDbEntity
  8
0
100
AcDbLine
 10
161.381369558238
 20
938.084346872462
 30
0.0
 11
163.87595
 21
946.657
 31
0.0
  0
LINE
  5
7B8
330
1D
100
AcDbEntity
  8
0
100
AcDbLine
 10
158.89495
 20
928.697
 30
0.0
 11
161.381369558238
 21
938.084346872462
 31
0.0
  0
LINE
  5
7BB
330
1D
100
AcDbEntity
  8
0
100
AcDbLine
 10
157.12005
 20
957.473
 30
0.0
 11
158.43565
 21
956.542
 31
0.0
  0
LINE
  5
7BC
330
1D
100
AcDbEntity
  8
0
100
AcDbLine
 10
158.43565
 20
956.542
 30
0.0
 11
159.64165
 21
955.608
 31
0.0
  0
LINE
  5
7BF
330
1D
100
AcDbEntity
  8
0
100
AcDbLine
 10
157.61755
 20
998.195
 30
0.0
 11
160.11205
 21
996.94
 31
0.0
  0
LINE
  5
7C1
330
1D
100
AcDbEntity
  8
0
100
AcDbLine
 10
159.64165
 20
955.608
 30
0.0
 11
160.72815
 21
954.679
 31
0.0
  0
LINE
  5
7C3
330
1D
100
AcDbEntity
  8
0
100
AcDbLine
 10
161.68695
 20
953.761
 30
0.0
 11
162.51005
 21
952.864
 31
0.0
  0
LINE
  5
7C4
330
1D
100
AcDbEntity
  8
0
100
AcDbLine
 10
160.72815
 20
954.679
 30
0.0
 11
161.68695
 21
953.761
 31
0.0
  0
LINE
  5
7C6
330
1D
100
AcDbEntity
  8
0
100
AcDbLine
 10
160.11205
 20
996.94
 30
0.0
 11
162.49705
 21
995.66
 31
0.0
  0
LINE
  5
7C7
330
1D
100
AcDbEntity
  8
0
100
AcDbLine
 10
162.49705
 20
995.66
 30
0.0
 11
164.01465
 21
994.8
 31
0.0
  0
LINE
  5
7CA
330
1D
100
AcDbEntity
  8
0
100
AcDbLine
 10
162.51005
 20
952.864
 30
0.0
 11
163.18945
 21
951.994
 31
0.0
  0
LINE
  5
7CB
330
1D
100
AcDbEntity
  8
0
100
AcDbLine
 10
168.88495
 20
962.511
 30
0.0
 11
170.66995
 21
968.504
 31
0.0
  0
LINE
  5
7CC
330
1D
100
AcDbEntity
  8
0
100
AcDbLine
 10
167.38145
 20
957.453
 30
0.0
 11
168.88495
 21
962.511
 31
0.0
  0
LINE
  5
7CD
330
1D
100
AcDbEntity
  8
0
100
AcDbLine
 10
170.66995
 20
968.504
 30
0.0
 11
171.72095
 21
972.036
 31
0.0
  0
LINE
  5
7CE
330
1D
100
AcDbEntity
  8
0
100
AcDbLine
 10
172.84195
 20
975.801
 30
0.0
 11
173.88295
 21
979.301
 31
0.0
  0
LINE
  5
7CF
330
1D
100
AcDbEntity
  8
0
100
AcDbLine
 10
171.72095
 20
972.036
 30
0.0
 11
172.84195
 21
975.801
 31
0.0
  0
LINE
  5
7D0
330
1D
100
AcDbEntity
  8
0
100
AcDbLine
 10
173.88295
 20
979.301
 30
0.0
 11
175.01795
 21
983.135
 31
0.0
  0
LINE
  5
7D1
330
1D
100
AcDbEntity
  8
0
100
AcDbLine
 10
174.11895
 20
986.626
 30
0.0
 11
174.41795
 21
986.159
 31
0.0
  0
LINE
  5
7D2
330
1D
100
AcDbEntity
  8
0
100
AcDbLine
 10
175.01795
 20
983.135
 30
0.0
 11
175.10595
 21
983.439
 31
0.0
  0
LINE
  5
7D3
330
1D
100
AcDbEntity
  8
0
100
AcDbLine
 10
175.10595
 20
983.439
 30
0.0
 11
175.14295
 21
983.778
 31
0.0
  0
LINE
  5
7D4
330
1D
100
AcDbEntity
  8
0
100
AcDbLine
 10
175.14295
 20
983.778
 30
0.0
 11
175.14995
 21
984.006
 31
0.0
  0
LINE
  5
7D5
330
1D
100
AcDbEntity
  8
0
100
AcDbLine
 10
175.13095
 20
984.364
 30
0.0
 11
175.14995
 21
984.006
 31
0.0
  0
LINE
  5
7D6
330
1D
100
AcDbEntity
  8
0
100
AcDbLine
 10
175.05695
 20
984.742
 30
0.0
 11
175.13095
 21
984.364
 31
0.0
  0
LINE
  5
7D7
330
1D
100
AcDbEntity
  8
0
100
AcDbLine
 10
174.92895
 20
985.139
 30
0.0
 11
175.05695
 21
984.742
 31
0.0
  0
LINE
  5
7D8
330
1D
100
AcDbEntity
  8
0
100
AcDbLine
 10
174.51795
 20
985.977
 30
0.0
 11
174.92895
 21
985.139
 31
0.0
  0
LINE
  5
7D9
330
1D
100
AcDbEntity
  8
0
100
AcDbLine
 10
174.41795
 20
986.159
 30
0.0
 11
174.51795
 21
985.977
 31
0.0
  0
LINE
  5
7DA
330
1D
100
AcDbEntity
  8
0
100
AcDbLine
 10
173.76895
 20
987.105
 30
0.0
 11
174.11895
 21
986.626
 31
0.0
  0
LINE
  5
7DB
330
1D
100
AcDbEntity
  8
0
100
AcDbLine
 10
173.16695
 20
987.826
 30
0.0
 11
173.76895
 21
987.105
 31
0.0
  0
LINE
  5
7DC
330
1D
100
AcDbEntity
  8
0
100
AcDbLine
 10
172.46895
 20
988.563
 30
0.0
 11
173.16695
 21
987.826
 31
0.0
  0
LINE
  5
7DD
330
1D
100
AcDbEntity
  8
0
100
AcDbLine
 10
171.68595
 20
989.313
 30
0.0
 11
172.46895
 21
988.563
 31
0.0
  0
LINE
  5
7DE
330
1D
100
AcDbEntity
  8
0
100
AcDbLine
 10
171.04695
 20
989.88
 30
0.0
 11
171.68595
 21
989.313
 31
0.0
  0
LINE
  5
7DF
330
1D
100
AcDbEntity
  8
0
100
AcDbLine
 10
170.36695
 20
990.45
 30
0.0
 11
171.04695
 21
989.88
 31
0.0
  0
LINE
  5
7E0
330
1D
100
AcDbEntity
  8
0
100
AcDbLine
 10
167.08195
 20
992.886
 30
0.0
 11
167.30915
 21
992.73
 31
0.0
  0
LINE
  5
7E1
330
1D
100
AcDbEntity
  8
0
100
AcDbLine
 10
167.30915
 20
992.73
 30
0.0
 11
168.90095
 21
991.593
 31
0.0
  0
LINE
  5
7E2
330
1D
100
AcDbEntity
  8
0
100
AcDbLine
 10
168.90095
 20
991.593
 30
0.0
 11
170.36695
 21
990.45
 31
0.0
  0
LINE
  5
7E3
330
1D
100
AcDbEntity
  8
0
100
AcDbLine
 10
166.08395
 20
953.119
 30
0.0
 11
167.38145
 21
957.453
 31
0.0
  0
LINE
  5
7E4
330
1D
100
AcDbEntity
  8
0
100
AcDbLine
 10
164.01465
 20
994.8
 30
0.0
 11
165.16945
 21
994.114
 31
0.0
  0
LINE
  5
7E5
330
1D
100
AcDbEntity
  8
0
100
AcDbLine
 10
165.16945
 20
994.114
 30
0.0
 11
166.13225
 21
993.512
 31
0.0
  0
LINE
  5
7E6
330
1D
100
AcDbEntity
  8
0
100
AcDbLine
 10
166.13225
 20
993.512
 30
0.0
 11
167.08195
 21
992.886
 31
0.0
  0
LINE
  5
7E7
330
1D
100
AcDbEntity
  8
0
100
AcDbLine
 10
163.18945
 20
951.994
 30
0.0
 11
163.72015
 21
951.159
 31
0.0
  0
LINE
  5
7E8
330
1D
100
AcDbEntity
  8
0
100
AcDbLine
 10
163.72015
 20
951.159
 30
0.0
 11
164.09805
 21
950.365
 31
0.0
  0
LINE
  5
7E9
330
1D
100
AcDbEntity
  8
0
100
AcDbLine
 10
145.52095
 20
799.7
 30
0.0
 11
145.99935
 21
798.175
 31
0.0
  0
LINE
  5
7EA
330
1D
100
AcDbEntity
  8
0
100
AcDbLine
 10
145.45565
 20
799.868
 30
0.0
 11
145.52095
 21
799.7
 31
0.0
  0
LINE
  5
7EB
330
1D
100
AcDbEntity
  8
0
100
AcDbLine
 10
145.99935
 20
798.175
 30
0.0
 11
146.21845
 21
796.62
 31
0.0
  0
LINE
  5
7EC
330
1D
100
AcDbEntity
  8
0
100
AcDbLine
 10
137.77915
 20
807.237
 30
0.0
 11
139.53095
 21
806.324
 31
0.0
  0
LINE
  5
7ED
330
1D
100
AcDbEntity
  8
0
100
AcDbLine
 10
127.35185
 20
809.373
 30
0.0
 11
129.53085
 21
809.305
 31
0.0
  0
LINE
  5
815
330
1D
100
AcDbEntity
  8
0
100
AcDbLine
 10
137.95005
 20
774.272
 30
0.0
 11
140.234876504262
 21
774.455387694732
 31
0.0
  0
LINE
  5
816
330
1D
100
AcDbEntity
  8
0
100
AcDbLine
 10
140.234876504262
 20
774.455387694732
 30
0.0
 11
142.561855268833
 21
774.455387694732
 31
0.0
  0
LINE
  5
817
330
1D
100
AcDbEntity
  8
0
100
AcDbLine
 10
142.561855268833
 20
774.455387694732
 30
0.0
 11
145.15015
 21
774.245
 31
0.0
  0
LINE
  5
818
330
1D
100
AcDbEntity
  8
0
100
AcDbLine
 10
145.15015
 20
774.245
 30
0.0
 11
146.172727150268
 21
773.972928626359
 31
0.0
  0
LINE
  5
819
330
1D
100
AcDbEntity
  8
0
100
AcDbLine
 10
146.172727150268
 20
773.972928626359
 30
0.0
 11
146.91131701249
 21
773.289733003803
 31
0.0
  0
LINE
  5
81A
330
1D
100
AcDbEntity
  8
0
100
AcDbLine
 10
146.91131701249
 20
773.289733003803
 30
0.0
 11
147.520653648824
 21
772.200312957024
 31
0.0
  0
LINE
  5
81B
330
1D
100
AcDbEntity
  8
0
100
AcDbLine
 10
147.520653648824
 20
772.200312957024
 30
0.0
 11
147.926878073047
 21
770.815456965356
 31
0.0
  0
LINE
  5
81C
330
1D
100
AcDbEntity
  8
0
100
AcDbLine
 10
147.59135
 20
762.474
 30
0.0
 11
147.693116321548
 21
762.864707784979
 31
0.0
  0
LINE
  5
81D
330
1D
100
AcDbEntity
  8
0
100
AcDbLine
 10
148.431618566589
 20
767.690159728985
 30
0.0
 11
148.40645
 21
767.21
 31
0.0
  0
LINE
  5
81E
330
1D
100
AcDbEntity
  8
0
100
AcDbLine
 10
146.278758626137
 20
790.360048074627
 30
0.0
 11
146.41945
 21
784.972
 31
0.0
  0
LINE
  5
81F
330
1D
100
AcDbEntity
  8
0
100
AcDbLine
 10
146.54215
 20
782.192
 30
0.0
 11
146.67875
 21
780.305
 31
0.0
  0
LINE
  5
820
330
1D
100
AcDbEntity
  8
0
100
AcDbLine
 10
147.264069673657
 20
776.221725025381
 30
0.0
 11
148.00145
 21
773.002
 31
0.0
  0
ENDSEC
  0
SECTION
  2
OBJECTS
  0
DICTIONARY
  5
C
330
0
100
AcDbDictionary
281
     1
  3
ACAD_GROUP
350
D
  3
ACAD_LAYOUT
350
1A
  3
ACAD_MLEADERSTYLE
350
823
  3
ACAD_MLINESTYLE
350
17
  3
ACAD_PLOTSETTINGS
350
19
  3
ACAD_PLOTSTYLENAME
350
E
  3
ACAD_SCALELIST
350
7F3
  3
AcDbVariableDictionary
350
821
  3
DWGPROPS
350
829
  0
DICTIONARY
  5
D
102
{ACAD_REACTORS
330
C
102
}
330
C
100
AcDbDictionary
281
     1
  0
DICTIONARY
  5
1A
102
{ACAD_REACTORS
330
C
102
}
330
C
100
AcDbDictionary
281
     1
  3
Layout1
350
1C
  3
Model
350
1E
  0
DICTIONARY
  5
823
102
{ACAD_REACTORS
330
C
102
}
330
C
100
AcDbDictionary
281
     1
  0
DICTIONARY
  5
17
102
{ACAD_REACTORS
330
C
102
}
330
C
100
AcDbDictionary
281
     1
  3
Standard
350
18
  0
DICTIONARY
  5
19
102
{ACAD_REACTORS
330
C
102
}
330
C
100
AcDbDictionary
281
     1
  0
ACDBDICTIONARYWDFLT
  5
E
102
{ACAD_REACTORS
330
C
102
}
330
C
100
AcDbDictionary
281
     1
  3
Normal
350
F
100
AcDbDictionaryWithDefault
340
F
  0
DICTIONARY
  5
7F3
102
{ACAD_REACTORS
330
C
102
}
330
C
100
AcDbDictionary
281
     1
  3
A0
350
7F4
  3
A1
350
7F5
  3
A2
350
7F6
  3
A3
350
7F7
  3
A4
350
7F8
  3
A5
350
7F9
  3
A6
350
7FA
  3
A7
350
7FB
  3
A8
350
7FC
  3
A9
350
7FD
  3
B0
350
7FE
  3
B1
350
7FF
  3
B2
350
800
  3
B3
350
801
  3
B4
350
802
  3
B5
350
803
  3
B6
350
804
  3
B7
350
805
  3
B8
350
806
  3
B9
350
807
  3
C0
350
808
  3
C1
350
809
  3
C2
350
80A
  3
C3
350
80B
  3
C4
350
80C
  3
C5
350
80D
  3
C6
350
80E
  3
C7
350
80F
  3
C8
350
810
  3
C9
350
811
  3
D0
350
812
  3
D1
350
813
  3
D2
350
814
  0
DICTIONARY
  5
821
102
{ACAD_REACTORS
330
C
102
}
330
C
100
AcDbDictionary
281
     1
  3
CANNOSCALE
350
828
  0
XRECORD
  5
829
102
{ACAD_REACTORS
330
C
102
}
330
C
100
AcDbXrecord
280
     1
  1
DWGPROPS COOKIE
  2

  3

  4

  6

  7

  8
MARTIN
  9

300
=
301
=
302
=
303
=
304
=
305
=
306
=
307
=
308
=
309
=
 40
0.0
 41
2456464.628149954
 42
2456464.646196829
  1

 90
        0
  0
LAYOUT
  5
1C
102
{ACAD_REACTORS
330
1A
102
}
330
1A
100
AcDbPlotSettings
  1

  2
none_device
  4

  6

 40
0.0
 41
0.0
 42
0.0
 43
0.0
 44
0.0
 45
0.0
 46
0.0
 47
0.0
 48
0.0
 49
0.0
140
0.0
141
0.0
142
1.0
143
1.0
 70
   688
 72
     0
 73
     0
 74
     5
  7

 75
    16
147
1.0
148
0.0
149
0.0
100
AcDbLayout
  1
Layout1
 70
     1
 71
     1
 10
0.0
 20
0.0
 11
12.0
 21
9.0
 12
0.0
 22
0.0
 32
0.0
 14
1.000000000000E+20
 24
1.000000000000E+20
 34
1.000000000000E+20
 15
-1.000000000000E+20
 25
-1.000000000000E+20
 35
-1.000000000000E+20
146
0.0
 13
0.0
 23
0.0
 33
0.0
 16
1.0
 26
0.0
 36
0.0
 17
0.0
 27
1.0
 37
0.0
 76
     0
330
1B
  0
LAYOUT
  5
1E
102
{ACAD_REACTORS
330
1A
102
}
330
1A
100
AcDbPlotSettings
  1

  2
none_device
  4

  6

 40
0.0
 41
0.0
 42
0.0
 43
0.0
 44
0.0
 45
0.0
 46
0.0
 47
0.0
 48
0.0
 49
0.0
140
0.0
141
0.0
142
1.0
143
1.0
 70
  1712
 72
     0
 73
     0
 74
     0
  7

 75
     0
147
1.0
148
0.0
149
0.0
100
AcDbLayout
  1
Model
 70
     1
 71
     0
 10
0.0
 20
0.0
 11
12.0
 21
9.0
 12
0.0
 22
0.0
 32
0.0
 14
0.07205
 24
-0.16
 34
0.0
 15
239.92795
 25
1002.16
 35
0.0
146
0.0
 13
0.0
 23
0.0
 33
0.0
 16
1.0
 26
0.0
 36
0.0
 17
0.0
 27
1.0
 37
0.0
 76
     0
330
1D
331
7EE
  0
MLINESTYLE
  5
18
102
{ACAD_REACTORS
330
17
102
}
330
17
100
AcDbMlineStyle
  2
Standard
 70
     0
  3

 62
   256
 51
90.0
 52
90.0
 71
     2
 49
0.5
 62
   256
  6
BYLAYER
 49
-0.5
 62
   256
  6
BYLAYER
  0
ACDBPLACEHOLDER
  5
F
102
{ACAD_REACTORS
330
E
102
}
330
E
  0
SCALE
  5
7F4
102
{ACAD_REACTORS
330
7F3
102
}
330
7F3
100
AcDbScale
 70
     0
300
1:1
140
1.0
141
1.0
290
     1
  0
SCALE
  5
7F5
102
{ACAD_REACTORS
330
7F3
102
}
330
7F3
100
AcDbScale
 70
     0
300
1:2
140
1.0
141
2.0
290
     0
  0
SCALE
  5
7F6
102
{ACAD_REACTORS
330
7F3
102
}
330
7F3
100
AcDbScale
 70
     0
300
1:4
140
1.0
141
4.0
290
     0
  0
SCALE
  5
7F7
102
{ACAD_REACTORS
330
7F3
102
}
330
7F3
100
AcDbScale
 70
     0
300
1:5
140
1.0
141
5.0
290
     0
  0
SCALE
  5
7F8
102
{ACAD_REACTORS
330
7F3
102
}
330
7F3
100
AcDbScale
 70
     0
300
1:8
140
1.0
141
8.0
290
     0
  0
SCALE
  5
7F9
102
{ACAD_REACTORS
330
7F3
102
}
330
7F3
100
AcDbScale
 70
     0
300
1:10
140
1.0
141
10.0
290
     0
  0
SCALE
  5
7FA
102
{ACAD_REACTORS
330
7F3
102
}
330
7F3
100
AcDbScale
 70
     0
300
1:16
140
1.0
141
16.0
290
     0
  0
SCALE
  5
7FB
102
{ACAD_REACTORS
330
7F3
102
}
330
7F3
100
AcDbScale
 70
     0
300
1:20
140
1.0
141
20.0
290
     0
  0
SCALE
  5
7FC
102
{ACAD_REACTORS
330
7F3
102
}
330
7F3
100
AcDbScale
 70
     0
300
1:30
140
1.0
141
30.0
290
     0
  0
SCALE
  5
7FD
102
{ACAD_REACTORS
330
7F3
102
}
330
7F3
100
AcDbScale
 70
     0
300
1:40
140
1.0
141
40.0
290
     0
  0
SCALE
  5
7FE
102
{ACAD_REACTORS
330
7F3
102
}
330
7F3
100
AcDbScale
 70
     0
300
1:50
140
1.0
141
50.0
290
     0
  0
SCALE
  5
7FF
102
{ACAD_REACTORS
330
7F3
102
}
330
7F3
100
AcDbScale
 70
     0
300
1:100
140
1.0
141
100.0
290
     0
  0
SCALE
  5
800
102
{ACAD_REACTORS
330
7F3
102
}
330
7F3
100
AcDbScale
 70
     0
300
2:1
140
2.0
141
1.0
290
     0
  0
SCALE
  5
801
102
{ACAD_REACTORS
330
7F3
102
}
330
7F3
100
AcDbScale
 70
     0
300
4:1
140
4.0
141
1.0
290
     0
  0
SCALE
  5
802
102
{ACAD_REACTORS
330
7F3
102
}
330
7F3
100
AcDbScale
 70
     0
300
8:1
140
8.0
141
1.0
290
     0
  0
SCALE
  5
803
102
{ACAD_REACTORS
330
7F3
102
}
330
7F3
100
AcDbScale
 70
     0
300
10:1
140
10.0
141
1.0
290
     0
  0
SCALE
  5
804
102
{ACAD_REACTORS
330
7F3
102
}
330
7F3
100
AcDbScale
 70
     0
300
100:1
140
100.0
141
1.0
290
     0
  0
SCALE
  5
805
102
{ACAD_REACTORS
330
7F3
102
}
330
7F3
100
AcDbScale
 70
     0
300
1/128" = 1'-0"
140
0.0078125
141
12.0
290
     0
  0
SCALE
  5
806
102
{ACAD_REACTORS
330
7F3
102
}
330
7F3
100
AcDbScale
 70
     0
300
1/64" = 1'-0"
140
0.015625
141
12.0
290
     0
  0
SCALE
  5
807
102
{ACAD_REACTORS
330
7F3
102
}
330
7F3
100
AcDbScale
 70
     0
300
1/32" = 1'-0"
140
0.03125
141
12.0
290
     0
  0
SCALE
  5
808
102
{ACAD_REACTORS
330
7F3
102
}
330
7F3
100
AcDbScale
 70
     0
300
1/16" = 1'-0"
140
0.0625
141
12.0
290
     0
  0
SCALE
  5
809
102
{ACAD_REACTORS
330
7F3
102
}
330
7F3
100
AcDbScale
 70
     0
300
3/32" = 1'-0"
140
0.09375
141
12.0
290
     0
  0
SCALE
  5
80A
102
{ACAD_REACTORS
330
7F3
102
}
330
7F3
100
AcDbScale
 70
     0
300
1/8" = 1'-0"
140
0.125
141
12.0
290
     0
  0
SCALE
  5
80B
102
{ACAD_REACTORS
330
7F3
102
}
330
7F3
100
AcDbScale
 70
     0
300
3/16" = 1'-0"
140
0.1875
141
12.0
290
     0
  0
SCALE
  5
80C
102
{ACAD_REACTORS
330
7F3
102
}
330
7F3
100
AcDbScale
 70
     0
300
1/4" = 1'-0"
140
0.25
141
12.0
290
     0
  0
SCALE
  5
80D
102
{ACAD_REACTORS
330
7F3
102
}
330
7F3
100
AcDbScale
 70
     0
300
3/8" = 1'-0"
140
0.375
141
12.0
290
     0
  0
SCALE
  5
80E
102
{ACAD_REACTORS
330
7F3
102
}
330
7F3
100
AcDbScale
 70
     0
300
1/2" = 1'-0"
140
0.5
141
12.0
290
     0
  0
SCALE
  5
80F
102
{ACAD_REACTORS
330
7F3
102
}
330
7F3
100
AcDbScale
 70
     0
300
3/4" = 1'-0"
140
0.75
141
12.0
290
     0
  0
SCALE
  5
810
102
{ACAD_REACTORS
330
7F3
102
}
330
7F3
100
AcDbScale
 70
     0
300
1" = 1'-0"
140
1.0
141
12.0
290
     0
  0
SCALE
  5
811
102
{ACAD_REACTORS
330
7F3
102
}
330
7F3
100
AcDbScale
 70
     0
300
1-1/2" = 1'-0"
140
1.5
141
12.0
290
     0
  0
SCALE
  5
812
102
{ACAD_REACTORS
330
7F3
102
}
330
7F3
100
AcDbScale
 70
     0
300
3" = 1'-0"
140
3.0
141
12.0
290
     0
  0
SCALE
  5
813
102
{ACAD_REACTORS
330
7F3
102
}
330
7F3
100
AcDbScale
 70
     0
300
6" = 1'-0"
140
6.0
141
12.0
290
     0
  0
SCALE
  5
814
102
{ACAD_REACTORS
330
7F3
102
}
330
7F3
100
AcDbScale
 70
     0
300
1'-0" = 1'-0"
140
12.0
141
12.0
290
     0
  0
DICTIONARYVAR
  5
828
102
{ACAD_REACTORS
330
821
102
}
330
821
100
DictionaryVariables
280
     0
  1
1:1
  0
ENDSEC
  0
SECTION
  2
THUMBNAILIMAGE
 90
    16364
310
28000000B40000005500000001000800000000000000000000000000000000000000000000000000FFFFFF000000FF0000FFFF0000FF0000FFFF0000FF000000FF00FF000000000080808000C0C0C0000000FF007F7FFF000000A5005252A50000007F003F3F7F0000004C0026264C000000260013132600003FFF007F9FFF
310
000029A5005267A500001F7F003F4F7F0000134C00262F4C000009260013172600007FFF007FBFFF000052A500527CA500003F7F003F5F7F0000264C0026394C0000132600131C260000BFFF007FDFFF00007CA5005291A500005F7F003F6F7F0000394C0026424C00001C26001321260000FFFF007FFFFF0000A5A50052A5
310
A500007F7F003F7F7F00004C4C00264C4C00002626001326260000FFBF007FFFDF0000A57C0052A59100007F5F003F7F6F00004C3900264C420000261C001326210000FF7F007FFFBF0000A5520052A57C00007F3F003F7F5F00004C2600264C39000026130013261C0000FF3F007FFF9F0000A5290052A56700007F1F003F
310
7F4F00004C1300264C2F00002609001326170000FF00007FFF7F0000A5000052A55200007F00003F7F3F00004C0000264C260000260000132613003FFF00009FFF7F0029A5000067A552001F7F00004F7F3F00134C00002F4C260009260000172613007FFF0000BFFF7F0052A500007CA552003F7F00005F7F3F00264C0000
310
394C2600132600001C261300BFFF0000DFFF7F007CA5000091A552005F7F00006F7F3F00394C0000424C26001C26000021261300FFFF0000FFFF7F00A5A50000A5A552007F7F00007F7F3F004C4C00004C4C26002626000026261300FFBF0000FFDF7F00A57C0000A59152007F5F00007F6F3F004C3900004C422600261C00
310
0026211300FF7F0000FFBF7F00A5520000A57C52007F3F00007F5F3F004C2600004C39260026130000261C1300FF3F0000FF9F7F00A5290000A56752007F1F00007F4F3F004C1300004C2F26002609000026171300FF000000FF7F7F00A5000000A55252007F0000007F3F3F004C0000004C2626002600000026131300FF00
310
3F00FF7F9F00A5002900A55267007F001F007F3F4F004C0013004C262F002600090026131700FF007F00FF7FBF00A5005200A5527C007F003F007F3F5F004C0026004C2639002600130026131C00FF00BF00FF7FDF00A5007C00A55291007F005F007F3F6F004C0039004C26420026001C0026132100FF00FF00FF7FFF00A5
310
00A500A552A5007F007F007F3F7F004C004C004C264C002600260026132600BF00FF00DF7FFF007C00A5009152A5005F007F006F3F7F0039004C0042264C001C002600211326007F00FF00BF7FFF005200A5007C52A5003F007F005F3F7F0026004C0039264C00130026001C1326003F00FF009F7FFF002900A5006752A500
310
1F007F004F3F7F0013004C002F264C000900260017132600000000002D2D2D005B5B5B0089898900B7B7B700B3B3B30000000000000000000000000000000000000000000000000000000000000000000000000000000000000000000000000000000000000000000000000000000000000000000000000000000000000000
310
00000000000007070707070707070707070707000000000000000000000000000000000000000000000000000000000000000000000000000000000000000000000000000000000000000000000000000000000000000000000000000000000000000000000000000000000000000000000000000000000000000000000000
310
00000000000000000000000000000000000000000000000000000000000000000000000000000000000000000000000000000000000000000000000700000000000000000000000700000000000000000000000000000000000000000000000000000000000000000000000000000000000000000000000000000000000000
310
00000000000000000000000000000000000000000000000000000000000000000000000000000000000000000000000000000000000000000000000000000000000000000000000000000000000000000000000000000000000000000000000000000000000000000000000000000000070707070707070707070707070000
310
00000000000000000000000000000000000000000000000000000000000000000000000000000000000000000000000000000000000000000000000000000000000000000000000000000000000000000000000000000000000000000000000000000000000000000000000000000000000000000000000000000000000000
310
00000000000000000000000000000000000000000000000000000000000000000000000000000707070707070707070707070700000000000000000000000000000000000000000000000000000000000000000000000000000000000000000000000000000000000000000000000000000000000000000000000000000000
310
00000000000000000000000000000000000000000000000000000000000000000000000000000000000000000000000000000000000000000000000000000000000000000000000000000000000000000000000000000000000000000007000000000000000700000000000000000000000000000000000000000000000000
310
00000000000000000000000000000000000000000000000000000000000000000000000000000000000000000000000000000000000000000000000000000000000000000000000000000000000000000000000000000000000000000000000000000000000000000000000000000000000000000000000000000000000000
310
00000000000000000000000000000000000000070000000000000007000000000000000000000000000000000000000000000000000000000000000000000000000000000000000000000000000000000000000000000000000000000000000000000000000000000000000000000000000000000000000000000000000000
310
00000000000000000000000000000000000000000000000000000000000000000000000000000000000000000000000000000000000000000000000000000000000000000000000007000000000000000700000000000000000000000000000000000000000000000000000000000000000000000000000000000000000000
310
00000000000000000000000000000000000000000000000000000000000000000000000000000000000000000000000000000000000000000000000000000000000000000000000000000000000000000000000000000000000000000000000000000000000000000000000000000000000000000000000000000000000700
310
00000000000007000000000000000000000000000000000000000000000000000000000000000000000000000000000000000000000000000000000000000000000000000000000000000000000000000000000000000000000000000000000000000000000000000000000000000000000000000000000000000000000000
310
00000000000000000000000000000000000000000000000000000000000000000000000000000000000000000000000000000707070707070707070707000000000000000000000000000000000000000000000000000000000000000000000000000000000000000000000000000000000000000000000000000000000000
310
00000000000000000000000000000000000000000000000000000000000000000000000000000000000000000000000000000000000000000000000000000000000000000000000000000000000000000000000000000000000000000000000000000000000000070000000000000000000700000000000000000000000000
310
00000000000000000000000000000000000000000000000000000000000000000000000000000000000000000000000000000000000000000000000000000000000000000000000000000000000000000000000000000000000000000000000000000000000000000000000000000000000000000000000000000000000000
310
00000000000000000000000000000000000000000000000000000000000707070707070707070707000000000000000000000000000000000000000000000000000000000000000000000000000000000000000000000000000000000000000000000000000000000000000000000000000000000000000000000000000000
310
00000000000000000000000000000000000000000000000000000000000000000000000000000000000000000000000000000000000000000000000000000000000000000000000000000000000000000000000000070000000700000000000000000000000000000000000000000000000000000000000000000000000000
310
00000000000000000000000000000000000000000000000000000000000000000000000000000000000000000000000000000000000000000000000000000000000000000000000000000000000000000000000000000000000000000000000000000000000000000000000000000000000000000000000000000000000000
310
00000000000000000000000700000007000000000000000000000000000000000000000000000000000000000000000000000000000000000000000000000000000000000000000000000000000000000000000000000000000000000000000000000000000000000000000000000000000000000000000000000000000000
310
00000000000000000000000000000000000000000000000000000000000000000000000000000000000000000000000000000000000000000000000000000000070000000700000000000000000000000000000000000000000000000000000000000000000000000000000000000000000000000000000000000000000000
310
00000000000000000000000000000000000000000000000000000000000000000000000000000000000000000000000000000000000000000000000000000000000000000000000000000000000000000000000000000000000000000000000000000000000000000000000000000000000000000007000000070000000000
310
00000000000000000000000000000000000000000000000000000000000000000000000000000000000000000000000000000000000000000000000000000000000000000000000000000000000000000000000000000000000000000000000000000000000000000000000000000000000000000000000000000000000000
310
00000000000000000000000000000000000000000000000000000000000000000000000000000000000007070000000700000000000000000000000000000000000000000000000000000000000000000000000000000000000000000000000000000000000000000000000000000000000000000000000000000000000000
310
00000000000000000000000000000000000000000000000000000000000000000000000000000000000000000000000000000000000000000000000000000000000000000000000000000000000000000000000000000000000000000000070007000000070000000000000000000000000000000000000000000000000000
310
00000000000000000000000000000000000000000000000000000000000000000000000000000000000000000000000000000000000000000000000000000000000000000000000000000000000000000000000000000000000000000000000000000000000000000000000000000000000000000000000000000000000000
310
00000000000000000000000000000000000007070707070000000707070000000000000000000000000000000000000000000000000000000000000000000000000000000000000000000000000000000000000000000000000000000000000000000000000000000000000000000000000000000000000000000000000000
310
00000000000000000000000000000000000000000000000000000000000000000000000000000000000000000000000000000000000000000000000000000000000000000000070007000007000000070700070000000000000000000000000000000000000000000000000000000000000000000000000000000000000000
310
00000000000000000000000000000000000000000000000000000000000000000000000000000000000000000000000000000000000000000000000000000000000000000000000000000000000000000000000000000000000000000000000000000000000000000000000000000000000000000000000000000700070000
310
00070000000700070007000000000000000000000000000000000000000000000000000000000000000000000000000000000000000000000000000000000000000000000000000000000000000000000000000000000000000000000000000000000000000000000000000000000000000000000000000000000000000000
310
00000000000000000000000000000000000000000000000000000000000000000000000000000000000000000000000700070000000007000000070000070007000000000000000000000000000000000000000000000000000000000000000000000000000000000000000000000000000000000000000000000000000000
310
00000000000000000000000000000000000000000000000000000000000000000000000000000000000000000000000000000000000000000000000000000000000000000000000000000000000000000000000000000000000000000000000000000007000700000000000700000007000000070700000000000000000000
310
00000000000000000000000000000000000000000000000000000000000000000000000000000000000000000000000000000000000000000000000000000000000000000000000000000000000000000000000000000000000000000000000000000000000000000000000000000000000000000000000000000000000000
310
00000000000000000000000000000000000000000000000000070007000000000007000000070000000700070000000000000000000000000000000000000000000000000000000000000000000000000000000000000000000000000000000000000000000000000000000000000000000000000000000000000000000000
310
00000000000000000000000000000000000000000000000000000000000000000000000000000000000000000000000000000000000000000000000000000000000000000000000000000000000007000700000000000700000007000000070007000000000000000000000000000000000000000000000000000000000000
310
00000000000000000000000000000000000000000000000000000000000000000000000000000000000000000000000000000000000000000000000000000000000000000000000000000000000000000000000000000000000000000000000000000000000000000000000000000000000000000000000000000000000000
310
00000000070700000000000007000000070000000007070000000000000000000000000000000000000000000000000000000000000000000000000000000000000000000000000000000000000000000000000000000000000000000000000000000000000000000000000000000000000000000000000000000000000000
310
00000000000000000000000000000000000000000000000000000000000000000000000000000000000000000000000000000000000000000700070000000000000700000007000000000707000000000000000000000000000000000000000000000000000000000000000000000000000000000000000000000000000000
310
00000000000000000000000000000000000000000000000000000000000000000000000000000000000000000000000000000000000000000000000000000000000000000000000000000000000000000000000000000000000000000000000000000000000000000000000000070007000000000000070000000700000000
310
07000700000000000000000000000000000000000000000000000000000000000000000000000000000000000000000000000000000000000000000000000000000000000000000000000000000000000000000000000000000000000000000000000000000000000000000000000000000000000000000000000000000000
310
00000000000000000000000000000000000000000000000000000000000000000000000707000000000000000700000007000000000700070000000000000000000000000000000000000000000000000000000000000000000000000000000000000000000000000000000000000000000000000000000000000000000000
310
00000000000000000000000000000000000000000000000000000000000000000000000000000000000000000000000000000000000000000000000000000000000000000000000000000000000000000000000000000000070700000000000000070000000700000000000000000000000000000000000000000000000000
310
00000000000000000000000000000000000000000000000000000000000000000000000000000000000000000000000000000000000000000000000000000000000000000000000000000000000000000000000000000000000000000000000000000000000000000000000000000000000000000000000000000000000000
310
00000000000000000000000000000707000000000000000700000007000000000007070000000000000000000000000000000000000000000000000000000000000000000000000000000000000000000000000000000000000000000000000000000000000000000000000000000000000000000000000000000000000000
310
00000000000000000000000000000000000000000000000000000000000000000000000000000000000000000000000000000000000000000000000000000000000000070700000000000000070000000700000000000707000000000000000000000000000000000000000000000000000000000000000000000000000000
310
00000000000000000000000000000000000000000000000000000000000000000000000000000000000000000000000000000000000000000000000000000000000000000000000000000000000000000000000000000000000000000000000000000000000000000000000000000000000000000000000007000700000000
310
00000700000007000000000700070000000000000000000000000000000000000000000000000000000000000000000000000000000000000000000000000000000000000000000000000000000000000000000000000000000000000000000000000000000000000000000000000000000000000000000000000000000000
310
00000000000000000000000000000000000000000000000000000000000000000000000000000000000000000000070007000000000000070000000700000000070700000000000000000000000000000000000000000000000000000000000000000000000000000000000000000000000000000000000000000000000000
310
00000000000000000000000000000000000000000000000000000000000000000000000000000000000000000000000000000000000000000000000000000000000000000000000000000000000000000000000000000000000000000000000000000000070700000000000007000000070000000007070000000000000000
310
00000000000000000000000000000000000000000000000000000000000000000000000000000000000000000000000000000000000000000000000000000000000000000000000000000000000000000000000000000000000000000000000000000000000000000000000000000000000000000000000000000000000000
310
00000000000000000000000000000000000000000000000000000707000000000000070000000700000007000700000000000000000000000000000000000000000000000000000000000000000000000000000000000000000000000000000000000000000000000000000000000000000000000000000000000000000000
310
00000000000000000000000000000000000000000000000000000000000000000000000000000000000000000000000000000000000000000000000000000000000000000000000000000000000000070007000000000007000000070000000700070000000000000000000000000000000000000000000000000000000000
310
00000000000000000000000000000000000000000000000000000000000000000000000000000000000000000000000000000000000000000000000000000000000000000000000000000000000000000000000000000000000000000000000000000000000000000000000000000000000000000000000000000000000000
310
00000000000700000700000000070000000700000700070000000000000000000000000000000000000000000000000000000000000000000000000000000000000000000000000000000000000000000000000000000000000000000000000000000000000000000000000000000000000000000000000000000000000000
310
00000000000000000000000000000000000000000000000000000000000000000000000000000000000000000000000000000000000000000000000700070000000007000000070000070007000000000000000000000000000000000000000000000000000000000000000000000000000000000000000000000000000000
310
00000000000000000000000000000000000000000000000000000000000000000000000000000000000000000000000000000000000000000000000000000000000000000000000000000000000000000000000000000000000000000000000000000000000000000000000000000000000700070000000700000007000007
310
07000000000000000000000000000000000000000000000000000000000000000000000000000000000000000000000000000000000000000000000000000000000000000000000000000000000000000000000000000000000000000000000000000000000000000000000000000000000000000000000000000000000000
310
00000000000000000000000000000000000000000000000000000000000000000000000000000007000700000007000000070007070000000000000000000000000000000000000000000000000000000000000000000000000000000000000000000000000000000000000000000000000000000000000000000000000000
310
00000000000000000000000000000000000000000000000000000000000000000000000000000000000000000000000000000000000000000000000000000000000000000000000000000000000000000000000000000000000000000007000700000700000007070700000000000000000000000000000000000000000000
310
00000000000000000000000000000000000000000000000000000000000000000000000000000000000000000000000000000000000000000000000000000000000000000000000000000000000000000000000000000000000000000000000000000000000000000000000000000000000000000000000000000000000000
310
00000000000000000000000000000000000000070007000007000000070007000000000000000000000000000000000000000000000000000000000000000000000000000000000000000000000000000000000000000000000000000000000000000000000000000000000000000000000000000000000000000000000000
310
00000000000000000000000000000000000000000000000000000000000000000000000000000000000000000000000000000000000000000000000000000000000000000000000000070007000700000007070000000000000000000000000000000000000000000000000000000000000000000000000000000000000000
310
00000000000000000000000000000000000000000000000000000000000000000000000000000000000000000000000000000000000000000000000000000000000000000000000000000000000000000000000000000000000000000000000000000000000000000000000000000000000000000000000000000000000000
310
07070007000000070700000000000000000000000000000000000000000000000000000000000000000000000000000000000000000000000000000000000000000000000000000000000000000000000000000000000000000000000000000000000000000000000000000000000000000000000000000000000000000000
310
00000000000000000000000000000000000000000000000000000000000000000000000000000000000000000000000000000000000700070700000007070000000000000000000000000000000000000000000000000000000000000000000000000000000000000000000000000000000000000000000000000000000000
310
00000000000000000000000000000000000000000000000000000000000000000000000000000000000000000000000000000000000000000000000000000000000000000000000000000000000000000000000000000000000000000000000000000000000000000000000707070000000700000000000000000000000000
310
00000000000000000000000000000000000000000000000000000000000000000000000000000000000000000000000000000000000000000000000000000000000000000000000000000000000000000000000000000000000000000000000000000000000000000000000000000000000000000000000000000000000000
310
00000000000000000000000000000000000000000000000000000000000000000007000700000007000000000000000000000000000000000000000000000000000000000000000000000000000000000000000000000000000000000000000000000000000000000000000000000000000000000000000000000000000000
310
00000000000000000000000000000000000000000000000000000000000000000000000000000000000000000000000000000000000000000000000000000000000000000000000000000000000000000000000000000700070000000700000000000000000000000000000000000000000000000000000000000000000000
310
00000000000000000000000000000000000000000000000000000000000000000000000000000000000000000000000000000000000000000000000000000000000000000000000000000000000000000000000000000000000000000000000000000000000000000000000000000000000000000000000000000000000000
310
00000000000000000000000000070700000007000000000000000000000000000000000000000000000000000000000000000000000000000000000000000000000000000000000000000000000000000000000000000000000000000000000000000000000000000000000000000000000000000000000000000000000000
310
00000000000000000000000000000000000000000000000000000000000000000000000000000000000000000000000000000000000000000000000000000000000007070000000700000000000000000000000000000000000000000000000000000000000000000000000000000000000000000000000000000000000000
310
00000000000000000000000000000000000000000000000000000000000000000000000000000000000000000000000000000000000000000000000000000000000000000000000000000000000000000000000000000000000000000000000000000000000000000000000000000000000000000000000007000000070000
310
00000000000000000000000000000000000000000000000000000000000000000000000000000000000000000000000000000000000000000000000000000000000000000000000000000000000000000000000000000000000000000000000000000000000000000000000000000000000000000000000000000000000000
310
00000000000000000000000000000000000000000000000000000000000000000000000000000000000000000000070000000700000000000000000000000000000000000000000000000000000000000000000000000000000000000000000000000000000000000000000000000000000000000000000000000000000000
310
00000000000000000000000000000000000000000000000000000000000000000000000000000000000000000000000000000000000000000000000000000000000000000000000000000000000000000000000000000000000000000000000000000007000000070000000000000000000000000000000000000000000000
310
00000000000000000000000000000000000000000000000000000000000000000000000000000000000000000000000000000000000000000000000000000000000000000000000000000000000000000000000000000000000000000000000000000000000000000000000000000000000000000000000000000000000000
310
00000000000000000000000000000000000000000000000000070000000700000000000000000000000000000000000000000000000000000000000000000000000000000000000000000000000000000000000000000000000000000000000000000000000000000000000000000000000000000000000000000000000000
310
00000000000000000000000000000000000000000000000000000000000000000000000000000000000000000000000000000000000000000000000000000000000000000000000000000000000007000000070000000000000000000000000000000000000000000000000000000000000000000000000000000000000000
310
00000000000000000000000000000000000000000000000000000000000000000000000000000000000000000000000000000000000000000000000000000000000000000000000000000000000000000000000000000000000000000000000000000000000000000000000000000000000000000000000000000000000000
310
00000000070000000700000000000000000000000000000000000000000000000000000000000000000000000000000000000000000000000000000000000000000000000000000000000000000000000000000000000000000000000000000000000000000000000000000000000000000000000000000000000000000000
310
00000000000000000000000000000000000000000000000000000000000000000000000000000000000000000000000000000000000000000007000000070000000000000000000000000000000000000000000000000000000000000000000000000000000000000000000000000000000000000000000000000000000000
310
00000000000000000000000000000000000000000000000000000000000000000000000000000000000000000000000000000000000000000000000000000000000000000000000000000000000000000000000000000000000000000000000000000000000000000000000000000700000007000000000000000000000000
310
00000000000000000000000000000000000000000000000000000000000000000000000000000000000000000000000000000000000000000000000000000000000000000000000000000000000000000000000000000000000000000000000000000000000000000000000000000000000000000000000000000000000000
310
00000000000000000000000000000000000000000000000000000000000000000000000007070707070000000000000000000000000000000000000000000000000000000000000000000000000000000000000000000000000000000000000000000000000000000000000000000000000000000000000000000000000000
310
00000000000000000000000000000000000000000000000000000000000000000000000000000000000000000000000000000000000000000000000000000000000000000000000000000000000000000000000000000000000700000007000000000000000000000000000000000000000000000000000000000000000000
310
00000000000000000000000000000000000000000000000000000000000000000000000000000000000000000000000000000000000000000000000000000000000000000000000000000000000000000000000000000000000000000000000000000000000000000000000000000000000000000000000000000000000000
310
00000000000000000000000000000007000000070000000000000000000000000000000000000000000000000000000000000000000000000000000000000000000000000000000000000000000000000000000000000000000000000000000000000000000000000000000000000000000000000000000000000000000000
310
00000000000000000000000000000000000000000000000000000000000000000000000000000000000000000000000000000000000000000000000000000000000000000700000007000000000000000000000000000000000000000000000000000000000000000000000000000000000000000000000000000000000000
310
00000000000000000000000000000000000000000000000000000000000000000000000000000000000000000000000000000000000000000000000000000000000000000000000000000000000000000000000000000000000000000000000000000000000000000000000000000000000000000000000000070707070700
310
00000000000000000000000000000000000000000000000000000000000000000000000000000000000000000000000000000000000000000000000000000000000000000000000000000000000000000000000000000000000000000000000000000000000000000000000000000000000000000000000000000000000000
310
00000000000000000000000000000000000000000000000000000000000000000000000000000000000000000000000707000707000000000000000000000000000000000000000000000000000000000000000000000000000000000000000000000000000000000000000000000000000000000000000000000000000000
310
00000000000000000000000000000000000000000000000000000000000000000000000000000000000000000000000000000000000000000000000000000000000000000000000000000000000000000000000000000000000000000000000000000000070707070700000000000000000000000000000000000000000000
310
00000000000000000000000000000000000000000000000000000000000000000000000000000000000000000000000000000000000000000000000000000000000000000000000000000000000000000000000000000000000000000000000000000000000000000000000000000000000000000000000000000000000000
310
00000000000000000000000000000000000000000000000000000700000707000000000000000000000000000000000000000000000000000000000000000000000000000000000000000000000000000000000000000000000000000000000000000000000000000000000000000000000000000000000000000000000000
310
00000000000000000000000000000000000000000000000000000000000000000000000000000000000000000000000000000000000000000000000000000000000000000000000000000000000000070000070700000000000000000000000000000000000000000000000000000000000000000000000000000000000000
310
00000000000000000000000000000000000000000000000000000000000000000000000000000000000000000000000000000000000000000000000000000000000000000000000000000000000000000000000000000000000000000000000000000000000000000000000000000000000000000000000000000000000000
310
00000000000707070707000000000000000000000000000000000000000000000000000000000000000000000000000000000000000000000000000000000000000000000000000000000000000000000000000000000000000000000000000000000000000000000000000000000000000000000000000000000000000000
310
00000000000000000000000000000000000000000000000000000000000000000000000000000000000000000000000000000000000000000000070000070700000000000000000000000000000000000000000000000000000000000000000000000000000000000000000000000000000000000000000000000000000000
310
00000000000000000000000000000000000000000000000000000000000000000000000000000000000000000000000000000000000000000000000000000000000000000000000000000000000000000000000000000000000000000000000000000000000000000000000000000007000007070000000000000000000000
310
00000000000000000000000000000000000000000000000000000000000000000000000000000000000000000000000000000000000000000000000000000000000000000000000000000000000000000000000000000000000000000000000000000000000000000000000000000000000000000000000000000000000000
310
00000000000000000000000000000000000000000000000000000000000000000000000000070000070700000000000000000000000000000000000000000000000000000000000000000000000000000000000000000000000000000000000000000000000000000000000000000000000000000000000000000000000000
310
00000000000000000000000000000000000000000000000000000000000000000000000000000000000000000000000000000000000000000000000000000000000000000000000000000000000000000000000000000000000007000007070000000000000000000000000000000000000000000000000000000000000000
310
00000000000000000000000000000000000000000000000000000000000000000000000000000000000000000000000000000000000000000000000000000000000000000000000000000000000000000000000000000000000000000000000000000000000000000000000000000000000000000000000000000000000000
310
00000000000000000000000000000000070000070700000000000000000000000000000000000000000000000000000000000000000000000000000000000000000000000000000000000000000000000000000000000000000000000000000000000000000000000000000000000000000000000000000000000000000000
310
00000000000000000000000000000000000000000000000000000000000000000000000000000000000000000000000000000000000000000000000000000000000000000007000007070000000000000000000000000000000000000000000000000000000000000000000000000000000000000000000000000000000000
310
00000000000000000000000000000000000000000000000000000000000000000000000000000000000000000000000000000000000000000000000000000000000000000000000000000000000000000000000000000000000000000000000000000000000000000000000000000000000000000000000000000700000007
310
00000000000000000000000000000000000000000000000000000000000000000000000000000000000000000000000000000000000000000000000000000000000000000000000000000000000000000000000000000000000000000000000000000000000000000000000000000000000000000000000000000000000000
310
00000000000000000000000000000000000000000000000000000000000000000000000000000000000000000000000007000000070000000000000000000000000000000000000000000000000000000000000000000000000000000000000000000000000000000000000000000000000000000000000000000000000000
310
00000000000000000000000000000000000000000000000000000000000000000000000000000000000000000000000000000000000000000000000000000000000000000000000000000000000000000000000000000000000000000000000000000000000700000007000000000000000000000000000000000000000000
310
00000000000000000000000000000000000000000000000000000000000000000000000000000000000000000000000000000000000000000000000000000000000000000000000000000000000000000000000000000000000000000000000000000000000000000000000000000000000000000000000000000000000000
310
00000000000000000000000000000000000000000000000000000007000000070000000000000000000000000000000000000000000000000000000000000000000000000000000000000000000000000000000000000000000000000000000000000000000000000000000000000000000000000000000000000000000000
310
00000000000000000000000000000000000000000000000000000000000000000000000000000000000000000000000000000000000000000000000000000000000000000000000000000000000000000707000007000000000000000000000000000000000000000000000000000000000000000000000000000000000000
310
00000000000000000000000000000000000000000000000000000000000000000000000000000000000000000000000000000000000000000000000000000000000000000000000000000000000000000000000000000000000000000000000000000000000000000000000000000000000000000000000000000000000000
310
00000000000000070000070700000000000000000000000000000000000000000000000000000000000000000000000000000000000000000000000000000000000000000000000000000000000000000000000000000000000000000000000000000000000000000000000000000000000000000000000000000000000000
310
00000000000000000000000000000000000000000000000000000000000000000000000000000000000000000000000000000000000000000000000007070707070000000000000000000000000000000000000000000000000000000000000000000000000000000000000000000000000000000000000000000000000000
310
00000000000000000000000000000000000000000000000000000000000000000000000000000000000000000000000000000000000000000000000000000000000000000000000000000000000000000000000000000000000000000000000000000000000000000000000000000000000007000007000000000000000000
310
00000000000000000000000000000000000000000000000000000000000000000000000000000000000000000000000000000000000000000000000000000000000000000000000000000000000000000000000000000000000000000000000000000000000000000000000000000000000000000000000000000000000000
310
00000000000000000000000000000000000000000000000000000000000000000000000000000000070700070700000000000000000000000000000000000000000000000000000000000000000000000000000000000000000000000000000000000000000000000000000000000000000000000000000000000000000000
310
00000000000000000000000000000000000000000000000000000000000000000000000000000000000000000000000000000000000000000000000000000000000000000000000000000000000000000000000000000000000000000000070707000000000000000000000000000000000000000000000000000000000000
310
00000000000000000000000000000000000000000000000000000000000000000000000000000000000000000000000000000000000000000000000000000000000000000000000000000000000000000000000000000000000000000000000000000000000000000000000000000000000000000000000000000000000000
310
000000000000000000000000000000000000000000000000000000000000000000000000000000000000000000000000000000000000000000000000000000000000000000000000000000000000000000000000000000000000000000000000000000000000000000000000
  0
ENDSEC
  0
EOF
