  0
SECTION
  2
HEADER
  9
$ACADVER
  1
AC1014
  9
$ACADMAINTVER
 70
     9
  9
$DWGCODEPAGE
  3
ANSI_1252
  9
$INSBASE
 10
0.0
 20
0.0
 30
0.0
  9
$EXTMIN
 10
0.0
 20
0.0000000000000365
 30
0.0
  9
$EXTMAX
 10
1820.0
 20
795.0
 30
0.0
  9
$LIMMIN
 10
0.0
 20
0.0
  9
$LIMMAX
 10
12.0
 20
9.0
  9
$ORTHOMODE
 70
     0
  9
$REGENMODE
 70
     1
  9
$FILLMODE
 70
     1
  9
$QTEXTMODE
 70
     0
  9
$MIRRTEXT
 70
     1
  9
$DRAGMODE
 70
     2
  9
$LTSCALE
 40
1.0
  9
$OSMODE
 70
    37
  9
$ATTMODE
 70
     1
  9
$TEXTSIZE
 40
0.2
  9
$TRACEWID
 40
0.05
  9
$TEXTSTYLE
  7
STANDARD
  9
$CLAYER
  8
0
  9
$CELTYPE
  6
CONTINUOUS
  9
$CECOLOR
 62
   256
  9
$CELTSCALE
 40
1.0
  9
$DELOBJ
 70
     1
  9
$DISPSILH
 70
     0
  9
$DIMSCALE
 40
1.0
  9
$DIMASZ
 40
0.18
  9
$DIMEXO
 40
0.0625
  9
$DIMDLI
 40
0.38
  9
$DIMRND
 40
0.0
  9
$DIMDLE
 40
0.0
  9
$DIMEXE
 40
0.18
  9
$DIMTP
 40
0.0
  9
$DIMTM
 40
0.0
  9
$DIMTXT
 40
0.18
  9
$DIMCEN
 40
0.09
  9
$DIMTSZ
 40
0.0
  9
$DIMTOL
 70
     0
  9
$DIMLIM
 70
     0
  9
$DIMTIH
 70
     1
  9
$DIMTOH
 70
     1
  9
$DIMSE1
 70
     0
  9
$DIMSE2
 70
     0
  9
$DIMTAD
 70
     0
  9
$DIMZIN
 70
     0
  9
$DIMBLK
  1

  9
$DIMASO
 70
     1
  9
$DIMSHO
 70
     1
  9
$DIMPOST
  1

  9
$DIMAPOST
  1

  9
$DIMALT
 70
     0
  9
$DIMALTD
 70
     2
  9
$DIMALTF
 40
25.4
  9
$DIMLFAC
 40
1.0
  9
$DIMTOFL
 70
     0
  9
$DIMTVP
 40
0.0
  9
$DIMTIX
 70
     0
  9
$DIMSOXD
 70
     0
  9
$DIMSAH
 70
     0
  9
$DIMBLK1
  1

  9
$DIMBLK2
  1

  9
$DIMSTYLE
  2
STANDARD
  9
$DIMCLRD
 70
     0
  9
$DIMCLRE
 70
     0
  9
$DIMCLRT
 70
     0
  9
$DIMTFAC
 40
1.0
  9
$DIMGAP
 40
0.09
  9
$DIMJUST
 70
     0
  9
$DIMSD1
 70
     0
  9
$DIMSD2
 70
     0
  9
$DIMTOLJ
 70
     1
  9
$DIMTZIN
 70
     0
  9
$DIMALTZ
 70
     0
  9
$DIMALTTZ
 70
     0
  9
$DIMFIT
 70
     3
  9
$DIMUPT
 70
     0
  9
$DIMUNIT
 70
     2
  9
$DIMDEC
 70
     4
  9
$DIMTDEC
 70
     4
  9
$DIMALTU
 70
     2
  9
$DIMALTTD
 70
     2
  9
$DIMTXSTY
  7
STANDARD
  9
$DIMAUNIT
 70
     0
  9
$LUNITS
 70
     2
  9
$LUPREC
 70
     4
  9
$SKETCHINC
 40
0.1
  9
$FILLETRAD
 40
0.0
  9
$AUNITS
 70
     0
  9
$AUPREC
 70
     0
  9
$MENU
  1
.
  9
$ELEVATION
 40
0.0
  9
$PELEVATION
 40
0.0
  9
$THICKNESS
 40
0.0
  9
$LIMCHECK
 70
     0
  9
$BLIPMODE
 70
     0
  9
$CHAMFERA
 40
0.0
  9
$CHAMFERB
 40
0.0
  9
$CHAMFERC
 40
0.0
  9
$CHAMFERD
 40
0.0
  9
$SKPOLY
 70
     0
  9
$TDCREATE
 40
2455235.769629803
  9
$TDUPDATE
 40
2455235.834354016
  9
$TDINDWG
 40
0.0647243981
  9
$TDUSRTIMER
 40
0.0647243981
  9
$USRTIMER
 70
     1
  9
$ANGBASE
 50
0.0
  9
$ANGDIR
 70
     0
  9
$PDMODE
 70
     0
  9
$PDSIZE
 40
0.0
  9
$PLINEWID
 40
0.0
  9
$COORDS
 70
     1
  9
$SPLFRAME
 70
     0
  9
$SPLINETYPE
 70
     6
  9
$SPLINESEGS
 70
     8
  9
$ATTDIA
 70
     0
  9
$ATTREQ
 70
     1
  9
$HANDLING
 70
 22529
  9
$HANDSEED
  5
1F1
  9
$SURFTAB1
 70
     6
  9
$SURFTAB2
 70
     6
  9
$SURFTYPE
 70
     6
  9
$SURFU
 70
     6
  9
$SURFV
 70
     6
  9
$UCSNAME
  2

  9
$UCSORG
 10
0.0
 20
0.0
 30
0.0
  9
$UCSXDIR
 10
1.0
 20
0.0
 30
0.0
  9
$UCSYDIR
 10
0.0
 20
1.0
 30
0.0
  9
$PUCSNAME
  2

  9
$PUCSORG
 10
0.0
 20
0.0
 30
0.0
  9
$PUCSXDIR
 10
1.0
 20
0.0
 30
0.0
  9
$PUCSYDIR
 10
0.0
 20
1.0
 30
0.0
  9
$USERI1
 70
     0
  9
$USERI2
 70
     0
  9
$USERI3
 70
     0
  9
$USERI4
 70
     0
  9
$USERI5
 70
     0
  9
$USERR1
 40
0.0
  9
$USERR2
 40
0.0
  9
$USERR3
 40
0.0
  9
$USERR4
 40
0.0
  9
$USERR5
 40
0.0
  9
$WORLDVIEW
 70
     1
  9
$SHADEDGE
 70
     3
  9
$SHADEDIF
 70
    70
  9
$TILEMODE
 70
     1
  9
$MAXACTVP
 70
    64
  9
$PINSBASE
 10
0.0
 20
0.0
 30
0.0
  9
$PLIMCHECK
 70
     0
  9
$PEXTMIN
 10
1.000000000000000E+20
 20
1.000000000000000E+20
 30
1.000000000000000E+20
  9
$PEXTMAX
 10
-1.000000000000000E+20
 20
-1.000000000000000E+20
 30
-1.000000000000000E+20
  9
$PLIMMIN
 10
0.0
 20
0.0
  9
$PLIMMAX
 10
12.0
 20
9.0
  9
$UNITMODE
 70
     0
  9
$VISRETAIN
 70
     1
  9
$PLINEGEN
 70
     0
  9
$PSLTSCALE
 70
     1
  9
$TREEDEPTH
 70
  3020
  9
$PICKSTYLE
 70
     1
  9
$CMLSTYLE
  2
STANDARD
  9
$CMLJUST
 70
     0
  9
$CMLSCALE
 40
1.0
  9
$PROXYGRAPHICS
 70
     1
  9
$MEASUREMENT
 70
     0
  0
ENDSEC
  0
SECTION
  2
CLASSES
  0
CLASS
  1
ACDBDICTIONARYWDFLT
  2
AcDbDictionaryWithDefault
  3
AutoCAD 2000
 90
        0
280
     0
281
     0
  0
CLASS
  1
ACDBPLACEHOLDER
  2
AcDbPlaceHolder
  3
AutoCAD 2000
 90
        0
280
     0
281
     0
  0
CLASS
  1
LAYOUT
  2
AcDbLayout
  3
AutoCAD 2000
 90
        0
280
     0
281
     0
  0
CLASS
  1
DICTIONARYVAR
  2
AcDbDictionaryVar
  3
AutoCAD 2000
 90
        0
280
     0
281
     0
  0
CLASS
  1
LONG_TRANSACTION
  2
AcDbLongTransaction
  3
AutoCAD 2000
 90
        0
280
     0
281
     0
  0
CLASS
  1
LWPOLYLINE
  2
AcDbPolyline
  3
AutoCAD 2000
 90
        0
280
     0
281
     1
  0
CLASS
  1
HATCH
  2
AcDbHatch
  3
AutoCAD 2000
 90
        0
280
     0
281
     1
  0
CLASS
  1
XRECORD
  2
AcDbXrecord
  3
AutoCAD 2000
 90
        0
280
     0
281
     0
  0
ENDSEC
  0
SECTION
  2
TABLES
  0
TABLE
  2
VPORT
  5
8
330
0
100
AcDbSymbolTable
 70
     3
  0
VPORT
  5
1CC
330
8
100
AcDbSymbolTableRecord
100
AcDbViewportTableRecord
  2
*ACTIVE
 70
     0
 10
0.0
 20
0.0
 11
1.0
 21
1.0
 12
910.0
 22
397.5
 13
0.0
 23
0.0
 14
1.0
 24
1.0
 15
0.0
 25
0.0
 16
0.0
 26
0.0
 36
1.0
 17
0.0
 27
0.0
 37
0.0
 40
894.3164286782726
 41
2.041621029572836
 42
50.0
 43
0.0
 44
0.0
 50
0.0
 51
0.0
 71
     0
 72
   100
 73
     1
 74
     3
 75
     0
 76
     0
 77
     0
 78
     0
  0
ENDTAB
  0
TABLE
  2
LTYPE
  5
5
330
0
100
AcDbSymbolTable
 70
     1
  0
LTYPE
  5
13
330
5
100
AcDbSymbolTableRecord
100
AcDbLinetypeTableRecord
  2
BYBLOCK
 70
     0
  3

 72
    65
 73
     0
 40
0.0
  0
LTYPE
  5
14
330
5
100
AcDbSymbolTableRecord
100
AcDbLinetypeTableRecord
  2
BYLAYER
 70
     0
  3

 72
    65
 73
     0
 40
0.0
  0
LTYPE
  5
15
330
5
100
AcDbSymbolTableRecord
100
AcDbLinetypeTableRecord
  2
CONTINUOUS
 70
     0
  3
Solid line
 72
    65
 73
     0
 40
0.0
  0
ENDTAB
  0
TABLE
  2
LAYER
  5
2
330
0
100
AcDbSymbolTable
 70
     1
  0
LAYER
  5
10
330
2
100
AcDbSymbolTableRecord
100
AcDbLayerTableRecord
  2
0
 70
     0
 62
     7
  6
CONTINUOUS
  0
ENDTAB
  0
TABLE
  2
STYLE
  5
3
330
0
100
AcDbSymbolTable
 70
     1
  0
STYLE
  5
11
330
3
100
AcDbSymbolTableRecord
100
AcDbTextStyleTableRecord
  2
STANDARD
 70
     0
 40
0.0
 41
1.0
 50
0.0
 71
     0
 42
0.2
  3
txt
  4

  0
ENDTAB
  0
TABLE
  2
VIEW
  5
6
330
0
100
AcDbSymbolTable
 70
     0
  0
ENDTAB
  0
TABLE
  2
UCS
  5
7
330
0
100
AcDbSymbolTable
 70
     0
  0
ENDTAB
  0
TABLE
  2
APPID
  5
9
330
0
100
AcDbSymbolTable
 70
     1
  0
APPID
  5
12
330
9
100
AcDbSymbolTableRecord
100
AcDbRegAppTableRecord
  2
ACAD
 70
     0
  0
ENDTAB
  0
TABLE
  2
DIMSTYLE
  5
A
330
0
100
AcDbSymbolTable
 70
     1
  0
DIMSTYLE
105
1A8
330
A
100
AcDbSymbolTableRecord
100
AcDbDimStyleTableRecord
  2
STANDARD
 70
     0
  3

  4

  5

  6

  7

 40
1.0
 41
0.18
 42
0.0625
 43
0.38
 44
0.18
 45
0.0
 46
0.0
 47
0.0
 48
0.0
140
0.18
141
0.09
142
0.0
143
25.4
144
1.0
145
0.0
146
1.0
147
0.09
 71
     0
 72
     0
 73
     1
 74
     1
 75
     0
 76
     0
 77
     0
 78
     0
170
     0
171
     2
172
     0
173
     0
174
     0
175
     0
176
     0
177
     0
178
     0
270
     2
271
     4
272
     4
273
     2
274
     2
340
11
275
     0
280
     0
281
     0
282
     0
283
     1
284
     0
285
     0
286
     0
287
     3
288
     0
  0
ENDTAB
  0
TABLE
  2
BLOCK_RECORD
  5
1
330
0
100
AcDbSymbolTable
 70
     0
  0
BLOCK_RECORD
  5
1E
102
{ACAD_XDICTIONARY
360
1EF
102
}
330
1
100
AcDbSymbolTableRecord
100
AcDbBlockTableRecord
  2
*MODEL_SPACE
  0
BLOCK_RECORD
  5
1A
102
{ACAD_XDICTIONARY
360
1ED
102
}
330
1
100
AcDbSymbolTableRecord
100
AcDbBlockTableRecord
  2
*PAPER_SPACE
  0
ENDTAB
  0
ENDSEC
  0
SECTION
  2
BLOCKS
  0
BLOCK
  5
1F
330
1E
100
AcDbEntity
  8
0
100
AcDbBlockBegin
  2
*MODEL_SPACE
 70
     0
 10
0.0
 20
0.0
 30
0.0
  3
*MODEL_SPACE
  1

  0
ENDBLK
  5
20
330
1E
100
AcDbEntity
  8
0
100
AcDbBlockEnd
  0
BLOCK
  5
1B
330
1A
100
AcDbEntity
 67
     1
  8
0
100
AcDbBlockBegin
  2
*PAPER_SPACE
 70
     0
 10
0.0
 20
0.0
 30
0.0
  3
*PAPER_SPACE
  1

  0
ENDBLK
  5
1C
330
1A
100
AcDbEntity
 67
     1
  8
0
100
AcDbBlockEnd
  0
ENDSEC
  0
SECTION
  2
ENTITIES
  0
LINE
  5
22
330
1E
100
AcDbEntity
  8
0
100
AcDbLine
 10
366.703
 20
56.3863
 30
0.0
 11
415.9930000000001
 21
43.7396
 31
0.0
  0
LINE
  5
23
330
1E
100
AcDbEntity
  8
0
100
AcDbLine
 10
386.221
 20
75.8108
 30
0.0
 11
435.5109999999999
 21
63.1641
 31
0.0
  0
LINE
  5
24
330
1E
100
AcDbEntity
  8
0
100
AcDbLine
 10
319.7799999999999
 20
69.095
 30
0.0
 11
366.703
 21
56.3863
 31
0.0
  0
LINE
  5
25
330
1E
100
AcDbEntity
  8
0
100
AcDbLine
 10
614.1779999999999
 20
17.2434
 30
0.0
 11
704.082
 21
11.65159999999999
 31
0.0
  0
LINE
  5
26
330
1E
100
AcDbEntity
  8
0
100
AcDbLine
 10
552.428
 20
23.84099999999999
 30
0.0
 11
614.1779999999999
 21
17.2434
 31
0.0
  0
LINE
  5
27
330
1E
100
AcDbEntity
  8
0
100
AcDbLine
 10
506.6869999999999
 20
28.46859999999999
 30
0.0
 11
552.428
 21
23.84099999999999
 31
0.0
  0
LINE
  5
28
330
1E
100
AcDbEntity
  8
0
100
AcDbLine
 10
633.696
 20
36.6678
 30
0.0
 11
723.6
 21
31.076
 31
0.0
  0
LINE
  5
29
330
1E
100
AcDbEntity
  8
0
100
AcDbLine
 10
571.946
 20
43.2654
 30
0.0
 11
633.696
 21
36.6678
 31
0.0
  0
LINE
  5
2A
330
1E
100
AcDbEntity
  8
0
100
AcDbLine
 10
526.205
 20
47.89299999999999
 30
0.0
 11
571.946
 21
43.2654
 31
0.0
  0
LINE
  5
2B
330
1E
100
AcDbEntity
  8
0
100
AcDbLine
 10
475.7319999999999
 20
55.9851
 30
0.0
 11
526.205
 21
47.89299999999999
 31
0.0
  0
LINE
  5
2C
330
1E
100
AcDbEntity
  8
0
100
AcDbLine
 10
435.5109999999999
 20
63.1641
 30
0.0
 11
475.7319999999999
 21
55.9851
 31
0.0
  0
LINE
  5
2D
330
1E
100
AcDbEntity
  8
0
100
AcDbLine
 10
456.214
 20
36.56069999999999
 30
0.0
 11
506.6869999999999
 21
28.46859999999999
 31
0.0
  0
LINE
  5
2E
330
1E
100
AcDbEntity
  8
0
100
AcDbLine
 10
415.9930000000001
 20
43.7396
 30
0.0
 11
456.214
 21
36.56069999999999
 31
0.0
  0
LINE
  5
2F
330
1E
100
AcDbEntity
  8
0
100
AcDbLine
 10
3.44218
 20
314.653
 30
0.0
 11
13.3492
 21
267.885
 31
0.0
  0
LINE
  5
30
330
1E
100
AcDbEntity
  8
0
100
AcDbLine
 10
339.298
 20
88.5194
 30
0.0
 11
386.221
 21
75.8108
 31
0.0
  0
LINE
  5
31
330
1E
100
AcDbEntity
  8
0
100
AcDbLine
 10
274.049
 20
83.83720000000009
 30
0.0
 11
319.7799999999999
 21
69.095
 31
0.0
  0
LINE
  5
32
330
1E
100
AcDbEntity
  8
0
100
AcDbLine
 10
99.89449999999999
 20
206.3549999999999
 30
0.0
 11
134.1049999999999
 21
183.269
 31
0.0
  0
LINE
  5
33
330
1E
100
AcDbEntity
  8
0
100
AcDbLine
 10
70.1733
 20
229.739
 30
0.0
 11
99.89449999999999
 21
206.3549999999999
 31
0.0
  0
LINE
  5
34
330
1E
100
AcDbEntity
  8
0
100
AcDbLine
 10
80.37649999999999
 20
186.93
 30
0.0
 11
114.587
 21
163.844
 31
0.0
  0
LINE
  5
35
330
1E
100
AcDbEntity
  8
0
100
AcDbLine
 10
617.493
 20
110.694
 30
0.0
 11
653.4059999999999
 21
106.3289999999999
 31
0.0
  0
LINE
  5
36
330
1E
100
AcDbEntity
  8
0
100
AcDbLine
 10
582.284
 20
116.252
 30
0.0
 11
617.493
 21
110.694
 31
0.0
  0
LINE
  5
37
330
1E
100
AcDbEntity
  8
0
100
AcDbLine
 10
293.567
 20
103.262
 30
0.0
 11
339.298
 21
88.5194
 31
0.0
  0
LINE
  5
38
330
1E
100
AcDbEntity
  8
0
100
AcDbLine
 10
553.061
 20
123.0
 30
0.0
 11
582.284
 21
116.252
 31
0.0
  0
LINE
  5
39
330
1E
100
AcDbEntity
  8
0
100
AcDbLine
 10
522.0769999999999
 20
131.733
 30
0.0
 11
553.061
 21
123.0
 31
0.0
  0
LINE
  5
3A
330
1E
100
AcDbEntity
  8
0
100
AcDbLine
 10
214.298
 20
136.8129999999999
 30
0.0
 11
254.519
 21
117.496
 31
0.0
  0
LINE
  5
3B
330
1E
100
AcDbEntity
  8
0
100
AcDbLine
 10
254.519
 20
117.496
 30
0.0
 11
293.567
 21
103.262
 31
0.0
  0
LINE
  5
3C
330
1E
100
AcDbEntity
  8
0
100
AcDbLine
 10
194.7799999999999
 20
117.3889999999999
 30
0.0
 11
235.0009999999999
 21
98.071
 31
0.0
  0
LINE
  5
3D
330
1E
100
AcDbEntity
  8
0
100
AcDbLine
 10
493.558
 20
141.656
 30
0.0
 11
522.0769999999999
 21
131.733
 31
0.0
  0
LINE
  5
3E
330
1E
100
AcDbEntity
  8
0
100
AcDbLine
 10
467.504
 20
153.168
 30
0.0
 11
493.558
 21
141.656
 31
0.0
  0
LINE
  5
3F
330
1E
100
AcDbEntity
  8
0
100
AcDbLine
 10
446.73
 20
164.283
 30
0.0
 11
467.504
 21
153.168
 31
0.0
  0
LINE
  5
40
330
1E
100
AcDbEntity
  8
0
100
AcDbLine
 10
426.3099999999999
 20
179.367
 30
0.0
 11
446.73
 21
164.283
 31
0.0
  0
LINE
  5
41
330
1E
100
AcDbEntity
  8
0
100
AcDbLine
 10
408.0009999999999
 20
195.562
 30
0.0
 11
426.3099999999999
 21
179.367
 31
0.0
  0
LINE
  5
42
330
1E
100
AcDbEntity
  8
0
100
AcDbLine
 10
391.101
 20
216.997
 30
0.0
 11
408.0009999999999
 21
195.562
 31
0.0
  0
LINE
  5
43
330
1E
100
AcDbEntity
  8
0
100
AcDbLine
 10
379.834
 20
233.669
 30
0.0
 11
391.101
 21
216.997
 31
0.0
  0
LINE
  5
44
330
1E
100
AcDbEntity
  8
0
100
AcDbLine
 10
174.352
 20
157.553
 30
0.0
 11
214.298
 21
136.8129999999999
 31
0.0
  0
LINE
  5
45
330
1E
100
AcDbEntity
  8
0
100
AcDbLine
 10
134.1049999999999
 20
183.269
 30
0.0
 11
174.352
 21
157.553
 31
0.0
  0
LINE
  5
46
330
1E
100
AcDbEntity
  8
0
100
AcDbLine
 10
154.834
 20
138.1289999999999
 30
0.0
 11
194.7799999999999
 21
117.3889999999999
 31
0.0
  0
LINE
  5
47
330
1E
100
AcDbEntity
  8
0
100
AcDbLine
 10
114.587
 20
163.844
 30
0.0
 11
154.834
 21
138.1289999999999
 31
0.0
  0
LINE
  5
48
330
1E
100
AcDbEntity
  8
0
100
AcDbLine
 10
235.0009999999999
 20
98.071
 30
0.0
 11
274.049
 21
83.83720000000009
 31
0.0
  0
LINE
  5
49
330
1E
100
AcDbEntity
  8
0
100
AcDbLine
 10
50.6554
 20
210.3149999999999
 30
0.0
 11
80.37649999999999
 21
186.93
 31
0.0
  0
LINE
  5
4A
330
1E
100
AcDbEntity
  8
0
100
AcDbLine
 10
369.2709999999999
 20
251.929
 30
0.0
 11
379.834
 21
233.669
 31
0.0
  0
LINE
  5
4B
330
1E
100
AcDbEntity
  8
0
100
AcDbLine
 10
361.173
 20
275.746
 30
0.0
 11
369.2709999999999
 21
251.929
 31
0.0
  0
LINE
  5
4C
330
1E
100
AcDbEntity
  8
0
100
AcDbLine
 10
23.86349999999999
 20
244.011
 30
0.0
 11
50.6554
 21
210.3149999999999
 31
0.0
  0
LINE
  5
4D
330
1E
100
AcDbEntity
  8
0
100
AcDbLine
 10
13.3492
 20
267.885
 30
0.0
 11
23.86349999999999
 21
244.011
 31
0.0
  0
LINE
  5
4E
330
1E
100
AcDbEntity
  8
0
100
AcDbLine
 10
3.44218
 20
314.653
 30
0.0
 11
13.3492
 21
267.885
 31
0.0
  0
LINE
  5
4F
330
1E
100
AcDbEntity
  8
0
100
AcDbLine
 10
0.0
 20
350.441
 30
0.0
 11
0.0
 21
397.5
 31
0.0
  0
LINE
  5
50
330
1E
100
AcDbEntity
  8
0
100
AcDbLine
 10
0.0
 20
350.441
 30
0.0
 11
3.44218
 21
314.653
 31
0.0
  0
LINE
  5
51
330
1E
100
AcDbEntity
  8
0
100
AcDbLine
 10
1052.59
 20
0.0000000000000367
 30
0.0
 11
1115.74
 21
0.0000000000000367
 31
0.0
  0
LINE
  5
52
330
1E
100
AcDbEntity
  8
0
100
AcDbLine
 10
989.4339999999999
 20
0.0000000000000367
 30
0.0
 11
1052.59
 21
0.0000000000000367
 31
0.0
  0
LINE
  5
53
330
1E
100
AcDbEntity
  8
0
100
AcDbLine
 10
653.4059999999999
 20
106.3289999999999
 30
0.0
 11
705.0930000000001
 21
101.1679999999999
 31
0.0
  0
LINE
  5
54
330
1E
100
AcDbEntity
  8
0
100
AcDbLine
 10
839.531
 20
3.92858000000004
 30
0.0
 11
914.928
 21
1.964290000000039
 31
0.0
  0
LINE
  5
55
330
1E
100
AcDbEntity
  8
0
100
AcDbLine
 10
859.049
 20
23.353
 30
0.0
 11
934.4459999999999
 21
21.3887
 31
0.0
  0
LINE
  5
56
330
1E
100
AcDbEntity
  8
0
100
AcDbLine
 10
791.4229999999999
 20
27.2145
 30
0.0
 11
859.049
 21
23.353
 31
0.0
  0
LINE
  5
57
330
1E
100
AcDbEntity
  8
0
100
AcDbLine
 10
884.5919999999999
 20
90.77099999999999
 30
0.0
 11
947.146
 21
89.23709999999999
 31
0.0
  0
LINE
  5
58
330
1E
100
AcDbEntity
  8
0
100
AcDbLine
 10
828.6430000000001
 20
93.78629999999999
 30
0.0
 11
884.5919999999999
 21
90.77099999999999
 31
0.0
  0
LINE
  5
59
330
1E
100
AcDbEntity
  8
0
100
AcDbLine
 10
772.693
 20
96.80150000000001
 30
0.0
 11
828.6430000000001
 21
93.78629999999999
 31
0.0
  0
LINE
  5
5A
330
1E
100
AcDbEntity
  8
0
100
AcDbLine
 10
705.0930000000001
 20
101.1679999999999
 30
0.0
 11
772.693
 21
96.80150000000001
 31
0.0
  0
LINE
  5
5B
330
1E
100
AcDbEntity
  8
0
100
AcDbLine
 10
723.6
 20
31.076
 30
0.0
 11
791.4229999999999
 21
27.2145
 31
0.0
  0
LINE
  5
5C
330
1E
100
AcDbEntity
  8
0
100
AcDbLine
 10
1072.11
 20
19.42439999999999
 30
0.0
 11
1115.74
 21
19.42689999999999
 31
0.0
  0
LINE
  5
5D
330
1E
100
AcDbEntity
  8
0
100
AcDbLine
 10
1062.72
 20
87.70329999999999
 30
0.0
 11
1115.74
 21
87.70329999999999
 31
0.0
  0
LINE
  5
5E
330
1E
100
AcDbEntity
  8
0
100
AcDbLine
 10
1009.7
 20
87.70329999999999
 30
0.0
 11
1062.72
 21
87.70329999999999
 31
0.0
  0
LINE
  5
5F
330
1E
100
AcDbEntity
  8
0
100
AcDbLine
 10
947.146
 20
89.23709999999999
 30
0.0
 11
1009.7
 21
87.70329999999999
 31
0.0
  0
LINE
  5
60
330
1E
100
AcDbEntity
  8
0
100
AcDbLine
 10
1008.95
 20
19.42439999999999
 30
0.0
 11
1072.11
 21
19.42439999999999
 31
0.0
  0
LINE
  5
61
330
1E
100
AcDbEntity
  8
0
100
AcDbLine
 10
934.4459999999999
 20
21.3887
 30
0.0
 11
1008.95
 21
19.42439999999999
 31
0.0
  0
LINE
  5
62
330
1E
100
AcDbEntity
  8
0
100
AcDbLine
 10
771.905
 20
7.79007000000004
 30
0.0
 11
839.531
 21
3.92858000000004
 31
0.0
  0
LINE
  5
63
330
1E
100
AcDbEntity
  8
0
100
AcDbLine
 10
704.082
 20
11.65159999999999
 30
0.0
 11
771.905
 21
7.79007000000004
 31
0.0
  0
LINE
  5
64
330
1E
100
AcDbEntity
  8
0
100
AcDbLine
 10
914.928
 20
1.964290000000039
 30
0.0
 11
989.4339999999999
 21
0.0000000000000367
 31
0.0
  0
LINE
  5
65
330
1E
100
AcDbEntity
  8
0
100
AcDbLine
 10
914.928
 20
1.964290000000039
 30
0.0
 11
989.4339999999999
 21
0.0000000000000365
 31
0.0
  0
LINE
  5
66
330
1E
100
AcDbEntity
  8
0
100
AcDbLine
 10
3.44218
 20
480.3469999999999
 30
0.0
 11
13.3492
 21
527.115
 31
0.0
  0
LINE
  5
67
330
1E
100
AcDbEntity
  8
0
100
AcDbLine
 10
369.2709999999999
 20
543.071
 30
0.0
 11
379.834
 21
561.331
 31
0.0
  0
LINE
  5
68
330
1E
100
AcDbEntity
  8
0
100
AcDbLine
 10
361.173
 20
519.254
 30
0.0
 11
369.2709999999999
 21
543.071
 31
0.0
  0
LINE
  5
69
330
1E
100
AcDbEntity
  8
0
100
AcDbLine
 10
99.89449999999999
 20
588.6449999999999
 30
0.0
 11
134.1049999999999
 21
611.7309999999999
 31
0.0
  0
LINE
  5
6A
330
1E
100
AcDbEntity
  8
0
100
AcDbLine
 10
70.1733
 20
565.261
 30
0.0
 11
99.89449999999999
 21
588.6449999999999
 31
0.0
  0
LINE
  5
6B
330
1E
100
AcDbEntity
  8
0
100
AcDbLine
 10
80.37649999999999
 20
608.07
 30
0.0
 11
114.587
 21
631.156
 31
0.0
  0
LINE
  5
6C
330
1E
100
AcDbEntity
  8
0
100
AcDbLine
 10
446.73
 20
630.717
 30
0.0
 11
467.504
 21
641.832
 31
0.0
  0
LINE
  5
6D
330
1E
100
AcDbEntity
  8
0
100
AcDbLine
 10
426.3099999999999
 20
615.633
 30
0.0
 11
446.73
 21
630.717
 31
0.0
  0
LINE
  5
6E
330
1E
100
AcDbEntity
  8
0
100
AcDbLine
 10
408.0009999999999
 20
599.4379999999999
 30
0.0
 11
426.3099999999999
 21
615.633
 31
0.0
  0
LINE
  5
6F
330
1E
100
AcDbEntity
  8
0
100
AcDbLine
 10
391.101
 20
578.003
 30
0.0
 11
408.0009999999999
 21
599.4379999999999
 31
0.0
  0
LINE
  5
70
330
1E
100
AcDbEntity
  8
0
100
AcDbLine
 10
379.834
 20
561.331
 30
0.0
 11
391.101
 21
578.003
 31
0.0
  0
LINE
  5
71
330
1E
100
AcDbEntity
  8
0
100
AcDbLine
 10
493.558
 20
653.344
 30
0.0
 11
522.0769999999999
 21
663.2669999999999
 31
0.0
  0
LINE
  5
72
330
1E
100
AcDbEntity
  8
0
100
AcDbLine
 10
467.504
 20
641.832
 30
0.0
 11
493.558
 21
653.344
 31
0.0
  0
LINE
  5
73
330
1E
100
AcDbEntity
  8
0
100
AcDbLine
 10
174.352
 20
637.447
 30
0.0
 11
214.298
 21
658.187
 31
0.0
  0
LINE
  5
74
330
1E
100
AcDbEntity
  8
0
100
AcDbLine
 10
134.1049999999999
 20
611.7309999999999
 30
0.0
 11
174.352
 21
637.447
 31
0.0
  0
LINE
  5
75
330
1E
100
AcDbEntity
  8
0
100
AcDbLine
 10
553.061
 20
672.0
 30
0.0
 11
582.284
 21
678.748
 31
0.0
  0
LINE
  5
76
330
1E
100
AcDbEntity
  8
0
100
AcDbLine
 10
522.0769999999999
 20
663.2669999999999
 30
0.0
 11
553.061
 21
672.0
 31
0.0
  0
LINE
  5
77
330
1E
100
AcDbEntity
  8
0
100
AcDbLine
 10
214.298
 20
658.187
 30
0.0
 11
254.519
 21
677.5039999999998
 31
0.0
  0
LINE
  5
78
330
1E
100
AcDbEntity
  8
0
100
AcDbLine
 10
653.4059999999999
 20
688.671
 30
0.0
 11
705.0930000000001
 21
693.832
 31
0.0
  0
LINE
  5
79
330
1E
100
AcDbEntity
  8
0
100
AcDbLine
 10
617.493
 20
684.306
 30
0.0
 11
653.4059999999999
 21
688.671
 31
0.0
  0
LINE
  5
7A
330
1E
100
AcDbEntity
  8
0
100
AcDbLine
 10
582.284
 20
678.748
 30
0.0
 11
617.493
 21
684.306
 31
0.0
  0
LINE
  5
7B
330
1E
100
AcDbEntity
  8
0
100
AcDbLine
 10
293.567
 20
691.738
 30
0.0
 11
339.298
 21
706.4810000000001
 31
0.0
  0
LINE
  5
7C
330
1E
100
AcDbEntity
  8
0
100
AcDbLine
 10
254.519
 20
677.5039999999998
 30
0.0
 11
293.567
 21
691.738
 31
0.0
  0
LINE
  5
7D
330
1E
100
AcDbEntity
  8
0
100
AcDbLine
 10
194.7799999999999
 20
677.611
 30
0.0
 11
235.0009999999999
 21
696.9289999999999
 31
0.0
  0
LINE
  5
7E
330
1E
100
AcDbEntity
  8
0
100
AcDbLine
 10
154.834
 20
656.8710000000001
 30
0.0
 11
194.7799999999999
 21
677.611
 31
0.0
  0
LINE
  5
7F
330
1E
100
AcDbEntity
  8
0
100
AcDbLine
 10
114.587
 20
631.156
 30
0.0
 11
154.834
 21
656.8710000000001
 31
0.0
  0
LINE
  5
80
330
1E
100
AcDbEntity
  8
0
100
AcDbLine
 10
339.298
 20
706.4810000000001
 30
0.0
 11
386.221
 21
719.1889999999999
 31
0.0
  0
LINE
  5
81
330
1E
100
AcDbEntity
  8
0
100
AcDbLine
 10
274.049
 20
711.1629999999999
 30
0.0
 11
319.7799999999999
 21
725.905
 31
0.0
  0
LINE
  5
82
330
1E
100
AcDbEntity
  8
0
100
AcDbLine
 10
235.0009999999999
 20
696.9289999999999
 30
0.0
 11
274.049
 21
711.1629999999999
 31
0.0
  0
LINE
  5
83
330
1E
100
AcDbEntity
  8
0
100
AcDbLine
 10
50.6554
 20
584.6849999999999
 30
0.0
 11
80.37649999999999
 21
608.07
 31
0.0
  0
LINE
  5
84
330
1E
100
AcDbEntity
  8
0
100
AcDbLine
 10
23.86349999999999
 20
550.989
 30
0.0
 11
50.6554
 21
584.6849999999999
 31
0.0
  0
LINE
  5
85
330
1E
100
AcDbEntity
  8
0
100
AcDbLine
 10
13.3492
 20
527.115
 30
0.0
 11
23.86349999999999
 21
550.989
 31
0.0
  0
LINE
  5
86
330
1E
100
AcDbEntity
  8
0
100
AcDbLine
 10
3.44218
 20
480.3469999999999
 30
0.0
 11
13.3492
 21
527.115
 31
0.0
  0
LINE
  5
87
330
1E
100
AcDbEntity
  8
0
100
AcDbLine
 10
0.0
 20
444.559
 30
0.0
 11
3.44218
 21
480.3469999999999
 31
0.0
  0
LINE
  5
88
330
1E
100
AcDbEntity
  8
0
100
AcDbLine
 10
0.0
 20
444.559
 30
0.0
 11
0.0
 21
397.5
 31
0.0
  0
LINE
  5
89
330
1E
100
AcDbEntity
  8
0
100
AcDbLine
 10
386.221
 20
719.1889999999999
 30
0.0
 11
435.5109999999999
 21
731.836
 31
0.0
  0
LINE
  5
8A
330
1E
100
AcDbEntity
  8
0
100
AcDbLine
 10
366.703
 20
738.6139999999999
 30
0.0
 11
415.9930000000001
 21
751.2599999999999
 31
0.0
  0
LINE
  5
8B
330
1E
100
AcDbEntity
  8
0
100
AcDbLine
 10
319.7799999999999
 20
725.905
 30
0.0
 11
366.703
 21
738.6139999999999
 31
0.0
  0
LINE
  5
8C
330
1E
100
AcDbEntity
  8
0
100
AcDbLine
 10
633.696
 20
758.332
 30
0.0
 11
723.6
 21
763.924
 31
0.0
  0
LINE
  5
8D
330
1E
100
AcDbEntity
  8
0
100
AcDbLine
 10
571.946
 20
751.735
 30
0.0
 11
633.696
 21
758.332
 31
0.0
  0
LINE
  5
8E
330
1E
100
AcDbEntity
  8
0
100
AcDbLine
 10
526.205
 20
747.107
 30
0.0
 11
571.946
 21
751.735
 31
0.0
  0
LINE
  5
8F
330
1E
100
AcDbEntity
  8
0
100
AcDbLine
 10
475.7319999999999
 20
739.015
 30
0.0
 11
526.205
 21
747.107
 31
0.0
  0
LINE
  5
90
330
1E
100
AcDbEntity
  8
0
100
AcDbLine
 10
435.5109999999999
 20
731.836
 30
0.0
 11
475.7319999999999
 21
739.015
 31
0.0
  0
LINE
  5
91
330
1E
100
AcDbEntity
  8
0
100
AcDbLine
 10
614.1779999999999
 20
777.7569999999999
 30
0.0
 11
704.082
 21
783.348
 31
0.0
  0
LINE
  5
92
330
1E
100
AcDbEntity
  8
0
100
AcDbLine
 10
552.428
 20
771.159
 30
0.0
 11
614.1779999999999
 21
777.7569999999999
 31
0.0
  0
LINE
  5
93
330
1E
100
AcDbEntity
  8
0
100
AcDbLine
 10
506.6869999999999
 20
766.531
 30
0.0
 11
552.428
 21
771.159
 31
0.0
  0
LINE
  5
94
330
1E
100
AcDbEntity
  8
0
100
AcDbLine
 10
456.214
 20
758.4389999999999
 30
0.0
 11
506.6869999999999
 21
766.531
 31
0.0
  0
LINE
  5
95
330
1E
100
AcDbEntity
  8
0
100
AcDbLine
 10
415.9930000000001
 20
751.2599999999999
 30
0.0
 11
456.214
 21
758.4389999999999
 31
0.0
  0
LINE
  5
96
330
1E
100
AcDbEntity
  8
0
100
AcDbLine
 10
884.5919999999999
 20
704.2289999999999
 30
0.0
 11
947.146
 21
705.763
 31
0.0
  0
LINE
  5
97
330
1E
100
AcDbEntity
  8
0
100
AcDbLine
 10
828.6430000000001
 20
701.2139999999999
 30
0.0
 11
884.5919999999999
 21
704.2289999999999
 31
0.0
  0
LINE
  5
98
330
1E
100
AcDbEntity
  8
0
100
AcDbLine
 10
772.693
 20
698.1989999999999
 30
0.0
 11
828.6430000000001
 21
701.2139999999999
 31
0.0
  0
LINE
  5
99
330
1E
100
AcDbEntity
  8
0
100
AcDbLine
 10
705.0930000000001
 20
693.832
 30
0.0
 11
772.693
 21
698.1989999999999
 31
0.0
  0
LINE
  5
9A
330
1E
100
AcDbEntity
  8
0
100
AcDbLine
 10
859.049
 20
771.6469999999999
 30
0.0
 11
934.4459999999999
 21
773.611
 31
0.0
  0
LINE
  5
9B
330
1E
100
AcDbEntity
  8
0
100
AcDbLine
 10
791.4229999999999
 20
767.7849999999999
 30
0.0
 11
859.049
 21
771.6469999999999
 31
0.0
  0
LINE
  5
9C
330
1E
100
AcDbEntity
  8
0
100
AcDbLine
 10
723.6
 20
763.924
 30
0.0
 11
791.4229999999999
 21
767.7849999999999
 31
0.0
  0
LINE
  5
9D
330
1E
100
AcDbEntity
  8
0
100
AcDbLine
 10
1062.72
 20
707.297
 30
0.0
 11
1115.74
 21
707.297
 31
0.0
  0
LINE
  5
9E
330
1E
100
AcDbEntity
  8
0
100
AcDbLine
 10
1009.7
 20
707.297
 30
0.0
 11
1062.72
 21
707.297
 31
0.0
  0
LINE
  5
9F
330
1E
100
AcDbEntity
  8
0
100
AcDbLine
 10
947.146
 20
705.763
 30
0.0
 11
1009.7
 21
707.297
 31
0.0
  0
LINE
  5
A0
330
1E
100
AcDbEntity
  8
0
100
AcDbLine
 10
1072.11
 20
775.576
 30
0.0
 11
1115.74
 21
775.5729999999999
 31
0.0
  0
LINE
  5
A1
330
1E
100
AcDbEntity
  8
0
100
AcDbLine
 10
1008.95
 20
775.576
 30
0.0
 11
1072.11
 21
775.576
 31
0.0
  0
LINE
  5
A2
330
1E
100
AcDbEntity
  8
0
100
AcDbLine
 10
934.4459999999999
 20
773.611
 30
0.0
 11
1008.95
 21
775.576
 31
0.0
  0
LINE
  5
A3
330
1E
100
AcDbEntity
  8
0
100
AcDbLine
 10
839.531
 20
791.071
 30
0.0
 11
914.928
 21
793.0360000000001
 31
0.0
  0
LINE
  5
A4
330
1E
100
AcDbEntity
  8
0
100
AcDbLine
 10
771.905
 20
787.21
 30
0.0
 11
839.531
 21
791.071
 31
0.0
  0
LINE
  5
A5
330
1E
100
AcDbEntity
  8
0
100
AcDbLine
 10
704.082
 20
783.348
 30
0.0
 11
771.905
 21
787.21
 31
0.0
  0
LINE
  5
A6
330
1E
100
AcDbEntity
  8
0
100
AcDbLine
 10
1052.59
 20
795.0
 30
0.0
 11
1115.74
 21
795.0
 31
0.0
  0
LINE
  5
A7
330
1E
100
AcDbEntity
  8
0
100
AcDbLine
 10
989.4339999999999
 20
795.0
 30
0.0
 11
1052.59
 21
795.0
 31
0.0
  0
LINE
  5
A8
330
1E
100
AcDbEntity
  8
0
100
AcDbLine
 10
914.928
 20
793.0360000000001
 30
0.0
 11
989.4339999999999
 21
795.0
 31
0.0
  0
LINE
  5
A9
330
1E
100
AcDbEntity
  8
0
100
AcDbLine
 10
0.0
 20
397.5
 30
0.0
 11
0.0
 21
350.441
 31
0.0
  0
LINE
  5
AA
330
1E
100
AcDbEntity
  8
0
100
AcDbLine
 10
0.0
 20
397.5
 30
0.0
 11
0.0
 21
444.559
 31
0.0
  0
LINE
  5
AB
330
1E
100
AcDbEntity
  8
0
100
AcDbLine
 10
1093.0
 20
397.5
 30
0.0
 11
1093.32
 21
393.584
 31
0.0
  0
LINE
  5
AC
330
1E
100
AcDbEntity
  8
0
100
AcDbLine
 10
1093.0
 20
397.5
 30
0.0
 11
1093.32
 21
401.416
 31
0.0
  0
LINE
  5
AD
330
1E
100
AcDbEntity
  8
0
100
AcDbLine
 10
1094.07
 20
389.763
 30
0.0
 11
1095.339999999999
 21
386.0369999999999
 31
0.0
  0
LINE
  5
AE
330
1E
100
AcDbEntity
  8
0
100
AcDbLine
 10
1099.25
 20
379.2469999999999
 30
0.0
 11
1101.81
 21
376.31
 31
0.0
  0
LINE
  5
AF
330
1E
100
AcDbEntity
  8
0
100
AcDbLine
 10
1097.01
 20
382.563
 30
0.0
 11
1099.25
 21
379.2469999999999
 31
0.0
  0
LINE
  5
B0
330
1E
100
AcDbEntity
  8
0
100
AcDbLine
 10
1115.74
 20
0.0000000000000367
 30
0.0
 11
1182.09
 21
0.4542370000000371
 31
0.0
  0
LINE
  5
B1
330
1E
100
AcDbEntity
  8
0
100
AcDbLine
 10
1115.74
 20
87.70329999999999
 30
0.0
 11
1172.93
 21
88.0071
 31
0.0
  0
LINE
  5
B2
330
1E
100
AcDbEntity
  8
0
100
AcDbLine
 10
1115.74
 20
19.42689999999999
 30
0.0
 11
1179.839999999999
 21
19.8454
 31
0.0
  0
LINE
  5
B3
330
1E
100
AcDbEntity
  8
0
100
AcDbLine
 10
1115.74
 20
0.0000000000000366
 30
0.0
 11
1182.09
 21
0.4542370000000371
 31
0.0
  0
LINE
  5
B4
330
1E
100
AcDbEntity
  8
0
100
AcDbLine
 10
1108.06
 20
371.51
 30
0.0
 11
1111.539999999999
 21
369.837
 31
0.0
  0
LINE
  5
B5
330
1E
100
AcDbEntity
  8
0
100
AcDbLine
 10
1111.539999999999
 20
369.837
 30
0.0
 11
1115.259999999999
 21
368.574
 31
0.0
  0
LINE
  5
B6
330
1E
100
AcDbEntity
  8
0
100
AcDbLine
 10
1115.259999999999
 20
368.574
 30
0.0
 11
1119.08
 21
367.8159999999999
 31
0.0
  0
LINE
  5
B7
330
1E
100
AcDbEntity
  8
0
100
AcDbLine
 10
1182.09
 20
0.4542370000000371
 30
0.0
 11
1231.69
 21
1.24411000000004
 31
0.0
  0
LINE
  5
B8
330
1E
100
AcDbEntity
  8
0
100
AcDbLine
 10
1231.69
 20
1.24411000000004
 30
0.0
 11
1279.32
 21
2.231470000000039
 31
0.0
  0
LINE
  5
BB
330
1E
100
AcDbEntity
  8
0
100
AcDbLine
 10
1279.32
 20
2.231470000000039
 30
0.0
 11
1342.64
 21
5.108890000000039
 31
0.0
  0
LINE
  5
BC
330
1E
100
AcDbEntity
  8
0
100
AcDbLine
 10
1342.64
 20
5.108890000000039
 30
0.0
 11
1406.46
 21
7.73241000000004
 31
0.0
  0
LINE
  5
BD
330
1E
100
AcDbEntity
  8
0
100
AcDbLine
 10
1406.46
 20
7.73241000000004
 30
0.0
 11
1464.32
 21
10.4405
 31
0.0
  0
LINE
  5
BE
330
1E
100
AcDbEntity
  8
0
100
AcDbLine
 10
1464.32
 20
10.4405
 30
0.0
 11
1518.79
 21
14.2799
 31
0.0
  0
LINE
  5
BF
330
1E
100
AcDbEntity
  8
0
100
AcDbLine
 10
1179.839999999999
 20
19.8454
 30
0.0
 11
1229.43
 21
20.60109999999999
 31
0.0
  0
LINE
  5
C0
330
1E
100
AcDbEntity
  8
0
100
AcDbLine
 10
1229.43
 20
20.60109999999999
 30
0.0
 11
1272.4
 21
21.5351
 31
0.0
  0
LINE
  5
C1
330
1E
100
AcDbEntity
  8
0
100
AcDbLine
 10
1272.4
 20
21.5351
 30
0.0
 11
1333.99
 21
23.1869
 31
0.0
  0
LINE
  5
C2
330
1E
100
AcDbEntity
  8
0
100
AcDbLine
 10
1518.79
 20
14.2799
 30
0.0
 11
1565.1
 21
18.1383
 31
0.0
  0
LINE
  5
C3
330
1E
100
AcDbEntity
  8
0
100
AcDbLine
 10
1565.1
 20
18.1383
 30
0.0
 11
1604.71
 21
21.8723
 31
0.0
  0
LINE
  5
C4
330
1E
100
AcDbEntity
  8
0
100
AcDbLine
 10
1333.99
 20
23.1869
 30
0.0
 11
1396.29
 21
25.8553
 31
0.0
  0
LINE
  5
C5
330
1E
100
AcDbEntity
  8
0
100
AcDbLine
 10
1396.29
 20
25.8553
 30
0.0
 11
1452.23
 21
29.2997
 31
0.0
  0
LINE
  5
C6
330
1E
100
AcDbEntity
  8
0
100
AcDbLine
 10
1604.71
 20
21.8723
 30
0.0
 11
1640.78
 21
26.10419999999999
 31
0.0
  0
LINE
  5
C7
330
1E
100
AcDbEntity
  8
0
100
AcDbLine
 10
1640.78
 20
26.10419999999999
 30
0.0
 11
1664.74
 21
28.5936
 31
0.0
  0
LINE
  5
C8
330
1E
100
AcDbEntity
  8
0
100
AcDbLine
 10
1452.23
 20
29.2997
 30
0.0
 11
1504.96
 21
32.8255
 31
0.0
  0
LINE
  5
C9
330
1E
100
AcDbEntity
  8
0
100
AcDbLine
 10
1172.93
 20
88.0071
 30
0.0
 11
1214.44
 21
88.7298
 31
0.0
  0
LINE
  5
CA
330
1E
100
AcDbEntity
  8
0
100
AcDbLine
 10
1214.44
 20
88.7298
 30
0.0
 11
1253.17
 21
89.6414
 31
0.0
  0
LINE
  5
CB
330
1E
100
AcDbEntity
  8
0
100
AcDbLine
 10
1253.17
 20
89.6414
 30
0.0
 11
1306.04
 21
91.5524
 31
0.0
  0
LINE
  5
CC
330
1E
100
AcDbEntity
  8
0
100
AcDbLine
 10
1306.04
 20
91.5524
 30
0.0
 11
1358.91
 21
93.7818
 31
0.0
  0
LINE
  5
CD
330
1E
100
AcDbEntity
  8
0
100
AcDbLine
 10
1358.91
 20
93.7818
 30
0.0
 11
1405.04
 21
96.3297
 31
0.0
  0
LINE
  5
CE
330
1E
100
AcDbEntity
  8
0
100
AcDbLine
 10
1405.04
 20
96.3297
 30
0.0
 11
1450.79
 21
100.868
 31
0.0
  0
LINE
  5
CF
330
1E
100
AcDbEntity
  8
0
100
AcDbLine
 10
1450.79
 20
100.868
 30
0.0
 11
1489.79
 21
105.5879999999999
 31
0.0
  0
LINE
  5
D0
330
1E
100
AcDbEntity
  8
0
100
AcDbLine
 10
1489.79
 20
105.5879999999999
 30
0.0
 11
1522.41
 21
111.2989999999999
 31
0.0
  0
LINE
  5
D1
330
1E
100
AcDbEntity
  8
0
100
AcDbLine
 10
1522.41
 20
111.2989999999999
 30
0.0
 11
1552.17
 21
119.1149999999999
 31
0.0
  0
LINE
  5
D2
330
1E
100
AcDbEntity
  8
0
100
AcDbLine
 10
1552.17
 20
119.1149999999999
 30
0.0
 11
1571.819999999999
 21
126.78
 31
0.0
  0
LINE
  5
D3
330
1E
100
AcDbEntity
  8
0
100
AcDbLine
 10
1571.819999999999
 20
126.78
 30
0.0
 11
1593.32
 21
135.5739999999999
 31
0.0
  0
LINE
  5
D4
330
1E
100
AcDbEntity
  8
0
100
AcDbLine
 10
1593.32
 20
135.5739999999999
 30
0.0
 11
1613.75
 21
146.395
 31
0.0
  0
LINE
  5
D5
330
1E
100
AcDbEntity
  8
0
100
AcDbLine
 10
1613.75
 20
146.395
 30
0.0
 11
1630.48
 21
156.766
 31
0.0
  0
LINE
  5
D6
330
1E
100
AcDbEntity
  8
0
100
AcDbLine
 10
1630.48
 20
156.766
 30
0.0
 11
1644.02
 21
166.6859999999999
 31
0.0
  0
LINE
  5
D7
330
1E
100
AcDbEntity
  8
0
100
AcDbLine
 10
1644.02
 20
166.6859999999999
 30
0.0
 11
1650.66
 21
174.352
 31
0.0
  0
LINE
  5
D8
330
1E
100
AcDbEntity
  8
0
100
AcDbLine
 10
1650.66
 20
174.352
 30
0.0
 11
1658.89
 21
186.3009999999999
 31
0.0
  0
LINE
  5
D9
330
1E
100
AcDbEntity
  8
0
100
AcDbLine
 10
1658.89
 20
186.3009999999999
 30
0.0
 11
1662.86
 21
196.446
 31
0.0
  0
LINE
  5
DA
330
1E
100
AcDbEntity
  8
0
100
AcDbLine
 10
1662.86
 20
196.446
 30
0.0
 11
1665.52
 21
209.748
 31
0.0
  0
LINE
  5
DB
330
1E
100
AcDbEntity
  8
0
100
AcDbLine
 10
1665.52
 20
209.748
 30
0.0
 11
1668.169999999999
 21
227.11
 31
0.0
  0
LINE
  5
DC
330
1E
100
AcDbEntity
  8
0
100
AcDbLine
 10
1668.169999999999
 20
227.11
 30
0.0
 11
1670.029999999999
 21
247.175
 31
0.0
  0
LINE
  5
DD
330
1E
100
AcDbEntity
  8
0
100
AcDbLine
 10
1670.029999999999
 20
247.175
 30
0.0
 11
1672.69
 21
285.5029999999999
 31
0.0
  0
LINE
  5
DE
330
1E
100
AcDbEntity
  8
0
100
AcDbLine
 10
1672.69
 20
285.5029999999999
 30
0.0
 11
1672.95
 21
333.479
 31
0.0
  0
LINE
  5
DF
330
1E
100
AcDbEntity
  8
0
100
AcDbLine
 10
1672.95
 20
333.479
 30
0.0
 11
1673.28
 21
397.5
 31
0.0
  0
LINE
  5
E0
330
1E
100
AcDbEntity
  8
0
100
AcDbLine
 10
1504.96
 20
32.8255
 30
0.0
 11
1548.73
 21
35.8126
 31
0.0
  0
LINE
  5
E1
330
1E
100
AcDbEntity
  8
0
100
AcDbLine
 10
1695.27
 20
32.07869999999999
 30
0.0
 11
1739.64
 21
41.3452
 31
0.0
  0
LINE
  5
E2
330
1E
100
AcDbEntity
  8
0
100
AcDbLine
 10
1664.74
 20
28.5936
 30
0.0
 11
1695.27
 21
32.07869999999999
 31
0.0
  0
LINE
  5
E3
330
1E
100
AcDbEntity
  8
0
100
AcDbLine
 10
1719.21
 20
347.3469999999999
 30
0.0
 11
1720.0
 21
344.853
 31
0.0
  0
LINE
  5
E4
330
1E
100
AcDbEntity
  8
0
100
AcDbLine
 10
1720.0
 20
344.853
 30
0.0
 11
1720.92
 21
343.3
 31
0.0
  0
LINE
  5
E5
330
1E
100
AcDbEntity
  8
0
100
AcDbLine
 10
1720.92
 20
343.3
 30
0.0
 11
1721.09
 21
343.0649999999999
 31
0.0
  0
LINE
  5
E6
330
1E
100
AcDbEntity
  8
0
100
AcDbLine
 10
1720.17
 20
344.665
 30
0.0
 11
1721.09
 21
343.0649999999999
 31
0.0
  0
LINE
  5
E7
330
1E
100
AcDbEntity
  8
0
100
AcDbLine
 10
1721.09
 20
343.0649999999999
 30
0.0
 11
1722.07
 21
342.5
 31
0.0
  0
LINE
  5
E8
330
1E
100
AcDbEntity
  8
0
100
AcDbLine
 10
1718.62
 20
350.6409999999999
 30
0.0
 11
1719.21
 21
347.3469999999999
 31
0.0
  0
LINE
  5
E9
330
1E
100
AcDbEntity
  8
0
100
AcDbLine
 10
1718.24
 20
354.453
 30
0.0
 11
1718.62
 21
350.6409999999999
 31
0.0
  0
LINE
  5
EA
330
1E
100
AcDbEntity
  8
0
100
AcDbLine
 10
1718.11
 20
358.4999999999999
 30
0.0
 11
1718.24
 21
354.453
 31
0.0
  0
LINE
  5
EB
330
1E
100
AcDbEntity
  8
0
100
AcDbLine
 10
1718.11
 20
358.4999999999999
 30
0.0
 11
1718.11
 21
436.5
 31
0.0
  0
LINE
  5
EC
330
1E
100
AcDbEntity
  8
0
100
AcDbLine
 10
1735.39
 20
153.6039999999999
 30
0.0
 11
1741.179999999999
 21
150.578
 31
0.0
  0
LINE
  5
ED
330
1E
100
AcDbEntity
  8
0
100
AcDbLine
 10
1727.89
 20
172.4329999999999
 30
0.0
 11
1729.029999999999
 21
163.131
 31
0.0
  0
LINE
  5
EE
330
1E
100
AcDbEntity
  8
0
100
AcDbLine
 10
1727.89
 20
172.4329999999999
 30
0.0
 11
1728.69
 21
181.623
 31
0.0
  0
LINE
  5
EF
330
1E
100
AcDbEntity
  8
0
100
AcDbLine
 10
1729.029999999999
 20
163.131
 30
0.0
 11
1732.43
 21
156.8539999999999
 31
0.0
  0
LINE
  5
F0
330
1E
100
AcDbEntity
  8
0
100
AcDbLine
 10
1732.43
 20
156.8539999999999
 30
0.0
 11
1735.39
 21
153.6039999999999
 31
0.0
  0
LINE
  5
F1
330
1E
100
AcDbEntity
  8
0
100
AcDbLine
 10
1728.69
 20
181.623
 30
0.0
 11
1732.63
 21
216.489
 31
0.0
  0
LINE
  5
F3
330
1E
100
AcDbEntity
  8
0
100
AcDbLine
 10
1741.179999999999
 20
150.578
 30
0.0
 11
1747.759999999999
 21
150.8029999999999
 31
0.0
  0
LINE
  5
F4
330
1E
100
AcDbEntity
  8
0
100
AcDbLine
 10
1747.759999999999
 20
150.8029999999999
 30
0.0
 11
1752.31
 21
153.1559999999999
 31
0.0
  0
LINE
  5
F5
330
1E
100
AcDbEntity
  8
0
100
AcDbLine
 10
1752.31
 20
153.1559999999999
 30
0.0
 11
1754.7
 21
157.639
 31
0.0
  0
LINE
  5
F6
330
1E
100
AcDbEntity
  8
0
100
AcDbLine
 10
1752.53
 20
137.526
 30
0.0
 11
1756.85
 21
164.812
 31
0.0
  0
LINE
  5
F8
330
1E
100
AcDbEntity
  8
0
100
AcDbLine
 10
1750.55
 20
173.0559999999999
 30
0.0
 11
1751.549999999999
 21
163.748
 31
0.0
  0
LINE
  5
F9
330
1E
100
AcDbEntity
  8
0
100
AcDbLine
 10
1750.55
 20
173.0559999999999
 30
0.0
 11
1750.919999999999
 21
181.7529999999999
 31
0.0
  0
LINE
  5
FA
330
1E
100
AcDbEntity
  8
0
100
AcDbLine
 10
1751.549999999999
 20
163.748
 30
0.0
 11
1754.84119737728
 21
158.1100738545119
 31
0.0
  0
LINE
  5
FB
330
1E
100
AcDbEntity
  8
0
100
AcDbLine
 10
1739.64
 20
41.3452
 30
0.0
 11
1765.55
 21
50.5512
 31
0.0
  0
LINE
  5
FC
330
1E
100
AcDbEntity
  8
0
100
AcDbLine
 10
1732.63
 20
216.489
 30
0.0
 11
1735.59
 21
262.6399999999999
 31
0.0
  0
LINE
  5
FD
330
1E
100
AcDbEntity
  8
0
100
AcDbLine
 10
1750.919999999999
 20
181.7529999999999
 30
0.0
 11
1753.07
 21
207.16
 31
0.0
  0
LINE
  5
FE
330
1E
100
AcDbEntity
  8
0
100
AcDbLine
 10
1754.7
 20
157.639
 30
0.0
 11
1756.85
 21
164.812
 31
0.0
  0
LINE
  5
FF
330
1E
100
AcDbEntity
  8
0
100
AcDbLine
 10
1753.07
 20
207.16
 30
0.0
 11
1756.11
 21
255.689
 31
0.0
  0
LINE
  5
100
330
1E
100
AcDbEntity
  8
0
100
AcDbLine
 10
1735.59
 20
262.6399999999999
 30
0.0
 11
1735.88
 21
320.412
 31
0.0
  0
LINE
  5
101
330
1E
100
AcDbEntity
  8
0
100
AcDbLine
 10
1735.88
 20
320.412
 30
0.0
 11
1736.25
 21
397.5
 31
0.0
  0
LINE
  5
102
330
1E
100
AcDbEntity
  8
0
100
AcDbLine
 10
1756.11
 20
255.689
 30
0.0
 11
1756.42
 21
316.4379999999999
 31
0.0
  0
LINE
  5
103
330
1E
100
AcDbEntity
  8
0
100
AcDbLine
 10
1765.55
 20
50.5512
 30
0.0
 11
1783.06
 21
58.7518
 31
0.0
  0
LINE
  5
104
330
1E
100
AcDbEntity
  8
0
100
AcDbLine
 10
1783.06
 20
58.7518
 30
0.0
 11
1791.42
 21
70.0021
 31
0.0
  0
LINE
  5
105
330
1E
100
AcDbEntity
  8
0
100
AcDbLine
 10
1791.42
 20
70.0021
 30
0.0
 11
1801.81
 21
87.53899999999999
 31
0.0
  0
LINE
  5
106
330
1E
100
AcDbEntity
  8
0
100
AcDbLine
 10
1801.81
 20
87.53899999999999
 30
0.0
 11
1806.84
 21
102.429
 31
0.0
  0
LINE
  5
107
330
1E
100
AcDbEntity
  8
0
100
AcDbLine
 10
1806.84
 20
102.429
 30
0.0
 11
1810.2
 21
121.951
 31
0.0
  0
LINE
  5
108
330
1E
100
AcDbEntity
  8
0
100
AcDbLine
 10
1756.85
 20
164.812
 30
0.0
 11
1760.869999999999
 21
203.122
 31
0.0
  0
LINE
  5
109
330
1E
100
AcDbEntity
  8
0
100
AcDbLine
 10
1810.2
 20
121.951
 30
0.0
 11
1813.55
 21
147.429
 31
0.0
  0
LINE
  5
10A
330
1E
100
AcDbEntity
  8
0
100
AcDbLine
 10
1813.55
 20
147.429
 30
0.0
 11
1815.9
 21
176.877
 31
0.0
  0
LINE
  5
10B
330
1E
100
AcDbEntity
  8
0
100
AcDbLine
 10
1760.869999999999
 20
203.122
 30
0.0
 11
1763.96
 21
252.68
 31
0.0
  0
LINE
  5
10C
330
1E
100
AcDbEntity
  8
0
100
AcDbLine
 10
1763.96
 20
252.68
 30
0.0
 11
1764.27
 21
314.718
 31
0.0
  0
LINE
  5
10D
330
1E
100
AcDbEntity
  8
0
100
AcDbLine
 10
1815.9
 20
176.877
 30
0.0
 11
1819.259999999999
 21
233.129
 31
0.0
  0
LINE
  5
10E
330
1E
100
AcDbEntity
  8
0
100
AcDbLine
 10
1819.259999999999
 20
233.129
 30
0.0
 11
1819.589999999999
 21
303.54
 31
0.0
  0
LINE
  5
10F
330
1E
100
AcDbEntity
  8
0
100
AcDbLine
 10
1764.27
 20
314.718
 30
0.0
 11
1764.66
 21
397.5
 31
0.0
  0
LINE
  5
110
330
1E
100
AcDbEntity
  8
0
100
AcDbLine
 10
1819.589999999999
 20
303.54
 30
0.0
 11
1820.0
 21
397.5
 31
0.0
  0
LINE
  5
111
330
1E
100
AcDbEntity
  8
0
100
AcDbLine
 10
1756.42
 20
316.4379999999999
 30
0.0
 11
1756.8
 21
397.5
 31
0.0
  0
LINE
  5
112
330
1E
100
AcDbEntity
  8
0
100
AcDbLine
 10
1724.78
 20
347.2059999999999
 30
0.0
 11
1725.39
 21
350.5469999999999
 31
0.0
  0
LINE
  5
113
330
1E
100
AcDbEntity
  8
0
100
AcDbLine
 10
1725.39
 20
350.5469999999999
 30
0.0
 11
1725.78
 21
354.4059999999999
 31
0.0
  0
LINE
  5
114
330
1E
100
AcDbEntity
  8
0
100
AcDbLine
 10
1725.91
 20
358.4999999999999
 30
0.0
 11
1725.91
 21
436.5
 31
0.0
  0
LINE
  5
115
330
1E
100
AcDbEntity
  8
0
100
AcDbLine
 10
1725.78
 20
354.4059999999999
 30
0.0
 11
1725.91
 21
358.4999999999999
 31
0.0
  0
LINE
  5
116
330
1E
100
AcDbEntity
  8
0
100
AcDbLine
 10
1723.98
 20
344.665
 30
0.0
 11
1724.78
 21
347.2059999999999
 31
0.0
  0
LINE
  5
117
330
1E
100
AcDbEntity
  8
0
100
AcDbLine
 10
1723.06
 20
343.0649999999999
 30
0.0
 11
1723.98
 21
344.665
 31
0.0
  0
LINE
  5
118
330
1E
100
AcDbEntity
  8
0
100
AcDbLine
 10
1722.07
 20
342.5
 30
0.0
 11
1723.06
 21
343.0649999999999
 31
0.0
  0
LINE
  5
11A
330
1E
100
AcDbEntity
  8
0
100
AcDbLine
 10
1137.94
 20
371.51
 30
0.0
 11
1141.25
 21
373.753
 31
0.0
  0
LINE
  5
11B
330
1E
100
AcDbEntity
  8
0
100
AcDbLine
 10
1134.46
 20
369.837
 30
0.0
 11
1137.94
 21
371.51
 31
0.0
  0
LINE
  5
11C
330
1E
100
AcDbEntity
  8
0
100
AcDbLine
 10
1130.74
 20
368.574
 30
0.0
 11
1134.46
 21
369.837
 31
0.0
  0
LINE
  5
11D
330
1E
100
AcDbEntity
  8
0
100
AcDbLine
 10
1126.92
 20
367.8159999999999
 30
0.0
 11
1130.74
 21
368.574
 31
0.0
  0
LINE
  5
11E
330
1E
100
AcDbEntity
  8
0
100
AcDbLine
 10
1123.0
 20
367.5
 30
0.0
 11
1126.92
 21
367.8159999999999
 31
0.0
  0
LINE
  5
11F
330
1E
100
AcDbEntity
  8
0
100
AcDbLine
 10
1119.08
 20
367.8159999999999
 30
0.0
 11
1123.0
 21
367.5
 31
0.0
  0
LINE
  5
120
330
1E
100
AcDbEntity
  8
0
100
AcDbLine
 10
1101.81
 20
376.31
 30
0.0
 11
1104.749999999999
 21
373.753
 31
0.0
  0
LINE
  5
121
330
1E
100
AcDbEntity
  8
0
100
AcDbLine
 10
1141.25
 20
373.753
 30
0.0
 11
1144.19
 21
376.31
 31
0.0
  0
LINE
  5
122
330
1E
100
AcDbEntity
  8
0
100
AcDbLine
 10
1144.19
 20
376.31
 30
0.0
 11
1146.749999999999
 21
379.2469999999999
 31
0.0
  0
LINE
  5
123
330
1E
100
AcDbEntity
  8
0
100
AcDbLine
 10
1146.749999999999
 20
379.2469999999999
 30
0.0
 11
1148.99
 21
382.563
 31
0.0
  0
LINE
  5
124
330
1E
100
AcDbEntity
  8
0
100
AcDbLine
 10
1148.99
 20
382.563
 30
0.0
 11
1150.66
 21
386.0369999999999
 31
0.0
  0
LINE
  5
125
330
1E
100
AcDbEntity
  8
0
100
AcDbLine
 10
1104.749999999999
 20
373.753
 30
0.0
 11
1108.06
 21
371.51
 31
0.0
  0
LINE
  5
126
330
1E
100
AcDbEntity
  8
0
100
AcDbLine
 10
1095.339999999999
 20
386.0369999999999
 30
0.0
 11
1097.01
 21
382.563
 31
0.0
  0
LINE
  5
127
330
1E
100
AcDbEntity
  8
0
100
AcDbLine
 10
1150.66
 20
386.0369999999999
 30
0.0
 11
1151.93
 21
389.763
 31
0.0
  0
LINE
  5
128
330
1E
100
AcDbEntity
  8
0
100
AcDbLine
 10
1151.93
 20
389.763
 30
0.0
 11
1152.68
 21
393.584
 31
0.0
  0
LINE
  5
129
330
1E
100
AcDbEntity
  8
0
100
AcDbLine
 10
1093.32
 20
401.416
 30
0.0
 11
1094.07
 21
405.2369999999999
 31
0.0
  0
LINE
  5
12A
330
1E
100
AcDbEntity
  8
0
100
AcDbLine
 10
1093.32
 20
393.584
 30
0.0
 11
1094.07
 21
389.763
 31
0.0
  0
LINE
  5
12B
330
1E
100
AcDbEntity
  8
0
100
AcDbLine
 10
1094.07
 20
405.2369999999999
 30
0.0
 11
1095.339999999999
 21
408.963
 31
0.0
  0
LINE
  5
12C
330
1E
100
AcDbEntity
  8
0
100
AcDbLine
 10
1095.339999999999
 20
408.963
 30
0.0
 11
1097.01
 21
412.4369999999999
 31
0.0
  0
LINE
  5
12D
330
1E
100
AcDbEntity
  8
0
100
AcDbLine
 10
1097.01
 20
412.4369999999999
 30
0.0
 11
1099.25
 21
415.753
 31
0.0
  0
LINE
  5
12E
330
1E
100
AcDbEntity
  8
0
100
AcDbLine
 10
1099.25
 20
415.753
 30
0.0
 11
1101.81
 21
418.6899999999999
 31
0.0
  0
LINE
  5
12F
330
1E
100
AcDbEntity
  8
0
100
AcDbLine
 10
1101.81
 20
418.6899999999999
 30
0.0
 11
1104.749999999999
 21
421.2469999999999
 31
0.0
  0
LINE
  5
130
330
1E
100
AcDbEntity
  8
0
100
AcDbLine
 10
1104.749999999999
 20
421.2469999999999
 30
0.0
 11
1108.06
 21
423.49
 31
0.0
  0
LINE
  5
131
330
1E
100
AcDbEntity
  8
0
100
AcDbLine
 10
1108.06
 20
423.49
 30
0.0
 11
1111.539999999999
 21
425.163
 31
0.0
  0
LINE
  5
132
330
1E
100
AcDbEntity
  8
0
100
AcDbLine
 10
1111.539999999999
 20
425.163
 30
0.0
 11
1115.259999999999
 21
426.426
 31
0.0
  0
LINE
  5
133
330
1E
100
AcDbEntity
  8
0
100
AcDbLine
 10
1150.66
 20
408.963
 30
0.0
 11
1151.93
 21
405.2369999999999
 31
0.0
  0
LINE
  5
134
330
1E
100
AcDbEntity
  8
0
100
AcDbLine
 10
1151.93
 20
405.2369999999999
 30
0.0
 11
1152.68
 21
401.416
 31
0.0
  0
LINE
  5
135
330
1E
100
AcDbEntity
  8
0
100
AcDbLine
 10
1152.68
 20
401.416
 30
0.0
 11
1153.0
 21
397.5
 31
0.0
  0
LINE
  5
136
330
1E
100
AcDbEntity
  8
0
100
AcDbLine
 10
1141.25
 20
421.2469999999999
 30
0.0
 11
1144.19
 21
418.6899999999999
 31
0.0
  0
LINE
  5
137
330
1E
100
AcDbEntity
  8
0
100
AcDbLine
 10
1137.94
 20
423.49
 30
0.0
 11
1141.25
 21
421.2469999999999
 31
0.0
  0
LINE
  5
138
330
1E
100
AcDbEntity
  8
0
100
AcDbLine
 10
1134.46
 20
425.163
 30
0.0
 11
1137.94
 21
423.49
 31
0.0
  0
LINE
  5
139
330
1E
100
AcDbEntity
  8
0
100
AcDbLine
 10
1130.74
 20
426.426
 30
0.0
 11
1134.46
 21
425.163
 31
0.0
  0
LINE
  5
13A
330
1E
100
AcDbEntity
  8
0
100
AcDbLine
 10
1126.92
 20
427.184
 30
0.0
 11
1130.74
 21
426.426
 31
0.0
  0
LINE
  5
13B
330
1E
100
AcDbEntity
  8
0
100
AcDbLine
 10
1144.19
 20
418.6899999999999
 30
0.0
 11
1146.749999999999
 21
415.753
 31
0.0
  0
LINE
  5
13C
330
1E
100
AcDbEntity
  8
0
100
AcDbLine
 10
1146.749999999999
 20
415.753
 30
0.0
 11
1148.99
 21
412.4369999999999
 31
0.0
  0
LINE
  5
13D
330
1E
100
AcDbEntity
  8
0
100
AcDbLine
 10
1148.99
 20
412.4369999999999
 30
0.0
 11
1150.66
 21
408.963
 31
0.0
  0
LINE
  5
13E
330
1E
100
AcDbEntity
  8
0
100
AcDbLine
 10
1115.259999999999
 20
426.426
 30
0.0
 11
1119.08
 21
427.184
 31
0.0
  0
LINE
  5
13F
330
1E
100
AcDbEntity
  8
0
100
AcDbLine
 10
1115.74
 20
707.297
 30
0.0
 11
1172.93
 21
706.993
 31
0.0
  0
LINE
  5
140
330
1E
100
AcDbEntity
  8
0
100
AcDbLine
 10
1115.74
 20
775.5729999999999
 30
0.0
 11
1179.839999999999
 21
775.1549999999999
 31
0.0
  0
LINE
  5
141
330
1E
100
AcDbEntity
  8
0
100
AcDbLine
 10
1115.74
 20
795.0
 30
0.0
 11
1182.09
 21
794.546
 31
0.0
  0
LINE
  5
142
330
1E
100
AcDbEntity
  8
0
100
AcDbLine
 10
1719.21
 20
447.653
 30
0.0
 11
1720.0
 21
450.147
 31
0.0
  0
LINE
  5
143
330
1E
100
AcDbEntity
  8
0
100
AcDbLine
 10
1720.0
 20
450.147
 30
0.0
 11
1720.92
 21
451.7
 31
0.0
  0
LINE
  5
144
330
1E
100
AcDbEntity
  8
0
100
AcDbLine
 10
1720.92
 20
451.7
 30
0.0
 11
1721.09
 21
451.935
 31
0.0
  0
LINE
  5
146
330
1E
100
AcDbEntity
  8
0
100
AcDbLine
 10
1721.09
 20
451.935
 30
0.0
 11
1722.07
 21
452.5
 31
0.0
  0
LINE
  5
147
330
1E
100
AcDbEntity
  8
0
100
AcDbLine
 10
1718.62
 20
444.359
 30
0.0
 11
1719.21
 21
447.653
 31
0.0
  0
LINE
  5
148
330
1E
100
AcDbEntity
  8
0
100
AcDbLine
 10
1718.24
 20
440.547
 30
0.0
 11
1718.62
 21
444.359
 31
0.0
  0
LINE
  5
149
330
1E
100
AcDbEntity
  8
0
100
AcDbLine
 10
1718.11
 20
436.5
 30
0.0
 11
1718.24
 21
440.547
 31
0.0
  0
LINE
  5
14A
330
1E
100
AcDbEntity
  8
0
100
AcDbLine
 10
1718.11
 20
436.5
 30
0.0
 11
1718.11
 21
358.4999999999999
 31
0.0
  0
LINE
  5
14B
330
1E
100
AcDbEntity
  8
0
100
AcDbLine
 10
1725.91
 20
436.5
 30
0.0
 11
1725.91
 21
358.4999999999999
 31
0.0
  0
LINE
  5
14C
330
1E
100
AcDbEntity
  8
0
100
AcDbLine
 10
1724.78
 20
447.794
 30
0.0
 11
1725.39
 21
444.453
 31
0.0
  0
LINE
  5
14D
330
1E
100
AcDbEntity
  8
0
100
AcDbLine
 10
1725.39
 20
444.453
 30
0.0
 11
1725.78
 21
440.594
 31
0.0
  0
LINE
  5
14E
330
1E
100
AcDbEntity
  8
0
100
AcDbLine
 10
1725.78
 20
440.594
 30
0.0
 11
1725.91
 21
436.5
 31
0.0
  0
LINE
  5
14F
330
1E
100
AcDbEntity
  8
0
100
AcDbLine
 10
1723.98
 20
450.335
 30
0.0
 11
1724.78
 21
447.794
 31
0.0
  0
LINE
  5
150
330
1E
100
AcDbEntity
  8
0
100
AcDbLine
 10
1723.06
 20
451.935
 30
0.0
 11
1723.98
 21
450.335
 31
0.0
  0
LINE
  5
151
330
1E
100
AcDbEntity
  8
0
100
AcDbLine
 10
1172.93
 20
706.993
 30
0.0
 11
1214.44
 21
706.2699999999999
 31
0.0
  0
LINE
  5
152
330
1E
100
AcDbEntity
  8
0
100
AcDbLine
 10
1214.44
 20
706.2699999999999
 30
0.0
 11
1253.17
 21
705.3589999999999
 31
0.0
  0
LINE
  5
153
330
1E
100
AcDbEntity
  8
0
100
AcDbLine
 10
1253.17
 20
705.3589999999999
 30
0.0
 11
1306.04
 21
703.448
 31
0.0
  0
LINE
  5
154
330
1E
100
AcDbEntity
  8
0
100
AcDbLine
 10
1306.04
 20
703.448
 30
0.0
 11
1358.91
 21
701.218
 31
0.0
  0
LINE
  5
155
330
1E
100
AcDbEntity
  8
0
100
AcDbLine
 10
1358.91
 20
701.218
 30
0.0
 11
1405.04
 21
698.6699999999999
 31
0.0
  0
LINE
  5
156
330
1E
100
AcDbEntity
  8
0
100
AcDbLine
 10
1405.04
 20
698.6699999999999
 30
0.0
 11
1450.79
 21
694.1319999999999
 31
0.0
  0
LINE
  5
157
330
1E
100
AcDbEntity
  8
0
100
AcDbLine
 10
1450.79
 20
694.1319999999999
 30
0.0
 11
1489.79
 21
689.4119999999999
 31
0.0
  0
LINE
  5
158
330
1E
100
AcDbEntity
  8
0
100
AcDbLine
 10
1489.79
 20
689.4119999999999
 30
0.0
 11
1522.41
 21
683.701
 31
0.0
  0
LINE
  5
159
330
1E
100
AcDbEntity
  8
0
100
AcDbLine
 10
1452.23
 20
765.7
 30
0.0
 11
1504.96
 21
762.1739999999999
 31
0.0
  0
LINE
  5
15A
330
1E
100
AcDbEntity
  8
0
100
AcDbLine
 10
1522.41
 20
683.701
 30
0.0
 11
1552.17
 21
675.8849999999999
 31
0.0
  0
LINE
  5
15B
330
1E
100
AcDbEntity
  8
0
100
AcDbLine
 10
1552.17
 20
675.8849999999999
 30
0.0
 11
1571.819999999999
 21
668.22
 31
0.0
  0
LINE
  5
15C
330
1E
100
AcDbEntity
  8
0
100
AcDbLine
 10
1571.819999999999
 20
668.22
 30
0.0
 11
1593.32
 21
659.426
 31
0.0
  0
LINE
  5
15D
330
1E
100
AcDbEntity
  8
0
100
AcDbLine
 10
1593.32
 20
659.426
 30
0.0
 11
1613.75
 21
648.605
 31
0.0
  0
LINE
  5
15E
330
1E
100
AcDbEntity
  8
0
100
AcDbLine
 10
1613.75
 20
648.605
 30
0.0
 11
1630.48
 21
638.234
 31
0.0
  0
LINE
  5
15F
330
1E
100
AcDbEntity
  8
0
100
AcDbLine
 10
1630.48
 20
638.234
 30
0.0
 11
1644.02
 21
628.3139999999999
 31
0.0
  0
LINE
  5
160
330
1E
100
AcDbEntity
  8
0
100
AcDbLine
 10
1644.02
 20
628.3139999999999
 30
0.0
 11
1650.66
 21
620.6479999999999
 31
0.0
  0
LINE
  5
161
330
1E
100
AcDbEntity
  8
0
100
AcDbLine
 10
1650.66
 20
620.6479999999999
 30
0.0
 11
1658.89
 21
608.6990000000001
 31
0.0
  0
LINE
  5
162
330
1E
100
AcDbEntity
  8
0
100
AcDbLine
 10
1658.89
 20
608.6990000000001
 30
0.0
 11
1662.86
 21
598.554
 31
0.0
  0
LINE
  5
163
330
1E
100
AcDbEntity
  8
0
100
AcDbLine
 10
1662.86
 20
598.554
 30
0.0
 11
1665.52
 21
585.2519999999999
 31
0.0
  0
LINE
  5
164
330
1E
100
AcDbEntity
  8
0
100
AcDbLine
 10
1504.96
 20
762.1739999999999
 30
0.0
 11
1548.73
 21
759.187
 31
0.0
  0
LINE
  5
165
330
1E
100
AcDbEntity
  8
0
100
AcDbLine
 10
1179.839999999999
 20
775.1549999999999
 30
0.0
 11
1229.43
 21
774.3989999999999
 31
0.0
  0
LINE
  5
166
330
1E
100
AcDbEntity
  8
0
100
AcDbLine
 10
1229.43
 20
774.3989999999999
 30
0.0
 11
1272.4
 21
773.465
 31
0.0
  0
LINE
  5
167
330
1E
100
AcDbEntity
  8
0
100
AcDbLine
 10
1272.4
 20
773.465
 30
0.0
 11
1333.99
 21
771.813
 31
0.0
  0
LINE
  5
168
330
1E
100
AcDbEntity
  8
0
100
AcDbLine
 10
1333.99
 20
771.813
 30
0.0
 11
1396.29
 21
769.1449999999999
 31
0.0
  0
LINE
  5
169
330
1E
100
AcDbEntity
  8
0
100
AcDbLine
 10
1396.29
 20
769.1449999999999
 30
0.0
 11
1452.23
 21
765.7
 31
0.0
  0
LINE
  5
16A
330
1E
100
AcDbEntity
  8
0
100
AcDbLine
 10
1278.45
 20
792.118
 30
0.0
 11
1342.64
 21
789.891
 31
0.0
  0
LINE
  5
16B
330
1E
100
AcDbEntity
  8
0
100
AcDbLine
 10
1182.09
 20
794.546
 30
0.0
 11
1231.69
 21
793.7560000000001
 31
0.0
  0
LINE
  5
16C
330
1E
100
AcDbEntity
  8
0
100
AcDbLine
 10
1231.69
 20
793.7560000000001
 30
0.0
 11
1279.32
 21
792.7689999999999
 31
0.0
  0
LINE
  5
16F
330
1E
100
AcDbEntity
  8
0
100
AcDbLine
 10
1342.64
 20
789.891
 30
0.0
 11
1406.46
 21
787.268
 31
0.0
  0
LINE
  5
170
330
1E
100
AcDbEntity
  8
0
100
AcDbLine
 10
1406.46
 20
787.268
 30
0.0
 11
1464.32
 21
784.5589999999999
 31
0.0
  0
LINE
  5
171
330
1E
100
AcDbEntity
  8
0
100
AcDbLine
 10
1464.32
 20
784.5589999999999
 30
0.0
 11
1518.79
 21
780.72
 31
0.0
  0
LINE
  5
172
330
1E
100
AcDbEntity
  8
0
100
AcDbLine
 10
1518.79
 20
780.72
 30
0.0
 11
1565.1
 21
776.8619999999999
 31
0.0
  0
LINE
  5
173
330
1E
100
AcDbEntity
  8
0
100
AcDbLine
 10
1565.1
 20
776.8619999999999
 30
0.0
 11
1604.71
 21
773.128
 31
0.0
  0
LINE
  5
174
330
1E
100
AcDbEntity
  8
0
100
AcDbLine
 10
1604.71
 20
773.128
 30
0.0
 11
1640.78
 21
768.896
 31
0.0
  0
LINE
  5
175
330
1E
100
AcDbEntity
  8
0
100
AcDbLine
 10
1640.78
 20
768.896
 30
0.0
 11
1664.74
 21
766.406
 31
0.0
  0
LINE
  5
176
330
1E
100
AcDbEntity
  8
0
100
AcDbLine
 10
1672.95
 20
461.5209999999999
 30
0.0
 11
1673.28
 21
397.5
 31
0.0
  0
LINE
  5
177
330
1E
100
AcDbEntity
  8
0
100
AcDbLine
 10
1735.88
 20
474.588
 30
0.0
 11
1736.25
 21
397.5
 31
0.0
  0
LINE
  5
178
330
1E
100
AcDbEntity
  8
0
100
AcDbLine
 10
1668.169999999999
 20
567.8899999999999
 30
0.0
 11
1670.029999999999
 21
547.825
 31
0.0
  0
LINE
  5
179
330
1E
100
AcDbEntity
  8
0
100
AcDbLine
 10
1670.029999999999
 20
547.825
 30
0.0
 11
1672.69
 21
509.4969999999999
 31
0.0
  0
LINE
  5
17A
330
1E
100
AcDbEntity
  8
0
100
AcDbLine
 10
1672.69
 20
509.4969999999999
 30
0.0
 11
1672.95
 21
461.5209999999999
 31
0.0
  0
LINE
  5
17B
330
1E
100
AcDbEntity
  8
0
100
AcDbLine
 10
1665.52
 20
585.2519999999999
 30
0.0
 11
1668.169999999999
 21
567.8899999999999
 31
0.0
  0
LINE
  5
17C
330
1E
100
AcDbEntity
  8
0
100
AcDbLine
 10
1732.63
 20
578.5109999999999
 30
0.0
 11
1735.59
 21
532.3599999999999
 31
0.0
  0
LINE
  5
17D
330
1E
100
AcDbEntity
  8
0
100
AcDbLine
 10
1735.59
 20
532.3599999999999
 30
0.0
 11
1735.88
 21
474.588
 31
0.0
  0
LINE
  5
17E
330
1E
100
AcDbEntity
  8
0
100
AcDbLine
 10
1727.89
 20
622.567
 30
0.0
 11
1729.029999999999
 21
631.869
 31
0.0
  0
LINE
  5
17F
330
1E
100
AcDbEntity
  8
0
100
AcDbLine
 10
1727.89
 20
622.567
 30
0.0
 11
1728.69
 21
613.3769999999999
 31
0.0
  0
LINE
  5
180
330
1E
100
AcDbEntity
  8
0
100
AcDbLine
 10
1729.029999999999
 20
631.869
 30
0.0
 11
1732.43
 21
638.1459999999999
 31
0.0
  0
LINE
  5
181
330
1E
100
AcDbEntity
  8
0
100
AcDbLine
 10
1732.43
 20
638.1459999999999
 30
0.0
 11
1735.39
 21
641.3959999999999
 31
0.0
  0
LINE
  5
182
330
1E
100
AcDbEntity
  8
0
100
AcDbLine
 10
1728.69
 20
613.3769999999999
 30
0.0
 11
1732.63
 21
578.5109999999999
 31
0.0
  0
LINE
  5
183
330
1E
100
AcDbEntity
  8
0
100
AcDbLine
 10
1735.39
 20
641.3959999999999
 30
0.0
 11
1741.179999999999
 21
644.422
 31
0.0
  0
LINE
  5
184
330
1E
100
AcDbEntity
  8
0
100
AcDbLine
 10
1741.179999999999
 20
644.422
 30
0.0
 11
1747.759999999999
 21
644.197
 31
0.0
  0
LINE
  5
185
330
1E
100
AcDbEntity
  8
0
100
AcDbLine
 10
1747.759999999999
 20
644.197
 30
0.0
 11
1752.31
 21
641.844
 31
0.0
  0
LINE
  5
187
330
1E
100
AcDbEntity
  8
0
100
AcDbLine
 10
1750.55
 20
621.9439999999999
 30
0.0
 11
1751.549999999999
 21
631.2519999999999
 31
0.0
  0
LINE
  5
188
330
1E
100
AcDbEntity
  8
0
100
AcDbLine
 10
1750.55
 20
621.9439999999999
 30
0.0
 11
1750.919999999999
 21
613.2469999999999
 31
0.0
  0
LINE
  5
189
330
1E
100
AcDbEntity
  8
0
100
AcDbLine
 10
1695.27
 20
762.921
 30
0.0
 11
1739.64
 21
753.655
 31
0.0
  0
LINE
  5
18A
330
1E
100
AcDbEntity
  8
0
100
AcDbLine
 10
1739.64
 20
753.655
 30
0.0
 11
1765.55
 21
744.449
 31
0.0
  0
LINE
  5
18B
330
1E
100
AcDbEntity
  8
0
100
AcDbLine
 10
1752.31
 20
641.844
 30
0.0
 11
1754.7
 21
637.361
 31
0.0
  0
LINE
  5
18C
330
1E
100
AcDbEntity
  8
0
100
AcDbLine
 10
1754.7
 20
637.361
 30
0.0
 11
1756.85
 21
630.1879999999999
 31
0.0
  0
LINE
  5
18D
330
1E
100
AcDbEntity
  8
0
100
AcDbLine
 10
1752.53
 20
657.4739999999999
 30
0.0
 11
1756.85
 21
630.1879999999999
 31
0.0
  0
LINE
  5
18F
330
1E
100
AcDbEntity
  8
0
100
AcDbLine
 10
1751.549999999999
 20
631.2519999999999
 30
0.0
 11
1754.84119737728
 21
636.8899261454879
 31
0.0
  0
LINE
  5
190
330
1E
100
AcDbEntity
  8
0
100
AcDbLine
 10
1750.919999999999
 20
613.2469999999999
 30
0.0
 11
1753.07
 21
587.84
 31
0.0
  0
LINE
  5
191
330
1E
100
AcDbEntity
  8
0
100
AcDbLine
 10
1753.07
 20
587.84
 30
0.0
 11
1756.11
 21
539.311
 31
0.0
  0
LINE
  5
192
330
1E
100
AcDbEntity
  8
0
100
AcDbLine
 10
1764.27
 20
480.2819999999999
 30
0.0
 11
1764.66
 21
397.5
 31
0.0
  0
LINE
  5
193
330
1E
100
AcDbEntity
  8
0
100
AcDbLine
 10
1760.869999999999
 20
591.878
 30
0.0
 11
1763.96
 21
542.32
 31
0.0
  0
LINE
  5
194
330
1E
100
AcDbEntity
  8
0
100
AcDbLine
 10
1763.96
 20
542.32
 30
0.0
 11
1764.27
 21
480.2819999999999
 31
0.0
  0
LINE
  5
195
330
1E
100
AcDbEntity
  8
0
100
AcDbLine
 10
1756.85
 20
630.1879999999999
 30
0.0
 11
1760.869999999999
 21
591.878
 31
0.0
  0
LINE
  5
196
330
1E
100
AcDbEntity
  8
0
100
AcDbLine
 10
1765.55
 20
744.449
 30
0.0
 11
1783.06
 21
736.248
 31
0.0
  0
LINE
  5
197
330
1E
100
AcDbEntity
  8
0
100
AcDbLine
 10
1783.06
 20
736.248
 30
0.0
 11
1791.42
 21
724.998
 31
0.0
  0
LINE
  5
198
330
1E
100
AcDbEntity
  8
0
100
AcDbLine
 10
1791.42
 20
724.998
 30
0.0
 11
1801.81
 21
707.4609999999999
 31
0.0
  0
LINE
  5
199
330
1E
100
AcDbEntity
  8
0
100
AcDbLine
 10
1801.81
 20
707.4609999999999
 30
0.0
 11
1806.84
 21
692.571
 31
0.0
  0
LINE
  5
19A
330
1E
100
AcDbEntity
  8
0
100
AcDbLine
 10
1806.84
 20
692.571
 30
0.0
 11
1810.2
 21
673.0489999999999
 31
0.0
  0
LINE
  5
19B
330
1E
100
AcDbEntity
  8
0
100
AcDbLine
 10
1810.2
 20
673.0489999999999
 30
0.0
 11
1813.55
 21
647.571
 31
0.0
  0
LINE
  5
19C
330
1E
100
AcDbEntity
  8
0
100
AcDbLine
 10
1813.55
 20
647.571
 30
0.0
 11
1815.9
 21
618.1219999999999
 31
0.0
  0
LINE
  5
19D
330
1E
100
AcDbEntity
  8
0
100
AcDbLine
 10
1815.9
 20
618.1219999999999
 30
0.0
 11
1819.259999999999
 21
561.871
 31
0.0
  0
LINE
  5
19E
330
1E
100
AcDbEntity
  8
0
100
AcDbLine
 10
1819.259999999999
 20
561.871
 30
0.0
 11
1819.589999999999
 21
491.46
 31
0.0
  0
LINE
  5
19F
330
1E
100
AcDbEntity
  8
0
100
AcDbLine
 10
1819.589999999999
 20
491.46
 30
0.0
 11
1820.0
 21
397.5
 31
0.0
  0
LINE
  5
1A0
330
1E
100
AcDbEntity
  8
0
100
AcDbLine
 10
1756.11
 20
539.311
 30
0.0
 11
1756.42
 21
478.5619999999999
 31
0.0
  0
LINE
  5
1A1
330
1E
100
AcDbEntity
  8
0
100
AcDbLine
 10
1756.42
 20
478.5619999999999
 30
0.0
 11
1756.8
 21
397.5
 31
0.0
  0
LINE
  5
1A2
330
1E
100
AcDbEntity
  8
0
100
AcDbLine
 10
1664.74
 20
766.406
 30
0.0
 11
1695.27
 21
762.921
 31
0.0
  0
LINE
  5
1A3
330
1E
100
AcDbEntity
  8
0
100
AcDbLine
 10
1722.07
 20
452.5
 30
0.0
 11
1723.06
 21
451.935
 31
0.0
  0
LINE
  5
1A5
330
1E
100
AcDbEntity
  8
0
100
AcDbLine
 10
1123.0
 20
427.5
 30
0.0
 11
1126.92
 21
427.184
 31
0.0
  0
LINE
  5
1A6
330
1E
100
AcDbEntity
  8
0
100
AcDbLine
 10
1119.08
 20
427.184
 30
0.0
 11
1123.0
 21
427.5
 31
0.0
  0
LINE
  5
1A7
330
1E
100
AcDbEntity
  8
0
100
AcDbLine
 10
1152.68
 20
393.584
 30
0.0
 11
1153.0
 21
397.5
 31
0.0
  0
LINE
  5
1AC
330
1E
100
AcDbEntity
  8
0
100
AcDbLine
 10
361.173
 20
275.746
 30
0.0
 11
351.7765050899183
 21
325.9678118222257
 31
0.0
  0
LINE
  5
1AD
330
1E
100
AcDbEntity
  8
0
100
AcDbLine
 10
351.7765050899183
 20
325.9678118222257
 30
0.0
 11
349.0594587792743
 21
366.7007142989202
 31
0.0
  0
LINE
  5
1AE
330
1E
100
AcDbEntity
  8
0
100
AcDbLine
 10
349.0594587792743
 20
366.7007142989202
 30
0.0
 11
349.0594587792743
 21
441.8302880347312
 31
0.0
  0
LINE
  5
1AF
330
1E
100
AcDbEntity
  8
0
100
AcDbLine
 10
349.0594587792743
 20
441.8302880347312
 30
0.0
 11
356.3049113565089
 21
496.5934126144368
 31
0.0
  0
LINE
  5
1B0
330
1E
100
AcDbEntity
  8
0
100
AcDbLine
 10
356.3049113565089
 20
496.5934126144368
 30
0.0
 11
361.173
 21
519.254
 31
0.0
  0
LINE
  5
1B1
330
1E
100
AcDbEntity
  8
0
100
AcDbLine
 10
70.1733
 20
229.739
 30
0.0
 11
55.38945200429589
 21
244.9279712577975
 31
0.0
  0
LINE
  5
1B2
330
1E
100
AcDbEntity
  8
0
100
AcDbLine
 10
55.38945200429589
 20
244.9279712577975
 30
0.0
 11
39.4736674866117
 21
271.4394663535752
 31
0.0
  0
LINE
  5
1B3
330
1E
100
AcDbEntity
  8
0
100
AcDbLine
 10
39.4736674866117
 20
271.4394663535752
 30
0.0
 11
28.04695334009648
 21
318.7522890754137
 31
0.0
  0
LINE
  5
1B4
330
1E
100
AcDbEntity
  8
0
100
AcDbLine
 10
28.04695334009648
 20
318.7522890754137
 30
0.0
 11
22.74169183420144
 21
361.9864210449188
 31
0.0
  0
LINE
  5
1B5
330
1E
100
AcDbEntity
  8
0
100
AcDbLine
 10
22.74169183420144
 20
361.9864210449188
 30
0.0
 11
21.92550069947583
 21
440.2972993147752
 31
0.0
  0
LINE
  5
1B6
330
1E
100
AcDbEntity
  8
0
100
AcDbLine
 10
21.92550069947583
 20
440.2972993147752
 30
0.0
 11
28.45505103303457
 21
489.1637978377859
 31
0.0
  0
LINE
  5
1B7
330
1E
100
AcDbEntity
  8
0
100
AcDbLine
 10
28.45505103303457
 20
489.1637978377859
 30
0.0
 11
39.8817651795498
 21
527.9113672728079
 31
0.0
  0
LINE
  5
1B8
330
1E
100
AcDbEntity
  8
0
100
AcDbLine
 10
39.8817651795498
 20
527.9113672728079
 30
0.0
 11
57.0218385248977
 21
555.2386017683978
 31
0.0
  0
LINE
  5
1B9
330
1E
100
AcDbEntity
  8
0
100
AcDbLine
 10
57.0218385248977
 20
555.2386017683978
 30
0.0
 11
70.1733
 21
565.261
 31
0.0
  0
LINE
  5
1BA
330
1E
100
AcDbEntity
  8
0
100
AcDbLine
 10
1548.73
 20
759.187
 30
0.0
 11
1618.256615424772
 21
750.3021608139781
 31
0.0
  0
LINE
  5
1BB
330
1E
100
AcDbEntity
  8
0
100
AcDbLine
 10
1618.256615424772
 20
750.3021608139781
 30
0.0
 11
1658.813092670493
 21
741.4904553635349
 31
0.0
  0
LINE
  5
1BC
330
1E
100
AcDbEntity
  8
0
100
AcDbLine
 10
1658.813092670493
 20
741.4904553635349
 30
0.0
 11
1694.66737236672
 21
729.7415175392672
 31
0.0
  0
LINE
  5
1BD
330
1E
100
AcDbEntity
  8
0
100
AcDbLine
 10
1694.66737236672
 20
729.7415175392672
 30
0.0
 11
1718.766149686908
 21
717.4051311579916
 31
0.0
  0
LINE
  5
1BE
330
1E
100
AcDbEntity
  8
0
100
AcDbLine
 10
1718.766149686908
 20
717.4051311579916
 30
0.0
 11
1738.750502025713
 21
703.3064032701793
 31
0.0
  0
LINE
  5
1BF
330
1E
100
AcDbEntity
  8
0
100
AcDbLine
 10
1738.750502025713
 20
703.3064032701793
 30
0.0
 11
1750.5060001506
 21
684.5081015020053
 31
0.0
  0
LINE
  5
1C0
330
1E
100
AcDbEntity
  8
0
100
AcDbLine
 10
1750.5060001506
 20
684.5081015020053
 30
0.0
 11
1752.53
 21
657.4739999999999
 31
0.0
  0
LINE
  5
1C1
330
1E
100
AcDbEntity
  8
0
100
AcDbLine
 10
1548.73
 20
35.8126
 30
0.0
 11
1602.932327483022
 21
42.65739750907392
 31
0.0
  0
LINE
  5
1C2
330
1E
100
AcDbEntity
  8
0
100
AcDbLine
 10
1602.932327483022
 20
42.65739750907392
 30
0.0
 11
1651.622420418386
 21
51.7816933979966
 31
0.0
  0
LINE
  5
1C3
330
1E
100
AcDbEntity
  8
0
100
AcDbLine
 10
1651.622420418386
 20
51.7816933979966
 30
0.0
 11
1680.912558169571
 21
61.66634727766314
 31
0.0
  0
LINE
  5
1C4
330
1E
100
AcDbEntity
  8
0
100
AcDbLine
 10
1680.912558169571
 20
61.66634727766314
 30
0.0
 11
1704.116430052686
 21
75.35279319328992
 31
0.0
  0
LINE
  5
1C5
330
1E
100
AcDbEntity
  8
0
100
AcDbLine
 10
1704.116430052686
 20
75.35279319328992
 30
0.0
 11
1722.375214903448
 21
90.17977505391082
 31
0.0
  0
LINE
  5
1C6
330
1E
100
AcDbEntity
  8
0
100
AcDbLine
 10
1722.375214903448
 20
90.17977505391082
 30
0.0
 11
1736.069305667094
 21
104.6265789602812
 31
0.0
  0
LINE
  5
1C7
330
1E
100
AcDbEntity
  8
0
100
AcDbLine
 10
1736.069305667094
 20
104.6265789602812
 30
0.0
 11
1746.339872677041
 21
120.5940988481388
 31
0.0
  0
LINE
  5
1C8
330
1E
100
AcDbEntity
  8
0
100
AcDbLine
 10
1746.339872677041
 20
120.5940988481388
 30
0.0
 11
1752.53
 21
137.526
 31
0.0
  0
ENDSEC
  0
SECTION
  2
OBJECTS
  0
DICTIONARY
  5
C
330
0
100
AcDbDictionary
  3
ACAD_GROUP
350
D
  3
ACAD_LAYOUT
350
19
  3
ACAD_MLINESTYLE
350
16
  3
ACAD_PLOTSETTINGS
350
18
  3
ACAD_PLOTSTYLENAME
350
E
  3
ACDBHEADERROUNDTRIPXREC
350
1CD
  3
ACDBVARIABLEDICTIONARY
350
1CA
  0
DICTIONARY
  5
1EF
330
1E
100
AcDbDictionary
280
     1
  3
ACAD_LAYOUTSELFREF
360
1F0
  0
DICTIONARY
  5
1ED
330
1A
100
AcDbDictionary
280
     1
  3
ACAD_LAYOUTSELFREF
360
1EE
  0
DICTIONARY
  5
D
102
{ACAD_REACTORS
330
C
102
}
330
C
100
AcDbDictionary
  0
DICTIONARY
  5
19
102
{ACAD_REACTORS
330
C
102
}
330
C
100
AcDbDictionary
  0
DICTIONARY
  5
16
102
{ACAD_REACTORS
330
C
102
}
330
C
100
AcDbDictionary
  3
STANDARD
350
17
  0
DICTIONARY
  5
18
102
{ACAD_REACTORS
330
C
102
}
330
C
100
AcDbDictionary
  0
ACDBDICTIONARYWDFLT
  5
E
102
{ACAD_REACTORS
330
C
102
}
330
C
100
AcDbDictionary
281
     1
  3
Normal
350
F
100
AcDbDictionaryWithDefault
340
F
  0
DICTIONARY
  5
1CD
102
{ACAD_REACTORS
330
C
102
}
330
C
100
AcDbDictionary
  3
CEPSNTYPE
350
1D7
  3
FINGERPRINTGUID
350
1D8
  3
HYPERLINKBASE
350
1D0
  3
INSUNITS
350
1D6
  3
LAYOUTDICT
350
1D2
  3
LWETCUNION
350
1D5
  3
PLOTSETDICT
350
1D3
  3
PLOTSTYLNAMDICT
350
1D4
  3
PSVPSCALE
350
1DA
  3
PUCSBASE
350
1DD
  3
PUCSORGBACK
350
1E3
  3
PUCSORGBOTTOM
350
1DF
  3
PUCSORGFRONT
350
1E2
  3
PUCSORGLEFT
350
1E0
  3
PUCSORGRIGHT
350
1E1
  3
PUCSORGTOP
350
1DE
  3
PUCSORTHOREF
350
1DB
  3
PUCSORTHOVIEW
350
1DC
  3
STYLESHEET
350
1D1
  3
TSTACKALIGN
350
1CE
  3
TSTACKSIZE
350
1CF
  3
UCSBASE
350
1E6
  3
UCSORGBACK
350
1EC
  3
UCSORGBOTTOM
350
1E8
  3
UCSORGFRONT
350
1EB
  3
UCSORGLEFT
350
1E9
  3
UCSORGRIGHT
350
1EA
  3
UCSORGTOP
350
1E7
  3
UCSORTHOREF
350
1E4
  3
UCSORTHOVIEW
350
1E5
  3
VERSIONGUID
350
1D9
  0
DICTIONARY
  5
1CA
102
{ACAD_REACTORS
330
C
102
}
330
C
100
AcDbDictionary
  3
DIMASSOC
350
1CB
  0
XRECORD
  5
1F0
102
{ACAD_REACTORS
330
1EF
102
}
330
1EF
100
AcDbXrecord
340
1E
  0
XRECORD
  5
1EE
102
{ACAD_REACTORS
330
1ED
102
}
330
1ED
100
AcDbXrecord
340
1A
  0
MLINESTYLE
  5
17
102
{ACAD_REACTORS
330
16
102
}
330
16
100
AcDbMlineStyle
  2
STANDARD
 70
     0
  3

 62
   256
 51
90.0
 52
90.0
 71
     2
 49
0.5
 62
   256
  6
BYLAYER
 49
-0.5
 62
   256
  6
BYLAYER
  0
ACDBPLACEHOLDER
  5
F
102
{ACAD_REACTORS
330
E
102
}
330
E
100
AcDbPlaceHolder
280
     0
  0
XRECORD
  5
1D7
102
{ACAD_REACTORS
330
1CD
102
}
330
1CD
100
AcDbXrecord
 90
        0
  0
XRECORD
  5
1D8
102
{ACAD_REACTORS
330
1CD
102
}
330
1CD
100
AcDbXrecord
  1
{7D6F0899-71F7-4903-8CE1-7F8B52DB3699}
  0
XRECORD
  5
1D0
102
{ACAD_REACTORS
330
1CD
102
}
330
1CD
100
AcDbXrecord
  1

  0
XRECORD
  5
1D6
102
{ACAD_REACTORS
330
1CD
102
}
330
1CD
100
AcDbXrecord
 90
        0
  0
XRECORD
  5
1D2
102
{ACAD_REACTORS
330
1CD
102
}
330
1CD
100
AcDbXrecord
340
19
  0
XRECORD
  5
1D5
102
{ACAD_REACTORS
330
1CD
102
}
330
1CD
100
AcDbXrecord
 90
    10781
  0
XRECORD
  5
1D3
102
{ACAD_REACTORS
330
1CD
102
}
330
1CD
100
AcDbXrecord
340
18
  0
XRECORD
  5
1D4
102
{ACAD_REACTORS
330
1CD
102
}
330
1CD
100
AcDbXrecord
340
E
  0
XRECORD
  5
1DA
102
{ACAD_REACTORS
330
1CD
102
}
330
1CD
100
AcDbXrecord
 40
0.0
  0
XRECORD
  5
1DD
102
{ACAD_REACTORS
330
1CD
102
}
330
1CD
100
AcDbXrecord
340
0
  0
XRECORD
  5
1E3
102
{ACAD_REACTORS
330
1CD
102
}
330
1CD
100
AcDbXrecord
 10
0.0
 20
0.0
 30
0.0
  0
XRECORD
  5
1DF
102
{ACAD_REACTORS
330
1CD
102
}
330
1CD
100
AcDbXrecord
 10
0.0
 20
0.0
 30
0.0
  0
XRECORD
  5
1E2
102
{ACAD_REACTORS
330
1CD
102
}
330
1CD
100
AcDbXrecord
 10
0.0
 20
0.0
 30
0.0
  0
XRECORD
  5
1E0
102
{ACAD_REACTORS
330
1CD
102
}
330
1CD
100
AcDbXrecord
 10
0.0
 20
0.0
 30
0.0
  0
XRECORD
  5
1E1
102
{ACAD_REACTORS
330
1CD
102
}
330
1CD
100
AcDbXrecord
 10
0.0
 20
0.0
 30
0.0
  0
XRECORD
  5
1DE
102
{ACAD_REACTORS
330
1CD
102
}
330
1CD
100
AcDbXrecord
 10
0.0
 20
0.0
 30
0.0
  0
XRECORD
  5
1DB
102
{ACAD_REACTORS
330
1CD
102
}
330
1CD
100
AcDbXrecord
340
0
  0
XRECORD
  5
1DC
102
{ACAD_REACTORS
330
1CD
102
}
330
1CD
100
AcDbXrecord
 70
     0
  0
XRECORD
  5
1D1
102
{ACAD_REACTORS
330
1CD
102
}
330
1CD
100
AcDbXrecord
  1

  0
XRECORD
  5
1CE
102
{ACAD_REACTORS
330
1CD
102
}
330
1CD
100
AcDbXrecord
 90
        1
  0
XRECORD
  5
1CF
102
{ACAD_REACTORS
330
1CD
102
}
330
1CD
100
AcDbXrecord
 90
       70
  0
XRECORD
  5
1E6
102
{ACAD_REACTORS
330
1CD
102
}
330
1CD
100
AcDbXrecord
340
0
  0
XRECORD
  5
1EC
102
{ACAD_REACTORS
330
1CD
102
}
330
1CD
100
AcDbXrecord
 10
0.0
 20
0.0
 30
0.0
  0
XRECORD
  5
1E8
102
{ACAD_REACTORS
330
1CD
102
}
330
1CD
100
AcDbXrecord
 10
0.0
 20
0.0
 30
0.0
  0
XRECORD
  5
1EB
102
{ACAD_REACTORS
330
1CD
102
}
330
1CD
100
AcDbXrecord
 10
0.0
 20
0.0
 30
0.0
  0
XRECORD
  5
1E9
102
{ACAD_REACTORS
330
1CD
102
}
330
1CD
100
AcDbXrecord
 10
0.0
 20
0.0
 30
0.0
  0
XRECORD
  5
1EA
102
{ACAD_REACTORS
330
1CD
102
}
330
1CD
100
AcDbXrecord
 10
0.0
 20
0.0
 30
0.0
  0
XRECORD
  5
1E7
102
{ACAD_REACTORS
330
1CD
102
}
330
1CD
100
AcDbXrecord
 10
0.0
 20
0.0
 30
0.0
  0
XRECORD
  5
1E4
102
{ACAD_REACTORS
330
1CD
102
}
330
1CD
100
AcDbXrecord
340
0
  0
XRECORD
  5
1E5
102
{ACAD_REACTORS
330
1CD
102
}
330
1CD
100
AcDbXrecord
 70
     1
  0
XRECORD
  5
1D9
102
{ACAD_REACTORS
330
1CD
102
}
330
1CD
100
AcDbXrecord
  1
{04CDC963-202C-4D15-BEF9-AF68D42C27A4}
  0
DICTIONARYVAR
  5
1CB
102
{ACAD_REACTORS
330
1CA
102
}
330
1CA
100
DictionaryVariables
280
     0
  1
1
  0
ENDSEC
  0
EOF
