  0
SECTION
  2
HEADER
  9
$ACADVER
  1
AC1015
  9
$ACADMAINTVER
 70
     6
  9
$DWGCODEPAGE
  3
ANSI_1252
  9
$INSBASE
 10
0.0
 20
0.0
 30
0.0
  9
$EXTMIN
 10
0.0
 20
-0.0755
 30
0.0
  9
$EXTMAX
 10
435.0
 20
202.0154155
 30
0.0
  9
$LIMMIN
 10
0.0
 20
0.0
  9
$LIMMAX
 10
12.0
 20
9.0
  9
$ORTHOMODE
 70
     0
  9
$REGENMODE
 70
     1
  9
$FILLMODE
 70
     1
  9
$QTEXTMODE
 70
     0
  9
$MIRRTEXT
 70
     1
  9
$LTSCALE
 40
1.0
  9
$ATTMODE
 70
     1
  9
$TEXTSIZE
 40
0.2
  9
$TRACEWID
 40
0.05
  9
$TEXTSTYLE
  7
Standard
  9
$CLAYER
  8
0
  9
$CELTYPE
  6
Continuous
  9
$CECOLOR
 62
   256
  9
$CELTSCALE
 40
1.0
  9
$DISPSILH
 70
     0
  9
$DIMSCALE
 40
1.0
  9
$DIMASZ
 40
0.18
  9
$DIMEXO
 40
0.0625
  9
$DIMDLI
 40
0.38
  9
$DIMRND
 40
0.0
  9
$DIMDLE
 40
0.0
  9
$DIMEXE
 40
0.18
  9
$DIMTP
 40
0.0
  9
$DIMTM
 40
0.0
  9
$DIMTXT
 40
0.18
  9
$DIMCEN
 40
0.09
  9
$DIMTSZ
 40
0.0
  9
$DIMTOL
 70
     0
  9
$DIMLIM
 70
     0
  9
$DIMTIH
 70
     1
  9
$DIMTOH
 70
     1
  9
$DIMSE1
 70
     0
  9
$DIMSE2
 70
     0
  9
$DIMTAD
 70
     0
  9
$DIMZIN
 70
     0
  9
$DIMBLK
  1

  9
$DIMASO
 70
     1
  9
$DIMSHO
 70
     1
  9
$DIMPOST
  1

  9
$DIMAPOST
  1

  9
$DIMALT
 70
     0
  9
$DIMALTD
 70
     2
  9
$DIMALTF
 40
25.4
  9
$DIMLFAC
 40
1.0
  9
$DIMTOFL
 70
     0
  9
$DIMTVP
 40
0.0
  9
$DIMTIX
 70
     0
  9
$DIMSOXD
 70
     0
  9
$DIMSAH
 70
     0
  9
$DIMBLK1
  1

  9
$DIMBLK2
  1

  9
$DIMSTYLE
  2
Standard
  9
$DIMCLRD
 70
     0
  9
$DIMCLRE
 70
     0
  9
$DIMCLRT
 70
     0
  9
$DIMTFAC
 40
1.0
  9
$DIMGAP
 40
0.09
  9
$DIMJUST
 70
     0
  9
$DIMSD1
 70
     0
  9
$DIMSD2
 70
     0
  9
$DIMTOLJ
 70
     1
  9
$DIMTZIN
 70
     0
  9
$DIMALTZ
 70
     0
  9
$DIMALTTZ
 70
     0
  9
$DIMUPT
 70
     0
  9
$DIMDEC
 70
     4
  9
$DIMTDEC
 70
     4
  9
$DIMALTU
 70
     2
  9
$DIMALTTD
 70
     2
  9
$DIMTXSTY
  7
Standard
  9
$DIMAUNIT
 70
     0
  9
$DIMADEC
 70
     0
  9
$DIMALTRND
 40
0.0
  9
$DIMAZIN
 70
     0
  9
$DIMDSEP
 70
    46
  9
$DIMATFIT
 70
     3
  9
$DIMFRAC
 70
     0
  9
$DIMLDRBLK
  1

  9
$DIMLUNIT
 70
     2
  9
$DIMLWD
 70
    -2
  9
$DIMLWE
 70
    -2
  9
$DIMTMOVE
 70
     0
  9
$LUNITS
 70
     2
  9
$LUPREC
 70
     4
  9
$SKETCHINC
 40
0.1
  9
$FILLETRAD
 40
0.0
  9
$AUNITS
 70
     0
  9
$AUPREC
 70
     0
  9
$MENU
  1
.
  9
$ELEVATION
 40
0.0
  9
$PELEVATION
 40
0.0
  9
$THICKNESS
 40
0.0
  9
$LIMCHECK
 70
     0
  9
$CHAMFERA
 40
0.0
  9
$CHAMFERB
 40
0.0
  9
$CHAMFERC
 40
0.0
  9
$CHAMFERD
 40
0.0
  9
$SKPOLY
 70
     0
  9
$TDCREATE
 40
2454636.777094537
  9
$TDUCREATE
 40
2454636.693761204
  9
$TDUPDATE
 40
2456210.426941551
  9
$TDUUPDATE
 40
2456210.343608218
  9
$TDINDWG
 40
0.004578287
  9
$TDUSRTIMER
 40
0.004578287
  9
$USRTIMER
 70
     1
  9
$ANGBASE
 50
0.0
  9
$ANGDIR
 70
     0
  9
$PDMODE
 70
     0
  9
$PDSIZE
 40
0.0
  9
$PLINEWID
 40
0.0
  9
$SPLFRAME
 70
     0
  9
$SPLINETYPE
 70
     6
  9
$SPLINESEGS
 70
     8
  9
$HANDSEED
  5
D60
  9
$SURFTAB1
 70
     6
  9
$SURFTAB2
 70
     6
  9
$SURFTYPE
 70
     6
  9
$SURFU
 70
     6
  9
$SURFV
 70
     6
  9
$UCSBASE
  2

  9
$UCSNAME
  2

  9
$UCSORG
 10
0.0
 20
0.0
 30
0.0
  9
$UCSXDIR
 10
1.0
 20
0.0
 30
0.0
  9
$UCSYDIR
 10
0.0
 20
1.0
 30
0.0
  9
$UCSORTHOREF
  2

  9
$UCSORTHOVIEW
 70
     1
  9
$UCSORGTOP
 10
0.0
 20
0.0
 30
0.0
  9
$UCSORGBOTTOM
 10
0.0
 20
0.0
 30
0.0
  9
$UCSORGLEFT
 10
0.0
 20
0.0
 30
0.0
  9
$UCSORGRIGHT
 10
0.0
 20
0.0
 30
0.0
  9
$UCSORGFRONT
 10
0.0
 20
0.0
 30
0.0
  9
$UCSORGBACK
 10
0.0
 20
0.0
 30
0.0
  9
$PUCSBASE
  2

  9
$PUCSNAME
  2

  9
$PUCSORG
 10
0.0
 20
0.0
 30
0.0
  9
$PUCSXDIR
 10
1.0
 20
0.0
 30
0.0
  9
$PUCSYDIR
 10
0.0
 20
1.0
 30
0.0
  9
$PUCSORTHOREF
  2

  9
$PUCSORTHOVIEW
 70
     0
  9
$PUCSORGTOP
 10
0.0
 20
0.0
 30
0.0
  9
$PUCSORGBOTTOM
 10
0.0
 20
0.0
 30
0.0
  9
$PUCSORGLEFT
 10
0.0
 20
0.0
 30
0.0
  9
$PUCSORGRIGHT
 10
0.0
 20
0.0
 30
0.0
  9
$PUCSORGFRONT
 10
0.0
 20
0.0
 30
0.0
  9
$PUCSORGBACK
 10
0.0
 20
0.0
 30
0.0
  9
$USERI1
 70
     0
  9
$USERI2
 70
     0
  9
$USERI3
 70
     0
  9
$USERI4
 70
     0
  9
$USERI5
 70
     0
  9
$USERR1
 40
0.0
  9
$USERR2
 40
0.0
  9
$USERR3
 40
0.0
  9
$USERR4
 40
0.0
  9
$USERR5
 40
0.0
  9
$WORLDVIEW
 70
     1
  9
$SHADEDGE
 70
     3
  9
$SHADEDIF
 70
    70
  9
$TILEMODE
 70
     1
  9
$MAXACTVP
 70
    64
  9
$PINSBASE
 10
0.0
 20
0.0
 30
0.0
  9
$PLIMCHECK
 70
     0
  9
$PEXTMIN
 10
1.000000000000E+20
 20
1.000000000000E+20
 30
1.000000000000E+20
  9
$PEXTMAX
 10
-1.000000000000E+20
 20
-1.000000000000E+20
 30
-1.000000000000E+20
  9
$PLIMMIN
 10
0.0
 20
0.0
  9
$PLIMMAX
 10
12.0
 20
9.0
  9
$UNITMODE
 70
     0
  9
$VISRETAIN
 70
     1
  9
$PLINEGEN
 70
     0
  9
$PSLTSCALE
 70
     1
  9
$TREEDEPTH
 70
  3020
  9
$CMLSTYLE
  2
Standard
  9
$CMLJUST
 70
     0
  9
$CMLSCALE
 40
1.0
  9
$PROXYGRAPHICS
 70
     1
  9
$MEASUREMENT
 70
     0
  9
$CELWEIGHT
370
    -1
  9
$ENDCAPS
280
     0
  9
$JOINSTYLE
280
     0
  9
$LWDISPLAY
290
     0
  9
$INSUNITS
 70
     0
  9
$HYPERLINKBASE
  1

  9
$STYLESHEET
  1

  9
$XEDIT
290
     1
  9
$CEPSNTYPE
380
     0
  9
$PSTYLEMODE
290
     1
  9
$FINGERPRINTGUID
  2
{6BE8500C-40C1-4749-A607-CC203B678817}
  9
$VERSIONGUID
  2
{C927A052-A291-4E60-814C-F4D07A0ED518}
  9
$EXTNAMES
290
     1
  9
$PSVPSCALE
 40
0.0
  9
$OLESTARTUP
290
     0
  0
ENDSEC
  0
SECTION
  2
CLASSES
  0
CLASS
  1
ACDBDICTIONARYWDFLT
  2
AcDbDictionaryWithDefault
  3
ObjectDBX Classes
 90
        0
280
     0
281
     0
  0
CLASS
  1
ACDBPLACEHOLDER
  2
AcDbPlaceHolder
  3
ObjectDBX Classes
 90
        0
280
     0
281
     0
  0
CLASS
  1
LAYOUT
  2
AcDbLayout
  3
ObjectDBX Classes
 90
        0
280
     0
281
     0
  0
CLASS
  1
DICTIONARYVAR
  2
AcDbDictionaryVar
  3
ObjectDBX Classes
 90
        0
280
     0
281
     0
  0
CLASS
  1
SCALE
  2
AcDbScale
  3
ObjectDBX Classes
 90
     1153
280
     0
281
     0
  0
ENDSEC
  0
SECTION
  2
TABLES
  0
TABLE
  2
VPORT
  5
8
330
0
100
AcDbSymbolTable
 70
     1
  0
VPORT
  5
344
330
8
100
AcDbSymbolTableRecord
100
AcDbViewportTableRecord
  2
*Active
 70
     0
 10
0.0
 20
0.0
 11
1.0
 21
1.0
 12
217.5
 22
100.96995775
 13
0.0
 23
0.0
 14
1.0
 24
1.0
 15
0.0
 25
0.0
 16
0.0
 26
0.0
 36
1.0
 17
0.0
 27
0.0
 37
0.0
 40
206.13273381
 41
2.271724137931
 42
50.0
 43
0.0
 44
0.0
 50
0.0
 51
0.0
 71
    16
 72
   100
 73
     1
 74
     3
 75
     0
 76
     0
 77
     0
 78
     0
281
     0
 65
     1
110
0.0
120
0.0
130
0.0
111
1.0
121
0.0
131
0.0
112
0.0
122
1.0
132
0.0
 79
     1
146
0.0
  0
ENDTAB
  0
TABLE
  2
LTYPE
  5
5
330
0
100
AcDbSymbolTable
 70
     1
  0
LTYPE
  5
13
330
5
100
AcDbSymbolTableRecord
100
AcDbLinetypeTableRecord
  2
ByBlock
 70
     0
  3

 72
    65
 73
     0
 40
0.0
  0
LTYPE
  5
14
330
5
100
AcDbSymbolTableRecord
100
AcDbLinetypeTableRecord
  2
ByLayer
 70
     0
  3

 72
    65
 73
     0
 40
0.0
  0
LTYPE
  5
15
330
5
100
AcDbSymbolTableRecord
100
AcDbLinetypeTableRecord
  2
Continuous
 70
     0
  3
Solid line
 72
    65
 73
     0
 40
0.0
  0
ENDTAB
  0
TABLE
  2
LAYER
  5
2
330
0
100
AcDbSymbolTable
 70
     1
  0
LAYER
  5
10
330
2
100
AcDbSymbolTableRecord
100
AcDbLayerTableRecord
  2
0
 70
     0
 62
     7
  6
Continuous
370
    -3
390
F
  0
ENDTAB
  0
TABLE
  2
STYLE
  5
3
330
0
100
AcDbSymbolTable
 70
     1
  0
STYLE
  5
11
330
3
100
AcDbSymbolTableRecord
100
AcDbTextStyleTableRecord
  2
Standard
 70
     0
 40
0.0
 41
1.0
 50
0.0
 71
     0
 42
0.2
  3
txt
  4

  0
ENDTAB
  0
TABLE
  2
VIEW
  5
6
330
0
100
AcDbSymbolTable
 70
     0
  0
ENDTAB
  0
TABLE
  2
UCS
  5
7
330
0
100
AcDbSymbolTable
 70
     0
  0
ENDTAB
  0
TABLE
  2
APPID
  5
9
330
0
100
AcDbSymbolTable
 70
     1
  0
APPID
  5
12
330
9
100
AcDbSymbolTableRecord
100
AcDbRegAppTableRecord
  2
ACAD
 70
     0
  0
ENDTAB
  0
TABLE
  2
DIMSTYLE
  5
A
330
0
100
AcDbSymbolTable
 70
     1
100
AcDbDimStyleTable
  0
DIMSTYLE
105
33E
330
A
100
AcDbSymbolTableRecord
100
AcDbDimStyleTableRecord
  2
Standard
 70
     0
340
11
  0
ENDTAB
  0
TABLE
  2
BLOCK_RECORD
  5
1
330
0
100
AcDbSymbolTable
 70
     1
  0
BLOCK_RECORD
  5
1E
330
1
100
AcDbSymbolTableRecord
100
AcDbBlockTableRecord
  2
*Model_Space
340
21
  0
BLOCK_RECORD
  5
1A
330
1
100
AcDbSymbolTableRecord
100
AcDbBlockTableRecord
  2
*Paper_Space
340
1D
  0
ENDTAB
  0
ENDSEC
  0
SECTION
  2
BLOCKS
  0
BLOCK
  5
1F
330
1E
100
AcDbEntity
  8
0
100
AcDbBlockBegin
  2
*Model_Space
 70
     0
 10
0.0
 20
0.0
 30
0.0
  3
*Model_Space
  1
*Model_Space
  0
ENDBLK
  5
20
330
1E
100
AcDbEntity
  8
0
100
AcDbBlockEnd
  0
BLOCK
  5
1B
330
1A
100
AcDbEntity
 67
     1
  8
0
100
AcDbBlockBegin
  2
*Paper_Space
 70
     0
 10
0.0
 20
0.0
 30
0.0
  3
*Paper_Space
  1
*Paper_Space
  0
ENDBLK
  5
1C
330
1A
100
AcDbEntity
 67
     1
  8
0
100
AcDbBlockEnd
  0
ENDSEC
  0
SECTION
  2
ENTITIES
  0
LINE
  5
22
330
1E
100
AcDbEntity
  8
0
100
AcDbLine
 10
46.0
 20
-0.0755
 30
0.0
 11
55.0
 21
-0.0755
 31
0.0
  0
LINE
  5
23
330
1E
100
AcDbEntity
  8
0
100
AcDbLine
 10
37.6
 20
-0.0755
 30
0.0
 11
46.0
 21
-0.0755
 31
0.0
  0
LINE
  5
24
330
1E
100
AcDbEntity
  8
0
100
AcDbLine
 10
55.0
 20
-0.0755
 30
0.0
 11
64.0
 21
-0.0755
 31
0.0
  0
LINE
  5
25
330
1E
100
AcDbEntity
  8
0
100
AcDbLine
 10
64.0
 20
-0.0755
 30
0.0
 11
72.4
 21
-0.0755
 31
0.0
  0
LINE
  5
26
330
1E
100
AcDbEntity
  8
0
100
AcDbLine
 10
30.3
 20
-0.0755
 30
0.0
 11
37.6
 21
-0.0755
 31
0.0
  0
LINE
  5
27
330
1E
100
AcDbEntity
  8
0
100
AcDbLine
 10
24.7
 20
-0.0755
 30
0.0
 11
30.3
 21
-0.0755
 31
0.0
  0
LINE
  5
28
330
1E
100
AcDbEntity
  8
0
100
AcDbLine
 10
72.4
 20
-0.0755
 30
0.0
 11
79.7
 21
-0.0755
 31
0.0
  0
LINE
  5
29
330
1E
100
AcDbEntity
  8
0
100
AcDbLine
 10
79.7
 20
-0.0755
 30
0.0
 11
85.3
 21
-0.0755
 31
0.0
  0
LINE
  5
2A
330
1E
100
AcDbEntity
  8
0
100
AcDbLine
 10
24.7
 20
-0.0755
 30
0.0
 11
30.3
 21
-0.0755
 31
0.0
  0
LINE
  5
2B
330
1E
100
AcDbEntity
  8
0
100
AcDbLine
 10
21.3
 20
-0.0755
 30
0.0
 11
24.7
 21
-0.0755
 31
0.0
  0
LINE
  5
2C
330
1E
100
AcDbEntity
  8
0
100
AcDbLine
 10
21.3
 20
-0.0755
 30
0.0
 11
24.7
 21
-0.0755
 31
0.0
  0
LINE
  5
2D
330
1E
100
AcDbEntity
  8
0
100
AcDbLine
 10
20.0
 20
-0.0755
 30
0.0
 11
21.3
 21
-0.0755
 31
0.0
  0
LINE
  5
2E
330
1E
100
AcDbEntity
  8
0
100
AcDbLine
 10
20.0
 20
-0.0755
 30
0.0
 11
21.3
 21
-0.0755
 31
0.0
  0
LINE
  5
2F
330
1E
100
AcDbEntity
  8
0
100
AcDbLine
 10
20.0
 20
-0.0755
 30
0.0
 11
20.0
 21
9.4245
 31
0.0
  0
LINE
  5
30
330
1E
100
AcDbEntity
  8
0
100
AcDbLine
 10
37.6
 20
-0.0755
 30
0.0
 11
46.0
 21
-0.0755
 31
0.0
  0
LINE
  5
31
330
1E
100
AcDbEntity
  8
0
100
AcDbLine
 10
30.3
 20
-0.0755
 30
0.0
 11
37.6
 21
-0.0755
 31
0.0
  0
LINE
  5
32
330
1E
100
AcDbEntity
  8
0
100
AcDbLine
 10
46.0
 20
-0.0755
 30
0.0
 11
55.0
 21
-0.0755
 31
0.0
  0
LINE
  5
33
330
1E
100
AcDbEntity
  8
0
100
AcDbLine
 10
24.7
 20
9.4245
 30
0.0
 11
30.3
 21
9.4245
 31
0.0
  0
LINE
  5
34
330
1E
100
AcDbEntity
  8
0
100
AcDbLine
 10
21.3
 20
9.4245
 30
0.0
 11
24.7
 21
9.4245
 31
0.0
  0
LINE
  5
35
330
1E
100
AcDbEntity
  8
0
100
AcDbLine
 10
20.0
 20
9.4245
 30
0.0
 11
20.0
 21
-0.0755
 31
0.0
  0
LINE
  5
36
330
1E
100
AcDbEntity
  8
0
100
AcDbLine
 10
20.0
 20
9.4245
 30
0.0
 11
20.5
 21
9.9245
 31
0.0
  0
LINE
  5
37
330
1E
100
AcDbEntity
  8
0
100
AcDbLine
 10
20.0
 20
9.4245
 30
0.0
 11
21.3
 21
9.4245
 31
0.0
  0
LINE
  5
38
330
1E
100
AcDbEntity
  8
0
100
AcDbLine
 10
55.0
 20
-0.0755
 30
0.0
 11
64.0
 21
-0.0755
 31
0.0
  0
LINE
  5
39
330
1E
100
AcDbEntity
  8
0
100
AcDbLine
 10
64.0
 20
-0.0755
 30
0.0
 11
72.4
 21
-0.0755
 31
0.0
  0
LINE
  5
3A
330
1E
100
AcDbEntity
  8
0
100
AcDbLine
 10
72.4
 20
-0.0755
 30
0.0
 11
79.7
 21
-0.0755
 31
0.0
  0
LINE
  5
3B
330
1E
100
AcDbEntity
  8
0
100
AcDbLine
 10
85.3
 20
9.4245
 30
0.0
 11
88.7
 21
9.4245
 31
0.0
  0
LINE
  5
3C
330
1E
100
AcDbEntity
  8
0
100
AcDbLine
 10
88.7
 20
9.4245
 30
0.0
 11
90.0
 21
9.4245
 31
0.0
  0
LINE
  5
3D
330
1E
100
AcDbEntity
  8
0
100
AcDbLine
 10
79.7
 20
-0.0755
 30
0.0
 11
85.3
 21
-0.0755
 31
0.0
  0
LINE
  5
3E
330
1E
100
AcDbEntity
  8
0
100
AcDbLine
 10
85.3
 20
-0.0755
 30
0.0
 11
88.7
 21
-0.0755
 31
0.0
  0
LINE
  5
3F
330
1E
100
AcDbEntity
  8
0
100
AcDbLine
 10
88.7
 20
-0.0755
 30
0.0
 11
90.0
 21
-0.0755
 31
0.0
  0
LINE
  5
40
330
1E
100
AcDbEntity
  8
0
100
AcDbLine
 10
85.3
 20
-0.0755
 30
0.0
 11
88.7
 21
-0.0755
 31
0.0
  0
LINE
  5
41
330
1E
100
AcDbEntity
  8
0
100
AcDbLine
 10
90.0
 20
9.4245
 30
0.0
 11
90.0
 21
-0.0755
 31
0.0
  0
LINE
  5
42
330
1E
100
AcDbEntity
  8
0
100
AcDbLine
 10
90.0
 20
-0.0755
 30
0.0
 11
90.0
 21
9.4245
 31
0.0
  0
LINE
  5
43
330
1E
100
AcDbEntity
  8
0
100
AcDbLine
 10
88.7
 20
-0.0755
 30
0.0
 11
90.0
 21
-0.0755
 31
0.0
  0
LINE
  5
44
330
1E
100
AcDbEntity
  8
0
100
AcDbLine
 10
130.0
 20
9.4245
 30
0.0
 11
131.3
 21
9.4245
 31
0.0
  0
LINE
  5
45
330
1E
100
AcDbEntity
  8
0
100
AcDbLine
 10
130.0
 20
9.4245
 30
0.0
 11
130.5
 21
9.9245
 31
0.0
  0
LINE
  5
46
330
1E
100
AcDbEntity
  8
0
100
AcDbLine
 10
130.0
 20
9.4245
 30
0.0
 11
130.0
 21
-0.0755
 31
0.0
  0
LINE
  5
47
330
1E
100
AcDbEntity
  8
0
100
AcDbLine
 10
156.0
 20
-0.0755
 30
0.0
 11
165.0
 21
-0.0755
 31
0.0
  0
LINE
  5
48
330
1E
100
AcDbEntity
  8
0
100
AcDbLine
 10
165.0
 20
-0.0755
 30
0.0
 11
174.0
 21
-0.0755
 31
0.0
  0
LINE
  5
49
330
1E
100
AcDbEntity
  8
0
100
AcDbLine
 10
147.6
 20
-0.0755
 30
0.0
 11
156.0
 21
-0.0755
 31
0.0
  0
LINE
  5
4A
330
1E
100
AcDbEntity
  8
0
100
AcDbLine
 10
140.3
 20
-0.0755
 30
0.0
 11
147.6
 21
-0.0755
 31
0.0
  0
LINE
  5
4B
330
1E
100
AcDbEntity
  8
0
100
AcDbLine
 10
174.0
 20
-0.0755
 30
0.0
 11
182.4
 21
-0.0755
 31
0.0
  0
LINE
  5
4C
330
1E
100
AcDbEntity
  8
0
100
AcDbLine
 10
182.4
 20
-0.0755
 30
0.0
 11
189.7
 21
-0.0755
 31
0.0
  0
LINE
  5
4D
330
1E
100
AcDbEntity
  8
0
100
AcDbLine
 10
134.7
 20
-0.0755
 30
0.0
 11
140.3
 21
-0.0755
 31
0.0
  0
LINE
  5
4E
330
1E
100
AcDbEntity
  8
0
100
AcDbLine
 10
131.3
 20
-0.0755
 30
0.0
 11
134.7
 21
-0.0755
 31
0.0
  0
LINE
  5
4F
330
1E
100
AcDbEntity
  8
0
100
AcDbLine
 10
189.7
 20
-0.0755
 30
0.0
 11
195.3
 21
-0.0755
 31
0.0
  0
LINE
  5
50
330
1E
100
AcDbEntity
  8
0
100
AcDbLine
 10
195.3
 20
-0.0755
 30
0.0
 11
198.7
 21
-0.0755
 31
0.0
  0
LINE
  5
51
330
1E
100
AcDbEntity
  8
0
100
AcDbLine
 10
198.7
 20
-0.0755
 30
0.0
 11
200.0
 21
-0.0755
 31
0.0
  0
LINE
  5
52
330
1E
100
AcDbEntity
  8
0
100
AcDbLine
 10
200.0
 20
-0.0755
 30
0.0
 11
200.0
 21
9.4245
 31
0.0
  0
LINE
  5
53
330
1E
100
AcDbEntity
  8
0
100
AcDbLine
 10
198.7
 20
-0.0755
 30
0.0
 11
200.0
 21
-0.0755
 31
0.0
  0
LINE
  5
54
330
1E
100
AcDbEntity
  8
0
100
AcDbLine
 10
134.7
 20
9.4245
 30
0.0
 11
140.3
 21
9.4245
 31
0.0
  0
LINE
  5
55
330
1E
100
AcDbEntity
  8
0
100
AcDbLine
 10
131.3
 20
9.4245
 30
0.0
 11
134.7
 21
9.4245
 31
0.0
  0
LINE
  5
56
330
1E
100
AcDbEntity
  8
0
100
AcDbLine
 10
189.7
 20
-0.0755
 30
0.0
 11
195.3
 21
-0.0755
 31
0.0
  0
LINE
  5
57
330
1E
100
AcDbEntity
  8
0
100
AcDbLine
 10
195.3
 20
-0.0755
 30
0.0
 11
198.7
 21
-0.0755
 31
0.0
  0
LINE
  5
58
330
1E
100
AcDbEntity
  8
0
100
AcDbLine
 10
174.0
 20
-0.0755
 30
0.0
 11
182.4
 21
-0.0755
 31
0.0
  0
LINE
  5
59
330
1E
100
AcDbEntity
  8
0
100
AcDbLine
 10
182.4
 20
-0.0755
 30
0.0
 11
189.7
 21
-0.0755
 31
0.0
  0
LINE
  5
5A
330
1E
100
AcDbEntity
  8
0
100
AcDbLine
 10
195.3
 20
9.4245
 30
0.0
 11
198.7
 21
9.4245
 31
0.0
  0
LINE
  5
5B
330
1E
100
AcDbEntity
  8
0
100
AcDbLine
 10
198.7
 20
9.4245
 30
0.0
 11
200.0
 21
9.4245
 31
0.0
  0
LINE
  5
5C
330
1E
100
AcDbEntity
  8
0
100
AcDbLine
 10
200.0
 20
9.4245
 30
0.0
 11
200.0
 21
-0.0755
 31
0.0
  0
LINE
  5
5D
330
1E
100
AcDbEntity
  8
0
100
AcDbLine
 10
165.0
 20
-0.0755
 30
0.0
 11
174.0
 21
-0.0755
 31
0.0
  0
LINE
  5
5E
330
1E
100
AcDbEntity
  8
0
100
AcDbLine
 10
156.0
 20
-0.0755
 30
0.0
 11
165.0
 21
-0.0755
 31
0.0
  0
LINE
  5
5F
330
1E
100
AcDbEntity
  8
0
100
AcDbLine
 10
147.6
 20
-0.0755
 30
0.0
 11
156.0
 21
-0.0755
 31
0.0
  0
LINE
  5
60
330
1E
100
AcDbEntity
  8
0
100
AcDbLine
 10
140.3
 20
-0.0755
 30
0.0
 11
147.6
 21
-0.0755
 31
0.0
  0
LINE
  5
61
330
1E
100
AcDbEntity
  8
0
100
AcDbLine
 10
134.7
 20
-0.0755
 30
0.0
 11
140.3
 21
-0.0755
 31
0.0
  0
LINE
  5
62
330
1E
100
AcDbEntity
  8
0
100
AcDbLine
 10
131.3
 20
-0.0755
 30
0.0
 11
134.7
 21
-0.0755
 31
0.0
  0
LINE
  5
63
330
1E
100
AcDbEntity
  8
0
100
AcDbLine
 10
130.0
 20
-0.0755
 30
0.0
 11
131.3
 21
-0.0755
 31
0.0
  0
LINE
  5
64
330
1E
100
AcDbEntity
  8
0
100
AcDbLine
 10
130.0
 20
-0.0755
 30
0.0
 11
130.0
 21
9.4245
 31
0.0
  0
LINE
  5
65
330
1E
100
AcDbEntity
  8
0
100
AcDbLine
 10
130.0
 20
-0.0755
 30
0.0
 11
131.3
 21
-0.0755
 31
0.0
  0
LINE
  5
66
330
1E
100
AcDbEntity
  8
0
100
AcDbLine
 10
46.0
 20
9.4245
 30
0.0
 11
55.0
 21
9.4245
 31
0.0
  0
LINE
  5
67
330
1E
100
AcDbEntity
  8
0
100
AcDbLine
 10
37.6
 20
9.4245
 30
0.0
 11
46.0
 21
9.4245
 31
0.0
  0
LINE
  5
68
330
1E
100
AcDbEntity
  8
0
100
AcDbLine
 10
30.3
 20
9.4245
 30
0.0
 11
37.6
 21
9.4245
 31
0.0
  0
LINE
  5
69
330
1E
100
AcDbEntity
  8
0
100
AcDbLine
 10
55.0
 20
9.4245
 30
0.0
 11
64.0
 21
9.4245
 31
0.0
  0
LINE
  5
6A
330
1E
100
AcDbEntity
  8
0
100
AcDbLine
 10
64.0
 20
9.4245
 30
0.0
 11
72.4
 21
9.4245
 31
0.0
  0
LINE
  5
6B
330
1E
100
AcDbEntity
  8
0
100
AcDbLine
 10
72.4
 20
9.4245
 30
0.0
 11
79.7
 21
9.4245
 31
0.0
  0
LINE
  5
6C
330
1E
100
AcDbEntity
  8
0
100
AcDbLine
 10
79.7
 20
9.4245
 30
0.0
 11
85.3
 21
9.4245
 31
0.0
  0
LINE
  5
6D
330
1E
100
AcDbEntity
  8
0
100
AcDbLine
 10
165.0
 20
9.4245
 30
0.0
 11
174.0
 21
9.4245
 31
0.0
  0
LINE
  5
6E
330
1E
100
AcDbEntity
  8
0
100
AcDbLine
 10
174.0
 20
9.4245
 30
0.0
 11
182.4
 21
9.4245
 31
0.0
  0
LINE
  5
6F
330
1E
100
AcDbEntity
  8
0
100
AcDbLine
 10
182.4
 20
9.4245
 30
0.0
 11
189.7
 21
9.4245
 31
0.0
  0
LINE
  5
70
330
1E
100
AcDbEntity
  8
0
100
AcDbLine
 10
189.7
 20
9.4245
 30
0.0
 11
195.3
 21
9.4245
 31
0.0
  0
LINE
  5
71
330
1E
100
AcDbEntity
  8
0
100
AcDbLine
 10
156.0
 20
9.4245
 30
0.0
 11
165.0
 21
9.4245
 31
0.0
  0
LINE
  5
72
330
1E
100
AcDbEntity
  8
0
100
AcDbLine
 10
147.6
 20
9.4245
 30
0.0
 11
156.0
 21
9.4245
 31
0.0
  0
LINE
  5
73
330
1E
100
AcDbEntity
  8
0
100
AcDbLine
 10
140.3
 20
9.4245
 30
0.0
 11
147.6
 21
9.4245
 31
0.0
  0
LINE
  5
74
330
1E
100
AcDbEntity
  8
0
100
AcDbLine
 10
240.0
 20
9.4245
 30
0.0
 11
240.0
 21
-0.0755
 31
0.0
  0
LINE
  5
75
330
1E
100
AcDbEntity
  8
0
100
AcDbLine
 10
240.0
 20
9.4245
 30
0.0
 11
241.3
 21
9.4245
 31
0.0
  0
LINE
  5
76
330
1E
100
AcDbEntity
  8
0
100
AcDbLine
 10
240.0
 20
9.4245
 30
0.0
 11
240.5
 21
9.9245
 31
0.0
  0
LINE
  5
77
330
1E
100
AcDbEntity
  8
0
100
AcDbLine
 10
266.0
 20
-0.0755
 30
0.0
 11
275.0
 21
-0.0755
 31
0.0
  0
LINE
  5
78
330
1E
100
AcDbEntity
  8
0
100
AcDbLine
 10
257.6
 20
-0.0755
 30
0.0
 11
266.0
 21
-0.0755
 31
0.0
  0
LINE
  5
79
330
1E
100
AcDbEntity
  8
0
100
AcDbLine
 10
250.3
 20
-0.0755
 30
0.0
 11
257.6
 21
-0.0755
 31
0.0
  0
LINE
  5
7A
330
1E
100
AcDbEntity
  8
0
100
AcDbLine
 10
244.7
 20
-0.0755
 30
0.0
 11
250.3
 21
-0.0755
 31
0.0
  0
LINE
  5
7B
330
1E
100
AcDbEntity
  8
0
100
AcDbLine
 10
241.3
 20
-0.0755
 30
0.0
 11
244.7
 21
-0.0755
 31
0.0
  0
LINE
  5
7C
330
1E
100
AcDbEntity
  8
0
100
AcDbLine
 10
275.0
 20
-0.0755
 30
0.0
 11
284.0
 21
-0.0755
 31
0.0
  0
LINE
  5
7D
330
1E
100
AcDbEntity
  8
0
100
AcDbLine
 10
244.7
 20
9.4245
 30
0.0
 11
250.3
 21
9.4245
 31
0.0
  0
LINE
  5
7E
330
1E
100
AcDbEntity
  8
0
100
AcDbLine
 10
241.3
 20
9.4245
 30
0.0
 11
244.7
 21
9.4245
 31
0.0
  0
LINE
  5
7F
330
1E
100
AcDbEntity
  8
0
100
AcDbLine
 10
257.6
 20
9.4245
 30
0.0
 11
266.0
 21
9.4245
 31
0.0
  0
LINE
  5
80
330
1E
100
AcDbEntity
  8
0
100
AcDbLine
 10
250.3
 20
9.4245
 30
0.0
 11
257.6
 21
9.4245
 31
0.0
  0
LINE
  5
81
330
1E
100
AcDbEntity
  8
0
100
AcDbLine
 10
266.0
 20
9.4245
 30
0.0
 11
275.0
 21
9.4245
 31
0.0
  0
LINE
  5
82
330
1E
100
AcDbEntity
  8
0
100
AcDbLine
 10
266.0
 20
-0.0755
 30
0.0
 11
275.0
 21
-0.0755
 31
0.0
  0
LINE
  5
83
330
1E
100
AcDbEntity
  8
0
100
AcDbLine
 10
257.6
 20
-0.0755
 30
0.0
 11
266.0
 21
-0.0755
 31
0.0
  0
LINE
  5
84
330
1E
100
AcDbEntity
  8
0
100
AcDbLine
 10
250.3
 20
-0.0755
 30
0.0
 11
257.6
 21
-0.0755
 31
0.0
  0
LINE
  5
85
330
1E
100
AcDbEntity
  8
0
100
AcDbLine
 10
244.7
 20
-0.0755
 30
0.0
 11
250.3
 21
-0.0755
 31
0.0
  0
LINE
  5
86
330
1E
100
AcDbEntity
  8
0
100
AcDbLine
 10
241.3
 20
-0.0755
 30
0.0
 11
244.7
 21
-0.0755
 31
0.0
  0
LINE
  5
87
330
1E
100
AcDbEntity
  8
0
100
AcDbLine
 10
240.0
 20
-0.0755
 30
0.0
 11
241.3
 21
-0.0755
 31
0.0
  0
LINE
  5
88
330
1E
100
AcDbEntity
  8
0
100
AcDbLine
 10
240.0
 20
-0.0755
 30
0.0
 11
241.3
 21
-0.0755
 31
0.0
  0
LINE
  5
89
330
1E
100
AcDbEntity
  8
0
100
AcDbLine
 10
240.0
 20
-0.0755
 30
0.0
 11
240.0
 21
9.4245
 31
0.0
  0
LINE
  5
8A
330
1E
100
AcDbEntity
  8
0
100
AcDbLine
 10
20.5
 20
9.9245
 30
0.0
 11
21.7
 21
9.9245
 31
0.0
  0
LINE
  5
8B
330
1E
100
AcDbEntity
  8
0
100
AcDbLine
 10
37.0
 20
9.9245
 30
0.0
 11
37.0
 21
44.4245
 31
0.0
  0
LINE
  5
8C
330
1E
100
AcDbEntity
  8
0
100
AcDbLine
 10
89.5
 20
9.9245
 30
0.0
 11
90.0
 21
9.4245
 31
0.0
  0
LINE
  5
8D
330
1E
100
AcDbEntity
  8
0
100
AcDbLine
 10
73.0
 20
9.9245
 30
0.0
 11
73.0
 21
44.4245
 31
0.0
  0
LINE
  5
8E
330
1E
100
AcDbEntity
  8
0
100
AcDbLine
 10
190.0
 20
9.9245
 30
0.0
 11
190.0
 21
64.4245
 31
0.0
  0
LINE
  5
8F
330
1E
100
AcDbEntity
  8
0
100
AcDbLine
 10
199.5
 20
9.9245
 30
0.0
 11
200.0
 21
9.4245
 31
0.0
  0
LINE
  5
90
330
1E
100
AcDbEntity
  8
0
100
AcDbLine
 10
140.0
 20
9.9245
 30
0.0
 11
140.0
 21
64.4245
 31
0.0
  0
LINE
  5
91
330
1E
100
AcDbEntity
  8
0
100
AcDbLine
 10
37.9
 20
9.9245
 30
0.0
 11
46.1
 21
9.9245
 31
0.0
  0
LINE
  5
92
330
1E
100
AcDbEntity
  8
0
100
AcDbLine
 10
30.6
 20
9.9245
 30
0.0
 11
37.9
 21
9.9245
 31
0.0
  0
LINE
  5
93
330
1E
100
AcDbEntity
  8
0
100
AcDbLine
 10
25.1
 20
9.9245
 30
0.0
 11
30.6
 21
9.9245
 31
0.0
  0
LINE
  5
94
330
1E
100
AcDbEntity
  8
0
100
AcDbLine
 10
21.7
 20
9.9245
 30
0.0
 11
25.1
 21
9.9245
 31
0.0
  0
LINE
  5
95
330
1E
100
AcDbEntity
  8
0
100
AcDbLine
 10
72.1
 20
9.9245
 30
0.0
 11
79.4
 21
9.9245
 31
0.0
  0
LINE
  5
96
330
1E
100
AcDbEntity
  8
0
100
AcDbLine
 10
79.4
 20
9.9245
 30
0.0
 11
84.9
 21
9.9245
 31
0.0
  0
LINE
  5
97
330
1E
100
AcDbEntity
  8
0
100
AcDbLine
 10
84.9
 20
9.9245
 30
0.0
 11
88.3
 21
9.9245
 31
0.0
  0
LINE
  5
98
330
1E
100
AcDbEntity
  8
0
100
AcDbLine
 10
88.3
 20
9.9245
 30
0.0
 11
89.5
 21
9.9245
 31
0.0
  0
LINE
  5
99
330
1E
100
AcDbEntity
  8
0
100
AcDbLine
 10
182.1
 20
9.9245
 30
0.0
 11
189.4
 21
9.9245
 31
0.0
  0
LINE
  5
9A
330
1E
100
AcDbEntity
  8
0
100
AcDbLine
 10
189.4
 20
9.9245
 30
0.0
 11
194.9
 21
9.9245
 31
0.0
  0
LINE
  5
9B
330
1E
100
AcDbEntity
  8
0
100
AcDbLine
 10
194.9
 20
9.9245
 30
0.0
 11
198.3
 21
9.9245
 31
0.0
  0
LINE
  5
9C
330
1E
100
AcDbEntity
  8
0
100
AcDbLine
 10
198.3
 20
9.9245
 30
0.0
 11
199.5
 21
9.9245
 31
0.0
  0
LINE
  5
9D
330
1E
100
AcDbEntity
  8
0
100
AcDbLine
 10
147.9
 20
9.9245
 30
0.0
 11
156.1
 21
9.9245
 31
0.0
  0
LINE
  5
9E
330
1E
100
AcDbEntity
  8
0
100
AcDbLine
 10
140.6
 20
9.9245
 30
0.0
 11
147.9
 21
9.9245
 31
0.0
  0
LINE
  5
9F
330
1E
100
AcDbEntity
  8
0
100
AcDbLine
 10
135.1
 20
9.9245
 30
0.0
 11
140.6
 21
9.9245
 31
0.0
  0
LINE
  5
A0
330
1E
100
AcDbEntity
  8
0
100
AcDbLine
 10
131.7
 20
9.9245
 30
0.0
 11
135.1
 21
9.9245
 31
0.0
  0
LINE
  5
A1
330
1E
100
AcDbEntity
  8
0
100
AcDbLine
 10
130.5
 20
9.9245
 30
0.0
 11
131.7
 21
9.9245
 31
0.0
  0
LINE
  5
A2
330
1E
100
AcDbEntity
  8
0
100
AcDbLine
 10
257.0
 20
9.9245
 30
0.0
 11
257.0
 21
44.4245
 31
0.0
  0
LINE
  5
A3
330
1E
100
AcDbEntity
  8
0
100
AcDbLine
 10
257.9
 20
9.9245
 30
0.0
 11
266.1
 21
9.9245
 31
0.0
  0
LINE
  5
A4
330
1E
100
AcDbEntity
  8
0
100
AcDbLine
 10
250.6
 20
9.9245
 30
0.0
 11
257.9
 21
9.9245
 31
0.0
  0
LINE
  5
A5
330
1E
100
AcDbEntity
  8
0
100
AcDbLine
 10
245.1
 20
9.9245
 30
0.0
 11
250.6
 21
9.9245
 31
0.0
  0
LINE
  5
A6
330
1E
100
AcDbEntity
  8
0
100
AcDbLine
 10
241.7
 20
9.9245
 30
0.0
 11
245.1
 21
9.9245
 31
0.0
  0
LINE
  5
A7
330
1E
100
AcDbEntity
  8
0
100
AcDbLine
 10
240.5
 20
9.9245
 30
0.0
 11
241.7
 21
9.9245
 31
0.0
  0
LINE
  5
A8
330
1E
100
AcDbEntity
  8
0
100
AcDbLine
 10
275.0
 20
9.4245
 30
0.0
 11
284.0
 21
9.4245
 31
0.0
  0
LINE
  5
A9
330
1E
100
AcDbEntity
  8
0
100
AcDbLine
 10
275.0
 20
-0.0755
 30
0.0
 11
284.0
 21
-0.0755
 31
0.0
  0
LINE
  5
AA
330
1E
100
AcDbEntity
  8
0
100
AcDbLine
 10
46.1
 20
9.9245
 30
0.0
 11
55.0
 21
9.9245
 31
0.0
  0
LINE
  5
AB
330
1E
100
AcDbEntity
  8
0
100
AcDbLine
 10
55.0
 20
9.9245
 30
0.0
 11
63.9
 21
9.9245
 31
0.0
  0
LINE
  5
AC
330
1E
100
AcDbEntity
  8
0
100
AcDbLine
 10
63.9
 20
9.9245
 30
0.0
 11
72.1
 21
9.9245
 31
0.0
  0
LINE
  5
AD
330
1E
100
AcDbEntity
  8
0
100
AcDbLine
 10
165.0
 20
9.9245
 30
0.0
 11
173.9
 21
9.9245
 31
0.0
  0
LINE
  5
AE
330
1E
100
AcDbEntity
  8
0
100
AcDbLine
 10
173.9
 20
9.9245
 30
0.0
 11
182.1
 21
9.9245
 31
0.0
  0
LINE
  5
AF
330
1E
100
AcDbEntity
  8
0
100
AcDbLine
 10
156.1
 20
9.9245
 30
0.0
 11
165.0
 21
9.9245
 31
0.0
  0
LINE
  5
B0
330
1E
100
AcDbEntity
  8
0
100
AcDbLine
 10
266.1
 20
9.9245
 30
0.0
 11
275.0
 21
9.9245
 31
0.0
  0
LINE
  5
B1
330
1E
100
AcDbEntity
  8
0
100
AcDbLine
 10
46.1
 20
44.4245
 30
0.0
 11
50.4
 21
44.4245
 31
0.0
  0
LINE
  5
B2
330
1E
100
AcDbEntity
  8
0
100
AcDbLine
 10
42.3
 20
44.4245
 30
0.0
 11
46.1
 21
44.4245
 31
0.0
  0
LINE
  5
B3
330
1E
100
AcDbEntity
  8
0
100
AcDbLine
 10
39.4
 20
44.4245
 30
0.0
 11
42.3
 21
44.4245
 31
0.0
  0
LINE
  5
B4
330
1E
100
AcDbEntity
  8
0
100
AcDbLine
 10
37.7
 20
44.4245
 30
0.0
 11
39.4
 21
44.4245
 31
0.0
  0
LINE
  5
B5
330
1E
100
AcDbEntity
  8
0
100
AcDbLine
 10
37.0
 20
44.4245
 30
0.0
 11
37.0
 21
9.9245
 31
0.0
  0
LINE
  5
B6
330
1E
100
AcDbEntity
  8
0
100
AcDbLine
 10
37.0
 20
44.4245
 30
0.0
 11
37.5
 21
44.9245
 31
0.0
  0
LINE
  5
B7
330
1E
100
AcDbEntity
  8
0
100
AcDbLine
 10
37.0
 20
44.4245
 30
0.0
 11
37.7
 21
44.4245
 31
0.0
  0
LINE
  5
B8
330
1E
100
AcDbEntity
  8
0
100
AcDbLine
 10
63.9
 20
44.4245
 30
0.0
 11
67.7
 21
44.4245
 31
0.0
  0
LINE
  5
B9
330
1E
100
AcDbEntity
  8
0
100
AcDbLine
 10
67.7
 20
44.4245
 30
0.0
 11
70.6
 21
44.4245
 31
0.0
  0
LINE
  5
BA
330
1E
100
AcDbEntity
  8
0
100
AcDbLine
 10
70.6
 20
44.4245
 30
0.0
 11
72.3
 21
44.4245
 31
0.0
  0
LINE
  5
BB
330
1E
100
AcDbEntity
  8
0
100
AcDbLine
 10
72.3
 20
44.4245
 30
0.0
 11
73.0
 21
44.4245
 31
0.0
  0
LINE
  5
BC
330
1E
100
AcDbEntity
  8
0
100
AcDbLine
 10
73.0
 20
44.4245
 30
0.0
 11
73.0
 21
9.9245
 31
0.0
  0
LINE
  5
BD
330
1E
100
AcDbEntity
  8
0
100
AcDbLine
 10
266.1
 20
44.4245
 30
0.0
 11
270.4
 21
44.4245
 31
0.0
  0
LINE
  5
BE
330
1E
100
AcDbEntity
  8
0
100
AcDbLine
 10
262.3
 20
44.4245
 30
0.0
 11
266.1
 21
44.4245
 31
0.0
  0
LINE
  5
BF
330
1E
100
AcDbEntity
  8
0
100
AcDbLine
 10
259.4
 20
44.4245
 30
0.0
 11
262.3
 21
44.4245
 31
0.0
  0
LINE
  5
C0
330
1E
100
AcDbEntity
  8
0
100
AcDbLine
 10
257.7
 20
44.4245
 30
0.0
 11
259.4
 21
44.4245
 31
0.0
  0
LINE
  5
C1
330
1E
100
AcDbEntity
  8
0
100
AcDbLine
 10
257.0
 20
44.4245
 30
0.0
 11
257.0
 21
9.9245
 31
0.0
  0
LINE
  5
C2
330
1E
100
AcDbEntity
  8
0
100
AcDbLine
 10
257.0
 20
44.4245
 30
0.0
 11
257.7
 21
44.4245
 31
0.0
  0
LINE
  5
C3
330
1E
100
AcDbEntity
  8
0
100
AcDbLine
 10
257.0
 20
44.4245
 30
0.0
 11
257.5
 21
44.9245
 31
0.0
  0
LINE
  5
C4
330
1E
100
AcDbEntity
  8
0
100
AcDbLine
 10
275.0
 20
9.9245
 30
0.0
 11
283.9
 21
9.9245
 31
0.0
  0
LINE
  5
C5
330
1E
100
AcDbEntity
  8
0
100
AcDbLine
 10
283.9
 20
9.9245
 30
0.0
 11
292.1
 21
9.9245
 31
0.0
  0
LINE
  5
C6
330
1E
100
AcDbEntity
  8
0
100
AcDbLine
 10
284.0
 20
-0.0755
 30
0.0
 11
292.4
 21
-0.0755
 31
0.0
  0
LINE
  5
C7
330
1E
100
AcDbEntity
  8
0
100
AcDbLine
 10
284.0
 20
9.4245
 30
0.0
 11
292.4
 21
9.4245
 31
0.0
  0
LINE
  5
C8
330
1E
100
AcDbEntity
  8
0
100
AcDbLine
 10
284.0
 20
-0.0755
 30
0.0
 11
292.4
 21
-0.0755
 31
0.0
  0
LINE
  5
C9
330
1E
100
AcDbEntity
  8
0
100
AcDbLine
 10
283.9
 20
44.4245
 30
0.0
 11
287.7
 21
44.4245
 31
0.0
  0
LINE
  5
CA
330
1E
100
AcDbEntity
  8
0
100
AcDbLine
 10
287.7
 20
44.4245
 30
0.0
 11
290.6
 21
44.4245
 31
0.0
  0
LINE
  5
CB
330
1E
100
AcDbEntity
  8
0
100
AcDbLine
 10
292.4
 20
-0.0755
 30
0.0
 11
299.7
 21
-0.0755
 31
0.0
  0
LINE
  5
CC
330
1E
100
AcDbEntity
  8
0
100
AcDbLine
 10
292.1
 20
9.9245
 30
0.0
 11
299.4
 21
9.9245
 31
0.0
  0
LINE
  5
CD
330
1E
100
AcDbEntity
  8
0
100
AcDbLine
 10
293.0
 20
44.4245
 30
0.0
 11
293.0
 21
9.9245
 31
0.0
  0
LINE
  5
CE
330
1E
100
AcDbEntity
  8
0
100
AcDbLine
 10
292.4
 20
9.4245
 30
0.0
 11
299.7
 21
9.4245
 31
0.0
  0
LINE
  5
CF
330
1E
100
AcDbEntity
  8
0
100
AcDbLine
 10
292.4
 20
-0.0755
 30
0.0
 11
299.7
 21
-0.0755
 31
0.0
  0
LINE
  5
D0
330
1E
100
AcDbEntity
  8
0
100
AcDbLine
 10
290.6
 20
44.4245
 30
0.0
 11
292.3
 21
44.4245
 31
0.0
  0
LINE
  5
D1
330
1E
100
AcDbEntity
  8
0
100
AcDbLine
 10
50.4
 20
44.4245
 30
0.0
 11
55.0
 21
44.4245
 31
0.0
  0
LINE
  5
D2
330
1E
100
AcDbEntity
  8
0
100
AcDbLine
 10
55.0
 20
44.4245
 30
0.0
 11
59.6
 21
44.4245
 31
0.0
  0
LINE
  5
D3
330
1E
100
AcDbEntity
  8
0
100
AcDbLine
 10
59.6
 20
44.4245
 30
0.0
 11
63.9
 21
44.4245
 31
0.0
  0
LINE
  5
D4
330
1E
100
AcDbEntity
  8
0
100
AcDbLine
 10
270.4
 20
44.4245
 30
0.0
 11
275.0
 21
44.4245
 31
0.0
  0
LINE
  5
D5
330
1E
100
AcDbEntity
  8
0
100
AcDbLine
 10
46.3
 20
44.9245
 30
0.0
 11
50.5
 21
44.9245
 31
0.0
  0
LINE
  5
D6
330
1E
100
AcDbEntity
  8
0
100
AcDbLine
 10
42.6
 20
44.9245
 30
0.0
 11
46.3
 21
44.9245
 31
0.0
  0
LINE
  5
D7
330
1E
100
AcDbEntity
  8
0
100
AcDbLine
 10
39.8
 20
44.9245
 30
0.0
 11
42.6
 21
44.9245
 31
0.0
  0
LINE
  5
D8
330
1E
100
AcDbEntity
  8
0
100
AcDbLine
 10
38.1
 20
44.9245
 30
0.0
 11
39.8
 21
44.9245
 31
0.0
  0
LINE
  5
D9
330
1E
100
AcDbEntity
  8
0
100
AcDbLine
 10
37.5
 20
44.9245
 30
0.0
 11
38.1
 21
44.9245
 31
0.0
  0
LINE
  5
DA
330
1E
100
AcDbEntity
  8
0
100
AcDbLine
 10
55.0
 20
44.9245
 30
0.0
 11
59.5
 21
44.9245
 31
0.0
  0
LINE
  5
DB
330
1E
100
AcDbEntity
  8
0
100
AcDbLine
 10
50.5
 20
44.9245
 30
0.0
 11
50.5
 21
76.9245
 31
0.0
  0
LINE
  5
DC
330
1E
100
AcDbEntity
  8
0
100
AcDbLine
 10
50.5
 20
44.9245
 30
0.0
 11
55.0
 21
44.9245
 31
0.0
  0
LINE
  5
DD
330
1E
100
AcDbEntity
  8
0
100
AcDbLine
 10
63.7
 20
44.9245
 30
0.0
 11
67.4
 21
44.9245
 31
0.0
  0
LINE
  5
DE
330
1E
100
AcDbEntity
  8
0
100
AcDbLine
 10
67.4
 20
44.9245
 30
0.0
 11
70.2
 21
44.9245
 31
0.0
  0
LINE
  5
DF
330
1E
100
AcDbEntity
  8
0
100
AcDbLine
 10
70.2
 20
44.9245
 30
0.0
 11
71.9
 21
44.9245
 31
0.0
  0
LINE
  5
E0
330
1E
100
AcDbEntity
  8
0
100
AcDbLine
 10
71.9
 20
44.9245
 30
0.0
 11
72.5
 21
44.9245
 31
0.0
  0
LINE
  5
E1
330
1E
100
AcDbEntity
  8
0
100
AcDbLine
 10
72.5
 20
44.9245
 30
0.0
 11
73.0
 21
44.4245
 31
0.0
  0
LINE
  5
E2
330
1E
100
AcDbEntity
  8
0
100
AcDbLine
 10
60.0
 20
44.9245
 30
0.0
 11
60.0
 21
95.9245
 31
0.0
  0
LINE
  5
E3
330
1E
100
AcDbEntity
  8
0
100
AcDbLine
 10
59.5
 20
44.9245
 30
0.0
 11
59.5
 21
95.4245
 31
0.0
  0
LINE
  5
E4
330
1E
100
AcDbEntity
  8
0
100
AcDbLine
 10
59.5
 20
44.9245
 30
0.0
 11
63.7
 21
44.9245
 31
0.0
  0
LINE
  5
E5
330
1E
100
AcDbEntity
  8
0
100
AcDbLine
 10
50.0
 20
44.9245
 30
0.0
 11
50.0
 21
76.9245
 31
0.0
  0
LINE
  5
E6
330
1E
100
AcDbEntity
  8
0
100
AcDbLine
 10
270.0
 20
44.9245
 30
0.0
 11
270.0
 21
95.9245
 31
0.0
  0
LINE
  5
E7
330
1E
100
AcDbEntity
  8
0
100
AcDbLine
 10
270.5
 20
44.9245
 30
0.0
 11
275.0
 21
44.9245
 31
0.0
  0
LINE
  5
E8
330
1E
100
AcDbEntity
  8
0
100
AcDbLine
 10
270.5
 20
44.9245
 30
0.0
 11
270.5
 21
95.4245
 31
0.0
  0
LINE
  5
E9
330
1E
100
AcDbEntity
  8
0
100
AcDbLine
 10
266.3
 20
44.9245
 30
0.0
 11
270.5
 21
44.9245
 31
0.0
  0
LINE
  5
EA
330
1E
100
AcDbEntity
  8
0
100
AcDbLine
 10
262.6
 20
44.9245
 30
0.0
 11
266.3
 21
44.9245
 31
0.0
  0
LINE
  5
EB
330
1E
100
AcDbEntity
  8
0
100
AcDbLine
 10
259.8
 20
44.9245
 30
0.0
 11
262.6
 21
44.9245
 31
0.0
  0
LINE
  5
EC
330
1E
100
AcDbEntity
  8
0
100
AcDbLine
 10
258.1
 20
44.9245
 30
0.0
 11
259.8
 21
44.9245
 31
0.0
  0
LINE
  5
ED
330
1E
100
AcDbEntity
  8
0
100
AcDbLine
 10
257.5
 20
44.9245
 30
0.0
 11
258.1
 21
44.9245
 31
0.0
  0
LINE
  5
EF
330
1E
100
AcDbEntity
  8
0
100
AcDbLine
 10
143.3
 20
64.4245
 30
0.0
 11
186.7
 21
64.4245
 31
0.0
  0
LINE
  5
F0
330
1E
100
AcDbEntity
  8
0
100
AcDbLine
 10
140.9
 20
64.4245
 30
0.0
 11
143.3
 21
64.4245
 31
0.0
  0
LINE
  5
F1
330
1E
100
AcDbEntity
  8
0
100
AcDbLine
 10
50.0
 20
76.9245
 30
0.0
 11
50.0
 21
44.9245
 31
0.0
  0
LINE
  5
F2
330
1E
100
AcDbEntity
  8
0
100
AcDbLine
 10
0.0
 20
79.9245
 30
0.0
 11
47.0
 21
79.9245
 31
0.0
  0
LINE
  5
F3
330
1E
100
AcDbEntity
  8
0
100
AcDbLine
 10
0.5
 20
80.4245
 30
0.0
 11
47.0
 21
80.4245
 31
0.0
  0
LINE
  5
F4
330
1E
100
AcDbEntity
  8
0
100
AcDbLine
 10
0.5
 20
80.4245
 30
0.0
 11
47.0
 21
80.4245
 31
0.0
  0
LINE
  5
F5
330
1E
100
AcDbEntity
  8
0
100
AcDbLine
 10
0.5
 20
80.4245
 30
0.0
 11
0.5
 21
95.4245
 31
0.0
  0
LINE
  5
F6
330
1E
100
AcDbEntity
  8
0
100
AcDbLine
 10
0.0
 20
79.9245
 30
0.0
 11
0.5
 21
80.4245
 31
0.0
  0
LINE
  5
F7
330
1E
100
AcDbEntity
  8
0
100
AcDbLine
 10
0.0
 20
79.9245
 30
0.0
 11
0.0
 21
95.9245
 31
0.0
  0
LINE
  5
F8
330
1E
100
AcDbEntity
  8
0
100
AcDbLine
 10
0.0
 20
79.9245
 30
0.0
 11
47.0
 21
79.9245
 31
0.0
  0
LINE
  5
F9
330
1E
100
AcDbEntity
  8
0
100
AcDbLine
 10
47.0
 20
79.9245
 30
0.0
 11
48.2
 21
79.6245
 31
0.0
  0
LINE
  5
FA
330
1E
100
AcDbEntity
  8
0
100
AcDbLine
 10
0.0
 20
95.9245
 30
0.0
 11
60.0
 21
95.9245
 31
0.0
  0
LINE
  5
FB
330
1E
100
AcDbEntity
  8
0
100
AcDbLine
 10
0.0
 20
95.9245
 30
0.0
 11
0.5
 21
95.4245
 31
0.0
  0
LINE
  5
FC
330
1E
100
AcDbEntity
  8
0
100
AcDbLine
 10
0.0
 20
95.9245
 30
0.0
 11
60.0
 21
95.9245
 31
0.0
  0
LINE
  5
FD
330
1E
100
AcDbEntity
  8
0
100
AcDbLine
 10
0.0
 20
95.9245
 30
0.0
 11
0.0
 21
79.9245
 31
0.0
  0
LINE
  5
FE
330
1E
100
AcDbEntity
  8
0
100
AcDbLine
 10
0.5
 20
95.4245
 30
0.0
 11
59.5
 21
95.4245
 31
0.0
  0
LINE
  5
FF
330
1E
100
AcDbEntity
  8
0
100
AcDbLine
 10
0.5
 20
95.4245
 30
0.0
 11
0.5
 21
80.4245
 31
0.0
  0
LINE
  5
100
330
1E
100
AcDbEntity
  8
0
100
AcDbLine
 10
0.5
 20
95.4245
 30
0.0
 11
59.5
 21
95.4245
 31
0.0
  0
LINE
  5
101
330
1E
100
AcDbEntity
  8
0
100
AcDbLine
 10
47.0
 20
80.4245
 30
0.0
 11
48.3
 21
80.1245
 31
0.0
  0
LINE
  5
102
330
1E
100
AcDbEntity
  8
0
100
AcDbLine
 10
48.3
 20
80.1245
 30
0.0
 11
49.4
 21
79.3245
 31
0.0
  0
LINE
  5
103
330
1E
100
AcDbEntity
  8
0
100
AcDbLine
 10
48.2
 20
79.6245
 30
0.0
 11
49.1
 21
79.0245
 31
0.0
  0
LINE
  5
104
330
1E
100
AcDbEntity
  8
0
100
AcDbLine
 10
49.4
 20
79.3245
 30
0.0
 11
50.2
 21
78.2245
 31
0.0
  0
LINE
  5
105
330
1E
100
AcDbEntity
  8
0
100
AcDbLine
 10
49.1
 20
79.0245
 30
0.0
 11
49.7
 21
78.0245
 31
0.0
  0
LINE
  5
106
330
1E
100
AcDbEntity
  8
0
100
AcDbLine
 10
49.1
 20
79.0245
 30
0.0
 11
49.7
 21
78.0245
 31
0.0
  0
LINE
  5
107
330
1E
100
AcDbEntity
  8
0
100
AcDbLine
 10
60.0
 20
95.9245
 30
0.0
 11
60.0
 21
44.9245
 31
0.0
  0
LINE
  5
108
330
1E
100
AcDbEntity
  8
0
100
AcDbLine
 10
59.5
 20
95.4245
 30
0.0
 11
60.0
 21
95.9245
 31
0.0
  0
LINE
  5
109
330
1E
100
AcDbEntity
  8
0
100
AcDbLine
 10
59.5
 20
95.4245
 30
0.0
 11
59.5
 21
44.9245
 31
0.0
  0
LINE
  5
10A
330
1E
100
AcDbEntity
  8
0
100
AcDbLine
 10
50.2
 20
78.2245
 30
0.0
 11
50.5
 21
76.9245
 31
0.0
  0
LINE
  5
10B
330
1E
100
AcDbEntity
  8
0
100
AcDbLine
 10
49.7
 20
78.0245
 30
0.0
 11
50.0
 21
76.9245
 31
0.0
  0
LINE
  5
10C
330
1E
100
AcDbEntity
  8
0
100
AcDbLine
 10
50.5
 20
76.9245
 30
0.0
 11
50.5
 21
44.9245
 31
0.0
  0
LINE
  5
10D
330
1E
100
AcDbEntity
  8
0
100
AcDbLine
 10
147.7
 20
64.9245
 30
0.0
 11
152.8
 21
64.9245
 31
0.0
  0
LINE
  5
10E
330
1E
100
AcDbEntity
  8
0
100
AcDbLine
 10
143.8
 20
64.9245
 30
0.0
 11
147.7
 21
64.9245
 31
0.0
  0
LINE
  5
10F
330
1E
100
AcDbEntity
  8
0
100
AcDbLine
 10
151.0
 20
116.9245
 30
0.0
 11
151.5
 21
116.4245
 31
0.0
  0
LINE
  5
110
330
1E
100
AcDbEntity
  8
0
100
AcDbLine
 10
151.0
 20
116.9245
 30
0.0
 11
151.5
 21
116.9245
 31
0.0
  0
LINE
  5
111
330
1E
100
AcDbEntity
  8
0
100
AcDbLine
 10
151.0
 20
116.9245
 30
0.0
 11
151.0
 21
123.9245
 31
0.0
  0
LINE
  5
112
330
1E
100
AcDbEntity
  8
0
100
AcDbLine
 10
141.4
 20
64.9245
 30
0.0
 11
143.8
 21
64.9245
 31
0.0
  0
LINE
  5
113
330
1E
100
AcDbEntity
  8
0
100
AcDbLine
 10
140.5
 20
64.9245
 30
0.0
 11
141.4
 21
64.9245
 31
0.0
  0
LINE
  5
114
330
1E
100
AcDbEntity
  8
0
100
AcDbLine
 10
140.0
 20
64.4245
 30
0.0
 11
140.9
 21
64.4245
 31
0.0
  0
LINE
  5
115
330
1E
100
AcDbEntity
  8
0
100
AcDbLine
 10
140.0
 20
64.4245
 30
0.0
 11
140.5
 21
64.9245
 31
0.0
  0
LINE
  5
116
330
1E
100
AcDbEntity
  8
0
100
AcDbLine
 10
140.0
 20
64.4245
 30
0.0
 11
140.0
 21
9.9245
 31
0.0
  0
LINE
  5
117
330
1E
100
AcDbEntity
  8
0
100
AcDbLine
 10
151.0
 20
64.9245
 30
0.0
 11
151.0
 21
123.9245
 31
0.0
  0
LINE
  5
118
330
1E
100
AcDbEntity
  8
0
100
AcDbLine
 10
151.0
 20
123.9245
 30
0.0
 11
151.0
 21
116.9245
 31
0.0
  0
LINE
  5
119
330
1E
100
AcDbEntity
  8
0
100
AcDbLine
 10
151.0
 20
123.9245
 30
0.0
 11
151.0
 21
135.7245
 31
0.0
  0
LINE
  5
11A
330
1E
100
AcDbEntity
  8
0
100
AcDbLine
 10
151.0
 20
123.9245
 30
0.0
 11
151.0
 21
128.7245
 31
0.0
  0
LINE
  5
11B
330
1E
100
AcDbEntity
  8
0
100
AcDbLine
 10
151.0
 20
135.7245
 30
0.0
 11
151.0
 21
123.9245
 31
0.0
  0
LINE
  5
11C
330
1E
100
AcDbEntity
  8
0
100
AcDbLine
 10
151.0
 20
135.7245
 30
0.0
 11
151.0
 21
146.6245
 31
0.0
  0
LINE
  5
11D
330
1E
100
AcDbEntity
  8
0
100
AcDbLine
 10
151.0
 20
140.0245
 30
0.0
 11
151.0
 21
137.0245
 31
0.0
  0
LINE
  5
11E
330
1E
100
AcDbEntity
  8
0
100
AcDbLine
 10
151.0
 20
140.0245
 30
0.0
 11
151.0
 21
141.8245
 31
0.0
  0
LINE
  5
11F
330
1E
100
AcDbEntity
  8
0
100
AcDbLine
 10
151.0
 20
142.4245
 30
0.0
 11
151.0
 21
141.8245
 31
0.0
  0
LINE
  5
120
330
1E
100
AcDbEntity
  8
0
100
AcDbLine
 10
151.0
 20
141.8245
 30
0.0
 11
151.0
 21
142.4245
 31
0.0
  0
LINE
  5
121
330
1E
100
AcDbEntity
  8
0
100
AcDbLine
 10
151.0
 20
141.8245
 30
0.0
 11
151.0
 21
139.9245
 31
0.0
  0
LINE
  5
122
330
1E
100
AcDbEntity
  8
0
100
AcDbLine
 10
151.0
 20
141.8245
 30
0.0
 11
151.0
 21
140.0245
 31
0.0
  0
LINE
  5
123
330
1E
100
AcDbEntity
  8
0
100
AcDbLine
 10
151.0
 20
139.9245
 30
0.0
 11
151.0
 21
141.8245
 31
0.0
  0
LINE
  5
124
330
1E
100
AcDbEntity
  8
0
100
AcDbLine
 10
151.0
 20
139.9245
 30
0.0
 11
151.0
 21
137.0245
 31
0.0
  0
LINE
  5
125
330
1E
100
AcDbEntity
  8
0
100
AcDbLine
 10
151.0
 20
137.0245
 30
0.0
 11
151.0
 21
139.9245
 31
0.0
  0
LINE
  5
126
330
1E
100
AcDbEntity
  8
0
100
AcDbLine
 10
151.0
 20
137.0245
 30
0.0
 11
151.0
 21
133.1245
 31
0.0
  0
LINE
  5
127
330
1E
100
AcDbEntity
  8
0
100
AcDbLine
 10
151.0
 20
137.0245
 30
0.0
 11
151.0
 21
140.0245
 31
0.0
  0
LINE
  5
128
330
1E
100
AcDbEntity
  8
0
100
AcDbLine
 10
151.0
 20
133.1245
 30
0.0
 11
151.0
 21
137.0245
 31
0.0
  0
LINE
  5
129
330
1E
100
AcDbEntity
  8
0
100
AcDbLine
 10
151.0
 20
133.1245
 30
0.0
 11
151.0
 21
128.7245
 31
0.0
  0
LINE
  5
12A
330
1E
100
AcDbEntity
  8
0
100
AcDbLine
 10
151.0
 20
128.7245
 30
0.0
 11
151.0
 21
133.1245
 31
0.0
  0
LINE
  5
12B
330
1E
100
AcDbEntity
  8
0
100
AcDbLine
 10
151.0
 20
128.7245
 30
0.0
 11
151.0
 21
123.9245
 31
0.0
  0
LINE
  5
12C
330
1E
100
AcDbEntity
  8
0
100
AcDbLine
 10
151.0
 20
128.7245
 30
0.0
 11
151.0
 21
123.9245
 31
0.0
  0
LINE
  5
12D
330
1E
100
AcDbEntity
  8
0
100
AcDbLine
 10
151.0
 20
146.6245
 30
0.0
 11
151.0
 21
135.7245
 31
0.0
  0
LINE
  5
12E
330
1E
100
AcDbEntity
  8
0
100
AcDbLine
 10
151.0
 20
146.6245
 30
0.0
 11
151.0
 21
156.0245
 31
0.0
  0
LINE
  5
12F
330
1E
100
AcDbEntity
  8
0
100
AcDbLine
 10
151.0
 20
146.5245
 30
0.0
 11
151.0
 21
156.0245
 31
0.0
  0
LINE
  5
130
330
1E
100
AcDbEntity
  8
0
100
AcDbLine
 10
151.0
 20
146.5245
 30
0.0
 11
151.0
 21
135.6245
 31
0.0
  0
LINE
  5
131
330
1E
100
AcDbEntity
  8
0
100
AcDbLine
 10
151.0
 20
135.6245
 30
0.0
 11
151.0
 21
146.5245
 31
0.0
  0
LINE
  5
132
330
1E
100
AcDbEntity
  8
0
100
AcDbLine
 10
151.0
 20
135.6245
 30
0.0
 11
151.0
 21
123.9245
 31
0.0
  0
LINE
  5
133
330
1E
100
AcDbEntity
  8
0
100
AcDbLine
 10
151.0
 20
123.9245
 30
0.0
 11
151.0
 21
135.6245
 31
0.0
  0
LINE
  5
134
330
1E
100
AcDbEntity
  8
0
100
AcDbLine
 10
151.0
 20
123.9245
 30
0.0
 11
151.0
 21
64.9245
 31
0.0
  0
LINE
  5
135
330
1E
100
AcDbEntity
  8
0
100
AcDbLine
 10
151.0
 20
123.9245
 30
0.0
 11
151.0
 21
128.7245
 31
0.0
  0
LINE
  5
136
330
1E
100
AcDbEntity
  8
0
100
AcDbLine
 10
151.0
 20
123.9245
 30
0.0
 11
151.0
 21
64.9245
 31
0.0
  0
LINE
  5
137
330
1E
100
AcDbEntity
  8
0
100
AcDbLine
 10
152.8
 20
64.9245
 30
0.0
 11
158.7
 21
64.9245
 31
0.0
  0
LINE
  5
13A
330
1E
100
AcDbEntity
  8
0
100
AcDbLine
 10
186.7
 20
64.4245
 30
0.0
 11
189.1
 21
64.4245
 31
0.0
  0
LINE
  5
13B
330
1E
100
AcDbEntity
  8
0
100
AcDbLine
 10
165.0
 20
64.9245
 30
0.0
 11
171.3
 21
64.9245
 31
0.0
  0
LINE
  5
13C
330
1E
100
AcDbEntity
  8
0
100
AcDbLine
 10
171.3
 20
64.9245
 30
0.0
 11
177.2
 21
64.9245
 31
0.0
  0
LINE
  5
13E
330
1E
100
AcDbEntity
  8
0
100
AcDbLine
 10
178.5
 20
64.9245
 30
0.0
 11
178.5
 21
116.4245
 31
0.0
  0
LINE
  5
13F
330
1E
100
AcDbEntity
  8
0
100
AcDbLine
 10
179.0
 20
64.9245
 30
0.0
 11
179.0
 21
116.9245
 31
0.0
  0
LINE
  5
140
330
1E
100
AcDbEntity
  8
0
100
AcDbLine
 10
177.2
 20
64.9245
 30
0.0
 11
182.3
 21
64.9245
 31
0.0
  0
LINE
  5
142
330
1E
100
AcDbEntity
  8
0
100
AcDbLine
 10
182.3
 20
64.9245
 30
0.0
 11
186.2
 21
64.9245
 31
0.0
  0
LINE
  5
143
330
1E
100
AcDbEntity
  8
0
100
AcDbLine
 10
186.2
 20
64.9245
 30
0.0
 11
188.6
 21
64.9245
 31
0.0
  0
LINE
  5
144
330
1E
100
AcDbEntity
  8
0
100
AcDbLine
 10
188.6
 20
64.9245
 30
0.0
 11
189.5
 21
64.9245
 31
0.0
  0
LINE
  5
145
330
1E
100
AcDbEntity
  8
0
100
AcDbLine
 10
189.5
 20
64.9245
 30
0.0
 11
190.0
 21
64.4245
 31
0.0
  0
LINE
  5
146
330
1E
100
AcDbEntity
  8
0
100
AcDbLine
 10
189.1
 20
64.4245
 30
0.0
 11
190.0
 21
64.4245
 31
0.0
  0
LINE
  5
147
330
1E
100
AcDbEntity
  8
0
100
AcDbLine
 10
190.0
 20
64.4245
 30
0.0
 11
190.0
 21
9.9245
 31
0.0
  0
LINE
  5
148
330
1E
100
AcDbEntity
  8
0
100
AcDbLine
 10
158.7
 20
64.9245
 30
0.0
 11
165.0
 21
64.9245
 31
0.0
  0
LINE
  5
14B
330
1E
100
AcDbEntity
  8
0
100
AcDbLine
 10
151.5
 20
123.9245
 30
0.0
 11
151.5
 21
116.9245
 31
0.0
  0
LINE
  5
14C
330
1E
100
AcDbEntity
  8
0
100
AcDbLine
 10
151.5
 20
123.9245
 30
0.0
 11
151.5
 21
135.8245
 31
0.0
  0
LINE
  5
14D
330
1E
100
AcDbEntity
  8
0
100
AcDbLine
 10
151.5
 20
135.8245
 30
0.0
 11
151.5
 21
123.9245
 31
0.0
  0
LINE
  5
14E
330
1E
100
AcDbEntity
  8
0
100
AcDbLine
 10
151.5
 20
135.8245
 30
0.0
 11
151.5
 21
146.8245
 31
0.0
  0
LINE
  5
14F
330
1E
100
AcDbEntity
  8
0
100
AcDbLine
 10
151.5
 20
146.8245
 30
0.0
 11
151.5
 21
135.8245
 31
0.0
  0
LINE
  5
150
330
1E
100
AcDbEntity
  8
0
100
AcDbLine
 10
151.5
 20
146.8245
 30
0.0
 11
151.5
 21
156.4245
 31
0.0
  0
LINE
  5
151
330
1E
100
AcDbEntity
  8
0
100
AcDbLine
 10
151.5
 20
116.9245
 30
0.0
 11
151.5
 21
116.4245
 31
0.0
  0
LINE
  5
152
330
1E
100
AcDbEntity
  8
0
100
AcDbLine
 10
151.5
 20
116.9245
 30
0.0
 11
165.0
 21
116.9245
 31
0.0
  0
LINE
  5
153
330
1E
100
AcDbEntity
  8
0
100
AcDbLine
 10
151.5
 20
116.9245
 30
0.0
 11
151.5
 21
123.9245
 31
0.0
  0
LINE
  5
154
330
1E
100
AcDbEntity
  8
0
100
AcDbLine
 10
152.0
 20
111.7745
 30
0.0
 11
152.2167
 21
111.5245
 31
0.0
  0
LINE
  5
155
330
1E
100
AcDbEntity
  8
0
100
AcDbLine
 10
152.0
 20
111.7745
 30
0.0
 11
152.0
 21
116.4245
 31
0.0
  0
LINE
  5
156
330
1E
100
AcDbEntity
  8
0
100
AcDbLine
 10
152.0
 20
111.7745
 30
0.0
 11
152.4767
 21
111.7745
 31
0.0
  0
LINE
  5
157
330
1E
100
AcDbEntity
  8
0
100
AcDbLine
 10
152.6933
 20
111.5245
 30
0.0
 11
153.95
 21
111.5245
 31
0.0
  0
LINE
  5
158
330
1E
100
AcDbEntity
  8
0
100
AcDbLine
 10
153.95
 20
111.5245
 30
0.0
 11
155.9867
 21
111.5245
 31
0.0
  0
LINE
  5
159
330
1E
100
AcDbEntity
  8
0
100
AcDbLine
 10
155.9867
 20
111.5245
 30
0.0
 11
158.63
 21
111.5245
 31
0.0
  0
LINE
  5
15A
330
1E
100
AcDbEntity
  8
0
100
AcDbLine
 10
158.63
 20
111.5245
 30
0.0
 11
161.7067
 21
111.5245
 31
0.0
  0
LINE
  5
15B
330
1E
100
AcDbEntity
  8
0
100
AcDbLine
 10
161.7067
 20
111.5245
 30
0.0
 11
165.0
 21
111.5245
 31
0.0
  0
LINE
  5
15C
330
1E
100
AcDbEntity
  8
0
100
AcDbLine
 10
165.0
 20
111.5245
 30
0.0
 11
168.293
 21
111.5245
 31
0.0
  0
LINE
  5
15D
330
1E
100
AcDbEntity
  8
0
100
AcDbLine
 10
176.05
 20
111.5245
 30
0.0
 11
177.307
 21
111.5245
 31
0.0
  0
LINE
  5
15E
330
1E
100
AcDbEntity
  8
0
100
AcDbLine
 10
174.013
 20
111.5245
 30
0.0
 11
176.05
 21
111.5245
 31
0.0
  0
LINE
  5
15F
330
1E
100
AcDbEntity
  8
0
100
AcDbLine
 10
171.37
 20
111.5245
 30
0.0
 11
174.013
 21
111.5245
 31
0.0
  0
LINE
  5
160
330
1E
100
AcDbEntity
  8
0
100
AcDbLine
 10
168.293
 20
111.5245
 30
0.0
 11
171.37
 21
111.5245
 31
0.0
  0
LINE
  5
161
330
1E
100
AcDbEntity
  8
0
100
AcDbLine
 10
165.0
 20
111.4245
 30
0.0
 11
177.783
 21
111.5245
 31
0.0
  0
LINE
  5
162
330
1E
100
AcDbEntity
  8
0
100
AcDbLine
 10
152.4767
 20
111.7745
 30
0.0
 11
153.7333
 21
111.7745
 31
0.0
  0
LINE
  5
163
330
1E
100
AcDbEntity
  8
0
100
AcDbLine
 10
153.7333
 20
111.7745
 30
0.0
 11
155.8133
 21
111.7745
 31
0.0
  0
LINE
  5
164
330
1E
100
AcDbEntity
  8
0
100
AcDbLine
 10
155.8133
 20
111.7745
 30
0.0
 11
158.5433
 21
111.7745
 31
0.0
  0
LINE
  5
165
330
1E
100
AcDbEntity
  8
0
100
AcDbLine
 10
158.5433
 20
111.7745
 30
0.0
 11
161.6633
 21
111.7745
 31
0.0
  0
LINE
  5
166
330
1E
100
AcDbEntity
  8
0
100
AcDbLine
 10
161.6633
 20
111.7745
 30
0.0
 11
165.0
 21
111.7745
 31
0.0
  0
LINE
  5
167
330
1E
100
AcDbEntity
  8
0
100
AcDbLine
 10
177.523
 20
111.7745
 30
0.0
 11
178.0
 21
111.7745
 31
0.0
  0
LINE
  5
168
330
1E
100
AcDbEntity
  8
0
100
AcDbLine
 10
176.267
 20
111.7745
 30
0.0
 11
177.523
 21
111.7745
 31
0.0
  0
LINE
  5
169
330
1E
100
AcDbEntity
  8
0
100
AcDbLine
 10
174.187
 20
111.7745
 30
0.0
 11
176.267
 21
111.7745
 31
0.0
  0
LINE
  5
16A
330
1E
100
AcDbEntity
  8
0
100
AcDbLine
 10
171.457
 20
111.7745
 30
0.0
 11
174.187
 21
111.7745
 31
0.0
  0
LINE
  5
16B
330
1E
100
AcDbEntity
  8
0
100
AcDbLine
 10
168.337
 20
111.7745
 30
0.0
 11
171.457
 21
111.7745
 31
0.0
  0
LINE
  5
16C
330
1E
100
AcDbEntity
  8
0
100
AcDbLine
 10
165.0
 20
111.7745
 30
0.0
 11
168.337
 21
111.7745
 31
0.0
  0
LINE
  5
16D
330
1E
100
AcDbEntity
  8
0
100
AcDbLine
 10
177.307
 20
111.5245
 30
0.0
 11
177.783
 21
111.5245
 31
0.0
  0
LINE
  5
16E
330
1E
100
AcDbEntity
  8
0
100
AcDbLine
 10
279.5
 20
76.9245
 30
0.0
 11
279.8
 21
78.2245
 31
0.0
  0
LINE
  5
16F
330
1E
100
AcDbEntity
  8
0
100
AcDbLine
 10
279.5
 20
76.9245
 30
0.0
 11
279.5
 21
44.9245
 31
0.0
  0
LINE
  5
170
330
1E
100
AcDbEntity
  8
0
100
AcDbLine
 10
270.0
 20
95.9245
 30
0.0
 11
270.5
 21
95.4245
 31
0.0
  0
LINE
  5
171
330
1E
100
AcDbEntity
  8
0
100
AcDbLine
 10
270.0
 20
95.9245
 30
0.0
 11
330.0
 21
95.9245
 31
0.0
  0
LINE
  5
172
330
1E
100
AcDbEntity
  8
0
100
AcDbLine
 10
270.0
 20
95.9245
 30
0.0
 11
270.0
 21
44.9245
 31
0.0
  0
LINE
  5
173
330
1E
100
AcDbEntity
  8
0
100
AcDbLine
 10
270.5
 20
95.4245
 30
0.0
 11
270.5
 21
44.9245
 31
0.0
  0
LINE
  5
174
330
1E
100
AcDbEntity
  8
0
100
AcDbLine
 10
270.5
 20
95.4245
 30
0.0
 11
329.5
 21
95.4245
 31
0.0
  0
LINE
  5
175
330
1E
100
AcDbEntity
  8
0
100
AcDbLine
 10
177.783
 20
111.5245
 30
0.0
 11
178.0
 21
111.7745
 31
0.0
  0
LINE
  5
176
330
1E
100
AcDbEntity
  8
0
100
AcDbLine
 10
152.4767
 20
116.4245
 30
0.0
 11
153.7333
 21
116.4245
 31
0.0
  0
LINE
  5
177
330
1E
100
AcDbEntity
  8
0
100
AcDbLine
 10
153.7333
 20
116.4245
 30
0.0
 11
155.8133
 21
116.4245
 31
0.0
  0
LINE
  5
178
330
1E
100
AcDbEntity
  8
0
100
AcDbLine
 10
155.8133
 20
116.4245
 30
0.0
 11
158.5433
 21
116.4245
 31
0.0
  0
LINE
  5
179
330
1E
100
AcDbEntity
  8
0
100
AcDbLine
 10
158.5433
 20
116.4245
 30
0.0
 11
161.6633
 21
116.4245
 31
0.0
  0
LINE
  5
17A
330
1E
100
AcDbEntity
  8
0
100
AcDbLine
 10
161.6633
 20
116.4245
 30
0.0
 11
165.0
 21
116.4245
 31
0.0
  0
LINE
  5
17B
330
1E
100
AcDbEntity
  8
0
100
AcDbLine
 10
178.5
 20
116.4245
 30
0.0
 11
178.5
 21
64.9245
 31
0.0
  0
LINE
  5
17C
330
1E
100
AcDbEntity
  8
0
100
AcDbLine
 10
178.5
 20
116.4245
 30
0.0
 11
179.0
 21
116.9245
 31
0.0
  0
LINE
  5
17D
330
1E
100
AcDbEntity
  8
0
100
AcDbLine
 10
178.5
 20
116.4245
 30
0.0
 11
178.5
 21
116.9245
 31
0.0
  0
LINE
  5
17E
330
1E
100
AcDbEntity
  8
0
100
AcDbLine
 10
178.0
 20
116.4245
 30
0.0
 11
178.0
 21
111.7745
 31
0.0
  0
LINE
  5
17F
330
1E
100
AcDbEntity
  8
0
100
AcDbLine
 10
178.0
 20
116.4245
 30
0.0
 11
178.5
 21
116.4245
 31
0.0
  0
LINE
  5
180
330
1E
100
AcDbEntity
  8
0
100
AcDbLine
 10
177.523
 20
116.4245
 30
0.0
 11
178.0
 21
116.4245
 31
0.0
  0
LINE
  5
181
330
1E
100
AcDbEntity
  8
0
100
AcDbLine
 10
176.267
 20
116.4245
 30
0.0
 11
177.523
 21
116.4245
 31
0.0
  0
LINE
  5
182
330
1E
100
AcDbEntity
  8
0
100
AcDbLine
 10
174.187
 20
116.4245
 30
0.0
 11
176.267
 21
116.4245
 31
0.0
  0
LINE
  5
183
330
1E
100
AcDbEntity
  8
0
100
AcDbLine
 10
171.457
 20
116.4245
 30
0.0
 11
174.187
 21
116.4245
 31
0.0
  0
LINE
  5
184
330
1E
100
AcDbEntity
  8
0
100
AcDbLine
 10
168.337
 20
116.4245
 30
0.0
 11
171.457
 21
116.4245
 31
0.0
  0
LINE
  5
185
330
1E
100
AcDbEntity
  8
0
100
AcDbLine
 10
165.0
 20
116.4245
 30
0.0
 11
168.337
 21
116.4245
 31
0.0
  0
LINE
  5
186
330
1E
100
AcDbEntity
  8
0
100
AcDbLine
 10
165.0
 20
116.4245
 30
0.0
 11
178.5
 21
116.4245
 31
0.0
  0
LINE
  5
187
330
1E
100
AcDbEntity
  8
0
100
AcDbLine
 10
178.0
 20
111.7745
 30
0.0
 11
178.0
 21
116.4245
 31
0.0
  0
LINE
  5
188
330
1E
100
AcDbEntity
  8
0
100
AcDbLine
 10
152.2167
 20
111.5245
 30
0.0
 11
152.6933
 21
111.5245
 31
0.0
  0
LINE
  5
189
330
1E
100
AcDbEntity
  8
0
100
AcDbLine
 10
152.2167
 20
111.5245
 30
0.0
 11
165.0
 21
111.4245
 31
0.0
  0
LINE
  5
18A
330
1E
100
AcDbEntity
  8
0
100
AcDbLine
 10
178.5
 20
116.9245
 30
0.0
 11
178.5
 21
123.9245
 31
0.0
  0
LINE
  5
18B
330
1E
100
AcDbEntity
  8
0
100
AcDbLine
 10
178.5
 20
116.9245
 30
0.0
 11
179.0
 21
116.9245
 31
0.0
  0
LINE
  5
18C
330
1E
100
AcDbEntity
  8
0
100
AcDbLine
 10
178.5
 20
116.9245
 30
0.0
 11
178.5
 21
116.4245
 31
0.0
  0
LINE
  5
18D
330
1E
100
AcDbEntity
  8
0
100
AcDbLine
 10
165.0
 20
116.9245
 30
0.0
 11
178.5
 21
116.9245
 31
0.0
  0
LINE
  5
18E
330
1E
100
AcDbEntity
  8
0
100
AcDbLine
 10
178.5
 20
123.9245
 30
0.0
 11
178.5
 21
135.8245
 31
0.0
  0
LINE
  5
18F
330
1E
100
AcDbEntity
  8
0
100
AcDbLine
 10
178.5
 20
123.9245
 30
0.0
 11
178.5
 21
116.9245
 31
0.0
  0
LINE
  5
190
330
1E
100
AcDbEntity
  8
0
100
AcDbLine
 10
179.0
 20
123.9245
 30
0.0
 11
179.0
 21
135.7245
 31
0.0
  0
LINE
  5
191
330
1E
100
AcDbEntity
  8
0
100
AcDbLine
 10
179.0
 20
123.9245
 30
0.0
 11
179.0
 21
116.9245
 31
0.0
  0
LINE
  5
192
330
1E
100
AcDbEntity
  8
0
100
AcDbLine
 10
179.0
 20
135.7245
 30
0.0
 11
179.0
 21
146.6245
 31
0.0
  0
LINE
  5
193
330
1E
100
AcDbEntity
  8
0
100
AcDbLine
 10
179.0
 20
135.7245
 30
0.0
 11
179.0
 21
123.9245
 31
0.0
  0
LINE
  5
194
330
1E
100
AcDbEntity
  8
0
100
AcDbLine
 10
179.0
 20
146.6245
 30
0.0
 11
179.0
 21
156.0245
 31
0.0
  0
LINE
  5
195
330
1E
100
AcDbEntity
  8
0
100
AcDbLine
 10
179.0
 20
146.6245
 30
0.0
 11
179.0
 21
135.7245
 31
0.0
  0
LINE
  5
196
330
1E
100
AcDbEntity
  8
0
100
AcDbLine
 10
178.5
 20
135.8245
 30
0.0
 11
178.5
 21
146.8245
 31
0.0
  0
LINE
  5
197
330
1E
100
AcDbEntity
  8
0
100
AcDbLine
 10
178.5
 20
135.8245
 30
0.0
 11
178.5
 21
123.9245
 31
0.0
  0
LINE
  5
198
330
1E
100
AcDbEntity
  8
0
100
AcDbLine
 10
178.5
 20
146.8245
 30
0.0
 11
178.5
 21
156.4245
 31
0.0
  0
LINE
  5
199
330
1E
100
AcDbEntity
  8
0
100
AcDbLine
 10
178.5
 20
146.8245
 30
0.0
 11
178.5
 21
135.8245
 31
0.0
  0
LINE
  5
19A
330
1E
100
AcDbEntity
  8
0
100
AcDbLine
 10
179.0
 20
116.9245
 30
0.0
 11
179.0
 21
64.9245
 31
0.0
  0
LINE
  5
19B
330
1E
100
AcDbEntity
  8
0
100
AcDbLine
 10
179.0
 20
116.9245
 30
0.0
 11
179.0
 21
123.9245
 31
0.0
  0
LINE
  5
19C
330
1E
100
AcDbEntity
  8
0
100
AcDbLine
 10
152.0
 20
116.4245
 30
0.0
 11
152.0
 21
111.7745
 31
0.0
  0
LINE
  5
19D
330
1E
100
AcDbEntity
  8
0
100
AcDbLine
 10
152.0
 20
116.4245
 30
0.0
 11
152.4767
 21
116.4245
 31
0.0
  0
LINE
  5
19E
330
1E
100
AcDbEntity
  8
0
100
AcDbLine
 10
151.5
 20
116.4245
 30
0.0
 11
151.5
 21
64.9245
 31
0.0
  0
LINE
  5
19F
330
1E
100
AcDbEntity
  8
0
100
AcDbLine
 10
151.5
 20
116.4245
 30
0.0
 11
152.0
 21
116.4245
 31
0.0
  0
LINE
  5
1A0
330
1E
100
AcDbEntity
  8
0
100
AcDbLine
 10
151.5
 20
116.4245
 30
0.0
 11
151.5
 21
116.9245
 31
0.0
  0
LINE
  5
1A1
330
1E
100
AcDbEntity
  8
0
100
AcDbLine
 10
151.5
 20
116.4245
 30
0.0
 11
165.0
 21
116.4245
 31
0.0
  0
LINE
  5
1A2
330
1E
100
AcDbEntity
  8
0
100
AcDbLine
 10
151.5
 20
64.9245
 30
0.0
 11
151.5
 21
116.4245
 31
0.0
  0
LINE
  5
1A3
330
1E
100
AcDbEntity
  8
0
100
AcDbLine
 10
151.0
 20
64.9245
 30
0.0
 11
151.0
 21
123.9245
 31
0.0
  0
LINE
  5
1A4
330
1E
100
AcDbEntity
  8
0
100
AcDbLine
 10
275.0
 20
44.9245
 30
0.0
 11
279.5
 21
44.9245
 31
0.0
  0
LINE
  5
1A5
330
1E
100
AcDbEntity
  8
0
100
AcDbLine
 10
279.5
 20
44.9245
 30
0.0
 11
283.7
 21
44.9245
 31
0.0
  0
LINE
  5
1A6
330
1E
100
AcDbEntity
  8
0
100
AcDbLine
 10
279.5
 20
44.9245
 30
0.0
 11
279.5
 21
76.9245
 31
0.0
  0
LINE
  5
1A7
330
1E
100
AcDbEntity
  8
0
100
AcDbLine
 10
275.0
 20
44.4245
 30
0.0
 11
279.6
 21
44.4245
 31
0.0
  0
LINE
  5
1A8
330
1E
100
AcDbEntity
  8
0
100
AcDbLine
 10
280.0
 20
44.9245
 30
0.0
 11
280.0
 21
76.9245
 31
0.0
  0
LINE
  5
1A9
330
1E
100
AcDbEntity
  8
0
100
AcDbLine
 10
283.7
 20
44.9245
 30
0.0
 11
287.4
 21
44.9245
 31
0.0
  0
LINE
  5
1AA
330
1E
100
AcDbEntity
  8
0
100
AcDbLine
 10
287.4
 20
44.9245
 30
0.0
 11
290.2
 21
44.9245
 31
0.0
  0
LINE
  5
1AB
330
1E
100
AcDbEntity
  8
0
100
AcDbLine
 10
290.2
 20
44.9245
 30
0.0
 11
291.9
 21
44.9245
 31
0.0
  0
LINE
  5
1AC
330
1E
100
AcDbEntity
  8
0
100
AcDbLine
 10
291.9
 20
44.9245
 30
0.0
 11
292.5
 21
44.9245
 31
0.0
  0
LINE
  5
1AD
330
1E
100
AcDbEntity
  8
0
100
AcDbLine
 10
280.9
 20
79.0245
 30
0.0
 11
281.8
 21
79.6245
 31
0.0
  0
LINE
  5
1AE
330
1E
100
AcDbEntity
  8
0
100
AcDbLine
 10
280.3
 20
78.0245
 30
0.0
 11
280.9
 21
79.0245
 31
0.0
  0
LINE
  5
1AF
330
1E
100
AcDbEntity
  8
0
100
AcDbLine
 10
280.0
 20
76.9245
 30
0.0
 11
280.3
 21
78.0245
 31
0.0
  0
LINE
  5
1B0
330
1E
100
AcDbEntity
  8
0
100
AcDbLine
 10
280.0
 20
76.9245
 30
0.0
 11
280.0
 21
44.9245
 31
0.0
  0
LINE
  5
1B1
330
1E
100
AcDbEntity
  8
0
100
AcDbLine
 10
280.0
 20
76.9245
 30
0.0
 11
280.3
 21
78.0245
 31
0.0
  0
LINE
  5
1B2
330
1E
100
AcDbEntity
  8
0
100
AcDbLine
 10
283.0
 20
79.9245
 30
0.0
 11
330.0
 21
79.9245
 31
0.0
  0
LINE
  5
1B3
330
1E
100
AcDbEntity
  8
0
100
AcDbLine
 10
281.8
 20
79.6245
 30
0.0
 11
283.0
 21
79.9245
 31
0.0
  0
LINE
  5
1B4
330
1E
100
AcDbEntity
  8
0
100
AcDbLine
 10
283.0
 20
80.4245
 30
0.0
 11
329.5
 21
80.4245
 31
0.0
  0
LINE
  5
1B5
330
1E
100
AcDbEntity
  8
0
100
AcDbLine
 10
281.7
 20
80.1245
 30
0.0
 11
283.0
 21
80.4245
 31
0.0
  0
LINE
  5
1B6
330
1E
100
AcDbEntity
  8
0
100
AcDbLine
 10
280.6
 20
79.3245
 30
0.0
 11
281.7
 21
80.1245
 31
0.0
  0
LINE
  5
1B7
330
1E
100
AcDbEntity
  8
0
100
AcDbLine
 10
279.8
 20
78.2245
 30
0.0
 11
280.6
 21
79.3245
 31
0.0
  0
LINE
  5
1B8
330
1E
100
AcDbEntity
  8
0
100
AcDbLine
 10
292.5
 20
44.9245
 30
0.0
 11
293.0
 21
44.4245
 31
0.0
  0
LINE
  5
1B9
330
1E
100
AcDbEntity
  8
0
100
AcDbLine
 10
279.6
 20
44.4245
 30
0.0
 11
283.9
 21
44.4245
 31
0.0
  0
LINE
  5
1BA
330
1E
100
AcDbEntity
  8
0
100
AcDbLine
 10
292.3
 20
44.4245
 30
0.0
 11
293.0
 21
44.4245
 31
0.0
  0
LINE
  5
1BB
330
1E
100
AcDbEntity
  8
0
100
AcDbLine
 10
299.7
 20
-0.0755
 30
0.0
 11
305.3
 21
-0.0755
 31
0.0
  0
LINE
  5
1BC
330
1E
100
AcDbEntity
  8
0
100
AcDbLine
 10
305.3
 20
-0.0755
 30
0.0
 11
308.7
 21
-0.0755
 31
0.0
  0
LINE
  5
1BD
330
1E
100
AcDbEntity
  8
0
100
AcDbLine
 10
308.7
 20
-0.0755
 30
0.0
 11
310.0
 21
-0.0755
 31
0.0
  0
LINE
  5
1BE
330
1E
100
AcDbEntity
  8
0
100
AcDbLine
 10
310.0
 20
-0.0755
 30
0.0
 11
310.0
 21
9.4245
 31
0.0
  0
LINE
  5
1BF
330
1E
100
AcDbEntity
  8
0
100
AcDbLine
 10
299.4
 20
9.9245
 30
0.0
 11
304.9
 21
9.9245
 31
0.0
  0
LINE
  5
1C0
330
1E
100
AcDbEntity
  8
0
100
AcDbLine
 10
304.9
 20
9.9245
 30
0.0
 11
308.3
 21
9.9245
 31
0.0
  0
LINE
  5
1C1
330
1E
100
AcDbEntity
  8
0
100
AcDbLine
 10
299.7
 20
9.4245
 30
0.0
 11
305.3
 21
9.4245
 31
0.0
  0
LINE
  5
1C2
330
1E
100
AcDbEntity
  8
0
100
AcDbLine
 10
305.3
 20
9.4245
 30
0.0
 11
308.7
 21
9.4245
 31
0.0
  0
LINE
  5
1C3
330
1E
100
AcDbEntity
  8
0
100
AcDbLine
 10
299.7
 20
-0.0755
 30
0.0
 11
305.3
 21
-0.0755
 31
0.0
  0
LINE
  5
1C4
330
1E
100
AcDbEntity
  8
0
100
AcDbLine
 10
310.0
 20
9.4245
 30
0.0
 11
310.0
 21
-0.0755
 31
0.0
  0
LINE
  5
1C5
330
1E
100
AcDbEntity
  8
0
100
AcDbLine
 10
308.3
 20
9.9245
 30
0.0
 11
309.5
 21
9.9245
 31
0.0
  0
LINE
  5
1C6
330
1E
100
AcDbEntity
  8
0
100
AcDbLine
 10
329.5
 20
95.4245
 30
0.0
 11
329.5
 21
80.4245
 31
0.0
  0
LINE
  5
1C7
330
1E
100
AcDbEntity
  8
0
100
AcDbLine
 10
329.5
 20
95.4245
 30
0.0
 11
330.0
 21
95.9245
 31
0.0
  0
LINE
  5
1C8
330
1E
100
AcDbEntity
  8
0
100
AcDbLine
 10
330.0
 20
95.9245
 30
0.0
 11
330.0
 21
79.9245
 31
0.0
  0
LINE
  5
1C9
330
1E
100
AcDbEntity
  8
0
100
AcDbLine
 10
330.0
 20
79.9245
 30
0.0
 11
330.0
 21
95.9245
 31
0.0
  0
LINE
  5
1CA
330
1E
100
AcDbEntity
  8
0
100
AcDbLine
 10
329.5
 20
80.4245
 30
0.0
 11
329.5
 21
95.4245
 31
0.0
  0
LINE
  5
1CB
330
1E
100
AcDbEntity
  8
0
100
AcDbLine
 10
329.5
 20
80.4245
 30
0.0
 11
330.0
 21
79.9245
 31
0.0
  0
LINE
  5
1D0
330
1E
100
AcDbEntity
  8
0
100
AcDbLine
 10
309.5
 20
9.9245
 30
0.0
 11
310.0
 21
9.4245
 31
0.0
  0
LINE
  5
1D1
330
1E
100
AcDbEntity
  8
0
100
AcDbLine
 10
308.7
 20
9.4245
 30
0.0
 11
310.0
 21
9.4245
 31
0.0
  0
LINE
  5
1D2
330
1E
100
AcDbEntity
  8
0
100
AcDbLine
 10
305.3
 20
-0.0755
 30
0.0
 11
308.7
 21
-0.0755
 31
0.0
  0
LINE
  5
1D3
330
1E
100
AcDbEntity
  8
0
100
AcDbLine
 10
308.7
 20
-0.0755
 30
0.0
 11
310.0
 21
-0.0755
 31
0.0
  0
LINE
  5
1D4
330
1E
100
AcDbEntity
  8
0
100
AcDbLine
 10
293.0
 20
9.9245
 30
0.0
 11
293.0
 21
44.4245
 31
0.0
  0
LINE
  5
1D5
330
1E
100
AcDbEntity
  8
0
100
AcDbLine
 10
151.0
 20
167.8245
 30
0.0
 11
151.0
 21
163.3245
 31
0.0
  0
LINE
  5
1D6
330
1E
100
AcDbEntity
  8
0
100
AcDbLine
 10
151.0
 20
167.8245
 30
0.0
 11
151.0
 21
169.4245
 31
0.0
  0
LINE
  5
1D7
330
1E
100
AcDbEntity
  8
0
100
AcDbLine
 10
151.0
 20
169.4245
 30
0.0
 11
151.0
 21
167.7245
 31
0.0
  0
LINE
  5
1D8
330
1E
100
AcDbEntity
  8
0
100
AcDbLine
 10
151.0
 20
169.4245
 30
0.0
 11
151.5
 21
169.9245
 31
0.0
  0
LINE
  5
1D9
330
1E
100
AcDbEntity
  8
0
100
AcDbLine
 10
151.0
 20
169.4245
 30
0.0
 11
151.0
 21
167.8245
 31
0.0
  0
LINE
  5
1DA
330
1E
100
AcDbEntity
  8
0
100
AcDbLine
 10
151.0
 20
167.7245
 30
0.0
 11
151.0
 21
169.4245
 31
0.0
  0
LINE
  5
1DB
330
1E
100
AcDbEntity
  8
0
100
AcDbLine
 10
151.0
 20
167.7245
 30
0.0
 11
151.0
 21
163.3245
 31
0.0
  0
LINE
  5
1DC
330
1E
100
AcDbEntity
  8
0
100
AcDbLine
 10
151.5
 20
156.4245
 30
0.0
 11
151.5
 21
146.8245
 31
0.0
  0
LINE
  5
1DD
330
1E
100
AcDbEntity
  8
0
100
AcDbLine
 10
151.5
 20
156.4245
 30
0.0
 11
151.5
 21
163.7245
 31
0.0
  0
LINE
  5
1DE
330
1E
100
AcDbEntity
  8
0
100
AcDbLine
 10
151.5
 20
163.7245
 30
0.0
 11
151.5
 21
156.4245
 31
0.0
  0
LINE
  5
1DF
330
1E
100
AcDbEntity
  8
0
100
AcDbLine
 10
151.5
 20
163.7245
 30
0.0
 11
151.5
 21
168.2245
 31
0.0
  0
LINE
  5
1E0
330
1E
100
AcDbEntity
  8
0
100
AcDbLine
 10
151.5
 20
168.2245
 30
0.0
 11
151.5
 21
163.7245
 31
0.0
  0
LINE
  5
1E1
330
1E
100
AcDbEntity
  8
0
100
AcDbLine
 10
151.5
 20
168.2245
 30
0.0
 11
151.5
 21
169.9245
 31
0.0
  0
LINE
  5
1E2
330
1E
100
AcDbEntity
  8
0
100
AcDbLine
 10
151.0
 20
163.3245
 30
0.0
 11
151.0
 21
167.7245
 31
0.0
  0
LINE
  5
1E3
330
1E
100
AcDbEntity
  8
0
100
AcDbLine
 10
151.0
 20
163.3245
 30
0.0
 11
151.0
 21
156.0245
 31
0.0
  0
LINE
  5
1E4
330
1E
100
AcDbEntity
  8
0
100
AcDbLine
 10
151.0
 20
163.3245
 30
0.0
 11
151.0
 21
167.8245
 31
0.0
  0
LINE
  5
1E5
330
1E
100
AcDbEntity
  8
0
100
AcDbLine
 10
151.0
 20
156.0245
 30
0.0
 11
151.0
 21
163.3245
 31
0.0
  0
LINE
  5
1E6
330
1E
100
AcDbEntity
  8
0
100
AcDbLine
 10
151.0
 20
156.0245
 30
0.0
 11
151.0
 21
146.5245
 31
0.0
  0
LINE
  5
1E7
330
1E
100
AcDbEntity
  8
0
100
AcDbLine
 10
151.0
 20
156.0245
 30
0.0
 11
151.0
 21
146.6245
 31
0.0
  0
LINE
  5
1E8
330
1E
100
AcDbEntity
  8
0
100
AcDbLine
 10
178.5
 20
156.4245
 30
0.0
 11
178.5
 21
163.7245
 31
0.0
  0
LINE
  5
1E9
330
1E
100
AcDbEntity
  8
0
100
AcDbLine
 10
178.5
 20
156.4245
 30
0.0
 11
178.5
 21
146.8245
 31
0.0
  0
LINE
  5
1EA
330
1E
100
AcDbEntity
  8
0
100
AcDbLine
 10
178.5
 20
169.9245
 30
0.0
 11
179.0
 21
169.4245
 31
0.0
  0
LINE
  5
1EB
330
1E
100
AcDbEntity
  8
0
100
AcDbLine
 10
178.5
 20
169.9245
 30
0.0
 11
178.5
 21
168.2245
 31
0.0
  0
LINE
  5
1EC
330
1E
100
AcDbEntity
  8
0
100
AcDbLine
 10
178.5
 20
163.7245
 30
0.0
 11
178.5
 21
168.2245
 31
0.0
  0
LINE
  5
1ED
330
1E
100
AcDbEntity
  8
0
100
AcDbLine
 10
178.5
 20
163.7245
 30
0.0
 11
178.5
 21
156.4245
 31
0.0
  0
LINE
  5
1EE
330
1E
100
AcDbEntity
  8
0
100
AcDbLine
 10
179.0
 20
156.0245
 30
0.0
 11
179.0
 21
163.3245
 31
0.0
  0
LINE
  5
1EF
330
1E
100
AcDbEntity
  8
0
100
AcDbLine
 10
179.0
 20
156.0245
 30
0.0
 11
179.0
 21
146.6245
 31
0.0
  0
LINE
  5
1FC
330
1E
100
AcDbEntity
  8
0
100
AcDbLine
 10
179.0
 20
163.3245
 30
0.0
 11
179.0
 21
167.8245
 31
0.0
  0
LINE
  5
1FD
330
1E
100
AcDbEntity
  8
0
100
AcDbLine
 10
179.0
 20
163.3245
 30
0.0
 11
179.0
 21
156.0245
 31
0.0
  0
LINE
  5
1FE
330
1E
100
AcDbEntity
  8
0
100
AcDbLine
 10
179.0
 20
169.4245
 30
0.0
 11
179.0
 21
167.8245
 31
0.0
  0
LINE
  5
1FF
330
1E
100
AcDbEntity
  8
0
100
AcDbLine
 10
179.0
 20
167.8245
 30
0.0
 11
179.0
 21
169.4245
 31
0.0
  0
LINE
  5
200
330
1E
100
AcDbEntity
  8
0
100
AcDbLine
 10
179.0
 20
167.8245
 30
0.0
 11
179.0
 21
163.3245
 31
0.0
  0
LINE
  5
201
330
1E
100
AcDbEntity
  8
0
100
AcDbLine
 10
178.5
 20
168.2245
 30
0.0
 11
178.5
 21
169.9245
 31
0.0
  0
LINE
  5
202
330
1E
100
AcDbEntity
  8
0
100
AcDbLine
 10
178.5
 20
168.2245
 30
0.0
 11
178.5
 21
163.7245
 31
0.0
  0
LINE
  5
206
330
1E
100
AcDbEntity
  8
0
100
AcDbLine
 10
165.0
 20
169.9245
 30
0.0
 11
178.5
 21
169.9245
 31
0.0
  0
LINE
  5
207
330
1E
100
AcDbEntity
  8
0
100
AcDbLine
 10
151.5
 20
169.9245
 30
0.0
 11
165.0
 21
169.9245
 31
0.0
  0
LINE
  5
208
330
1E
100
AcDbEntity
  8
0
100
AcDbLine
 10
151.5
 20
169.9245
 30
0.0
 11
151.5
 21
168.2245
 31
0.0
  0
LINE
  5
20F
330
1E
100
AcDbEntity
  8
0
100
AcDbLine
 10
350.0
 20
-0.0755
 30
0.0
 11
351.3
 21
-0.0755
 31
0.0
  0
LINE
  5
211
330
1E
100
AcDbEntity
  8
0
100
AcDbLine
 10
350.0
 20
-0.0755
 30
0.0
 11
351.3
 21
-0.0755
 31
0.0
  0
LINE
  5
215
330
1E
100
AcDbEntity
  8
0
100
AcDbLine
 10
351.3
 20
-0.0755
 30
0.0
 11
354.7
 21
-0.0755
 31
0.0
  0
LINE
  5
218
330
1E
100
AcDbEntity
  8
0
100
AcDbLine
 10
354.7
 20
-0.0755
 30
0.0
 11
360.3
 21
-0.0755
 31
0.0
  0
LINE
  5
21A
330
1E
100
AcDbEntity
  8
0
100
AcDbLine
 10
354.7
 20
-0.0755
 30
0.0
 11
360.3
 21
-0.0755
 31
0.0
  0
LINE
  5
21B
330
1E
100
AcDbEntity
  8
0
100
AcDbLine
 10
351.3
 20
-0.0755
 30
0.0
 11
354.7
 21
-0.0755
 31
0.0
  0
LINE
  5
224
330
1E
100
AcDbEntity
  8
0
100
AcDbLine
 10
360.3
 20
-0.0755
 30
0.0
 11
419.913
 21
0.0687015
 31
0.0
  0
LINE
  5
229
330
1E
100
AcDbEntity
  8
0
100
AcDbLine
 10
360.3
 20
-0.0755
 30
0.0
 11
419.913
 21
0.0687015
 31
0.0
  0
LINE
  5
864
330
1E
100
AcDbEntity
  8
0
100
AcDbLine
 10
350.0
 20
-0.0755
 30
0.0
 11
350.354996551922
 21
7.0301855
 31
0.0
  0
LINE
  5
865
330
1E
100
AcDbEntity
  8
0
100
AcDbLine
 10
350.355
 20
7.0301955
 30
0.0
 11
350.715
 21
8.0742555
 31
0.0
  0
LINE
  5
866
330
1E
100
AcDbEntity
  8
0
100
AcDbLine
 10
350.715
 20
8.0742555
 30
0.0
 11
351.501
 21
8.7532455
 31
0.0
  0
LINE
  5
867
330
1E
100
AcDbEntity
  8
0
100
AcDbLine
 10
352.239
 20
8.9227855
 30
0.0
 11
356.56
 21
9.1474155
 31
0.0
  0
LINE
  5
868
330
1E
100
AcDbEntity
  8
0
100
AcDbLine
 10
351.501
 20
8.7532455
 30
0.0
 11
352.239
 21
8.9227855
 31
0.0
  0
LINE
  5
869
330
1E
100
AcDbEntity
  8
0
100
AcDbLine
 10
356.827
 20
9.1474155
 30
0.0
 11
357.387
 21
9.1474155
 31
0.0
  0
LINE
  5
86A
330
1E
100
AcDbEntity
  8
0
100
AcDbLine
 10
356.678
 20
9.1474155
 30
0.0
 11
356.827
 21
9.1474155
 31
0.0
  0
LINE
  5
86B
330
1E
100
AcDbEntity
  8
0
100
AcDbLine
 10
357.387
 20
9.1474155
 30
0.0
 11
358.349
 21
9.1474155
 31
0.0
  0
LINE
  5
86C
330
1E
100
AcDbEntity
  8
0
100
AcDbLine
 10
356.56
 20
9.1474155
 30
0.0
 11
356.856
 21
9.1474155
 31
0.0
  0
LINE
  5
86D
330
1E
100
AcDbEntity
  8
0
100
AcDbLine
 10
356.856
 20
9.1474155
 30
0.0
 11
357.443
 21
9.1474155
 31
0.0
  0
LINE
  5
86E
330
1E
100
AcDbEntity
  8
0
100
AcDbLine
 10
357.443
 20
9.1474155
 30
0.0
 11
358.317
 21
9.1474155
 31
0.0
  0
LINE
  5
86F
330
1E
100
AcDbEntity
  8
0
100
AcDbLine
 10
358.317
 20
9.1474155
 30
0.0
 11
359.467
 21
9.1474155
 31
0.0
  0
LINE
  5
870
330
1E
100
AcDbEntity
  8
0
100
AcDbLine
 10
358.349
 20
9.1474155
 30
0.0
 11
359.699
 21
9.1474155
 31
0.0
  0
LINE
  5
871
330
1E
100
AcDbEntity
  8
0
100
AcDbLine
 10
359.699
 20
9.1474155
 30
0.0
 11
361.418
 21
9.1474155
 31
0.0
  0
LINE
  5
872
330
1E
100
AcDbEntity
  8
0
100
AcDbLine
 10
361.418
 20
9.1474155
 30
0.0
 11
363.481
 21
9.1474155
 31
0.0
  0
LINE
  5
873
330
1E
100
AcDbEntity
  8
0
100
AcDbLine
 10
359.467
 20
9.1474155
 30
0.0
 11
360.883
 21
9.1474155
 31
0.0
  0
LINE
  5
874
330
1E
100
AcDbEntity
  8
0
100
AcDbLine
 10
360.883
 20
9.1474155
 30
0.0
 11
362.548
 21
9.1474155
 31
0.0
  0
LINE
  5
875
330
1E
100
AcDbEntity
  8
0
100
AcDbLine
 10
363.488
 20
9.1474155
 30
0.0
 11
364.986
 21
9.3656955
 31
0.0
  0
LINE
  5
876
330
1E
100
AcDbEntity
  8
0
100
AcDbLine
 10
362.548
 20
9.1474155
 30
0.0
 11
405.5
 21
9.1474155
 31
0.0
  0
LINE
  5
877
330
1E
100
AcDbEntity
  8
0
100
AcDbLine
 10
364.986
 20
9.3656955
 30
0.0
 11
367.228107834354
 21
10.638807768645
 31
0.0
  0
LINE
  5
878
330
1E
100
AcDbEntity
  8
0
100
AcDbLine
 10
419.552921649406
 20
7.0301955
 30
0.0
 11
419.913
 21
0.0687015
 31
0.0
  0
LINE
  5
879
330
1E
100
AcDbEntity
  8
0
100
AcDbLine
 10
405.5
 20
9.1474155
 30
0.0
 11
407.399
 21
9.1474155
 31
0.0
  0
LINE
  5
87A
330
1E
100
AcDbEntity
  8
0
100
AcDbLine
 10
405.841
 20
9.1474155
 30
0.0
 11
407.993
 21
9.1474155
 31
0.0
  0
LINE
  5
87B
330
1E
100
AcDbEntity
  8
0
100
AcDbLine
 10
407.399
 20
9.1474155
 30
0.0
 11
409.065
 21
9.1474155
 31
0.0
  0
LINE
  5
87C
330
1E
100
AcDbEntity
  8
0
100
AcDbLine
 10
407.993
 20
9.1474155
 30
0.0
 11
409.81
 21
9.1474155
 31
0.0
  0
LINE
  5
87D
330
1E
100
AcDbEntity
  8
0
100
AcDbLine
 10
409.065
 20
9.1474155
 30
0.0
 11
410.48
 21
9.1474155
 31
0.0
  0
LINE
  5
87E
330
1E
100
AcDbEntity
  8
0
100
AcDbLine
 10
405.143
 20
9.2743355
 30
0.0
 11
406.474
 21
9.1474155
 31
0.0
  0
LINE
  5
87F
330
1E
100
AcDbEntity
  8
0
100
AcDbLine
 10
418.446
 20
8.7532555
 30
0.0
 11
419.271
 21
8.0736755
 31
0.0
  0
LINE
  5
880
330
1E
100
AcDbEntity
  8
0
100
AcDbLine
 10
419.271
 20
8.0736755
 30
0.0
 11
419.552921649406
 21
7.0301955
 31
0.0
  0
LINE
  5
881
330
1E
100
AcDbEntity
  8
0
100
AcDbLine
 10
417.708
 20
8.9227855
 30
0.0
 11
418.446
 21
8.7532555
 31
0.0
  0
LINE
  5
882
330
1E
100
AcDbEntity
  8
0
100
AcDbLine
 10
411.264
 20
9.1474155
 30
0.0
 11
412.335
 21
9.1474155
 31
0.0
  0
LINE
  5
883
330
1E
100
AcDbEntity
  8
0
100
AcDbLine
 10
409.81
 20
9.1474155
 30
0.0
 11
411.264
 21
9.1474155
 31
0.0
  0
LINE
  5
884
330
1E
100
AcDbEntity
  8
0
100
AcDbLine
 10
410.48
 20
9.1474155
 30
0.0
 11
411.63
 21
9.1474155
 31
0.0
  0
LINE
  5
885
330
1E
100
AcDbEntity
  8
0
100
AcDbLine
 10
413.006
 20
9.1474155
 30
0.0
 11
413.27
 21
9.1474155
 31
0.0
  0
LINE
  5
886
330
1E
100
AcDbEntity
  8
0
100
AcDbLine
 10
412.335
 20
9.1474155
 30
0.0
 11
413.006
 21
9.1474155
 31
0.0
  0
LINE
  5
887
330
1E
100
AcDbEntity
  8
0
100
AcDbLine
 10
411.63
 20
9.1474155
 30
0.0
 11
412.504
 21
9.1474155
 31
0.0
  0
LINE
  5
888
330
1E
100
AcDbEntity
  8
0
100
AcDbLine
 10
412.504
 20
9.1474155
 30
0.0
 11
413.091
 21
9.1474155
 31
0.0
  0
LINE
  5
889
330
1E
100
AcDbEntity
  8
0
100
AcDbLine
 10
413.387
 20
9.1474155
 30
0.0
 11
417.708
 21
8.9227855
 31
0.0
  0
LINE
  5
88A
330
1E
100
AcDbEntity
  8
0
100
AcDbLine
 10
413.091
 20
9.1474155
 30
0.0
 11
413.387
 21
9.1474155
 31
0.0
  0
LINE
  5
88B
330
1E
100
AcDbEntity
  8
0
100
AcDbLine
 10
403.021
 20
10.2377155
 30
0.0
 11
405.143
 21
9.2743355
 31
0.0
  0
LINE
  5
88C
330
1E
100
AcDbEntity
  8
0
100
AcDbLine
 10
367.228107834354
 20
10.638807768644
 30
0.0
 11
368.343
 21
11.8645155
 31
0.0
  0
LINE
  5
88D
330
1E
100
AcDbEntity
  8
0
100
AcDbLine
 10
401.707175682719
 20
11.664991011561
 30
0.0
 11
403.021
 21
10.2377155
 31
0.0
  0
LINE
  5
88E
330
1E
100
AcDbEntity
  8
0
100
AcDbLine
 10
368.343
 20
11.8645155
 30
0.0
 11
368.918
 21
13.3779155
 31
0.0
  0
LINE
  5
88F
330
1E
100
AcDbEntity
  8
0
100
AcDbLine
 10
401.353186137138
 20
12.406067434747
 30
0.0
 11
401.707175682719
 21
11.664991011561
 31
0.0
  0
LINE
  5
890
330
1E
100
AcDbEntity
  8
0
100
AcDbLine
 10
368.918
 20
13.3779155
 30
0.0
 11
368.974
 21
14.1474155
 31
0.0
  0
LINE
  5
891
330
1E
100
AcDbEntity
  8
0
100
AcDbLine
 10
368.918
 20
13.3778155
 30
0.0
 11
368.974
 21
14.1474155
 31
0.0
  0
LINE
  5
892
330
1E
100
AcDbEntity
  8
0
100
AcDbLine
 10
368.974
 20
14.1474155
 30
0.0
 11
368.974
 21
44.884264106811
 31
0.0
  0
LINE
  5
893
330
1E
100
AcDbEntity
  8
0
100
AcDbLine
 10
400.974
 20
14.1474155
 30
0.0
 11
400.991351854483
 21
13.858146738196
 31
0.0
  0
LINE
  5
894
330
1E
100
AcDbEntity
  8
0
100
AcDbLine
 10
370.717
 20
40.2483155
 30
0.0
 11
372.029
 21
38.8723155
 31
0.0
  0
LINE
  5
895
330
1E
100
AcDbEntity
  8
0
100
AcDbLine
 10
368.965
 20
44.9261155
 30
0.0
 11
368.983343998511
 21
45.493394294785
 31
0.0
  0
LINE
  5
896
330
1E
100
AcDbEntity
  8
0
100
AcDbLine
 10
368.965
 20
44.9261155
 30
0.0
 11
369.288
 21
43.4241155
 31
0.0
  0
LINE
  5
897
330
1E
100
AcDbEntity
  8
0
100
AcDbLine
 10
369.288
 20
43.4241155
 30
0.0
 11
369.94
 21
41.9729155
 31
0.0
  0
LINE
  5
898
330
1E
100
AcDbEntity
  8
0
100
AcDbLine
 10
369.94
 20
41.9729155
 30
0.0
 11
370.912
 21
40.5879155
 31
0.0
  0
LINE
  5
899
330
1E
100
AcDbEntity
  8
0
100
AcDbLine
 10
369.757
 20
41.7395155
 30
0.0
 11
370.717
 21
40.2483155
 31
0.0
  0
LINE
  5
89A
330
1E
100
AcDbEntity
  8
0
100
AcDbLine
 10
369.171
 20
43.3088155
 30
0.0
 11
369.757
 21
41.7395155
 31
0.0
  0
LINE
  5
89B
330
1E
100
AcDbEntity
  8
0
100
AcDbLine
 10
368.983511747885
 20
44.840033006738
 30
0.0
 11
369.171
 21
43.3088155
 31
0.0
  0
LINE
  5
89C
330
1E
100
AcDbEntity
  8
0
100
AcDbLine
 10
368.974
 20
44.884264106811
 30
0.0
 11
368.974
 21
14.1474155
 31
0.0
  0
LINE
  5
89D
330
1E
100
AcDbEntity
  8
0
100
AcDbLine
 10
370.912
 20
40.5879155
 30
0.0
 11
373.727
 21
38.1690155
 31
0.0
  0
LINE
  5
89E
330
1E
100
AcDbEntity
  8
0
100
AcDbLine
 10
380.03
 20
35.1364155
 30
0.0
 11
382.471
 21
34.7594155
 31
0.0
  0
LINE
  5
89F
330
1E
100
AcDbEntity
  8
0
100
AcDbLine
 10
382.471
 20
34.7594155
 30
0.0
 11
384.974
 21
34.6329155
 31
0.0
  0
LINE
  5
8A0
330
1E
100
AcDbEntity
  8
0
100
AcDbLine
 10
373.66
 20
37.6451155
 30
0.0
 11
375.569
 21
36.5971155
 31
0.0
  0
LINE
  5
8A1
330
1E
100
AcDbEntity
  8
0
100
AcDbLine
 10
383.546
 20
35.2538155
 30
0.0
 11
387.469
 21
35.3592155
 31
0.0
  0
LINE
  5
8A2
330
1E
100
AcDbEntity
  8
0
100
AcDbLine
 10
375.125
 20
37.4414155
 30
0.0
 11
376.371
 21
36.8588155
 31
0.0
  0
LINE
  5
8A3
330
1E
100
AcDbEntity
  8
0
100
AcDbLine
 10
376.651250898714
 20
36.753062433254
 30
0.0
 11
379.714
 21
35.8043155
 31
0.0
  0
LINE
  5
8A4
330
1E
100
AcDbEntity
  8
0
100
AcDbLine
 10
379.714
 20
35.8043155
 30
0.0
 11
383.546
 21
35.2538155
 31
0.0
  0
LINE
  5
8A5
330
1E
100
AcDbEntity
  8
0
100
AcDbLine
 10
376.371
 20
36.8587155
 30
0.0
 11
376.651988852678
 21
36.752705108177
 31
0.0
  0
LINE
  5
8A6
330
1E
100
AcDbEntity
  8
0
100
AcDbLine
 10
376.371
 20
36.8588155
 30
0.0
 11
376.651250898714
 21
36.753062433254
 31
0.0
  0
LINE
  5
8A7
330
1E
100
AcDbEntity
  8
0
100
AcDbLine
 10
375.569
 20
36.5971155
 30
0.0
 11
377.71
 21
35.7537155
 31
0.0
  0
LINE
  5
8A8
330
1E
100
AcDbEntity
  8
0
100
AcDbLine
 10
377.71
 20
35.7537155
 30
0.0
 11
380.03
 21
35.1364155
 31
0.0
  0
LINE
  5
8A9
330
1E
100
AcDbEntity
  8
0
100
AcDbLine
 10
384.974
 20
34.6331155
 30
0.0
 11
388.72
 21
34.8863155
 31
0.0
  0
LINE
  5
8AA
330
1E
100
AcDbEntity
  8
0
100
AcDbLine
 10
387.469
 20
35.3592155
 30
0.0
 11
391.253
 21
36.0352155
 31
0.0
  0
LINE
  5
8AB
330
1E
100
AcDbEntity
  8
0
100
AcDbLine
 10
372.029
 20
38.8723155
 30
0.0
 11
373.66
 21
37.6451155
 31
0.0
  0
LINE
  5
8AC
330
1E
100
AcDbEntity
  8
0
100
AcDbLine
 10
373.203
 20
52.8708155
 30
0.0
 11
374.937
 21
51.8460155
 31
0.0
  0
LINE
  5
8AD
330
1E
100
AcDbEntity
  8
0
100
AcDbLine
 10
381.6
 20
49.7741155
 30
0.0
 11
384.543
 21
49.5472155
 31
0.0
  0
LINE
  5
8AE
330
1E
100
AcDbEntity
  8
0
100
AcDbLine
 10
378.257
 20
50.5072155
 30
0.0
 11
381.6
 21
49.7741155
 31
0.0
  0
LINE
  5
8AF
330
1E
100
AcDbEntity
  8
0
100
AcDbLine
 10
384.543
 20
49.5472155
 30
0.0
 11
386.692
 21
49.6075155
 31
0.0
  0
LINE
  5
8B0
330
1E
100
AcDbEntity
  8
0
100
AcDbLine
 10
386.692
 20
49.6075155
 30
0.0
 11
390.154
 21
50.0633155
 31
0.0
  0
LINE
  5
8B1
330
1E
100
AcDbEntity
  8
0
100
AcDbLine
 10
374.937
 20
51.8460155
 30
0.0
 11
376.206
 21
51.2523155
 31
0.0
  0
LINE
  5
8B2
330
1E
100
AcDbEntity
  8
0
100
AcDbLine
 10
376.206
 20
51.2523155
 30
0.0
 11
378.257
 21
50.5072155
 31
0.0
  0
LINE
  5
8B3
330
1E
100
AcDbEntity
  8
0
100
AcDbLine
 10
379.048
 20
54.4329155
 30
0.0
 11
381.928
 21
53.6788155
 31
0.0
  0
LINE
  5
8B4
330
1E
100
AcDbEntity
  8
0
100
AcDbLine
 10
381.928
 20
53.6788155
 30
0.0
 11
385.0
 21
53.3243155
 31
0.0
  0
LINE
  5
8B5
330
1E
100
AcDbEntity
  8
0
100
AcDbLine
 10
385.0
 20
53.3243155
 30
0.0
 11
388.072
 21
53.6788155
 31
0.0
  0
LINE
  5
8B6
330
1E
100
AcDbEntity
  8
0
100
AcDbLine
 10
392.238
 20
35.7539155
 30
0.0
 11
395.394
 21
37.0715155
 31
0.0
  0
LINE
  5
8B7
330
1E
100
AcDbEntity
  8
0
100
AcDbLine
 10
391.253
 20
36.0352155
 30
0.0
 11
394.634
 21
37.3163155
 31
0.0
  0
LINE
  5
8B8
330
1E
100
AcDbEntity
  8
0
100
AcDbLine
 10
388.72
 20
34.8863155
 30
0.0
 11
392.238
 21
35.7539155
 31
0.0
  0
LINE
  5
8B9
330
1E
100
AcDbEntity
  8
0
100
AcDbLine
 10
390.154
 20
50.0633155
 30
0.0
 11
393.351
 21
51.0595155
 31
0.0
  0
LINE
  5
8BA
330
1E
100
AcDbEntity
  8
0
100
AcDbLine
 10
393.351
 20
51.0595155
 30
0.0
 11
395.839
 21
52.2890155
 31
0.0
  0
LINE
  5
8BB
330
1E
100
AcDbEntity
  8
0
100
AcDbLine
 10
388.072
 20
53.6788155
 30
0.0
 11
390.952
 21
54.4329155
 31
0.0
  0
LINE
  5
8BC
330
1E
100
AcDbEntity
  8
0
100
AcDbLine
 10
370.898
 20
54.9107155
 30
0.0
 11
373.203
 21
52.8708155
 31
0.0
  0
LINE
  5
8BD
330
1E
100
AcDbEntity
  8
0
100
AcDbLine
 10
376.552
 20
55.6746155
 30
0.0
 11
379.048
 21
54.4329155
 31
0.0
  0
LINE
  5
8BE
330
1E
100
AcDbEntity
  8
0
100
AcDbLine
 10
376.552
 20
55.6746155
 30
0.0
 11
377.224
 21
55.3308155
 31
0.0
  0
LINE
  5
8BF
330
1E
100
AcDbEntity
  8
0
100
AcDbLine
 10
392.776
 20
55.3308155
 30
0.0
 11
393.448
 21
55.6746155
 31
0.0
  0
LINE
  5
8C0
330
1E
100
AcDbEntity
  8
0
100
AcDbLine
 10
390.952
 20
54.4329155
 30
0.0
 11
393.448
 21
55.6746155
 31
0.0
  0
LINE
  5
8C1
330
1E
100
AcDbEntity
  8
0
100
AcDbLine
 10
395.394
 20
37.0715155
 30
0.0
 11
398.66
 21
39.5295155
 31
0.0
  0
LINE
  5
8C2
330
1E
100
AcDbEntity
  8
0
100
AcDbLine
 10
394.634
 20
37.3163155
 30
0.0
 11
397.475
 21
39.0590155
 31
0.0
  0
LINE
  5
8C3
330
1E
100
AcDbEntity
  8
0
100
AcDbLine
 10
396.176
 20
38.2301155
 30
0.0
 11
396.470434782115
 21
38.442804375323
 31
0.0
  0
LINE
  5
8C4
330
1E
100
AcDbEntity
  8
0
100
AcDbLine
 10
396.176
 20
38.2300155
 30
0.0
 11
396.472740610168
 21
38.444218795086
 31
0.0
  0
LINE
  5
8C5
330
1E
100
AcDbEntity
  8
0
100
AcDbLine
 10
397.475
 20
39.0590155
 30
0.0
 11
399.86
 21
41.6708155
 31
0.0
  0
LINE
  5
8C6
330
1E
100
AcDbEntity
  8
0
100
AcDbLine
 10
398.66
 20
39.5295155
 30
0.0
 11
400.582
 21
42.5146155
 31
0.0
  0
LINE
  5
8C7
330
1E
100
AcDbEntity
  8
0
100
AcDbLine
 10
395.839
 20
52.2890155
 30
0.0
 11
398.617
 21
54.4122155
 31
0.0
  0
LINE
  5
8C8
330
1E
100
AcDbEntity
  8
0
100
AcDbLine
 10
398.617
 20
54.4122155
 30
0.0
 11
399.998
 21
56.2349155
 31
0.0
  0
LINE
  5
8C9
330
1E
100
AcDbEntity
  8
0
100
AcDbLine
 10
399.86
 20
41.6708155
 30
0.0
 11
400.961
 21
44.6143155
 31
0.0
  0
LINE
  5
8CA
330
1E
100
AcDbEntity
  8
0
100
AcDbLine
 10
400.582
 20
42.5146155
 30
0.0
 11
400.896333282945
 21
44.441430412214
 31
0.0
  0
LINE
  5
8CB
330
1E
100
AcDbEntity
  8
0
100
AcDbLine
 10
400.961
 20
44.6143155
 30
0.0
 11
400.979637057189
 21
59.16073481571
 31
0.0
  0
LINE
  5
8CC
330
1E
100
AcDbEntity
  8
0
100
AcDbLine
 10
399.998
 20
56.2349155
 30
0.0
 11
400.599
 21
57.4454155
 31
0.0
  0
LINE
  5
8CD
330
1E
100
AcDbEntity
  8
0
100
AcDbLine
 10
393.448
 20
55.6746155
 30
0.0
 11
395.368
 21
57.2276155
 31
0.0
  0
LINE
  5
8CE
330
1E
100
AcDbEntity
  8
0
100
AcDbLine
 10
369.706
 20
56.7802155
 30
0.0
 11
370.896
 21
54.9138155
 31
0.0
  0
LINE
  5
8CF
330
1E
100
AcDbEntity
  8
0
100
AcDbLine
 10
374.632
 20
57.2276155
 30
0.0
 11
376.552
 21
55.6746155
 31
0.0
  0
LINE
  5
8D0
330
1E
100
AcDbEntity
  8
0
100
AcDbLine
 10
368.967
 20
60.2669155
 30
0.0
 11
369.244
 21
61.7539155
 31
0.0
  0
LINE
  5
8D1
330
1E
100
AcDbEntity
  8
0
100
AcDbLine
 10
368.967
 20
60.2669155
 30
0.0
 11
369.15
 21
58.2518155
 31
0.0
  0
LINE
  5
8D2
330
1E
100
AcDbEntity
  8
0
100
AcDbLine
 10
369.15
 20
58.2518155
 30
0.0
 11
369.706
 21
56.7802155
 31
0.0
  0
LINE
  5
8D3
330
1E
100
AcDbEntity
  8
0
100
AcDbLine
 10
369.244
 20
61.7539155
 30
0.0
 11
369.49
 21
62.5131155
 31
0.0
  0
LINE
  5
8D4
330
1E
100
AcDbEntity
  8
0
100
AcDbLine
 10
369.181600641377
 20
61.418941325731
 30
0.0
 11
369.204
 21
61.7776155
 31
0.0
  0
LINE
  5
8D5
330
1E
100
AcDbEntity
  8
0
100
AcDbLine
 10
369.400593749471
 20
62.129130184629
 30
0.0
 11
369.49
 21
62.5131155
 31
0.0
  0
LINE
  5
8D6
330
1E
100
AcDbEntity
  8
0
100
AcDbLine
 10
369.49
 20
62.5131155
 30
0.0
 11
369.70731624961
 21
62.86406875368
 31
0.0
  0
LINE
  5
8D7
330
1E
100
AcDbEntity
  8
0
100
AcDbLine
 10
369.49
 20
62.5131155
 30
0.0
 11
370.219
 21
64.0901155
 31
0.0
  0
LINE
  5
8D8
330
1E
100
AcDbEntity
  8
0
100
AcDbLine
 10
369.204
 20
61.7776155
 30
0.0
 11
369.333594014034
 21
62.030418652255
 31
0.0
  0
LINE
  5
8D9
330
1E
100
AcDbEntity
  8
0
100
AcDbLine
 10
373.384
 20
59.1351155
 30
0.0
 11
374.632
 21
57.2276155
 31
0.0
  0
LINE
  5
8DA
330
1E
100
AcDbEntity
  8
0
100
AcDbLine
 10
373.0
 20
61.1309155
 30
0.0
 11
373.0
 21
133.1654155
 31
0.0
  0
LINE
  5
8DB
330
1E
100
AcDbEntity
  8
0
100
AcDbLine
 10
373.0
 20
61.1309155
 30
0.0
 11
373.384
 21
59.1351155
 31
0.0
  0
LINE
  5
8DC
330
1E
100
AcDbEntity
  8
0
100
AcDbLine
 10
395.368
 20
57.2276155
 30
0.0
 11
396.616
 21
59.1351155
 31
0.0
  0
LINE
  5
8DD
330
1E
100
AcDbEntity
  8
0
100
AcDbLine
 10
400.599
 20
57.4454155
 30
0.0
 11
400.987
 21
59.1939155
 31
0.0
  0
LINE
  5
8DE
330
1E
100
AcDbEntity
  8
0
100
AcDbLine
 10
400.758
 20
61.7127155
 30
0.0
 11
400.987
 21
59.1939155
 31
0.0
  0
LINE
  5
8DF
330
1E
100
AcDbEntity
  8
0
100
AcDbLine
 10
400.770415338738
 20
61.525705480986
 30
0.0
 11
400.798
 21
61.4575155
 31
0.0
  0
LINE
  5
8E0
330
1E
100
AcDbEntity
  8
0
100
AcDbLine
 10
397.0
 20
61.1309155
 30
0.0
 11
397.0
 21
133.1654155
 31
0.0
  0
LINE
  5
8E1
330
1E
100
AcDbEntity
  8
0
100
AcDbLine
 10
396.616
 20
59.1351155
 30
0.0
 11
397.0
 21
61.1309155
 31
0.0
  0
LINE
  5
8E2
330
1E
100
AcDbEntity
  8
0
100
AcDbLine
 10
370.219
 20
64.0901155
 30
0.0
 11
370.935
 21
65.2412155
 31
0.0
  0
LINE
  5
8E3
330
1E
100
AcDbEntity
  8
0
100
AcDbLine
 10
397.0
 20
67.123956262463
 30
0.0
 11
398.822
 21
65.4983155
 31
0.0
  0
LINE
  5
8E4
330
1E
100
AcDbEntity
  8
0
100
AcDbLine
 10
371.885
 20
65.9596155
 30
0.0
 11
373.0
 21
66.943454871981
 31
0.0
  0
LINE
  5
8E5
330
1E
100
AcDbEntity
  8
0
100
AcDbLine
 10
370.935
 20
65.2412155
 30
0.0
 11
373.0
 21
67.111431812057
 31
0.0
  0
LINE
  5
8E6
330
1E
100
AcDbEntity
  8
0
100
AcDbLine
 10
398.822
 20
65.4983155
 30
0.0
 11
399.632
 21
64.2629155
 31
0.0
  0
LINE
  5
8E7
330
1E
100
AcDbEntity
  8
0
100
AcDbLine
 10
399.632
 20
64.2629155
 30
0.0
 11
400.181
 21
63.1904155
 31
0.0
  0
LINE
  5
8E8
330
1E
100
AcDbEntity
  8
0
100
AcDbLine
 10
400.181
 20
63.1904155
 30
0.0
 11
400.758
 21
61.7127155
 31
0.0
  0
LINE
  5
8E9
330
1E
100
AcDbEntity
  8
0
100
AcDbLine
 10
350.33
 20
147.4674155
 30
0.0
 11
350.33
 21
148.0844155
 31
0.0
  0
LINE
  5
8EA
330
1E
100
AcDbEntity
  8
0
100
AcDbLine
 10
348.87
 20
147.4674155
 30
0.0
 11
348.87
 21
148.363649996683
 31
0.0
  0
LINE
  5
8EB
330
1E
100
AcDbEntity
  8
0
100
AcDbLine
 10
348.87
 20
147.4674155
 30
0.0
 11
348.87
 21
148.0844155
 31
0.0
  0
LINE
  5
8EC
330
1E
100
AcDbEntity
  8
0
100
AcDbLine
 10
348.87
 20
147.4674155
 30
0.0
 11
350.33
 21
147.4674155
 31
0.0
  0
LINE
  5
8ED
330
1E
100
AcDbEntity
  8
0
100
AcDbLine
 10
350.33
 20
148.0844155
 30
0.0
 11
350.33
 21
148.885593144711
 31
0.0
  0
LINE
  5
8EE
330
1E
100
AcDbEntity
  8
0
100
AcDbLine
 10
350.33
 20
148.0844155
 30
0.0
 11
350.33
 21
147.4674155
 31
0.0
  0
LINE
  5
8EF
330
1E
100
AcDbEntity
  8
0
100
AcDbLine
 10
348.87
 20
148.363649996683
 30
0.0
 11
348.87
 21
147.4674155
 31
0.0
  0
LINE
  5
8F0
330
1E
100
AcDbEntity
  8
0
100
AcDbLine
 10
350.33
 20
148.885593144711
 30
0.0
 11
350.33
 21
148.0844155
 31
0.0
  0
LINE
  5
8F1
330
1E
100
AcDbEntity
  8
0
100
AcDbLine
 10
348.87
 20
148.535627621212
 30
0.0
 11
348.87
 21
148.0844155
 31
0.0
  0
LINE
  5
8F2
330
1E
100
AcDbEntity
  8
0
100
AcDbLine
 10
348.87
 20
148.0844155
 30
0.0
 11
348.87
 21
147.4674155
 31
0.0
  0
LINE
  5
8F3
330
1E
100
AcDbEntity
  8
0
100
AcDbLine
 10
348.87
 20
148.0844155
 30
0.0
 11
348.87
 21
148.535627621212
 31
0.0
  0
LINE
  5
8F4
330
1E
100
AcDbEntity
  8
0
100
AcDbLine
 10
348.87
 20
148.0844155
 30
0.0
 11
350.33
 21
148.0844155
 31
0.0
  0
LINE
  5
8F5
330
1E
100
AcDbEntity
  8
0
100
AcDbLine
 10
347.701
 20
148.2554155
 30
0.0
 11
348.87
 21
147.699661401639
 31
0.0
  0
LINE
  5
8F6
330
1E
100
AcDbEntity
  8
0
100
AcDbLine
 10
349.358517241379
 20
147.4674155
 30
0.0
 11
351.788
 21
146.3124155
 31
0.0
  0
LINE
  5
8F7
330
1E
100
AcDbEntity
  8
0
100
AcDbLine
 10
345.949
 20
147.7004155
 30
0.0
 11
350.182
 21
145.6334155
 31
0.0
  0
LINE
  5
8F8
330
1E
100
AcDbEntity
  8
0
100
AcDbLine
 10
344.084
 20
150.8994155
 30
0.0
 11
344.084
 21
151.5164155
 31
0.0
  0
LINE
  5
8F9
330
1E
100
AcDbEntity
  8
0
100
AcDbLine
 10
344.084
 20
150.8994155
 30
0.0
 11
345.544
 21
150.8994155
 31
0.0
  0
LINE
  5
8FA
330
1E
100
AcDbEntity
  8
0
100
AcDbLine
 10
344.084
 20
152.705391304253
 30
0.0
 11
344.084
 21
151.5164155
 31
0.0
  0
LINE
  5
8FB
330
1E
100
AcDbEntity
  8
0
100
AcDbLine
 10
345.544
 20
151.5164155
 30
0.0
 11
345.544
 21
152.67344882879
 31
0.0
  0
LINE
  5
8FC
330
1E
100
AcDbEntity
  8
0
100
AcDbLine
 10
345.544
 20
151.5164155
 30
0.0
 11
345.544
 21
150.8994155
 31
0.0
  0
LINE
  5
8FD
330
1E
100
AcDbEntity
  8
0
100
AcDbLine
 10
345.544
 20
150.8994155
 30
0.0
 11
345.544
 21
151.5164155
 31
0.0
  0
LINE
  5
8FE
330
1E
100
AcDbEntity
  8
0
100
AcDbLine
 10
345.544
 20
152.67344882879
 30
0.0
 11
345.544
 21
151.5164155
 31
0.0
  0
LINE
  5
8FF
330
1E
100
AcDbEntity
  8
0
100
AcDbLine
 10
344.084
 20
151.5164155
 30
0.0
 11
344.084
 21
150.8994155
 31
0.0
  0
LINE
  5
900
330
1E
100
AcDbEntity
  8
0
100
AcDbLine
 10
344.084
 20
151.5164155
 30
0.0
 11
344.084
 21
152.705391304253
 31
0.0
  0
LINE
  5
901
330
1E
100
AcDbEntity
  8
0
100
AcDbLine
 10
344.084
 20
151.5164155
 30
0.0
 11
345.544
 21
151.5164155
 31
0.0
  0
LINE
  5
902
330
1E
100
AcDbEntity
  8
0
100
AcDbLine
 10
344.197
 20
150.4454155
 30
0.0
 11
347.701
 21
148.2554155
 31
0.0
  0
LINE
  5
903
330
1E
100
AcDbEntity
  8
0
100
AcDbLine
 10
341.569
 20
152.7604155
 30
0.0
 11
344.197
 21
150.4454155
 31
0.0
  0
LINE
  5
904
330
1E
100
AcDbEntity
  8
0
100
AcDbLine
 10
342.299
 20
149.9834155
 30
0.0
 11
345.949
 21
147.7004155
 31
0.0
  0
LINE
  5
905
330
1E
100
AcDbEntity
  8
0
100
AcDbLine
 10
339.599
 20
152.3904155
 30
0.0
 11
342.299
 21
149.9834155
 31
0.0
  0
LINE
  5
906
330
1E
100
AcDbEntity
  8
0
100
AcDbLine
 10
351.14
 20
154.5974155
 30
0.0
 11
351.14
 21
155.2144155
 31
0.0
  0
LINE
  5
907
330
1E
100
AcDbEntity
  8
0
100
AcDbLine
 10
349.68
 20
154.5974155
 30
0.0
 11
349.68
 21
155.760326632739
 31
0.0
  0
LINE
  5
908
330
1E
100
AcDbEntity
  8
0
100
AcDbLine
 10
349.68
 20
154.5974155
 30
0.0
 11
349.68
 21
155.2144155
 31
0.0
  0
LINE
  5
909
330
1E
100
AcDbEntity
  8
0
100
AcDbLine
 10
349.68
 20
154.5974155
 30
0.0
 11
351.14
 21
154.5974155
 31
0.0
  0
LINE
  5
90A
330
1E
100
AcDbEntity
  8
0
100
AcDbLine
 10
342.218
 20
154.9824155
 30
0.0
 11
342.218
 21
155.5994155
 31
0.0
  0
LINE
  5
90B
330
1E
100
AcDbEntity
  8
0
100
AcDbLine
 10
340.759
 20
155.561295562888
 30
0.0
 11
340.759
 21
154.9824155
 31
0.0
  0
LINE
  5
90C
330
1E
100
AcDbEntity
  8
0
100
AcDbLine
 10
351.14
 20
155.2144155
 30
0.0
 11
351.14
 21
155.79289981534
 31
0.0
  0
LINE
  5
90D
330
1E
100
AcDbEntity
  8
0
100
AcDbLine
 10
351.14
 20
155.2144155
 30
0.0
 11
351.14
 21
154.5974155
 31
0.0
  0
LINE
  5
90E
330
1E
100
AcDbEntity
  8
0
100
AcDbLine
 10
349.68
 20
155.2144155
 30
0.0
 11
349.68
 21
154.5974155
 31
0.0
  0
LINE
  5
90F
330
1E
100
AcDbEntity
  8
0
100
AcDbLine
 10
349.68
 20
155.2144155
 30
0.0
 11
349.68
 21
155.760326632739
 31
0.0
  0
LINE
  5
910
330
1E
100
AcDbEntity
  8
0
100
AcDbLine
 10
349.68
 20
155.2144155
 30
0.0
 11
351.14
 21
155.2144155
 31
0.0
  0
LINE
  5
911
330
1E
100
AcDbEntity
  8
0
100
AcDbLine
 10
351.14
 20
155.79289981534
 30
0.0
 11
351.14
 21
155.2144155
 31
0.0
  0
LINE
  5
912
330
1E
100
AcDbEntity
  8
0
100
AcDbLine
 10
349.68
 20
155.760326632739
 30
0.0
 11
349.68
 21
155.2144155
 31
0.0
  0
LINE
  5
913
330
1E
100
AcDbEntity
  8
0
100
AcDbLine
 10
349.68
 20
155.760326632739
 30
0.0
 11
349.68
 21
154.5974155
 31
0.0
  0
LINE
  5
914
330
1E
100
AcDbEntity
  8
0
100
AcDbLine
 10
342.218
 20
155.5994155
 30
0.0
 11
342.218
 21
154.9824155
 31
0.0
  0
LINE
  5
915
330
1E
100
AcDbEntity
  8
0
100
AcDbLine
 10
340.759
 20
155.5994155
 30
0.0
 11
340.759
 21
154.9824155
 31
0.0
  0
LINE
  5
916
330
1E
100
AcDbEntity
  8
0
100
AcDbLine
 10
340.759
 20
155.5994155
 30
0.0
 11
342.218
 21
155.5994155
 31
0.0
  0
LINE
  5
917
330
1E
100
AcDbEntity
  8
0
100
AcDbLine
 10
340.759
 20
154.9824155
 30
0.0
 11
340.759
 21
155.561295562888
 31
0.0
  0
LINE
  5
918
330
1E
100
AcDbEntity
  8
0
100
AcDbLine
 10
340.759
 20
154.9824155
 30
0.0
 11
340.759
 21
155.5994155
 31
0.0
  0
LINE
  5
919
330
1E
100
AcDbEntity
  8
0
100
AcDbLine
 10
340.759
 20
154.9824155
 30
0.0
 11
342.218
 21
154.9824155
 31
0.0
  0
LINE
  5
91A
330
1E
100
AcDbEntity
  8
0
100
AcDbLine
 10
339.599
 20
155.5354155
 30
0.0
 11
341.569
 21
152.7604155
 31
0.0
  0
LINE
  5
91B
330
1E
100
AcDbEntity
  8
0
100
AcDbLine
 10
338.869
 20
153.1724155
 30
0.0
 11
339.599
 21
152.3904155
 31
0.0
  0
LINE
  5
91C
330
1E
100
AcDbEntity
  8
0
100
AcDbLine
 10
337.482
 20
155.1044155
 30
0.0
 11
339.599
 21
152.3904155
 31
0.0
  0
LINE
  5
91D
330
1E
100
AcDbEntity
  8
0
100
AcDbLine
 10
339.38
 20
160.06868389036
 30
0.0
 11
339.38
 21
159.1344155
 31
0.0
  0
LINE
  5
91E
330
1E
100
AcDbEntity
  8
0
100
AcDbLine
 10
339.38
 20
160.442172262453
 30
0.0
 11
339.38
 21
159.7514155
 31
0.0
  0
LINE
  5
91F
330
1E
100
AcDbEntity
  8
0
100
AcDbLine
 10
339.38
 20
159.7514155
 30
0.0
 11
339.38
 21
159.1344155
 31
0.0
  0
LINE
  5
920
330
1E
100
AcDbEntity
  8
0
100
AcDbLine
 10
339.38
 20
159.7514155
 30
0.0
 11
339.38
 21
160.442172262453
 31
0.0
  0
LINE
  5
921
330
1E
100
AcDbEntity
  8
0
100
AcDbLine
 10
339.38
 20
159.7514155
 30
0.0
 11
340.839
 21
159.7514155
 31
0.0
  0
LINE
  5
922
330
1E
100
AcDbEntity
  8
0
100
AcDbLine
 10
340.839
 20
159.7514155
 30
0.0
 11
340.839
 21
160.535864807946
 31
0.0
  0
LINE
  5
923
330
1E
100
AcDbEntity
  8
0
100
AcDbLine
 10
340.839
 20
159.7514155
 30
0.0
 11
340.839
 21
159.1344155
 31
0.0
  0
LINE
  5
924
330
1E
100
AcDbEntity
  8
0
100
AcDbLine
 10
349.599
 20
158.6804155
 30
0.0
 11
349.599
 21
159.2974155
 31
0.0
  0
LINE
  5
925
330
1E
100
AcDbEntity
  8
0
100
AcDbLine
 10
348.139
 20
159.680805606721
 30
0.0
 11
348.139
 21
159.2974155
 31
0.0
  0
LINE
  5
926
330
1E
100
AcDbEntity
  8
0
100
AcDbLine
 10
348.139
 20
159.680805606721
 30
0.0
 11
348.139
 21
158.6804155
 31
0.0
  0
LINE
  5
927
330
1E
100
AcDbEntity
  8
0
100
AcDbLine
 10
349.599
 20
159.2974155
 30
0.0
 11
349.599
 21
159.58542343193
 31
0.0
  0
LINE
  5
928
330
1E
100
AcDbEntity
  8
0
100
AcDbLine
 10
349.599
 20
159.2974155
 30
0.0
 11
349.599
 21
158.6804155
 31
0.0
  0
LINE
  5
929
330
1E
100
AcDbEntity
  8
0
100
AcDbLine
 10
349.599
 20
159.58542343193
 30
0.0
 11
349.599
 21
159.2974155
 31
0.0
  0
LINE
  5
92A
330
1E
100
AcDbEntity
  8
0
100
AcDbLine
 10
348.139
 20
159.2974155
 30
0.0
 11
348.139
 21
158.6804155
 31
0.0
  0
LINE
  5
92B
330
1E
100
AcDbEntity
  8
0
100
AcDbLine
 10
348.139
 20
159.2974155
 30
0.0
 11
348.139
 21
159.680805606721
 31
0.0
  0
LINE
  5
92C
330
1E
100
AcDbEntity
  8
0
100
AcDbLine
 10
348.139
 20
159.2974155
 30
0.0
 11
349.599
 21
159.2974155
 31
0.0
  0
LINE
  5
92D
330
1E
100
AcDbEntity
  8
0
100
AcDbLine
 10
348.139
 20
158.6804155
 30
0.0
 11
348.139
 21
159.680805606721
 31
0.0
  0
LINE
  5
92E
330
1E
100
AcDbEntity
  8
0
100
AcDbLine
 10
348.139
 20
158.6804155
 30
0.0
 11
348.139
 21
159.2974155
 31
0.0
  0
LINE
  5
92F
330
1E
100
AcDbEntity
  8
0
100
AcDbLine
 10
348.139
 20
158.6804155
 30
0.0
 11
349.599
 21
158.6804155
 31
0.0
  0
LINE
  5
930
330
1E
100
AcDbEntity
  8
0
100
AcDbLine
 10
340.839
 20
159.1344155
 30
0.0
 11
340.839
 21
159.7514155
 31
0.0
  0
LINE
  5
931
330
1E
100
AcDbEntity
  8
0
100
AcDbLine
 10
340.839
 20
160.535864807946
 30
0.0
 11
340.839
 21
159.7514155
 31
0.0
  0
LINE
  5
932
330
1E
100
AcDbEntity
  8
0
100
AcDbLine
 10
339.38
 20
159.1344155
 30
0.0
 11
339.38
 21
160.06868389036
 31
0.0
  0
LINE
  5
933
330
1E
100
AcDbEntity
  8
0
100
AcDbLine
 10
339.38
 20
159.1344155
 30
0.0
 11
339.38
 21
159.7514155
 31
0.0
  0
LINE
  5
934
330
1E
100
AcDbEntity
  8
0
100
AcDbLine
 10
339.38
 20
159.1344155
 30
0.0
 11
340.839
 21
159.1344155
 31
0.0
  0
LINE
  5
935
330
1E
100
AcDbEntity
  8
0
100
AcDbLine
 10
338.358
 20
157.7254155
 30
0.0
 11
339.599
 21
155.5354155
 31
0.0
  0
LINE
  5
936
330
1E
100
AcDbEntity
  8
0
100
AcDbLine
 10
337.92
 20
160.3484155
 30
0.0
 11
338.358
 21
157.7254155
 31
0.0
  0
LINE
  5
937
330
1E
100
AcDbEntity
  8
0
100
AcDbLine
 10
337.92
 20
160.3484155
 30
0.0
 11
338.358
 21
162.9704155
 31
0.0
  0
LINE
  5
938
330
1E
100
AcDbEntity
  8
0
100
AcDbLine
 10
336.241
 20
157.6644155
 30
0.0
 11
337.482
 21
155.1044155
 31
0.0
  0
LINE
  5
939
330
1E
100
AcDbEntity
  8
0
100
AcDbLine
 10
335.73
 20
160.3484155
 30
0.0
 11
336.241
 21
157.6644155
 31
0.0
  0
LINE
  5
93A
330
1E
100
AcDbEntity
  8
0
100
AcDbLine
 10
335.73
 20
160.3484155
 30
0.0
 11
336.241
 21
163.0324155
 31
0.0
  0
LINE
  5
93B
330
1E
100
AcDbEntity
  8
0
100
AcDbLine
 10
336.825
 20
155.7944155
 30
0.0
 11
338.869
 21
153.1724155
 31
0.0
  0
LINE
  5
93C
330
1E
100
AcDbEntity
  8
0
100
AcDbLine
 10
335.511
 20
158.5404155
 30
0.0
 11
336.825
 21
155.7944155
 31
0.0
  0
LINE
  5
93D
330
1E
100
AcDbEntity
  8
0
100
AcDbLine
 10
335.0
 20
161.2554155
 30
0.0
 11
335.511
 21
158.5404155
 31
0.0
  0
LINE
  5
93E
330
1E
100
AcDbEntity
  8
0
100
AcDbLine
 10
335.0
 20
161.2554155
 30
0.0
 11
335.0
 21
180.2874155
 31
0.0
  0
LINE
  5
93F
330
1E
100
AcDbEntity
  8
0
100
AcDbLine
 10
335.0
 20
161.2554155
 30
0.0
 11
335.511
 21
163.9694155
 31
0.0
  0
LINE
  5
940
330
1E
100
AcDbEntity
  8
0
100
AcDbLine
 10
354.141
 20
150.754839154137
 30
0.0
 11
354.141
 21
150.5154155
 31
0.0
  0
LINE
  5
941
330
1E
100
AcDbEntity
  8
0
100
AcDbLine
 10
354.141
 20
152.091740309034
 30
0.0
 11
354.141
 21
151.1324155
 31
0.0
  0
LINE
  5
942
330
1E
100
AcDbEntity
  8
0
100
AcDbLine
 10
354.141
 20
151.1324155
 30
0.0
 11
354.141
 21
150.5154155
 31
0.0
  0
LINE
  5
943
330
1E
100
AcDbEntity
  8
0
100
AcDbLine
 10
354.141
 20
151.1324155
 30
0.0
 11
354.141
 21
152.091740309034
 31
0.0
  0
LINE
  5
944
330
1E
100
AcDbEntity
  8
0
100
AcDbLine
 10
354.141
 20
151.1324155
 30
0.0
 11
355.601
 21
151.1324155
 31
0.0
  0
LINE
  5
945
330
1E
100
AcDbEntity
  8
0
100
AcDbLine
 10
354.141
 20
150.5154155
 30
0.0
 11
354.141
 21
150.754839154137
 31
0.0
  0
LINE
  5
946
330
1E
100
AcDbEntity
  8
0
100
AcDbLine
 10
354.141
 20
150.5154155
 30
0.0
 11
354.141
 21
151.1324155
 31
0.0
  0
LINE
  5
947
330
1E
100
AcDbEntity
  8
0
100
AcDbLine
 10
354.141
 20
150.5154155
 30
0.0
 11
355.601
 21
150.5154155
 31
0.0
  0
LINE
  5
948
330
1E
100
AcDbEntity
  8
0
100
AcDbLine
 10
351.788
 20
146.3124155
 30
0.0
 11
355.278
 21
145.001863206023
 31
0.0
  0
LINE
  5
949
330
1E
100
AcDbEntity
  8
0
100
AcDbLine
 10
350.182
 20
145.6334155
 30
0.0
 11
355.073
 21
143.8444155
 31
0.0
  0
LINE
  5
94A
330
1E
100
AcDbEntity
  8
0
100
AcDbLine
 10
361.558
 20
143.107559266885
 30
0.0
 11
361.558
 21
142.8994155
 31
0.0
  0
LINE
  5
94B
330
1E
100
AcDbEntity
  8
0
100
AcDbLine
 10
361.558
 20
142.8994155
 30
0.0
 11
362.822
 21
142.5904155
 31
0.0
  0
LINE
  5
94C
330
1E
100
AcDbEntity
  8
0
100
AcDbLine
 10
361.558
 20
142.8994155
 30
0.0
 11
361.558
 21
143.107559266885
 31
0.0
  0
LINE
  5
94D
330
1E
100
AcDbEntity
  8
0
100
AcDbLine
 10
361.558
 20
142.8994155
 30
0.0
 11
362.288
 21
143.4334155
 31
0.0
  0
LINE
  5
94E
330
1E
100
AcDbEntity
  8
0
100
AcDbLine
 10
355.278
 20
145.001863206023
 30
0.0
 11
355.278
 21
144.6204155
 31
0.0
  0
LINE
  5
94F
330
1E
100
AcDbEntity
  8
0
100
AcDbLine
 10
355.278
 20
145.2374155
 30
0.0
 11
355.278
 21
144.6204155
 31
0.0
  0
LINE
  5
950
330
1E
100
AcDbEntity
  8
0
100
AcDbLine
 10
355.278
 20
145.2374155
 30
0.0
 11
356.738
 21
145.2374155
 31
0.0
  0
LINE
  5
951
330
1E
100
AcDbEntity
  8
0
100
AcDbLine
 10
355.278
 20
144.6204155
 30
0.0
 11
355.278
 21
145.001863206023
 31
0.0
  0
LINE
  5
952
330
1E
100
AcDbEntity
  8
0
100
AcDbLine
 10
355.278
 20
144.6204155
 30
0.0
 11
355.278
 21
145.2374155
 31
0.0
  0
LINE
  5
953
330
1E
100
AcDbEntity
  8
0
100
AcDbLine
 10
355.278
 20
144.6204155
 30
0.0
 11
356.738
 21
144.6204155
 31
0.0
  0
LINE
  5
954
330
1E
100
AcDbEntity
  8
0
100
AcDbLine
 10
355.601
 20
151.1324155
 30
0.0
 11
355.601
 21
150.5154155
 31
0.0
  0
LINE
  5
955
330
1E
100
AcDbEntity
  8
0
100
AcDbLine
 10
355.601
 20
150.5154155
 30
0.0
 11
355.601
 21
151.1324155
 31
0.0
  0
LINE
  5
956
330
1E
100
AcDbEntity
  8
0
100
AcDbLine
 10
356.738
 20
145.2374155
 30
0.0
 11
356.738
 21
144.6204155
 31
0.0
  0
LINE
  5
957
330
1E
100
AcDbEntity
  8
0
100
AcDbLine
 10
356.738
 20
144.6204155
 30
0.0
 11
356.738
 21
145.2374155
 31
0.0
  0
LINE
  5
958
330
1E
100
AcDbEntity
  8
0
100
AcDbLine
 10
359.495
 20
148.855150291944
 30
0.0
 11
359.495
 21
148.3184155
 31
0.0
  0
LINE
  5
959
330
1E
100
AcDbEntity
  8
0
100
AcDbLine
 10
359.495
 20
148.855150291944
 30
0.0
 11
359.495
 21
147.7014155
 31
0.0
  0
LINE
  5
95A
330
1E
100
AcDbEntity
  8
0
100
AcDbLine
 10
359.495
 20
148.3184155
 30
0.0
 11
359.495
 21
147.7014155
 31
0.0
  0
LINE
  5
95B
330
1E
100
AcDbEntity
  8
0
100
AcDbLine
 10
359.495
 20
148.3184155
 30
0.0
 11
359.495
 21
148.855150291944
 31
0.0
  0
LINE
  5
95C
330
1E
100
AcDbEntity
  8
0
100
AcDbLine
 10
359.495
 20
148.3184155
 30
0.0
 11
360.955
 21
148.3184155
 31
0.0
  0
LINE
  5
95D
330
1E
100
AcDbEntity
  8
0
100
AcDbLine
 10
359.495
 20
147.7014155
 30
0.0
 11
359.495
 21
148.855150291944
 31
0.0
  0
LINE
  5
95E
330
1E
100
AcDbEntity
  8
0
100
AcDbLine
 10
359.495
 20
147.7014155
 30
0.0
 11
359.495
 21
148.3184155
 31
0.0
  0
LINE
  5
95F
330
1E
100
AcDbEntity
  8
0
100
AcDbLine
 10
359.495
 20
147.7014155
 30
0.0
 11
360.955
 21
147.7014155
 31
0.0
  0
LINE
  5
960
330
1E
100
AcDbEntity
  8
0
100
AcDbLine
 10
360.955
 20
148.3184155
 30
0.0
 11
360.955
 21
149.33684132558
 31
0.0
  0
LINE
  5
961
330
1E
100
AcDbEntity
  8
0
100
AcDbLine
 10
360.955
 20
148.3184155
 30
0.0
 11
360.955
 21
147.7014155
 31
0.0
  0
LINE
  5
962
330
1E
100
AcDbEntity
  8
0
100
AcDbLine
 10
360.955
 20
147.7014155
 30
0.0
 11
360.955
 21
148.3184155
 31
0.0
  0
LINE
  5
963
330
1E
100
AcDbEntity
  8
0
100
AcDbLine
 10
360.955
 20
149.33684132558
 30
0.0
 11
360.955
 21
148.3184155
 31
0.0
  0
LINE
  5
964
330
1E
100
AcDbEntity
  8
0
100
AcDbLine
 10
360.548
 20
154.4534155
 30
0.0
 11
360.548
 21
155.0694155
 31
0.0
  0
LINE
  5
965
330
1E
100
AcDbEntity
  8
0
100
AcDbLine
 10
359.088
 20
154.675289871859
 30
0.0
 11
359.088
 21
154.4534155
 31
0.0
  0
LINE
  5
966
330
1E
100
AcDbEntity
  8
0
100
AcDbLine
 10
359.088
 20
156.025304914548
 30
0.0
 11
359.088
 21
155.0694155
 31
0.0
  0
LINE
  5
967
330
1E
100
AcDbEntity
  8
0
100
AcDbLine
 10
360.548
 20
155.0694155
 30
0.0
 11
360.548
 21
156.070992870392
 31
0.0
  0
LINE
  5
968
330
1E
100
AcDbEntity
  8
0
100
AcDbLine
 10
360.548
 20
155.0694155
 30
0.0
 11
360.548
 21
154.4534155
 31
0.0
  0
LINE
  5
969
330
1E
100
AcDbEntity
  8
0
100
AcDbLine
 10
360.548
 20
156.070992870392
 30
0.0
 11
360.548
 21
155.0694155
 31
0.0
  0
LINE
  5
96A
330
1E
100
AcDbEntity
  8
0
100
AcDbLine
 10
359.088
 20
155.0694155
 30
0.0
 11
359.088
 21
154.4534155
 31
0.0
  0
LINE
  5
96B
330
1E
100
AcDbEntity
  8
0
100
AcDbLine
 10
359.088
 20
155.0694155
 30
0.0
 11
359.088
 21
156.025304914548
 31
0.0
  0
LINE
  5
96C
330
1E
100
AcDbEntity
  8
0
100
AcDbLine
 10
359.088
 20
155.0694155
 30
0.0
 11
360.548
 21
155.0694155
 31
0.0
  0
LINE
  5
96D
330
1E
100
AcDbEntity
  8
0
100
AcDbLine
 10
359.088
 20
154.4534155
 30
0.0
 11
359.088
 21
154.675289871859
 31
0.0
  0
LINE
  5
96E
330
1E
100
AcDbEntity
  8
0
100
AcDbLine
 10
359.088
 20
154.4534155
 30
0.0
 11
359.088
 21
155.0694155
 31
0.0
  0
LINE
  5
96F
330
1E
100
AcDbEntity
  8
0
100
AcDbLine
 10
359.088
 20
154.4534155
 30
0.0
 11
360.548
 21
154.4534155
 31
0.0
  0
LINE
  5
970
330
1E
100
AcDbEntity
  8
0
100
AcDbLine
 10
358.358
 20
158.2274155
 30
0.0
 11
358.358
 21
158.8444155
 31
0.0
  0
LINE
  5
971
330
1E
100
AcDbEntity
  8
0
100
AcDbLine
 10
356.898
 20
159.041241772833
 30
0.0
 11
356.898
 21
158.2274155
 31
0.0
  0
LINE
  5
972
330
1E
100
AcDbEntity
  8
0
100
AcDbLine
 10
356.898
 20
159.393510039448
 30
0.0
 11
356.898
 21
158.8444155
 31
0.0
  0
LINE
  5
973
330
1E
100
AcDbEntity
  8
0
100
AcDbLine
 10
358.358
 20
158.8444155
 30
0.0
 11
358.358
 21
159.379537050719
 31
0.0
  0
LINE
  5
974
330
1E
100
AcDbEntity
  8
0
100
AcDbLine
 10
358.358
 20
158.8444155
 30
0.0
 11
358.358
 21
158.2274155
 31
0.0
  0
LINE
  5
975
330
1E
100
AcDbEntity
  8
0
100
AcDbLine
 10
358.358
 20
159.379537050719
 30
0.0
 11
358.358
 21
158.8444155
 31
0.0
  0
LINE
  5
976
330
1E
100
AcDbEntity
  8
0
100
AcDbLine
 10
356.898
 20
158.8444155
 30
0.0
 11
356.898
 21
158.2274155
 31
0.0
  0
LINE
  5
977
330
1E
100
AcDbEntity
  8
0
100
AcDbLine
 10
356.898
 20
158.8444155
 30
0.0
 11
356.898
 21
159.393510039448
 31
0.0
  0
LINE
  5
978
330
1E
100
AcDbEntity
  8
0
100
AcDbLine
 10
356.898
 20
158.8444155
 30
0.0
 11
358.358
 21
158.8444155
 31
0.0
  0
LINE
  5
979
330
1E
100
AcDbEntity
  8
0
100
AcDbLine
 10
356.898
 20
158.2274155
 30
0.0
 11
356.898
 21
159.041241772833
 31
0.0
  0
LINE
  5
97A
330
1E
100
AcDbEntity
  8
0
100
AcDbLine
 10
356.898
 20
158.2274155
 30
0.0
 11
356.898
 21
158.8444155
 31
0.0
  0
LINE
  5
97B
330
1E
100
AcDbEntity
  8
0
100
AcDbLine
 10
356.898
 20
158.2274155
 30
0.0
 11
358.358
 21
158.2274155
 31
0.0
  0
LINE
  5
97C
330
1E
100
AcDbEntity
  8
0
100
AcDbLine
 10
356.293795020266
 20
144.6204155
 30
0.0
 11
356.387
 21
144.5854155
 31
0.0
  0
LINE
  5
97D
330
1E
100
AcDbEntity
  8
0
100
AcDbLine
 10
356.387
 20
144.5854155
 30
0.0
 11
361.558
 21
143.107559266885
 31
0.0
  0
LINE
  5
97E
330
1E
100
AcDbEntity
  8
0
100
AcDbLine
 10
355.073
 20
143.8444155
 30
0.0
 11
360.474
 21
142.3024155
 31
0.0
  0
LINE
  5
97F
330
1E
100
AcDbEntity
  8
0
100
AcDbLine
 10
360.474
 20
142.3024155
 30
0.0
 11
366.168
 21
141.1604155
 31
0.0
  0
LINE
  5
980
330
1E
100
AcDbEntity
  8
0
100
AcDbLine
 10
374.632
 20
127.1644155
 30
0.0
 11
376.552
 21
124.6044155
 31
0.0
  0
LINE
  5
981
330
1E
100
AcDbEntity
  8
0
100
AcDbLine
 10
373.384
 20
130.0764155
 30
0.0
 11
374.632
 21
127.1644155
 31
0.0
  0
LINE
  5
982
330
1E
100
AcDbEntity
  8
0
100
AcDbLine
 10
373.0
 20
133.1654155
 30
0.0
 11
373.384
 21
136.3434155
 31
0.0
  0
LINE
  5
983
330
1E
100
AcDbEntity
  8
0
100
AcDbLine
 10
373.0
 20
133.1654155
 30
0.0
 11
373.0
 21
61.1309155
 31
0.0
  0
LINE
  5
984
330
1E
100
AcDbEntity
  8
0
100
AcDbLine
 10
373.0
 20
133.1654155
 30
0.0
 11
373.384
 21
130.0764155
 31
0.0
  0
LINE
  5
985
330
1E
100
AcDbEntity
  8
0
100
AcDbLine
 10
373.384
 20
136.3434155
 30
0.0
 11
374.632
 21
139.2554155
 31
0.0
  0
LINE
  5
986
330
1E
100
AcDbEntity
  8
0
100
AcDbLine
 10
374.632
 20
139.2554155
 30
0.0
 11
375.219743916615
 21
140.039074055487
 31
0.0
  0
LINE
  5
987
330
1E
100
AcDbEntity
  8
0
100
AcDbLine
 10
376.36
 20
139.940461382159
 30
0.0
 11
376.36
 21
133.1654155
 31
0.0
  0
LINE
  5
988
330
1E
100
AcDbEntity
  8
0
100
AcDbLine
 10
376.552
 20
124.6044155
 30
0.0
 11
379.048
 21
122.6634155
 31
0.0
  0
LINE
  5
989
330
1E
100
AcDbEntity
  8
0
100
AcDbLine
 10
377.512
 20
128.8414155
 30
0.0
 11
378.856
 21
126.9874155
 31
0.0
  0
LINE
  5
98A
330
1E
100
AcDbEntity
  8
0
100
AcDbLine
 10
378.529
 20
140.2314155
 30
0.0
 11
379.793
 21
140.5404155
 31
0.0
  0
LINE
  5
98B
330
1E
100
AcDbEntity
  8
0
100
AcDbLine
 10
376.648
 20
130.9594155
 30
0.0
 11
377.512
 21
128.8414155
 31
0.0
  0
LINE
  5
98C
330
1E
100
AcDbEntity
  8
0
100
AcDbLine
 10
376.36
 20
133.1654155
 30
0.0
 11
376.648
 21
130.9594155
 31
0.0
  0
LINE
  5
98D
330
1E
100
AcDbEntity
  8
0
100
AcDbLine
 10
376.36
 20
133.1654155
 30
0.0
 11
376.36
 21
139.940461382159
 31
0.0
  0
LINE
  5
98E
330
1E
100
AcDbEntity
  8
0
100
AcDbLine
 10
362.822
 20
142.5904155
 30
0.0
 11
363.552
 21
143.1254155
 31
0.0
  0
LINE
  5
98F
330
1E
100
AcDbEntity
  8
0
100
AcDbLine
 10
363.552
 20
143.1254155
 30
0.0
 11
363.552
 21
143.729254549394
 31
0.0
  0
LINE
  5
990
330
1E
100
AcDbEntity
  8
0
100
AcDbLine
 10
362.288
 20
143.4334155
 30
0.0
 11
363.552
 21
143.1254155
 31
0.0
  0
LINE
  5
991
330
1E
100
AcDbEntity
  8
0
100
AcDbLine
 10
362.288
 20
143.4334155
 30
0.0
 11
362.288
 21
143.542710020548
 31
0.0
  0
LINE
  5
992
330
1E
100
AcDbEntity
  8
0
100
AcDbLine
 10
363.552
 20
143.729254549394
 30
0.0
 11
363.552
 21
143.1254155
 31
0.0
  0
LINE
  5
993
330
1E
100
AcDbEntity
  8
0
100
AcDbLine
 10
362.288
 20
143.542710020548
 30
0.0
 11
362.288
 21
143.4334155
 31
0.0
  0
LINE
  5
994
330
1E
100
AcDbEntity
  8
0
100
AcDbLine
 10
364.36
 20
150.6454155
 30
0.0
 11
364.36
 21
151.2624155
 31
0.0
  0
LINE
  5
995
330
1E
100
AcDbEntity
  8
0
100
AcDbLine
 10
364.36
 20
150.6454155
 30
0.0
 11
365.82
 21
150.6454155
 31
0.0
  0
LINE
  5
996
330
1E
100
AcDbEntity
  8
0
100
AcDbLine
 10
364.36
 20
152.145173598224
 30
0.0
 11
364.36
 21
151.2624155
 31
0.0
  0
LINE
  5
997
330
1E
100
AcDbEntity
  8
0
100
AcDbLine
 10
364.36
 20
151.2624155
 30
0.0
 11
364.36
 21
150.6454155
 31
0.0
  0
LINE
  5
998
330
1E
100
AcDbEntity
  8
0
100
AcDbLine
 10
364.36
 20
151.2624155
 30
0.0
 11
364.36
 21
152.145173598224
 31
0.0
  0
LINE
  5
999
330
1E
100
AcDbEntity
  8
0
100
AcDbLine
 10
364.36
 20
151.2624155
 30
0.0
 11
365.82
 21
151.2624155
 31
0.0
  0
LINE
  5
99A
330
1E
100
AcDbEntity
  8
0
100
AcDbLine
 10
365.657
 20
158.353593890983
 30
0.0
 11
365.657
 21
157.7744155
 31
0.0
  0
LINE
  5
99B
330
1E
100
AcDbEntity
  8
0
100
AcDbLine
 10
365.657
 20
159.309681677614
 30
0.0
 11
365.657
 21
158.3904155
 31
0.0
  0
LINE
  5
99C
330
1E
100
AcDbEntity
  8
0
100
AcDbLine
 10
365.657
 20
158.3904155
 30
0.0
 11
365.657
 21
157.7744155
 31
0.0
  0
LINE
  5
99D
330
1E
100
AcDbEntity
  8
0
100
AcDbLine
 10
365.657
 20
158.3904155
 30
0.0
 11
365.657
 21
159.309681677614
 31
0.0
  0
LINE
  5
99E
330
1E
100
AcDbEntity
  8
0
100
AcDbLine
 10
365.657
 20
158.3904155
 30
0.0
 11
367.117
 21
158.3904155
 31
0.0
  0
LINE
  5
99F
330
1E
100
AcDbEntity
  8
0
100
AcDbLine
 10
365.82
 20
151.2624155
 30
0.0
 11
365.82
 21
150.6454155
 31
0.0
  0
LINE
  5
9A0
330
1E
100
AcDbEntity
  8
0
100
AcDbLine
 10
365.82
 20
150.6454155
 30
0.0
 11
365.82
 21
151.2624155
 31
0.0
  0
LINE
  5
9A1
330
1E
100
AcDbEntity
  8
0
100
AcDbLine
 10
365.937
 20
146.727901385088
 30
0.0
 11
365.937
 21
145.6524155
 31
0.0
  0
LINE
  5
9A2
330
1E
100
AcDbEntity
  8
0
100
AcDbLine
 10
365.937
 20
145.6524155
 30
0.0
 11
367.202
 21
145.3434155
 31
0.0
  0
LINE
  5
9A3
330
1E
100
AcDbEntity
  8
0
100
AcDbLine
 10
365.937
 20
145.6524155
 30
0.0
 11
365.937
 21
146.727901385088
 31
0.0
  0
LINE
  5
9A4
330
1E
100
AcDbEntity
  8
0
100
AcDbLine
 10
365.937
 20
145.6524155
 30
0.0
 11
366.667
 21
146.1864155
 31
0.0
  0
LINE
  5
9A5
330
1E
100
AcDbEntity
  8
0
100
AcDbLine
 10
365.657
 20
157.7744155
 30
0.0
 11
365.657
 21
158.353593890983
 31
0.0
  0
LINE
  5
9A6
330
1E
100
AcDbEntity
  8
0
100
AcDbLine
 10
365.657
 20
157.7744155
 30
0.0
 11
365.657
 21
158.3904155
 31
0.0
  0
LINE
  5
9A7
330
1E
100
AcDbEntity
  8
0
100
AcDbLine
 10
365.657
 20
157.7744155
 30
0.0
 11
367.117
 21
157.7744155
 31
0.0
  0
LINE
  5
9A8
330
1E
100
AcDbEntity
  8
0
100
AcDbLine
 10
363.099557724212
 20
142.793831092402
 30
0.0
 11
367.044
 21
141.9934155
 31
0.0
  0
LINE
  5
9A9
330
1E
100
AcDbEntity
  8
0
100
AcDbLine
 10
369.489
 20
141.1534155
 30
0.0
 11
370.753
 21
141.4614155
 31
0.0
  0
LINE
  5
9AA
330
1E
100
AcDbEntity
  8
0
100
AcDbLine
 10
377.799
 20
140.7664155
 30
0.0
 11
379.063
 21
141.0744155
 31
0.0
  0
LINE
  5
9AB
330
1E
100
AcDbEntity
  8
0
100
AcDbLine
 10
377.799
 20
140.7664155
 30
0.0
 11
378.529
 21
140.2314155
 31
0.0
  0
LINE
  5
9AC
330
1E
100
AcDbEntity
  8
0
100
AcDbLine
 10
368.759
 20
141.6874155
 30
0.0
 11
370.023
 21
141.9964155
 31
0.0
  0
LINE
  5
9AD
330
1E
100
AcDbEntity
  8
0
100
AcDbLine
 10
368.759
 20
141.6874155
 30
0.0
 11
369.489
 21
141.1534155
 31
0.0
  0
LINE
  5
9AE
330
1E
100
AcDbEntity
  8
0
100
AcDbLine
 10
368.759
 20
141.6874155
 30
0.0
 11
368.759
 21
142.705023932455
 31
0.0
  0
LINE
  5
9AF
330
1E
100
AcDbEntity
  8
0
100
AcDbLine
 10
370.753
 20
141.4614155
 30
0.0
 11
370.753
 21
141.523085617217
 31
0.0
  0
LINE
  5
9B0
330
1E
100
AcDbEntity
  8
0
100
AcDbLine
 10
368.759
 20
142.705023932455
 30
0.0
 11
368.759
 21
141.6874155
 31
0.0
  0
LINE
  5
9B1
330
1E
100
AcDbEntity
  8
0
100
AcDbLine
 10
366.667
 20
146.1864155
 30
0.0
 11
367.931
 21
145.8784155
 31
0.0
  0
LINE
  5
9B2
330
1E
100
AcDbEntity
  8
0
100
AcDbLine
 10
366.667
 20
146.1864155
 30
0.0
 11
366.667
 21
146.891672557456
 31
0.0
  0
LINE
  5
9B3
330
1E
100
AcDbEntity
  8
0
100
AcDbLine
 10
367.931
 20
145.8784155
 30
0.0
 11
367.931
 21
146.982620979452
 31
0.0
  0
LINE
  5
9B4
330
1E
100
AcDbEntity
  8
0
100
AcDbLine
 10
367.202
 20
145.3434155
 30
0.0
 11
367.931
 21
145.8784155
 31
0.0
  0
LINE
  5
9B5
330
1E
100
AcDbEntity
  8
0
100
AcDbLine
 10
367.931
 20
146.982620979452
 30
0.0
 11
367.931
 21
145.8784155
 31
0.0
  0
LINE
  5
9B6
330
1E
100
AcDbEntity
  8
0
100
AcDbLine
 10
366.667
 20
146.891672557456
 30
0.0
 11
366.667
 21
146.1864155
 31
0.0
  0
LINE
  5
9B7
330
1E
100
AcDbEntity
  8
0
100
AcDbLine
 10
368.82
 20
154.349277102106
 30
0.0
 11
368.82
 21
153.7594155
 31
0.0
  0
LINE
  5
9B8
330
1E
100
AcDbEntity
  8
0
100
AcDbLine
 10
367.117
 20
158.3904155
 30
0.0
 11
367.117
 21
159.295708688885
 31
0.0
  0
LINE
  5
9B9
330
1E
100
AcDbEntity
  8
0
100
AcDbLine
 10
367.117
 20
158.3904155
 30
0.0
 11
367.117
 21
157.7744155
 31
0.0
  0
LINE
  5
9BA
330
1E
100
AcDbEntity
  8
0
100
AcDbLine
 10
367.117
 20
157.7744155
 30
0.0
 11
367.117
 21
158.3904155
 31
0.0
  0
LINE
  5
9BB
330
1E
100
AcDbEntity
  8
0
100
AcDbLine
 10
367.117
 20
159.295708688885
 30
0.0
 11
367.117
 21
158.3904155
 31
0.0
  0
LINE
  5
9BC
330
1E
100
AcDbEntity
  8
0
100
AcDbLine
 10
368.82
 20
154.86919063587
 30
0.0
 11
368.82
 21
154.3764155
 31
0.0
  0
LINE
  5
9BD
330
1E
100
AcDbEntity
  8
0
100
AcDbLine
 10
368.82
 20
154.3764155
 30
0.0
 11
368.82
 21
153.7594155
 31
0.0
  0
LINE
  5
9BE
330
1E
100
AcDbEntity
  8
0
100
AcDbLine
 10
368.82
 20
154.3764155
 30
0.0
 11
368.82
 21
154.86919063587
 31
0.0
  0
LINE
  5
9BF
330
1E
100
AcDbEntity
  8
0
100
AcDbLine
 10
368.82
 20
154.3764155
 30
0.0
 11
370.28
 21
154.3764155
 31
0.0
  0
LINE
  5
9C0
330
1E
100
AcDbEntity
  8
0
100
AcDbLine
 10
368.82
 20
153.7594155
 30
0.0
 11
368.82
 21
154.349277102106
 31
0.0
  0
LINE
  5
9C1
330
1E
100
AcDbEntity
  8
0
100
AcDbLine
 10
368.82
 20
153.7594155
 30
0.0
 11
368.82
 21
154.3764155
 31
0.0
  0
LINE
  5
9C2
330
1E
100
AcDbEntity
  8
0
100
AcDbLine
 10
368.82
 20
153.7594155
 30
0.0
 11
370.28
 21
153.7594155
 31
0.0
  0
LINE
  5
9C3
330
1E
100
AcDbEntity
  8
0
100
AcDbLine
 10
370.023
 20
143.229498019116
 30
0.0
 11
370.023
 21
141.9964155
 31
0.0
  0
LINE
  5
9C4
330
1E
100
AcDbEntity
  8
0
100
AcDbLine
 10
370.28
 20
154.3764155
 30
0.0
 11
370.28
 21
155.15120603442
 31
0.0
  0
LINE
  5
9C5
330
1E
100
AcDbEntity
  8
0
100
AcDbLine
 10
370.28
 20
154.3764155
 30
0.0
 11
370.28
 21
153.7594155
 31
0.0
  0
LINE
  5
9C6
330
1E
100
AcDbEntity
  8
0
100
AcDbLine
 10
370.317
 20
148.497932576035
 30
0.0
 11
370.317
 21
148.4044155
 31
0.0
  0
LINE
  5
9C7
330
1E
100
AcDbEntity
  8
0
100
AcDbLine
 10
370.317
 20
148.4044155
 30
0.0
 11
371.581
 21
148.0954155
 31
0.0
  0
LINE
  5
9C8
330
1E
100
AcDbEntity
  8
0
100
AcDbLine
 10
370.317
 20
148.4044155
 30
0.0
 11
370.317
 21
148.497932576035
 31
0.0
  0
LINE
  5
9C9
330
1E
100
AcDbEntity
  8
0
100
AcDbLine
 10
370.317
 20
148.4044155
 30
0.0
 11
371.047
 21
148.9394155
 31
0.0
  0
LINE
  5
9CA
330
1E
100
AcDbEntity
  8
0
100
AcDbLine
 10
370.28
 20
153.7594155
 30
0.0
 11
370.28
 21
154.3764155
 31
0.0
  0
LINE
  5
9CB
330
1E
100
AcDbEntity
  8
0
100
AcDbLine
 10
370.28
 20
155.15120603442
 30
0.0
 11
370.28
 21
154.3764155
 31
0.0
  0
LINE
  5
9CC
330
1E
100
AcDbEntity
  8
0
100
AcDbLine
 10
370.023
 20
141.9964155
 30
0.0
 11
370.753
 21
141.4614155
 31
0.0
  0
LINE
  5
9CD
330
1E
100
AcDbEntity
  8
0
100
AcDbLine
 10
370.023
 20
141.9964155
 30
0.0
 11
370.023
 21
143.229498019116
 31
0.0
  0
LINE
  5
9CE
330
1E
100
AcDbEntity
  8
0
100
AcDbLine
 10
367.044
 20
141.9934155
 30
0.0
 11
368.759
 21
141.775940237403
 31
0.0
  0
LINE
  5
9CF
330
1E
100
AcDbEntity
  8
0
100
AcDbLine
 10
373.892
 20
144.834870045455
 30
0.0
 11
373.892
 21
144.5444155
 31
0.0
  0
LINE
  5
9D0
330
1E
100
AcDbEntity
  8
0
100
AcDbLine
 10
373.892
 20
144.5444155
 30
0.0
 11
375.157
 21
144.8534155
 31
0.0
  0
LINE
  5
9D1
330
1E
100
AcDbEntity
  8
0
100
AcDbLine
 10
373.892
 20
144.5444155
 30
0.0
 11
374.622
 21
144.0104155
 31
0.0
  0
LINE
  5
9D2
330
1E
100
AcDbEntity
  8
0
100
AcDbLine
 10
373.892
 20
144.5444155
 30
0.0
 11
373.892
 21
144.834870045455
 31
0.0
  0
LINE
  5
9D3
330
1E
100
AcDbEntity
  8
0
100
AcDbLine
 10
371.047
 20
148.9394155
 30
0.0
 11
372.311
 21
148.6304155
 31
0.0
  0
LINE
  5
9D4
330
1E
100
AcDbEntity
  8
0
100
AcDbLine
 10
372.311
 20
148.6304155
 30
0.0
 11
372.311
 21
149.374601662014
 31
0.0
  0
LINE
  5
9D5
330
1E
100
AcDbEntity
  8
0
100
AcDbLine
 10
371.581
 20
148.0954155
 30
0.0
 11
372.311
 21
148.6304155
 31
0.0
  0
LINE
  5
9D6
330
1E
100
AcDbEntity
  8
0
100
AcDbLine
 10
372.311
 20
149.374601662014
 30
0.0
 11
372.311
 21
148.6304155
 31
0.0
  0
LINE
  5
9D7
330
1E
100
AcDbEntity
  8
0
100
AcDbLine
 10
374.007
 20
155.9204155
 30
0.0
 11
374.399
 21
156.1414155
 31
0.0
  0
LINE
  5
9D8
330
1E
100
AcDbEntity
  8
0
100
AcDbLine
 10
373.776
 20
155.6574155
 30
0.0
 11
374.007
 21
155.9204155
 31
0.0
  0
LINE
  5
9D9
330
1E
100
AcDbEntity
  8
0
100
AcDbLine
 10
373.664
 20
155.3804155
 30
0.0
 11
373.743
 21
155.1064155
 31
0.0
  0
LINE
  5
9DA
330
1E
100
AcDbEntity
  8
0
100
AcDbLine
 10
373.664
 20
155.3804155
 30
0.0
 11
373.776
 21
155.6574155
 31
0.0
  0
LINE
  5
9DB
330
1E
100
AcDbEntity
  8
0
100
AcDbLine
 10
373.371875926283
 20
155.80298683836
 30
0.0
 11
373.743
 21
155.1064155
 31
0.0
  0
LINE
  5
9DC
330
1E
100
AcDbEntity
  8
0
100
AcDbLine
 10
373.743
 20
155.1064155
 30
0.0
 11
374.007
 21
154.8384155
 31
0.0
  0
LINE
  5
9DD
330
1E
100
AcDbEntity
  8
0
100
AcDbLine
 10
374.399
 20
156.1414155
 30
0.0
 11
374.944
 21
156.3164155
 31
0.0
  0
LINE
  5
9DE
330
1E
100
AcDbEntity
  8
0
100
AcDbLine
 10
374.423
 20
154.6084155
 30
0.0
 11
374.944
 21
154.4424155
 31
0.0
  0
LINE
  5
9DF
330
1E
100
AcDbEntity
  8
0
100
AcDbLine
 10
374.007
 20
154.8384155
 30
0.0
 11
374.423
 21
154.6084155
 31
0.0
  0
LINE
  5
9E0
330
1E
100
AcDbEntity
  8
0
100
AcDbLine
 10
374.696
 20
152.275535119295
 30
0.0
 11
374.696
 21
151.1574155
 31
0.0
  0
LINE
  5
9E1
330
1E
100
AcDbEntity
  8
0
100
AcDbLine
 10
374.944
 20
156.3164155
 30
0.0
 11
375.577
 21
156.4284155
 31
0.0
  0
LINE
  5
9E2
330
1E
100
AcDbEntity
  8
0
100
AcDbLine
 10
374.944
 20
154.4424155
 30
0.0
 11
375.568
 21
154.3454155
 31
0.0
  0
LINE
  5
9E3
330
1E
100
AcDbEntity
  8
0
100
AcDbLine
 10
374.696
 20
151.1574155
 30
0.0
 11
375.961
 21
150.8484155
 31
0.0
  0
LINE
  5
9E4
330
1E
100
AcDbEntity
  8
0
100
AcDbLine
 10
374.696
 20
151.1574155
 30
0.0
 11
374.696
 21
152.275535119295
 31
0.0
  0
LINE
  5
9E5
330
1E
100
AcDbEntity
  8
0
100
AcDbLine
 10
374.696
 20
151.1574155
 30
0.0
 11
375.426
 21
151.6914155
 31
0.0
  0
LINE
  5
9E6
330
1E
100
AcDbEntity
  8
0
100
AcDbLine
 10
375.157
 20
145.359759064146
 30
0.0
 11
375.157
 21
144.8534155
 31
0.0
  0
LINE
  5
9E7
330
1E
100
AcDbEntity
  8
0
100
AcDbLine
 10
375.426
 20
151.6914155
 30
0.0
 11
376.69
 21
151.3824155
 31
0.0
  0
LINE
  5
9E8
330
1E
100
AcDbEntity
  8
0
100
AcDbLine
 10
375.426
 20
151.6914155
 30
0.0
 11
375.426
 21
152.565556029238
 31
0.0
  0
LINE
  5
9E9
330
1E
100
AcDbEntity
  8
0
100
AcDbLine
 10
375.577
 20
156.4284155
 30
0.0
 11
376.224
 21
156.4614155
 31
0.0
  0
LINE
  5
9EA
330
1E
100
AcDbEntity
  8
0
100
AcDbLine
 10
375.568
 20
154.3454155
 30
0.0
 11
376.223
 21
154.2984155
 31
0.0
  0
LINE
  5
9EB
330
1E
100
AcDbEntity
  8
0
100
AcDbLine
 10
375.426
 20
152.565556029238
 30
0.0
 11
375.426
 21
151.6914155
 31
0.0
  0
LINE
  5
9EC
330
1E
100
AcDbEntity
  8
0
100
AcDbLine
 10
375.157
 20
144.8534155
 30
0.0
 11
375.887
 21
144.3184155
 31
0.0
  0
LINE
  5
9ED
330
1E
100
AcDbEntity
  8
0
100
AcDbLine
 10
375.157
 20
144.8534155
 30
0.0
 11
375.157
 21
145.359759064146
 31
0.0
  0
LINE
  5
9EE
330
1E
100
AcDbEntity
  8
0
100
AcDbLine
 10
375.887
 20
144.3184155
 30
0.0
 11
375.887
 21
144.946421822445
 31
0.0
  0
LINE
  5
9EF
330
1E
100
AcDbEntity
  8
0
100
AcDbLine
 10
376.69
 20
151.3824155
 30
0.0
 11
376.69
 21
151.73021717837
 31
0.0
  0
LINE
  5
9F0
330
1E
100
AcDbEntity
  8
0
100
AcDbLine
 10
375.961
 20
150.8484155
 30
0.0
 11
376.69
 21
151.3824155
 31
0.0
  0
LINE
  5
9F1
330
1E
100
AcDbEntity
  8
0
100
AcDbLine
 10
376.69
 20
151.73021717837
 30
0.0
 11
376.69
 21
151.3824155
 31
0.0
  0
LINE
  5
9F2
330
1E
100
AcDbEntity
  8
0
100
AcDbLine
 10
376.871
 20
154.3314155
 30
0.0
 11
377.504
 21
154.4424155
 31
0.0
  0
LINE
  5
9F3
330
1E
100
AcDbEntity
  8
0
100
AcDbLine
 10
376.223
 20
154.2984155
 30
0.0
 11
376.871
 21
154.3314155
 31
0.0
  0
LINE
  5
9F4
330
1E
100
AcDbEntity
  8
0
100
AcDbLine
 10
376.224
 20
156.4614155
 30
0.0
 11
376.879
 21
156.4134155
 31
0.0
  0
LINE
  5
9F5
330
1E
100
AcDbEntity
  8
0
100
AcDbLine
 10
376.879
 20
156.4134155
 30
0.0
 11
377.503
 21
156.3164155
 31
0.0
  0
LINE
  5
9F6
330
1E
100
AcDbEntity
  8
0
100
AcDbLine
 10
377.503
 20
156.3164155
 30
0.0
 11
378.024
 21
156.1514155
 31
0.0
  0
LINE
  5
9F7
330
1E
100
AcDbEntity
  8
0
100
AcDbLine
 10
378.024
 20
156.1514155
 30
0.0
 11
378.441
 21
155.9214155
 31
0.0
  0
LINE
  5
9F8
330
1E
100
AcDbEntity
  8
0
100
AcDbLine
 10
377.504
 20
154.4424155
 30
0.0
 11
378.049
 21
154.6184155
 31
0.0
  0
LINE
  5
9F9
330
1E
100
AcDbEntity
  8
0
100
AcDbLine
 10
378.049
 20
154.6184155
 30
0.0
 11
378.44
 21
154.8394155
 31
0.0
  0
LINE
  5
9FA
330
1E
100
AcDbEntity
  8
0
100
AcDbLine
 10
378.44
 20
154.8394155
 30
0.0
 11
378.672
 21
155.1024155
 31
0.0
  0
LINE
  5
9FB
330
1E
100
AcDbEntity
  8
0
100
AcDbLine
 10
378.441
 20
155.9214155
 30
0.0
 11
378.704
 21
155.6534155
 31
0.0
  0
LINE
  5
9FC
330
1E
100
AcDbEntity
  8
0
100
AcDbLine
 10
378.42
 20
147.985540117403
 30
0.0
 11
378.42
 21
147.5714155
 31
0.0
  0
LINE
  5
9FD
330
1E
100
AcDbEntity
  8
0
100
AcDbLine
 10
378.42
 20
147.5714155
 30
0.0
 11
379.684
 21
147.8794155
 31
0.0
  0
LINE
  5
9FE
330
1E
100
AcDbEntity
  8
0
100
AcDbLine
 10
378.42
 20
147.5714155
 30
0.0
 11
379.15
 21
147.0364155
 31
0.0
  0
LINE
  5
9FF
330
1E
100
AcDbEntity
  8
0
100
AcDbLine
 10
378.42
 20
147.5714155
 30
0.0
 11
378.42
 21
147.985540117403
 31
0.0
  0
LINE
  5
A00
330
1E
100
AcDbEntity
  8
0
100
AcDbLine
 10
375.887
 20
144.946421822445
 30
0.0
 11
375.887
 21
144.3184155
 31
0.0
  0
LINE
  5
A01
330
1E
100
AcDbEntity
  8
0
100
AcDbLine
 10
374.622
 20
144.0104155
 30
0.0
 11
375.887
 21
144.3184155
 31
0.0
  0
LINE
  5
A02
330
1E
100
AcDbEntity
  8
0
100
AcDbLine
 10
370.753
 20
141.523085617217
 30
0.0
 11
373.613
 21
141.1604155
 31
0.0
  0
LINE
  5
A03
330
1E
100
AcDbEntity
  8
0
100
AcDbLine
 10
370.753
 20
141.523085617217
 30
0.0
 11
370.753
 21
141.4614155
 31
0.0
  0
LINE
  5
A04
330
1E
100
AcDbEntity
  8
0
100
AcDbLine
 10
373.613
 20
141.1604155
 30
0.0
 11
377.84522446175
 21
140.732538668444
 31
0.0
  0
LINE
  5
A05
330
1E
100
AcDbEntity
  8
0
100
AcDbLine
 10
366.168
 20
141.1604155
 30
0.0
 11
372.591
 21
140.2664155
 31
0.0
  0
LINE
  5
A06
330
1E
100
AcDbEntity
  8
0
100
AcDbLine
 10
372.591
 20
140.2664155
 30
0.0
 11
378.65
 21
139.7424155
 31
0.0
  0
LINE
  5
A07
330
1E
100
AcDbEntity
  8
0
100
AcDbLine
 10
351.14
 20
162.7634155
 30
0.0
 11
351.14
 21
163.3804155
 31
0.0
  0
LINE
  5
A08
330
1E
100
AcDbEntity
  8
0
100
AcDbLine
 10
349.68
 20
162.7634155
 30
0.0
 11
349.68
 21
163.3804155
 31
0.0
  0
LINE
  5
A09
330
1E
100
AcDbEntity
  8
0
100
AcDbLine
 10
349.68
 20
162.7634155
 30
0.0
 11
349.68
 21
163.568678657895
 31
0.0
  0
LINE
  5
A0A
330
1E
100
AcDbEntity
  8
0
100
AcDbLine
 10
349.68
 20
162.7634155
 30
0.0
 11
351.14
 21
162.7634155
 31
0.0
  0
LINE
  5
A0B
330
1E
100
AcDbEntity
  8
0
100
AcDbLine
 10
340.759
 20
163.9014155
 30
0.0
 11
340.759
 21
164.977257605263
 31
0.0
  0
LINE
  5
A0C
330
1E
100
AcDbEntity
  8
0
100
AcDbLine
 10
340.759
 20
163.9014155
 30
0.0
 11
340.759
 21
163.2844155
 31
0.0
  0
LINE
  5
A0D
330
1E
100
AcDbEntity
  8
0
100
AcDbLine
 10
340.759
 20
163.9014155
 30
0.0
 11
342.218
 21
163.9014155
 31
0.0
  0
LINE
  5
A0E
330
1E
100
AcDbEntity
  8
0
100
AcDbLine
 10
351.14
 20
163.3804155
 30
0.0
 11
351.14
 21
162.7634155
 31
0.0
  0
LINE
  5
A0F
330
1E
100
AcDbEntity
  8
0
100
AcDbLine
 10
349.68
 20
163.3804155
 30
0.0
 11
349.68
 21
163.568678657895
 31
0.0
  0
LINE
  5
A10
330
1E
100
AcDbEntity
  8
0
100
AcDbLine
 10
349.68
 20
163.3804155
 30
0.0
 11
349.68
 21
162.7634155
 31
0.0
  0
LINE
  5
A11
330
1E
100
AcDbEntity
  8
0
100
AcDbLine
 10
349.68
 20
163.3804155
 30
0.0
 11
351.14
 21
163.3804155
 31
0.0
  0
LINE
  5
A12
330
1E
100
AcDbEntity
  8
0
100
AcDbLine
 10
349.68
 20
163.568678657895
 30
0.0
 11
349.68
 21
162.7634155
 31
0.0
  0
LINE
  5
A13
330
1E
100
AcDbEntity
  8
0
100
AcDbLine
 10
349.68
 20
163.568678657895
 30
0.0
 11
349.68
 21
163.3804155
 31
0.0
  0
LINE
  5
A14
330
1E
100
AcDbEntity
  8
0
100
AcDbLine
 10
342.218
 20
163.2844155
 30
0.0
 11
342.218
 21
163.9014155
 31
0.0
  0
LINE
  5
A15
330
1E
100
AcDbEntity
  8
0
100
AcDbLine
 10
342.218
 20
163.9014155
 30
0.0
 11
342.218
 21
163.2844155
 31
0.0
  0
LINE
  5
A16
330
1E
100
AcDbEntity
  8
0
100
AcDbLine
 10
342.218
 20
163.9014155
 30
0.0
 11
342.218
 21
164.746889184211
 31
0.0
  0
LINE
  5
A17
330
1E
100
AcDbEntity
  8
0
100
AcDbLine
 10
340.759
 20
163.2844155
 30
0.0
 11
340.759
 21
163.9014155
 31
0.0
  0
LINE
  5
A18
330
1E
100
AcDbEntity
  8
0
100
AcDbLine
 10
340.759
 20
163.2844155
 30
0.0
 11
342.218
 21
163.2844155
 31
0.0
  0
LINE
  5
A19
330
1E
100
AcDbEntity
  8
0
100
AcDbLine
 10
338.358
 20
162.9704155
 30
0.0
 11
339.599
 21
165.1604155
 31
0.0
  0
LINE
  5
A1A
330
1E
100
AcDbEntity
  8
0
100
AcDbLine
 10
336.241
 20
163.0324155
 30
0.0
 11
337.482
 21
165.5924155
 31
0.0
  0
LINE
  5
A1B
330
1E
100
AcDbEntity
  8
0
100
AcDbLine
 10
335.511
 20
163.9694155
 30
0.0
 11
336.825
 21
166.7144155
 31
0.0
  0
LINE
  5
A1C
330
1E
100
AcDbEntity
  8
0
100
AcDbLine
 10
370.28
 20
161.7884155
 30
0.0
 11
370.28
 21
162.4054155
 31
0.0
  0
LINE
  5
A1D
330
1E
100
AcDbEntity
  8
0
100
AcDbLine
 10
359.088
 20
162.311356954761
 30
0.0
 11
359.088
 21
162.0014155
 31
0.0
  0
LINE
  5
A1E
330
1E
100
AcDbEntity
  8
0
100
AcDbLine
 10
360.548
 20
162.0014155
 30
0.0
 11
360.548
 21
162.6184155
 31
0.0
  0
LINE
  5
A1F
330
1E
100
AcDbEntity
  8
0
100
AcDbLine
 10
359.088
 20
162.0014155
 30
0.0
 11
359.088
 21
162.6184155
 31
0.0
  0
LINE
  5
A20
330
1E
100
AcDbEntity
  8
0
100
AcDbLine
 10
359.088
 20
162.0014155
 30
0.0
 11
359.088
 21
162.311356954761
 31
0.0
  0
LINE
  5
A21
330
1E
100
AcDbEntity
  8
0
100
AcDbLine
 10
359.088
 20
162.0014155
 30
0.0
 11
360.548
 21
162.0014155
 31
0.0
  0
LINE
  5
A22
330
1E
100
AcDbEntity
  8
0
100
AcDbLine
 10
359.088
 20
163.753492992727
 30
0.0
 11
359.088
 21
162.6184155
 31
0.0
  0
LINE
  5
A23
330
1E
100
AcDbEntity
  8
0
100
AcDbLine
 10
360.548
 20
163.42859375972
 30
0.0
 11
360.548
 21
162.6184155
 31
0.0
  0
LINE
  5
A24
330
1E
100
AcDbEntity
  8
0
100
AcDbLine
 10
360.548
 20
162.6184155
 30
0.0
 11
360.548
 21
162.0014155
 31
0.0
  0
LINE
  5
A25
330
1E
100
AcDbEntity
  8
0
100
AcDbLine
 10
360.548
 20
162.6184155
 30
0.0
 11
360.548
 21
163.42859375972
 31
0.0
  0
LINE
  5
A26
330
1E
100
AcDbEntity
  8
0
100
AcDbLine
 10
359.088
 20
162.6184155
 30
0.0
 11
359.088
 21
163.753492992727
 31
0.0
  0
LINE
  5
A27
330
1E
100
AcDbEntity
  8
0
100
AcDbLine
 10
359.088
 20
162.6184155
 30
0.0
 11
359.088
 21
162.0014155
 31
0.0
  0
LINE
  5
A28
330
1E
100
AcDbEntity
  8
0
100
AcDbLine
 10
359.088
 20
162.6184155
 30
0.0
 11
360.548
 21
162.6184155
 31
0.0
  0
LINE
  5
A29
330
1E
100
AcDbEntity
  8
0
100
AcDbLine
 10
368.82
 20
163.309295906168
 30
0.0
 11
368.82
 21
162.4054155
 31
0.0
  0
LINE
  5
A2A
330
1E
100
AcDbEntity
  8
0
100
AcDbLine
 10
368.82
 20
162.4054155
 30
0.0
 11
368.82
 21
163.309295906168
 31
0.0
  0
LINE
  5
A2B
330
1E
100
AcDbEntity
  8
0
100
AcDbLine
 10
368.82
 20
162.4054155
 30
0.0
 11
368.82
 21
161.7884155
 31
0.0
  0
LINE
  5
A2C
330
1E
100
AcDbEntity
  8
0
100
AcDbLine
 10
368.82
 20
162.4054155
 30
0.0
 11
370.28
 21
162.4054155
 31
0.0
  0
LINE
  5
A2D
330
1E
100
AcDbEntity
  8
0
100
AcDbLine
 10
375.426
 20
164.4734155
 30
0.0
 11
376.69
 21
164.7824155
 31
0.0
  0
LINE
  5
A2E
330
1E
100
AcDbEntity
  8
0
100
AcDbLine
 10
370.28
 20
162.94541367332
 30
0.0
 11
370.28
 21
162.4054155
 31
0.0
  0
LINE
  5
A2F
330
1E
100
AcDbEntity
  8
0
100
AcDbLine
 10
370.28
 20
162.4054155
 30
0.0
 11
370.28
 21
161.7884155
 31
0.0
  0
LINE
  5
A30
330
1E
100
AcDbEntity
  8
0
100
AcDbLine
 10
370.28
 20
162.4054155
 30
0.0
 11
370.28
 21
162.94541367332
 31
0.0
  0
LINE
  5
A31
330
1E
100
AcDbEntity
  8
0
100
AcDbLine
 10
368.82
 20
162.723555275815
 30
0.0
 11
368.82
 21
161.7884155
 31
0.0
  0
LINE
  5
A32
330
1E
100
AcDbEntity
  8
0
100
AcDbLine
 10
368.82
 20
161.7884155
 30
0.0
 11
368.82
 21
162.4054155
 31
0.0
  0
LINE
  5
A33
330
1E
100
AcDbEntity
  8
0
100
AcDbLine
 10
368.82
 20
161.7884155
 30
0.0
 11
368.82
 21
162.723555275815
 31
0.0
  0
LINE
  5
A34
330
1E
100
AcDbEntity
  8
0
100
AcDbLine
 10
368.82
 20
161.7884155
 30
0.0
 11
370.28
 21
161.7884155
 31
0.0
  0
LINE
  5
A35
330
1E
100
AcDbEntity
  8
0
100
AcDbLine
 10
379.048
 20
122.6634155
 30
0.0
 11
381.928
 21
121.4274155
 31
0.0
  0
LINE
  5
A36
330
1E
100
AcDbEntity
  8
0
100
AcDbLine
 10
381.928
 20
121.4274155
 30
0.0
 11
385.0
 21
120.9864155
 31
0.0
  0
LINE
  5
A37
330
1E
100
AcDbEntity
  8
0
100
AcDbLine
 10
382.792
 20
124.7814155
 30
0.0
 11
385.0
 21
124.4284155
 31
0.0
  0
LINE
  5
A38
330
1E
100
AcDbEntity
  8
0
100
AcDbLine
 10
384.0
 20
135.8724155
 30
0.0
 11
384.0
 21
135.1414155
 31
0.0
  0
LINE
  5
A39
330
1E
100
AcDbEntity
  8
0
100
AcDbLine
 10
384.0
 20
135.8724155
 30
0.0
 11
384.0
 21
136.8634155
 31
0.0
  0
LINE
  5
A3A
330
1E
100
AcDbEntity
  8
0
100
AcDbLine
 10
384.0
 20
135.1414155
 30
0.0
 11
384.0
 21
134.8994155
 31
0.0
  0
LINE
  5
A3B
330
1E
100
AcDbEntity
  8
0
100
AcDbLine
 10
384.0
 20
135.1414155
 30
0.0
 11
384.0
 21
135.8724155
 31
0.0
  0
LINE
  5
A3C
330
1E
100
AcDbEntity
  8
0
100
AcDbLine
 10
384.0
 20
134.8994155
 30
0.0
 11
384.0
 21
135.2314155
 31
0.0
  0
LINE
  5
A3D
330
1E
100
AcDbEntity
  8
0
100
AcDbLine
 10
384.0
 20
134.8994155
 30
0.0
 11
384.0
 21
135.1414155
 31
0.0
  0
LINE
  5
A3E
330
1E
100
AcDbEntity
  8
0
100
AcDbLine
 10
384.0
 20
134.8994155
 30
0.0
 11
386.0
 21
134.8994155
 31
0.0
  0
LINE
  5
A3F
330
1E
100
AcDbEntity
  8
0
100
AcDbLine
 10
384.0
 20
135.2314155
 30
0.0
 11
384.0
 21
135.8834155
 31
0.0
  0
LINE
  5
A40
330
1E
100
AcDbEntity
  8
0
100
AcDbLine
 10
384.0
 20
135.2314155
 30
0.0
 11
384.0
 21
134.8994155
 31
0.0
  0
LINE
  5
A41
330
1E
100
AcDbEntity
  8
0
100
AcDbLine
 10
384.0
 20
136.8634155
 30
0.0
 11
384.0
 21
135.8724155
 31
0.0
  0
LINE
  5
A42
330
1E
100
AcDbEntity
  8
0
100
AcDbLine
 10
384.0
 20
135.8834155
 30
0.0
 11
384.0
 21
137.8094155
 31
0.0
  0
LINE
  5
A43
330
1E
100
AcDbEntity
  8
0
100
AcDbLine
 10
384.0
 20
135.8834155
 30
0.0
 11
384.0
 21
135.2314155
 31
0.0
  0
LINE
  5
A44
330
1E
100
AcDbEntity
  8
0
100
AcDbLine
 10
384.0
 20
137.8094155
 30
0.0
 11
384.0
 21
143.686231955696
 31
0.0
  0
LINE
  5
A45
330
1E
100
AcDbEntity
  8
0
100
AcDbLine
 10
384.0
 20
137.8094155
 30
0.0
 11
384.0
 21
135.8834155
 31
0.0
  0
LINE
  5
A46
330
1E
100
AcDbEntity
  8
0
100
AcDbLine
 10
380.68
 20
125.5754155
 30
0.0
 11
382.792
 21
124.7814155
 31
0.0
  0
LINE
  5
A47
330
1E
100
AcDbEntity
  8
0
100
AcDbLine
 10
378.856
 20
126.9874155
 30
0.0
 11
380.68
 21
125.5754155
 31
0.0
  0
LINE
  5
A48
330
1E
100
AcDbEntity
  8
0
100
AcDbLine
 10
385.0
 20
120.9864155
 30
0.0
 11
388.072
 21
121.4274155
 31
0.0
  0
LINE
  5
A49
330
1E
100
AcDbEntity
  8
0
100
AcDbLine
 10
385.0
 20
124.4284155
 30
0.0
 11
387.208
 21
124.7814155
 31
0.0
  0
LINE
  5
A4A
330
1E
100
AcDbEntity
  8
0
100
AcDbLine
 10
379.063
 20
141.329461361887
 30
0.0
 11
379.063
 21
141.0744155
 31
0.0
  0
LINE
  5
A4B
330
1E
100
AcDbEntity
  8
0
100
AcDbLine
 10
379.063
 20
141.0744155
 30
0.0
 11
379.793
 21
140.5404155
 31
0.0
  0
LINE
  5
A4C
330
1E
100
AcDbEntity
  8
0
100
AcDbLine
 10
379.063
 20
141.0744155
 30
0.0
 11
379.063
 21
141.329461361887
 31
0.0
  0
LINE
  5
A4D
330
1E
100
AcDbEntity
  8
0
100
AcDbLine
 10
379.793
 20
140.5404155
 30
0.0
 11
379.793
 21
141.402967724371
 31
0.0
  0
LINE
  5
A4E
330
1E
100
AcDbEntity
  8
0
100
AcDbLine
 10
378.672
 20
155.1024155
 30
0.0
 11
379.199147227839
 21
156.084303832086
 31
0.0
  0
LINE
  5
A4F
330
1E
100
AcDbEntity
  8
0
100
AcDbLine
 10
378.672
 20
155.1024155
 30
0.0
 11
378.783
 21
155.3794155
 31
0.0
  0
LINE
  5
A50
330
1E
100
AcDbEntity
  8
0
100
AcDbLine
 10
378.704
 20
155.6534155
 30
0.0
 11
378.783
 21
155.3794155
 31
0.0
  0
LINE
  5
A51
330
1E
100
AcDbEntity
  8
0
100
AcDbLine
 10
379.0
 20
158.5364155
 30
0.0
 11
379.0
 21
157.9774155
 31
0.0
  0
LINE
  5
A52
330
1E
100
AcDbEntity
  8
0
100
AcDbLine
 10
379.0
 20
157.9774155
 30
0.0
 11
379.216
 21
158.6264155
 31
0.0
  0
LINE
  5
A53
330
1E
100
AcDbEntity
  8
0
100
AcDbLine
 10
379.0
 20
157.9774155
 30
0.0
 11
379.216
 21
157.3274155
 31
0.0
  0
LINE
  5
A54
330
1E
100
AcDbEntity
  8
0
100
AcDbLine
 10
379.0
 20
157.9774155
 30
0.0
 11
379.0
 21
158.5364155
 31
0.0
  0
LINE
  5
A55
330
1E
100
AcDbEntity
  8
0
100
AcDbLine
 10
379.216
 20
157.3274155
 30
0.0
 11
379.792
 21
156.7194155
 31
0.0
  0
LINE
  5
A56
330
1E
100
AcDbEntity
  8
0
100
AcDbLine
 10
379.792
 20
156.7194155
 30
0.0
 11
380.752
 21
156.1814155
 31
0.0
  0
LINE
  5
A57
330
1E
100
AcDbEntity
  8
0
100
AcDbLine
 10
379.792
 20
159.2344155
 30
0.0
 11
380.752
 21
159.7724155
 31
0.0
  0
LINE
  5
A58
330
1E
100
AcDbEntity
  8
0
100
AcDbLine
 10
379.216
 20
158.6264155
 30
0.0
 11
379.792
 21
159.2344155
 31
0.0
  0
LINE
  5
A59
330
1E
100
AcDbEntity
  8
0
100
AcDbLine
 10
379.684
 20
147.8794155
 30
0.0
 11
380.414
 21
147.3444155
 31
0.0
  0
LINE
  5
A5A
330
1E
100
AcDbEntity
  8
0
100
AcDbLine
 10
379.15
 20
147.0364155
 30
0.0
 11
380.414
 21
147.3444155
 31
0.0
  0
LINE
  5
A5B
330
1E
100
AcDbEntity
  8
0
100
AcDbLine
 10
379.793
 20
141.402967724371
 30
0.0
 11
379.793
 21
140.5404155
 31
0.0
  0
LINE
  5
A5C
330
1E
100
AcDbEntity
  8
0
100
AcDbLine
 10
384.0
 20
140.339761956693
 30
0.0
 11
384.0
 21
136.8634155
 31
0.0
  0
LINE
  5
A5D
330
1E
100
AcDbEntity
  8
0
100
AcDbLine
 10
384.0
 20
143.686231955696
 30
0.0
 11
384.0
 21
137.8094155
 31
0.0
  0
LINE
  5
A5E
330
1E
100
AcDbEntity
  8
0
100
AcDbLine
 10
382.334
 20
143.9914155
 30
0.0
 11
383.599
 21
144.3004155
 31
0.0
  0
LINE
  5
A5F
330
1E
100
AcDbEntity
  8
0
100
AcDbLine
 10
382.334
 20
143.9914155
 30
0.0
 11
383.064
 21
143.4574155
 31
0.0
  0
LINE
  5
A60
330
1E
100
AcDbEntity
  8
0
100
AcDbLine
 10
380.752
 20
156.1814155
 30
0.0
 11
382.024
 21
155.7764155
 31
0.0
  0
LINE
  5
A61
330
1E
100
AcDbEntity
  8
0
100
AcDbLine
 10
383.464
 20
155.5324155
 30
0.0
 11
385.0
 21
155.4414155
 31
0.0
  0
LINE
  5
A62
330
1E
100
AcDbEntity
  8
0
100
AcDbLine
 10
382.024
 20
155.7764155
 30
0.0
 11
383.464
 21
155.5324155
 31
0.0
  0
LINE
  5
A63
330
1E
100
AcDbEntity
  8
0
100
AcDbLine
 10
382.523
 20
162.0944155
 30
0.0
 11
382.779
 21
162.3484155
 31
0.0
  0
LINE
  5
A64
330
1E
100
AcDbEntity
  8
0
100
AcDbLine
 10
382.779
 20
162.3484155
 30
0.0
 11
383.203
 21
162.5644155
 31
0.0
  0
LINE
  5
A65
330
1E
100
AcDbEntity
  8
0
100
AcDbLine
 10
382.435
 20
161.8074155
 30
0.0
 11
382.523
 21
161.5204155
 31
0.0
  0
LINE
  5
A66
330
1E
100
AcDbEntity
  8
0
100
AcDbLine
 10
382.435
 20
161.8074155
 30
0.0
 11
382.523
 21
162.0944155
 31
0.0
  0
LINE
  5
A67
330
1E
100
AcDbEntity
  8
0
100
AcDbLine
 10
382.523
 20
161.5204155
 30
0.0
 11
382.779
 21
161.2664155
 31
0.0
  0
LINE
  5
A68
330
1E
100
AcDbEntity
  8
0
100
AcDbLine
 10
383.203
 20
162.5644155
 30
0.0
 11
383.715
 21
162.7434155
 31
0.0
  0
LINE
  5
A69
330
1E
100
AcDbEntity
  8
0
100
AcDbLine
 10
382.779
 20
161.2664155
 30
0.0
 11
383.203
 21
161.0504155
 31
0.0
  0
LINE
  5
A6A
330
1E
100
AcDbEntity
  8
0
100
AcDbLine
 10
383.203
 20
161.0504155
 30
0.0
 11
383.715
 21
160.8704155
 31
0.0
  0
LINE
  5
A6B
330
1E
100
AcDbEntity
  8
0
100
AcDbLine
 10
383.464
 20
160.4214155
 30
0.0
 11
385.0
 21
160.5124155
 31
0.0
  0
LINE
  5
A6C
330
1E
100
AcDbEntity
  8
0
100
AcDbLine
 10
382.024
 20
160.1784155
 30
0.0
 11
383.464
 21
160.4214155
 31
0.0
  0
LINE
  5
A6D
330
1E
100
AcDbEntity
  8
0
100
AcDbLine
 10
380.752
 20
159.7724155
 30
0.0
 11
382.024
 21
160.1784155
 31
0.0
  0
LINE
  5
A6E
330
1E
100
AcDbEntity
  8
0
100
AcDbLine
 10
383.502
 20
150.5344155
 30
0.0
 11
384.766
 21
150.8424155
 31
0.0
  0
LINE
  5
A6F
330
1E
100
AcDbEntity
  8
0
100
AcDbLine
 10
383.502
 20
150.5344155
 30
0.0
 11
384.232
 21
149.9994155
 31
0.0
  0
LINE
  5
A70
330
1E
100
AcDbEntity
  8
0
100
AcDbLine
 10
383.715
 20
162.7434155
 30
0.0
 11
384.315
 21
162.8524155
 31
0.0
  0
LINE
  5
A71
330
1E
100
AcDbEntity
  8
0
100
AcDbLine
 10
384.315
 20
162.8524155
 30
0.0
 11
384.995
 21
162.8894155
 31
0.0
  0
LINE
  5
A72
330
1E
100
AcDbEntity
  8
0
100
AcDbLine
 10
383.715
 20
160.8704155
 30
0.0
 11
384.315
 21
160.7624155
 31
0.0
  0
LINE
  5
A73
330
1E
100
AcDbEntity
  8
0
100
AcDbLine
 10
384.315
 20
160.7624155
 30
0.0
 11
384.995
 21
160.7254155
 31
0.0
  0
LINE
  5
A74
330
1E
100
AcDbEntity
  8
0
100
AcDbLine
 10
384.232
 20
149.9994155
 30
0.0
 11
385.496
 21
150.3074155
 31
0.0
  0
LINE
  5
A75
330
1E
100
AcDbEntity
  8
0
100
AcDbLine
 10
383.599
 20
144.3004155
 30
0.0
 11
384.328
 21
143.7664155
 31
0.0
  0
LINE
  5
A76
330
1E
100
AcDbEntity
  8
0
100
AcDbLine
 10
384.328
 20
143.7664155
 30
0.0
 11
384.328
 21
144.88974238588
 31
0.0
  0
LINE
  5
A77
330
1E
100
AcDbEntity
  8
0
100
AcDbLine
 10
384.995
 20
160.7254155
 30
0.0
 11
385.675
 21
160.7624155
 31
0.0
  0
LINE
  5
A78
330
1E
100
AcDbEntity
  8
0
100
AcDbLine
 10
384.995
 20
162.8894155
 30
0.0
 11
385.675
 21
162.8524155
 31
0.0
  0
LINE
  5
A79
330
1E
100
AcDbEntity
  8
0
100
AcDbLine
 10
385.0
 20
155.4414155
 30
0.0
 11
386.536
 21
155.5324155
 31
0.0
  0
LINE
  5
A7A
330
1E
100
AcDbEntity
  8
0
100
AcDbLine
 10
385.0
 20
160.5124155
 30
0.0
 11
386.536
 21
160.4214155
 31
0.0
  0
LINE
  5
A7B
330
1E
100
AcDbEntity
  8
0
100
AcDbLine
 10
384.766
 20
150.8424155
 30
0.0
 11
385.496
 21
150.3074155
 31
0.0
  0
LINE
  5
A7C
330
1E
100
AcDbEntity
  8
0
100
AcDbLine
 10
384.328
 20
144.88974238588
 30
0.0
 11
384.328
 21
143.7664155
 31
0.0
  0
LINE
  5
A7D
330
1E
100
AcDbEntity
  8
0
100
AcDbLine
 10
383.064
 20
143.4574155
 30
0.0
 11
384.328
 21
143.7664155
 31
0.0
  0
LINE
  5
A7E
330
1E
100
AcDbEntity
  8
0
100
AcDbLine
 10
379.793
 20
140.606685487105
 30
0.0
 11
384.0
 21
140.481234971309
 31
0.0
  0
LINE
  5
A7F
330
1E
100
AcDbEntity
  8
0
100
AcDbLine
 10
378.65
 20
139.7424155
 30
0.0
 11
384.0
 21
139.560431248032
 31
0.0
  0
LINE
  5
A80
330
1E
100
AcDbEntity
  8
0
100
AcDbLine
 10
340.759
 20
164.977257605263
 30
0.0
 11
340.759
 21
163.9014155
 31
0.0
  0
LINE
  5
A81
330
1E
100
AcDbEntity
  8
0
100
AcDbLine
 10
376.69
 20
164.7824155
 30
0.0
 11
376.69
 21
165.871410790289
 31
0.0
  0
LINE
  5
A82
330
1E
100
AcDbEntity
  8
0
100
AcDbLine
 10
374.696
 20
165.0084155
 30
0.0
 11
375.961
 21
165.3164155
 31
0.0
  0
LINE
  5
A83
330
1E
100
AcDbEntity
  8
0
100
AcDbLine
 10
374.696
 20
165.0084155
 30
0.0
 11
375.426
 21
164.4734155
 31
0.0
  0
LINE
  5
A84
330
1E
100
AcDbEntity
  8
0
100
AcDbLine
 10
374.696
 20
165.0084155
 30
0.0
 11
374.696
 21
165.312175396171
 31
0.0
  0
LINE
  5
A85
330
1E
100
AcDbEntity
  8
0
100
AcDbLine
 10
342.218
 20
164.746889184211
 30
0.0
 11
342.218
 21
163.9014155
 31
0.0
  0
LINE
  5
A86
330
1E
100
AcDbEntity
  8
0
100
AcDbLine
 10
364.36
 20
166.4264155
 30
0.0
 11
364.36
 21
165.8094155
 31
0.0
  0
LINE
  5
A87
330
1E
100
AcDbEntity
  8
0
100
AcDbLine
 10
364.36
 20
166.4264155
 30
0.0
 11
365.82
 21
166.4264155
 31
0.0
  0
LINE
  5
A88
330
1E
100
AcDbEntity
  8
0
100
AcDbLine
 10
364.36
 20
166.146047858063
 30
0.0
 11
364.36
 21
165.8094155
 31
0.0
  0
LINE
  5
A89
330
1E
100
AcDbEntity
  8
0
100
AcDbLine
 10
375.961
 20
166.376741754496
 30
0.0
 11
375.961
 21
165.3164155
 31
0.0
  0
LINE
  5
A8A
330
1E
100
AcDbEntity
  8
0
100
AcDbLine
 10
383.502
 20
165.6304155
 30
0.0
 11
384.766
 21
165.3224155
 31
0.0
  0
LINE
  5
A8B
330
1E
100
AcDbEntity
  8
0
100
AcDbLine
 10
383.502
 20
165.6304155
 30
0.0
 11
384.232
 21
166.1664155
 31
0.0
  0
LINE
  5
A8C
330
1E
100
AcDbEntity
  8
0
100
AcDbLine
 10
384.766
 20
165.3224155
 30
0.0
 11
385.496
 21
165.8574155
 31
0.0
  0
LINE
  5
A8D
330
1E
100
AcDbEntity
  8
0
100
AcDbLine
 10
384.232
 20
166.1664155
 30
0.0
 11
385.496
 21
165.8574155
 31
0.0
  0
LINE
  5
A8E
330
1E
100
AcDbEntity
  8
0
100
AcDbLine
 10
376.69
 20
165.871410790289
 30
0.0
 11
376.69
 21
164.7824155
 31
0.0
  0
LINE
  5
A8F
330
1E
100
AcDbEntity
  8
0
100
AcDbLine
 10
375.961
 20
165.3164155
 30
0.0
 11
375.961
 21
166.376741754496
 31
0.0
  0
LINE
  5
A90
330
1E
100
AcDbEntity
  8
0
100
AcDbLine
 10
375.961
 20
165.3164155
 30
0.0
 11
376.69
 21
164.7824155
 31
0.0
  0
LINE
  5
A91
330
1E
100
AcDbEntity
  8
0
100
AcDbLine
 10
374.696
 20
165.312175396171
 30
0.0
 11
374.696
 21
165.0084155
 31
0.0
  0
LINE
  5
A92
330
1E
100
AcDbEntity
  8
0
100
AcDbLine
 10
365.82
 20
165.8094155
 30
0.0
 11
365.82
 21
166.4264155
 31
0.0
  0
LINE
  5
A93
330
1E
100
AcDbEntity
  8
0
100
AcDbLine
 10
365.82
 20
166.4264155
 30
0.0
 11
365.82
 21
165.8094155
 31
0.0
  0
LINE
  5
A94
330
1E
100
AcDbEntity
  8
0
100
AcDbLine
 10
365.82
 20
166.4264155
 30
0.0
 11
365.82
 21
167.279812996523
 31
0.0
  0
LINE
  5
A95
330
1E
100
AcDbEntity
  8
0
100
AcDbLine
 10
364.36
 20
165.8094155
 30
0.0
 11
364.36
 21
166.4264155
 31
0.0
  0
LINE
  5
A96
330
1E
100
AcDbEntity
  8
0
100
AcDbLine
 10
364.36
 20
165.8094155
 30
0.0
 11
364.36
 21
166.146047858063
 31
0.0
  0
LINE
  5
A97
330
1E
100
AcDbEntity
  8
0
100
AcDbLine
 10
364.36
 20
165.8094155
 30
0.0
 11
365.82
 21
165.8094155
 31
0.0
  0
LINE
  5
A98
330
1E
100
AcDbEntity
  8
0
100
AcDbLine
 10
339.599
 20
165.1604155
 30
0.0
 11
341.569
 21
167.9374155
 31
0.0
  0
LINE
  5
A99
330
1E
100
AcDbEntity
  8
0
100
AcDbLine
 10
337.482
 20
165.5924155
 30
0.0
 11
339.599
 21
168.3074155
 31
0.0
  0
LINE
  5
A9A
330
1E
100
AcDbEntity
  8
0
100
AcDbLine
 10
344.084
 20
167.9854155
 30
0.0
 11
344.084
 21
167.3684155
 31
0.0
  0
LINE
  5
A9B
330
1E
100
AcDbEntity
  8
0
100
AcDbLine
 10
344.084
 20
167.9854155
 30
0.0
 11
345.544
 21
167.9854155
 31
0.0
  0
LINE
  5
A9C
330
1E
100
AcDbEntity
  8
0
100
AcDbLine
 10
344.084
 20
167.681492994547
 30
0.0
 11
344.084
 21
167.3684155
 31
0.0
  0
LINE
  5
A9D
330
1E
100
AcDbEntity
  8
0
100
AcDbLine
 10
355.601
 20
166.8454155
 30
0.0
 11
355.601
 21
167.4624155
 31
0.0
  0
LINE
  5
A9E
330
1E
100
AcDbEntity
  8
0
100
AcDbLine
 10
354.141
 20
167.4624155
 30
0.0
 11
354.141
 21
168.701243532493
 31
0.0
  0
LINE
  5
A9F
330
1E
100
AcDbEntity
  8
0
100
AcDbLine
 10
354.141
 20
167.4624155
 30
0.0
 11
354.141
 21
166.8454155
 31
0.0
  0
LINE
  5
AA0
330
1E
100
AcDbEntity
  8
0
100
AcDbLine
 10
354.141
 20
167.4624155
 30
0.0
 11
355.601
 21
167.4624155
 31
0.0
  0
LINE
  5
AA1
330
1E
100
AcDbEntity
  8
0
100
AcDbLine
 10
365.82
 20
167.279812996523
 30
0.0
 11
365.82
 21
166.4264155
 31
0.0
  0
LINE
  5
AA2
330
1E
100
AcDbEntity
  8
0
100
AcDbLine
 10
355.601
 20
167.4624155
 30
0.0
 11
355.601
 21
166.8454155
 31
0.0
  0
LINE
  5
AA3
330
1E
100
AcDbEntity
  8
0
100
AcDbLine
 10
355.601
 20
167.4624155
 30
0.0
 11
355.601
 21
168.473790689316
 31
0.0
  0
LINE
  5
AA4
330
1E
100
AcDbEntity
  8
0
100
AcDbLine
 10
354.141
 20
167.108032238625
 30
0.0
 11
354.141
 21
166.8454155
 31
0.0
  0
LINE
  5
AA5
330
1E
100
AcDbEntity
  8
0
100
AcDbLine
 10
354.141
 20
166.8454155
 30
0.0
 11
354.141
 21
167.4624155
 31
0.0
  0
LINE
  5
AA6
330
1E
100
AcDbEntity
  8
0
100
AcDbLine
 10
354.141
 20
166.8454155
 30
0.0
 11
354.141
 21
167.108032238625
 31
0.0
  0
LINE
  5
AA7
330
1E
100
AcDbEntity
  8
0
100
AcDbLine
 10
354.141
 20
166.8454155
 30
0.0
 11
355.601
 21
166.8454155
 31
0.0
  0
LINE
  5
AA8
330
1E
100
AcDbEntity
  8
0
100
AcDbLine
 10
345.544
 20
167.3684155
 30
0.0
 11
345.544
 21
167.9854155
 31
0.0
  0
LINE
  5
AA9
330
1E
100
AcDbEntity
  8
0
100
AcDbLine
 10
354.141
 20
168.701243532493
 30
0.0
 11
354.141
 21
167.4624155
 31
0.0
  0
LINE
  5
AAA
330
1E
100
AcDbEntity
  8
0
100
AcDbLine
 10
355.601
 20
168.473790689316
 30
0.0
 11
355.601
 21
167.4624155
 31
0.0
  0
LINE
  5
AAB
330
1E
100
AcDbEntity
  8
0
100
AcDbLine
 10
372.311
 20
168.4414155
 30
0.0
 11
372.311
 21
168.906862494348
 31
0.0
  0
LINE
  5
AAC
330
1E
100
AcDbEntity
  8
0
100
AcDbLine
 10
371.047
 20
168.1334155
 30
0.0
 11
372.311
 21
168.4414155
 31
0.0
  0
LINE
  5
AAD
330
1E
100
AcDbEntity
  8
0
100
AcDbLine
 10
371.581
 20
169.412886642319
 30
0.0
 11
371.581
 21
168.9754155
 31
0.0
  0
LINE
  5
AAE
330
1E
100
AcDbEntity
  8
0
100
AcDbLine
 10
378.42
 20
169.5014155
 30
0.0
 11
379.684
 21
169.1934155
 31
0.0
  0
LINE
  5
AAF
330
1E
100
AcDbEntity
  8
0
100
AcDbLine
 10
378.42
 20
169.5014155
 30
0.0
 11
379.15
 21
170.0354155
 31
0.0
  0
LINE
  5
AB0
330
1E
100
AcDbEntity
  8
0
100
AcDbLine
 10
378.42
 20
169.5014155
 30
0.0
 11
378.42
 21
170.380652054438
 31
0.0
  0
LINE
  5
AB1
330
1E
100
AcDbEntity
  8
0
100
AcDbLine
 10
379.684
 20
169.1934155
 30
0.0
 11
380.414
 21
169.7274155
 31
0.0
  0
LINE
  5
AB2
330
1E
100
AcDbEntity
  8
0
100
AcDbLine
 10
372.311
 20
168.906862494348
 30
0.0
 11
372.311
 21
168.4414155
 31
0.0
  0
LINE
  5
AB3
330
1E
100
AcDbEntity
  8
0
100
AcDbLine
 10
371.581
 20
168.9754155
 30
0.0
 11
371.581
 21
169.412886642319
 31
0.0
  0
LINE
  5
AB4
330
1E
100
AcDbEntity
  8
0
100
AcDbLine
 10
371.581
 20
168.9754155
 30
0.0
 11
372.311
 21
168.4414155
 31
0.0
  0
LINE
  5
AB5
330
1E
100
AcDbEntity
  8
0
100
AcDbLine
 10
370.317
 20
168.6674155
 30
0.0
 11
371.581
 21
168.9754155
 31
0.0
  0
LINE
  5
AB6
330
1E
100
AcDbEntity
  8
0
100
AcDbLine
 10
370.317
 20
168.6674155
 30
0.0
 11
371.047
 21
168.1334155
 31
0.0
  0
LINE
  5
AB7
330
1E
100
AcDbEntity
  8
0
100
AcDbLine
 10
370.317
 20
168.6674155
 30
0.0
 11
370.317
 21
170.051294450974
 31
0.0
  0
LINE
  5
AB8
330
1E
100
AcDbEntity
  8
0
100
AcDbLine
 10
379.15
 20
170.0354155
 30
0.0
 11
380.414
 21
169.7274155
 31
0.0
  0
LINE
  5
AB9
330
1E
100
AcDbEntity
  8
0
100
AcDbLine
 10
370.317
 20
170.051294450974
 30
0.0
 11
370.317
 21
168.6674155
 31
0.0
  0
LINE
  5
ABA
330
1E
100
AcDbEntity
  8
0
100
AcDbLine
 10
360.955
 20
169.6594155
 30
0.0
 11
360.955
 21
170.2764155
 31
0.0
  0
LINE
  5
ABB
330
1E
100
AcDbEntity
  8
0
100
AcDbLine
 10
359.495
 20
169.6594155
 30
0.0
 11
359.495
 21
170.2764155
 31
0.0
  0
LINE
  5
ABC
330
1E
100
AcDbEntity
  8
0
100
AcDbLine
 10
359.495
 20
169.6594155
 30
0.0
 11
359.495
 21
170.412903998109
 31
0.0
  0
LINE
  5
ABD
330
1E
100
AcDbEntity
  8
0
100
AcDbLine
 10
359.495
 20
169.6594155
 30
0.0
 11
360.955
 21
169.6594155
 31
0.0
  0
LINE
  5
ABE
330
1E
100
AcDbEntity
  8
0
100
AcDbLine
 10
345.544
 20
167.9854155
 30
0.0
 11
345.544
 21
167.3684155
 31
0.0
  0
LINE
  5
ABF
330
1E
100
AcDbEntity
  8
0
100
AcDbLine
 10
344.084
 20
167.3684155
 30
0.0
 11
344.084
 21
167.9854155
 31
0.0
  0
LINE
  5
AC0
330
1E
100
AcDbEntity
  8
0
100
AcDbLine
 10
344.084
 20
167.3684155
 30
0.0
 11
344.084
 21
167.681492994547
 31
0.0
  0
LINE
  5
AC1
330
1E
100
AcDbEntity
  8
0
100
AcDbLine
 10
344.084
 20
167.3684155
 30
0.0
 11
345.544
 21
167.3684155
 31
0.0
  0
LINE
  5
AC2
330
1E
100
AcDbEntity
  8
0
100
AcDbLine
 10
359.495
 20
170.2764155
 30
0.0
 11
359.495
 21
170.412903998109
 31
0.0
  0
LINE
  5
AC3
330
1E
100
AcDbEntity
  8
0
100
AcDbLine
 10
359.495
 20
170.2764155
 30
0.0
 11
359.495
 21
169.6594155
 31
0.0
  0
LINE
  5
AC4
330
1E
100
AcDbEntity
  8
0
100
AcDbLine
 10
359.495
 20
170.2764155
 30
0.0
 11
360.955
 21
170.2764155
 31
0.0
  0
LINE
  5
AC5
330
1E
100
AcDbEntity
  8
0
100
AcDbLine
 10
378.42
 20
170.380652054438
 30
0.0
 11
378.42
 21
169.5014155
 31
0.0
  0
LINE
  5
AC6
330
1E
100
AcDbEntity
  8
0
100
AcDbLine
 10
360.955
 20
170.2764155
 30
0.0
 11
360.955
 21
169.6594155
 31
0.0
  0
LINE
  5
AC7
330
1E
100
AcDbEntity
  8
0
100
AcDbLine
 10
359.495
 20
170.412903998109
 30
0.0
 11
359.495
 21
169.6594155
 31
0.0
  0
LINE
  5
AC8
330
1E
100
AcDbEntity
  8
0
100
AcDbLine
 10
359.495
 20
170.412903998109
 30
0.0
 11
359.495
 21
170.2764155
 31
0.0
  0
LINE
  5
AC9
330
1E
100
AcDbEntity
  8
0
100
AcDbLine
 10
344.197
 20
170.2504155
 30
0.0
 11
347.701
 21
172.4404155
 31
0.0
  0
LINE
  5
ACA
330
1E
100
AcDbEntity
  8
0
100
AcDbLine
 10
341.569
 20
167.9374155
 30
0.0
 11
344.197
 21
170.2504155
 31
0.0
  0
LINE
  5
ACB
330
1E
100
AcDbEntity
  8
0
100
AcDbLine
 10
348.87
 20
171.4164155
 30
0.0
 11
348.87
 21
172.179438863138
 31
0.0
  0
LINE
  5
ACC
330
1E
100
AcDbEntity
  8
0
100
AcDbLine
 10
348.87
 20
171.4164155
 30
0.0
 11
348.87
 21
170.7994155
 31
0.0
  0
LINE
  5
ACD
330
1E
100
AcDbEntity
  8
0
100
AcDbLine
 10
348.87
 20
171.4164155
 30
0.0
 11
350.33
 21
171.4164155
 31
0.0
  0
LINE
  5
ACE
330
1E
100
AcDbEntity
  8
0
100
AcDbLine
 10
350.33
 20
170.7994155
 30
0.0
 11
350.33
 21
171.4164155
 31
0.0
  0
LINE
  5
ACF
330
1E
100
AcDbEntity
  8
0
100
AcDbLine
 10
350.33
 20
171.4164155
 30
0.0
 11
350.33
 21
170.7994155
 31
0.0
  0
LINE
  5
AD0
330
1E
100
AcDbEntity
  8
0
100
AcDbLine
 10
350.33
 20
171.4164155
 30
0.0
 11
350.33
 21
171.853497126767
 31
0.0
  0
LINE
  5
AD1
330
1E
100
AcDbEntity
  8
0
100
AcDbLine
 10
348.87
 20
170.7994155
 30
0.0
 11
348.87
 21
171.4164155
 31
0.0
  0
LINE
  5
AD2
330
1E
100
AcDbEntity
  8
0
100
AcDbLine
 10
348.87
 20
170.7994155
 30
0.0
 11
348.87
 21
171.968127621212
 31
0.0
  0
LINE
  5
AD3
330
1E
100
AcDbEntity
  8
0
100
AcDbLine
 10
348.87
 20
170.7994155
 30
0.0
 11
350.33
 21
170.7994155
 31
0.0
  0
LINE
  5
AD4
330
1E
100
AcDbEntity
  8
0
100
AcDbLine
 10
342.299
 20
170.7134155
 30
0.0
 11
345.949
 21
172.9964155
 31
0.0
  0
LINE
  5
AD5
330
1E
100
AcDbEntity
  8
0
100
AcDbLine
 10
339.599
 20
168.3074155
 30
0.0
 11
342.299
 21
170.7134155
 31
0.0
  0
LINE
  5
AD6
330
1E
100
AcDbEntity
  8
0
100
AcDbLine
 10
366.667
 20
171.7914155
 30
0.0
 11
367.931
 21
172.0994155
 31
0.0
  0
LINE
  5
AD7
330
1E
100
AcDbEntity
  8
0
100
AcDbLine
 10
350.33
 20
171.853497126767
 30
0.0
 11
350.33
 21
171.4164155
 31
0.0
  0
LINE
  5
AD8
330
1E
100
AcDbEntity
  8
0
100
AcDbLine
 10
365.937
 20
172.531354888907
 30
0.0
 11
365.937
 21
172.3264155
 31
0.0
  0
LINE
  5
AD9
330
1E
100
AcDbEntity
  8
0
100
AcDbLine
 10
367.202
 20
172.6334155
 30
0.0
 11
367.931
 21
172.0994155
 31
0.0
  0
LINE
  5
ADA
330
1E
100
AcDbEntity
  8
0
100
AcDbLine
 10
365.937
 20
172.3264155
 30
0.0
 11
367.202
 21
172.6334155
 31
0.0
  0
LINE
  5
ADB
330
1E
100
AcDbEntity
  8
0
100
AcDbLine
 10
365.937
 20
172.3264155
 30
0.0
 11
366.667
 21
171.7914155
 31
0.0
  0
LINE
  5
ADC
330
1E
100
AcDbEntity
  8
0
100
AcDbLine
 10
365.937
 20
172.3264155
 30
0.0
 11
365.937
 21
172.531354888907
 31
0.0
  0
LINE
  5
ADD
330
1E
100
AcDbEntity
  8
0
100
AcDbLine
 10
348.87
 20
172.179438863138
 30
0.0
 11
348.87
 21
171.4164155
 31
0.0
  0
LINE
  5
ADE
330
1E
100
AcDbEntity
  8
0
100
AcDbLine
 10
348.87
 20
171.968127621212
 30
0.0
 11
348.87
 21
170.7994155
 31
0.0
  0
LINE
  5
ADF
330
1E
100
AcDbEntity
  8
0
100
AcDbLine
 10
347.701
 20
172.4404155
 30
0.0
 11
351.788
 21
174.3834155
 31
0.0
  0
LINE
  5
AE0
330
1E
100
AcDbEntity
  8
0
100
AcDbLine
 10
351.788
 20
174.3834155
 30
0.0
 11
356.387
 21
176.1114155
 31
0.0
  0
LINE
  5
AE1
330
1E
100
AcDbEntity
  8
0
100
AcDbLine
 10
350.182
 20
175.0624155
 30
0.0
 11
355.073
 21
176.8524155
 31
0.0
  0
LINE
  5
AE2
330
1E
100
AcDbEntity
  8
0
100
AcDbLine
 10
349.672
 20
176.1854155
 30
0.0
 11
354.635
 21
178.0054155
 31
0.0
  0
LINE
  5
AE3
330
1E
100
AcDbEntity
  8
0
100
AcDbLine
 10
355.278
 20
175.694726654599
 30
0.0
 11
355.278
 21
174.2634155
 31
0.0
  0
LINE
  5
AE4
330
1E
100
AcDbEntity
  8
0
100
AcDbLine
 10
355.278
 20
174.2634155
 30
0.0
 11
355.278
 21
175.694726654599
 31
0.0
  0
LINE
  5
AE5
330
1E
100
AcDbEntity
  8
0
100
AcDbLine
 10
355.278
 20
174.2634155
 30
0.0
 11
355.278
 21
173.6464155
 31
0.0
  0
LINE
  5
AE6
330
1E
100
AcDbEntity
  8
0
100
AcDbLine
 10
355.278
 20
174.2634155
 30
0.0
 11
356.738
 21
174.2634155
 31
0.0
  0
LINE
  5
AE7
330
1E
100
AcDbEntity
  8
0
100
AcDbLine
 10
355.278
 20
173.6464155
 30
0.0
 11
355.278
 21
174.2634155
 31
0.0
  0
LINE
  5
AE8
330
1E
100
AcDbEntity
  8
0
100
AcDbLine
 10
355.278
 20
173.6464155
 30
0.0
 11
356.738
 21
173.6464155
 31
0.0
  0
LINE
  5
AE9
330
1E
100
AcDbEntity
  8
0
100
AcDbLine
 10
356.738
 20
173.6464155
 30
0.0
 11
356.738
 21
174.2634155
 31
0.0
  0
LINE
  5
AEA
330
1E
100
AcDbEntity
  8
0
100
AcDbLine
 10
356.738
 20
174.2634155
 30
0.0
 11
356.738
 21
173.6464155
 31
0.0
  0
LINE
  5
AEB
330
1E
100
AcDbEntity
  8
0
100
AcDbLine
 10
363.552
 20
175.7584155
 30
0.0
 11
363.552
 21
176.632517829916
 31
0.0
  0
LINE
  5
AEC
330
1E
100
AcDbEntity
  8
0
100
AcDbLine
 10
362.288
 20
175.4504155
 30
0.0
 11
363.552
 21
175.7584155
 31
0.0
  0
LINE
  5
AED
330
1E
100
AcDbEntity
  8
0
100
AcDbLine
 10
362.822
 20
176.985884092731
 30
0.0
 11
362.822
 21
176.2934155
 31
0.0
  0
LINE
  5
AEE
330
1E
100
AcDbEntity
  8
0
100
AcDbLine
 10
363.552
 20
176.632517829916
 30
0.0
 11
363.552
 21
175.7584155
 31
0.0
  0
LINE
  5
AEF
330
1E
100
AcDbEntity
  8
0
100
AcDbLine
 10
362.822
 20
176.2934155
 30
0.0
 11
362.822
 21
176.985884092731
 31
0.0
  0
LINE
  5
AF0
330
1E
100
AcDbEntity
  8
0
100
AcDbLine
 10
362.822
 20
176.2934155
 30
0.0
 11
363.552
 21
175.7584155
 31
0.0
  0
LINE
  5
AF1
330
1E
100
AcDbEntity
  8
0
100
AcDbLine
 10
361.558
 20
177.589271733115
 30
0.0
 11
361.558
 21
175.9844155
 31
0.0
  0
LINE
  5
AF2
330
1E
100
AcDbEntity
  8
0
100
AcDbLine
 10
361.558
 20
175.9844155
 30
0.0
 11
362.822
 21
176.2934155
 31
0.0
  0
LINE
  5
AF3
330
1E
100
AcDbEntity
  8
0
100
AcDbLine
 10
361.558
 20
175.9844155
 30
0.0
 11
362.288
 21
175.4504155
 31
0.0
  0
LINE
  5
AF4
330
1E
100
AcDbEntity
  8
0
100
AcDbLine
 10
361.558
 20
175.9844155
 30
0.0
 11
361.558
 21
177.589271733115
 31
0.0
  0
LINE
  5
AF5
330
1E
100
AcDbEntity
  8
0
100
AcDbLine
 10
356.387
 20
176.1114155
 30
0.0
 11
361.569
 21
177.5924155
 31
0.0
  0
LINE
  5
AF6
330
1E
100
AcDbEntity
  8
0
100
AcDbLine
 10
361.569
 20
177.5924155
 30
0.0
 11
367.044
 21
178.7034155
 31
0.0
  0
LINE
  5
AF7
330
1E
100
AcDbEntity
  8
0
100
AcDbLine
 10
355.073
 20
176.8524155
 30
0.0
 11
360.474
 21
178.3944155
 31
0.0
  0
LINE
  5
AF8
330
1E
100
AcDbEntity
  8
0
100
AcDbLine
 10
360.474
 20
178.3944155
 30
0.0
 11
366.168
 21
179.5354155
 31
0.0
  0
LINE
  5
AF9
330
1E
100
AcDbEntity
  8
0
100
AcDbLine
 10
354.635
 20
178.0054155
 30
0.0
 11
360.109
 21
179.5474155
 31
0.0
  0
LINE
  5
AFA
330
1E
100
AcDbEntity
  8
0
100
AcDbLine
 10
360.109
 20
179.5474155
 30
0.0
 11
365.876
 21
180.7504155
 31
0.0
  0
LINE
  5
AFB
330
1E
100
AcDbEntity
  8
0
100
AcDbLine
 10
368.759
 20
177.661593070094
 30
0.0
 11
368.759
 21
177.1964155
 31
0.0
  0
LINE
  5
AFC
330
1E
100
AcDbEntity
  8
0
100
AcDbLine
 10
368.759
 20
177.1964155
 30
0.0
 11
370.023
 21
176.8884155
 31
0.0
  0
LINE
  5
AFD
330
1E
100
AcDbEntity
  8
0
100
AcDbLine
 10
368.759
 20
177.1964155
 30
0.0
 11
369.489
 21
177.7304155
 31
0.0
  0
LINE
  5
AFE
330
1E
100
AcDbEntity
  8
0
100
AcDbLine
 10
368.759
 20
177.1964155
 30
0.0
 11
368.759
 21
177.661593070094
 31
0.0
  0
LINE
  5
AFF
330
1E
100
AcDbEntity
  8
0
100
AcDbLine
 10
370.023
 20
176.8884155
 30
0.0
 11
370.753
 21
177.4224155
 31
0.0
  0
LINE
  5
B00
330
1E
100
AcDbEntity
  8
0
100
AcDbLine
 10
369.489
 20
179.01308820513
 30
0.0
 11
369.489
 21
177.7304155
 31
0.0
  0
LINE
  5
B01
330
1E
100
AcDbEntity
  8
0
100
AcDbLine
 10
369.489
 20
177.7304155
 30
0.0
 11
370.753
 21
177.4224155
 31
0.0
  0
LINE
  5
B02
330
1E
100
AcDbEntity
  8
0
100
AcDbLine
 10
369.489
 20
177.7304155
 30
0.0
 11
369.489
 21
179.01308820513
 31
0.0
  0
LINE
  5
B03
330
1E
100
AcDbEntity
  8
0
100
AcDbLine
 10
367.044
 20
178.7034155
 30
0.0
 11
373.613
 21
179.5354155
 31
0.0
  0
LINE
  5
B04
330
1E
100
AcDbEntity
  8
0
100
AcDbLine
 10
366.168
 20
179.5354155
 30
0.0
 11
372.591
 21
180.4304155
 31
0.0
  0
LINE
  5
B05
330
1E
100
AcDbEntity
  8
0
100
AcDbLine
 10
373.892
 20
173.4334155
 30
0.0
 11
375.157
 21
173.1254155
 31
0.0
  0
LINE
  5
B06
330
1E
100
AcDbEntity
  8
0
100
AcDbLine
 10
373.892
 20
173.4334155
 30
0.0
 11
374.622
 21
173.9674155
 31
0.0
  0
LINE
  5
B07
330
1E
100
AcDbEntity
  8
0
100
AcDbLine
 10
373.892
 20
173.4334155
 30
0.0
 11
373.892
 21
174.5434155
 31
0.0
  0
LINE
  5
B08
330
1E
100
AcDbEntity
  8
0
100
AcDbLine
 10
375.887
 20
173.6594155
 30
0.0
 11
375.887
 21
174.302100431507
 31
0.0
  0
LINE
  5
B09
330
1E
100
AcDbEntity
  8
0
100
AcDbLine
 10
375.157
 20
173.1254155
 30
0.0
 11
375.887
 21
173.6594155
 31
0.0
  0
LINE
  5
B0A
330
1E
100
AcDbEntity
  8
0
100
AcDbLine
 10
374.622
 20
173.9674155
 30
0.0
 11
375.887
 21
173.6594155
 31
0.0
  0
LINE
  5
B0B
330
1E
100
AcDbEntity
  8
0
100
AcDbLine
 10
374.622
 20
173.9674155
 30
0.0
 11
374.622
 21
174.099957556075
 31
0.0
  0
LINE
  5
B0C
330
1E
100
AcDbEntity
  8
0
100
AcDbLine
 10
374.622
 20
174.099957556075
 30
0.0
 11
374.622
 21
173.9674155
 31
0.0
  0
LINE
  5
B0D
330
1E
100
AcDbEntity
  8
0
100
AcDbLine
 10
375.887
 20
174.302100431507
 30
0.0
 11
375.887
 21
173.6594155
 31
0.0
  0
LINE
  5
B0E
330
1E
100
AcDbEntity
  8
0
100
AcDbLine
 10
382.334
 20
173.9864155
 30
0.0
 11
383.599
 21
173.6774155
 31
0.0
  0
LINE
  5
B0F
330
1E
100
AcDbEntity
  8
0
100
AcDbLine
 10
382.334
 20
173.9864155
 30
0.0
 11
383.064
 21
174.5204155
 31
0.0
  0
LINE
  5
B10
330
1E
100
AcDbEntity
  8
0
100
AcDbLine
 10
383.599
 20
173.6774155
 30
0.0
 11
384.328
 21
174.2124155
 31
0.0
  0
LINE
  5
B11
330
1E
100
AcDbEntity
  8
0
100
AcDbLine
 10
373.892
 20
174.5434155
 30
0.0
 11
373.892
 21
173.4334155
 31
0.0
  0
LINE
  5
B12
330
1E
100
AcDbEntity
  8
0
100
AcDbLine
 10
377.799
 20
178.1174155
 30
0.0
 11
379.063
 21
177.8094155
 31
0.0
  0
LINE
  5
B13
330
1E
100
AcDbEntity
  8
0
100
AcDbLine
 10
377.799
 20
178.1174155
 30
0.0
 11
378.529
 21
178.6524155
 31
0.0
  0
LINE
  5
B14
330
1E
100
AcDbEntity
  8
0
100
AcDbLine
 10
379.793
 20
178.3434155
 30
0.0
 11
379.793
 21
179.002509149258
 31
0.0
  0
LINE
  5
B15
330
1E
100
AcDbEntity
  8
0
100
AcDbLine
 10
379.063
 20
177.8094155
 30
0.0
 11
379.793
 21
178.3434155
 31
0.0
  0
LINE
  5
B16
330
1E
100
AcDbEntity
  8
0
100
AcDbLine
 10
378.529
 20
180.033370352402
 30
0.0
 11
378.529
 21
178.6524155
 31
0.0
  0
LINE
  5
B17
330
1E
100
AcDbEntity
  8
0
100
AcDbLine
 10
379.793
 20
179.002509149258
 30
0.0
 11
379.793
 21
178.3434155
 31
0.0
  0
LINE
  5
B18
330
1E
100
AcDbEntity
  8
0
100
AcDbLine
 10
378.529
 20
178.6524155
 30
0.0
 11
379.793
 21
178.3434155
 31
0.0
  0
LINE
  5
B19
330
1E
100
AcDbEntity
  8
0
100
AcDbLine
 10
378.529
 20
178.6524155
 30
0.0
 11
378.529
 21
180.033370352402
 31
0.0
  0
LINE
  5
B1A
330
1E
100
AcDbEntity
  8
0
100
AcDbLine
 10
383.064
 20
175.531685003546
 30
0.0
 11
383.064
 21
174.5204155
 31
0.0
  0
LINE
  5
B1B
330
1E
100
AcDbEntity
  8
0
100
AcDbLine
 10
383.064
 20
174.5204155
 30
0.0
 11
384.328
 21
174.2124155
 31
0.0
  0
LINE
  5
B1C
330
1E
100
AcDbEntity
  8
0
100
AcDbLine
 10
383.064
 20
174.5204155
 30
0.0
 11
383.064
 21
175.531685003546
 31
0.0
  0
LINE
  5
B1D
330
1E
100
AcDbEntity
  8
0
100
AcDbLine
 10
373.613
 20
179.5354155
 30
0.0
 11
378.796
 21
180.0604155
 31
0.0
  0
LINE
  5
B1E
330
1E
100
AcDbEntity
  8
0
100
AcDbLine
 10
378.796
 20
180.0604155
 30
0.0
 11
385.0
 21
180.2454155
 31
0.0
  0
LINE
  5
B1F
330
1E
100
AcDbEntity
  8
0
100
AcDbLine
 10
372.591
 20
180.4304155
 30
0.0
 11
378.65
 21
180.9544155
 31
0.0
  0
LINE
  5
B20
330
1E
100
AcDbEntity
  8
0
100
AcDbLine
 10
378.65
 20
180.9544155
 30
0.0
 11
385.0
 21
181.1714155
 31
0.0
  0
LINE
  5
B21
330
1E
100
AcDbEntity
  8
0
100
AcDbLine
 10
365.876
 20
180.7504155
 30
0.0
 11
372.08
 21
181.6144155
 31
0.0
  0
LINE
  5
B22
330
1E
100
AcDbEntity
  8
0
100
AcDbLine
 10
345.949
 20
172.9964155
 30
0.0
 11
350.182
 21
175.0624155
 31
0.0
  0
LINE
  5
B23
330
1E
100
AcDbEntity
  8
0
100
AcDbLine
 10
345.365
 20
174.0874155
 30
0.0
 11
349.672
 21
176.1854155
 31
0.0
  0
LINE
  5
B24
330
1E
100
AcDbEntity
  8
0
100
AcDbLine
 10
341.715
 20
171.7744155
 30
0.0
 11
345.365
 21
174.0874155
 31
0.0
  0
LINE
  5
B25
330
1E
100
AcDbEntity
  8
0
100
AcDbLine
 10
338.869
 20
169.3374155
 30
0.0
 11
341.715
 21
171.7744155
 31
0.0
  0
LINE
  5
B26
330
1E
100
AcDbEntity
  8
0
100
AcDbLine
 10
336.825
 20
166.7144155
 30
0.0
 11
338.869
 21
169.3374155
 31
0.0
  0
LINE
  5
B27
330
1E
100
AcDbEntity
  8
0
100
AcDbLine
 10
335.0
 20
180.2874155
 30
0.0
 11
335.511
 21
183.0024155
 31
0.0
  0
LINE
  5
B28
330
1E
100
AcDbEntity
  8
0
100
AcDbLine
 10
335.0
 20
180.2874155
 30
0.0
 11
335.0
 21
161.2554155
 31
0.0
  0
LINE
  5
B29
330
1E
100
AcDbEntity
  8
0
100
AcDbLine
 10
385.0
 20
180.2454155
 30
0.0
 11
391.204
 21
180.0604155
 31
0.0
  0
LINE
  5
B2A
330
1E
100
AcDbEntity
  8
0
100
AcDbLine
 10
338.869
 20
188.3694155
 30
0.0
 11
339.599
 21
189.1524155
 31
0.0
  0
LINE
  5
B2B
330
1E
100
AcDbEntity
  8
0
100
AcDbLine
 10
338.869
 20
188.3694155
 30
0.0
 11
341.715
 21
190.8054155
 31
0.0
  0
LINE
  5
B2C
330
1E
100
AcDbEntity
  8
0
100
AcDbLine
 10
336.825
 20
185.7474155
 30
0.0
 11
338.869
 21
188.3694155
 31
0.0
  0
LINE
  5
B2D
330
1E
100
AcDbEntity
  8
0
100
AcDbLine
 10
335.511
 20
183.0024155
 30
0.0
 11
336.825
 21
185.7474155
 31
0.0
  0
LINE
  5
B2E
330
1E
100
AcDbEntity
  8
0
100
AcDbLine
 10
372.08
 20
181.6144155
 30
0.0
 11
378.577
 21
182.1694155
 31
0.0
  0
LINE
  5
B2F
330
1E
100
AcDbEntity
  8
0
100
AcDbLine
 10
378.577
 20
182.1694155
 30
0.0
 11
385.0
 21
182.3864155
 31
0.0
  0
LINE
  5
B30
330
1E
100
AcDbEntity
  8
0
100
AcDbLine
 10
341.715
 20
190.8054155
 30
0.0
 11
345.365
 21
193.1204155
 31
0.0
  0
LINE
  5
B31
330
1E
100
AcDbEntity
  8
0
100
AcDbLine
 10
345.365
 20
193.1204155
 30
0.0
 11
349.672
 21
195.2174155
 31
0.0
  0
LINE
  5
B32
330
1E
100
AcDbEntity
  8
0
100
AcDbLine
 10
349.672
 20
195.2174155
 30
0.0
 11
354.635
 21
197.0384155
 31
0.0
  0
LINE
  5
B33
330
1E
100
AcDbEntity
  8
0
100
AcDbLine
 10
354.635
 20
197.0384155
 30
0.0
 11
360.109
 21
198.5804155
 31
0.0
  0
LINE
  5
B34
330
1E
100
AcDbEntity
  8
0
100
AcDbLine
 10
350.182
 20
195.9084155
 30
0.0
 11
355.073
 21
197.6974155
 31
0.0
  0
LINE
  5
B35
330
1E
100
AcDbEntity
  8
0
100
AcDbLine
 10
360.109
 20
198.5804155
 30
0.0
 11
365.876
 21
199.7834155
 31
0.0
  0
LINE
  5
B36
330
1E
100
AcDbEntity
  8
0
100
AcDbLine
 10
355.073
 20
197.6974155
 30
0.0
 11
360.474
 21
199.2404155
 31
0.0
  0
LINE
  5
B37
330
1E
100
AcDbEntity
  8
0
100
AcDbLine
 10
365.876
 20
199.7834155
 30
0.0
 11
372.08
 21
200.6474155
 31
0.0
  0
LINE
  5
B38
330
1E
100
AcDbEntity
  8
0
100
AcDbLine
 10
360.474
 20
199.2404155
 30
0.0
 11
366.168
 21
200.3814155
 31
0.0
  0
LINE
  5
B39
330
1E
100
AcDbEntity
  8
0
100
AcDbLine
 10
372.08
 20
200.6474155
 30
0.0
 11
378.577
 21
201.2024155
 31
0.0
  0
LINE
  5
B3A
330
1E
100
AcDbEntity
  8
0
100
AcDbLine
 10
378.577
 20
201.2024155
 30
0.0
 11
385.0
 21
201.4184155
 31
0.0
  0
LINE
  5
B3B
330
1E
100
AcDbEntity
  8
0
100
AcDbLine
 10
366.168
 20
200.3814155
 30
0.0
 11
372.591
 21
201.2754155
 31
0.0
  0
LINE
  5
B3C
330
1E
100
AcDbEntity
  8
0
100
AcDbLine
 10
372.591
 20
201.2754155
 30
0.0
 11
378.65
 21
201.8004155
 31
0.0
  0
LINE
  5
B3D
330
1E
100
AcDbEntity
  8
0
100
AcDbLine
 10
345.949
 20
193.8414155
 30
0.0
 11
350.182
 21
195.9084155
 31
0.0
  0
LINE
  5
B3E
330
1E
100
AcDbEntity
  8
0
100
AcDbLine
 10
342.299
 20
191.5584155
 30
0.0
 11
345.949
 21
193.8414155
 31
0.0
  0
LINE
  5
B3F
330
1E
100
AcDbEntity
  8
0
100
AcDbLine
 10
339.599
 20
189.1524155
 30
0.0
 11
342.299
 21
191.5584155
 31
0.0
  0
LINE
  5
B40
330
1E
100
AcDbEntity
  8
0
100
AcDbLine
 10
385.0
 20
181.1714155
 30
0.0
 11
391.35
 21
180.9544155
 31
0.0
  0
LINE
  5
B41
330
1E
100
AcDbEntity
  8
0
100
AcDbLine
 10
385.0
 20
182.3864155
 30
0.0
 11
391.423
 21
182.1694155
 31
0.0
  0
LINE
  5
B42
330
1E
100
AcDbEntity
  8
0
100
AcDbLine
 10
378.65
 20
201.8004155
 30
0.0
 11
385.0
 21
202.0154155
 31
0.0
  0
LINE
  5
B43
330
1E
100
AcDbEntity
  8
0
100
AcDbLine
 10
385.0
 20
201.4184155
 30
0.0
 11
391.423
 21
201.2024155
 31
0.0
  0
LINE
  5
B44
330
1E
100
AcDbEntity
  8
0
100
AcDbLine
 10
388.072
 20
121.4274155
 30
0.0
 11
390.952
 21
122.6634155
 31
0.0
  0
LINE
  5
B45
330
1E
100
AcDbEntity
  8
0
100
AcDbLine
 10
390.952
 20
122.6634155
 30
0.0
 11
393.448
 21
124.6044155
 31
0.0
  0
LINE
  5
B46
330
1E
100
AcDbEntity
  8
0
100
AcDbLine
 10
387.208
 20
124.7814155
 30
0.0
 11
389.32
 21
125.5754155
 31
0.0
  0
LINE
  5
B47
330
1E
100
AcDbEntity
  8
0
100
AcDbLine
 10
386.0
 20
134.8994155
 30
0.0
 11
386.0
 21
135.2314155
 31
0.0
  0
LINE
  5
B48
330
1E
100
AcDbEntity
  8
0
100
AcDbLine
 10
386.0
 20
135.2314155
 30
0.0
 11
386.0
 21
134.8994155
 31
0.0
  0
LINE
  5
B49
330
1E
100
AcDbEntity
  8
0
100
AcDbLine
 10
386.0
 20
135.2314155
 30
0.0
 11
386.0
 21
135.8834155
 31
0.0
  0
LINE
  5
B4A
330
1E
100
AcDbEntity
  8
0
100
AcDbLine
 10
386.0
 20
135.8834155
 30
0.0
 11
386.0
 21
135.2314155
 31
0.0
  0
LINE
  5
B4B
330
1E
100
AcDbEntity
  8
0
100
AcDbLine
 10
386.0
 20
135.8834155
 30
0.0
 11
386.0
 21
137.8634155
 31
0.0
  0
LINE
  5
B4C
330
1E
100
AcDbEntity
  8
0
100
AcDbLine
 10
386.0
 20
137.8634155
 30
0.0
 11
386.0
 21
135.8834155
 31
0.0
  0
LINE
  5
B4D
330
1E
100
AcDbEntity
  8
0
100
AcDbLine
 10
386.0
 20
137.8634155
 30
0.0
 11
386.0
 21
143.9464155
 31
0.0
  0
LINE
  5
B4E
330
1E
100
AcDbEntity
  8
0
100
AcDbLine
 10
389.32
 20
125.5754155
 30
0.0
 11
391.144
 21
126.9874155
 31
0.0
  0
LINE
  5
B4F
330
1E
100
AcDbEntity
  8
0
100
AcDbLine
 10
391.144
 20
126.9874155
 30
0.0
 11
392.488
 21
128.8414155
 31
0.0
  0
LINE
  5
B50
330
1E
100
AcDbEntity
  8
0
100
AcDbLine
 10
387.952
 20
140.1954155
 30
0.0
 11
389.216
 21
140.5044155
 31
0.0
  0
LINE
  5
B51
330
1E
100
AcDbEntity
  8
0
100
AcDbLine
 10
387.222
 20
140.7294155
 30
0.0
 11
388.486
 21
141.0384155
 31
0.0
  0
LINE
  5
B52
330
1E
100
AcDbEntity
  8
0
100
AcDbLine
 10
387.222
 20
140.7294155
 30
0.0
 11
387.952
 21
140.1954155
 31
0.0
  0
LINE
  5
B53
330
1E
100
AcDbEntity
  8
0
100
AcDbLine
 10
385.675
 20
160.7624155
 30
0.0
 11
386.275
 21
160.8704155
 31
0.0
  0
LINE
  5
B54
330
1E
100
AcDbEntity
  8
0
100
AcDbLine
 10
385.675
 20
162.8524155
 30
0.0
 11
386.275
 21
162.7434155
 31
0.0
  0
LINE
  5
B55
330
1E
100
AcDbEntity
  8
0
100
AcDbLine
 10
386.536
 20
155.5324155
 30
0.0
 11
387.976
 21
155.7764155
 31
0.0
  0
LINE
  5
B56
330
1E
100
AcDbEntity
  8
0
100
AcDbLine
 10
387.976
 20
155.7764155
 30
0.0
 11
389.248
 21
156.1814155
 31
0.0
  0
LINE
  5
B57
330
1E
100
AcDbEntity
  8
0
100
AcDbLine
 10
386.275
 20
160.8704155
 30
0.0
 11
386.787
 21
161.0504155
 31
0.0
  0
LINE
  5
B58
330
1E
100
AcDbEntity
  8
0
100
AcDbLine
 10
386.275
 20
162.7434155
 30
0.0
 11
386.787
 21
162.5644155
 31
0.0
  0
LINE
  5
B59
330
1E
100
AcDbEntity
  8
0
100
AcDbLine
 10
387.211
 20
161.2664155
 30
0.0
 11
387.467
 21
161.5204155
 31
0.0
  0
LINE
  5
B5A
330
1E
100
AcDbEntity
  8
0
100
AcDbLine
 10
386.787
 20
161.0504155
 30
0.0
 11
387.211
 21
161.2664155
 31
0.0
  0
LINE
  5
B5B
330
1E
100
AcDbEntity
  8
0
100
AcDbLine
 10
387.467
 20
161.5204155
 30
0.0
 11
387.555
 21
161.8074155
 31
0.0
  0
LINE
  5
B5C
330
1E
100
AcDbEntity
  8
0
100
AcDbLine
 10
387.467
 20
162.0944155
 30
0.0
 11
387.555
 21
161.8074155
 31
0.0
  0
LINE
  5
B5D
330
1E
100
AcDbEntity
  8
0
100
AcDbLine
 10
387.211
 20
162.3484155
 30
0.0
 11
387.467
 21
162.0944155
 31
0.0
  0
LINE
  5
B5E
330
1E
100
AcDbEntity
  8
0
100
AcDbLine
 10
386.787
 20
162.5644155
 30
0.0
 11
387.211
 21
162.3484155
 31
0.0
  0
LINE
  5
B5F
330
1E
100
AcDbEntity
  8
0
100
AcDbLine
 10
386.536
 20
160.4214155
 30
0.0
 11
387.976
 21
160.1784155
 31
0.0
  0
LINE
  5
B60
330
1E
100
AcDbEntity
  8
0
100
AcDbLine
 10
387.976
 20
160.1784155
 30
0.0
 11
389.248
 21
159.7724155
 31
0.0
  0
LINE
  5
B61
330
1E
100
AcDbEntity
  8
0
100
AcDbLine
 10
386.0
 20
143.9464155
 30
0.0
 11
386.0
 21
137.8634155
 31
0.0
  0
LINE
  5
B62
330
1E
100
AcDbEntity
  8
0
100
AcDbLine
 10
387.222
 20
178.1544155
 30
0.0
 11
388.486
 21
177.8454155
 31
0.0
  0
LINE
  5
B63
330
1E
100
AcDbEntity
  8
0
100
AcDbLine
 10
387.222
 20
178.1544155
 30
0.0
 11
387.952
 21
178.6884155
 31
0.0
  0
LINE
  5
B64
330
1E
100
AcDbEntity
  8
0
100
AcDbLine
 10
388.86
 20
169.5264155
 30
0.0
 11
390.125
 21
169.2184155
 31
0.0
  0
LINE
  5
B65
330
1E
100
AcDbEntity
  8
0
100
AcDbLine
 10
388.86
 20
169.5264155
 30
0.0
 11
389.59
 21
170.0614155
 31
0.0
  0
LINE
  5
B66
330
1E
100
AcDbEntity
  8
0
100
AcDbLine
 10
388.486
 20
177.8454155
 30
0.0
 11
389.216
 21
178.3794155
 31
0.0
  0
LINE
  5
B67
330
1E
100
AcDbEntity
  8
0
100
AcDbLine
 10
387.952
 20
180.157388420696
 30
0.0
 11
387.952
 21
178.6884155
 31
0.0
  0
LINE
  5
B68
330
1E
100
AcDbEntity
  8
0
100
AcDbLine
 10
387.952
 20
178.6884155
 30
0.0
 11
389.216
 21
178.3794155
 31
0.0
  0
LINE
  5
B69
330
1E
100
AcDbEntity
  8
0
100
AcDbLine
 10
387.952
 20
178.6884155
 30
0.0
 11
387.952
 21
180.157388420696
 31
0.0
  0
LINE
  5
B6A
330
1E
100
AcDbEntity
  8
0
100
AcDbLine
 10
388.86
 20
147.5444155
 30
0.0
 11
390.125
 21
147.8534155
 31
0.0
  0
LINE
  5
B6B
330
1E
100
AcDbEntity
  8
0
100
AcDbLine
 10
388.86
 20
147.5444155
 30
0.0
 11
389.59
 21
147.0104155
 31
0.0
  0
LINE
  5
B6C
330
1E
100
AcDbEntity
  8
0
100
AcDbLine
 10
388.486
 20
141.0384155
 30
0.0
 11
389.216
 21
140.5044155
 31
0.0
  0
LINE
  5
B6D
330
1E
100
AcDbEntity
  8
0
100
AcDbLine
 10
389.216
 20
140.5044155
 30
0.0
 11
389.216
 21
140.577134391038
 31
0.0
  0
LINE
  5
B6E
330
1E
100
AcDbEntity
  8
0
100
AcDbLine
 10
386.0
 20
140.481234971309
 30
0.0
 11
387.500121390284
 21
140.525967798066
 31
0.0
  0
LINE
  5
B6F
330
1E
100
AcDbEntity
  8
0
100
AcDbLine
 10
389.248
 20
156.1814155
 30
0.0
 11
390.208
 21
156.7194155
 31
0.0
  0
LINE
  5
B70
330
1E
100
AcDbEntity
  8
0
100
AcDbLine
 10
389.248
 20
159.7724155
 30
0.0
 11
390.208
 21
159.2344155
 31
0.0
  0
LINE
  5
B71
330
1E
100
AcDbEntity
  8
0
100
AcDbLine
 10
389.59
 20
170.0614155
 30
0.0
 11
390.854
 21
169.7524155
 31
0.0
  0
LINE
  5
B72
330
1E
100
AcDbEntity
  8
0
100
AcDbLine
 10
390.810636480609
 20
156.080168104706
 30
0.0
 11
391.334
 21
155.1064155
 31
0.0
  0
LINE
  5
B73
330
1E
100
AcDbEntity
  8
0
100
AcDbLine
 10
390.208
 20
156.7194155
 30
0.0
 11
390.784
 21
157.3274155
 31
0.0
  0
LINE
  5
B74
330
1E
100
AcDbEntity
  8
0
100
AcDbLine
 10
391.0
 20
158.5364155
 30
0.0
 11
391.0
 21
157.9774155
 31
0.0
  0
LINE
  5
B75
330
1E
100
AcDbEntity
  8
0
100
AcDbLine
 10
390.784
 20
157.3274155
 30
0.0
 11
391.0
 21
157.9774155
 31
0.0
  0
LINE
  5
B76
330
1E
100
AcDbEntity
  8
0
100
AcDbLine
 10
391.0
 20
157.9774155
 30
0.0
 11
391.0
 21
158.5364155
 31
0.0
  0
LINE
  5
B77
330
1E
100
AcDbEntity
  8
0
100
AcDbLine
 10
390.208
 20
159.2344155
 30
0.0
 11
390.784
 21
158.6264155
 31
0.0
  0
LINE
  5
B78
330
1E
100
AcDbEntity
  8
0
100
AcDbLine
 10
390.784
 20
158.6264155
 30
0.0
 11
391.0
 21
157.9774155
 31
0.0
  0
LINE
  5
B79
330
1E
100
AcDbEntity
  8
0
100
AcDbLine
 10
390.125
 20
169.2184155
 30
0.0
 11
390.854
 21
169.7524155
 31
0.0
  0
LINE
  5
B7A
330
1E
100
AcDbEntity
  8
0
100
AcDbLine
 10
390.125
 20
147.8534155
 30
0.0
 11
390.854
 21
147.3194155
 31
0.0
  0
LINE
  5
B7B
330
1E
100
AcDbEntity
  8
0
100
AcDbLine
 10
389.59
 20
147.0104155
 30
0.0
 11
390.854
 21
147.3194155
 31
0.0
  0
LINE
  5
B7C
330
1E
100
AcDbEntity
  8
0
100
AcDbLine
 10
391.204
 20
140.6364155
 30
0.0
 11
396.387
 21
141.1604155
 31
0.0
  0
LINE
  5
B7D
330
1E
100
AcDbEntity
  8
0
100
AcDbLine
 10
389.216
 20
140.577134391038
 30
0.0
 11
391.204
 21
140.6364155
 31
0.0
  0
LINE
  5
B7E
330
1E
100
AcDbEntity
  8
0
100
AcDbLine
 10
389.216
 20
140.577134391038
 30
0.0
 11
389.216
 21
140.5044155
 31
0.0
  0
LINE
  5
B7F
330
1E
100
AcDbEntity
  8
0
100
AcDbLine
 10
386.0
 20
139.560431248032
 30
0.0
 11
391.35
 21
139.7424155
 31
0.0
  0
LINE
  5
B80
330
1E
100
AcDbEntity
  8
0
100
AcDbLine
 10
391.222
 20
155.3834155
 30
0.0
 11
391.301
 21
155.6564155
 31
0.0
  0
LINE
  5
B81
330
1E
100
AcDbEntity
  8
0
100
AcDbLine
 10
391.222
 20
155.3834155
 30
0.0
 11
391.334
 21
155.1064155
 31
0.0
  0
LINE
  5
B82
330
1E
100
AcDbEntity
  8
0
100
AcDbLine
 10
391.334
 20
155.1064155
 30
0.0
 11
391.565
 21
154.8424155
 31
0.0
  0
LINE
  5
B83
330
1E
100
AcDbEntity
  8
0
100
AcDbLine
 10
391.301
 20
155.6564155
 30
0.0
 11
391.564
 21
155.9244155
 31
0.0
  0
LINE
  5
B84
330
1E
100
AcDbEntity
  8
0
100
AcDbLine
 10
391.35
 20
139.7424155
 30
0.0
 11
397.409
 21
140.2664155
 31
0.0
  0
LINE
  5
B85
330
1E
100
AcDbEntity
  8
0
100
AcDbLine
 10
391.204
 20
180.0604155
 30
0.0
 11
396.387
 21
179.5354155
 31
0.0
  0
LINE
  5
B86
330
1E
100
AcDbEntity
  8
0
100
AcDbLine
 10
391.35
 20
180.9544155
 30
0.0
 11
397.409
 21
180.4304155
 31
0.0
  0
LINE
  5
B87
330
1E
100
AcDbEntity
  8
0
100
AcDbLine
 10
392.488
 20
128.8414155
 30
0.0
 11
393.352
 21
130.9594155
 31
0.0
  0
LINE
  5
B88
330
1E
100
AcDbEntity
  8
0
100
AcDbLine
 10
393.448
 20
124.6044155
 30
0.0
 11
395.368
 21
127.1644155
 31
0.0
  0
LINE
  5
B89
330
1E
100
AcDbEntity
  8
0
100
AcDbLine
 10
395.368
 20
127.1644155
 30
0.0
 11
396.616
 21
130.0764155
 31
0.0
  0
LINE
  5
B8A
330
1E
100
AcDbEntity
  8
0
100
AcDbLine
 10
395.368
 20
139.2554155
 30
0.0
 11
396.616
 21
136.3434155
 31
0.0
  0
LINE
  5
B8B
330
1E
100
AcDbEntity
  8
0
100
AcDbLine
 10
393.64
 20
133.1654155
 30
0.0
 11
393.64
 21
139.940461382159
 31
0.0
  0
LINE
  5
B8C
330
1E
100
AcDbEntity
  8
0
100
AcDbLine
 10
393.352
 20
130.9594155
 30
0.0
 11
393.64
 21
133.1654155
 31
0.0
  0
LINE
  5
B8D
330
1E
100
AcDbEntity
  8
0
100
AcDbLine
 10
392.931
 20
144.4004155
 30
0.0
 11
394.196
 21
144.7094155
 31
0.0
  0
LINE
  5
B8E
330
1E
100
AcDbEntity
  8
0
100
AcDbLine
 10
392.931
 20
144.4004155
 30
0.0
 11
393.661
 21
143.8664155
 31
0.0
  0
LINE
  5
B8F
330
1E
100
AcDbEntity
  8
0
100
AcDbLine
 10
394.196
 20
145.628220087935
 30
0.0
 11
394.196
 21
144.7094155
 31
0.0
  0
LINE
  5
B90
330
1E
100
AcDbEntity
  8
0
100
AcDbLine
 10
394.196
 20
144.7094155
 30
0.0
 11
394.926
 21
144.1744155
 31
0.0
  0
LINE
  5
B91
330
1E
100
AcDbEntity
  8
0
100
AcDbLine
 10
394.196
 20
144.7094155
 30
0.0
 11
394.196
 21
145.628220087935
 31
0.0
  0
LINE
  5
B92
330
1E
100
AcDbEntity
  8
0
100
AcDbLine
 10
393.661
 20
143.8664155
 30
0.0
 11
394.926
 21
144.1744155
 31
0.0
  0
LINE
  5
B93
330
1E
100
AcDbEntity
  8
0
100
AcDbLine
 10
393.31
 20
151.73021717837
 30
0.0
 11
393.31
 21
151.3824155
 31
0.0
  0
LINE
  5
B94
330
1E
100
AcDbEntity
  8
0
100
AcDbLine
 10
393.31
 20
151.3824155
 30
0.0
 11
394.574
 21
151.6914155
 31
0.0
  0
LINE
  5
B95
330
1E
100
AcDbEntity
  8
0
100
AcDbLine
 10
393.31
 20
151.3824155
 30
0.0
 11
394.039
 21
150.8484155
 31
0.0
  0
LINE
  5
B96
330
1E
100
AcDbEntity
  8
0
100
AcDbLine
 10
393.31
 20
151.3824155
 30
0.0
 11
393.31
 21
151.73021717837
 31
0.0
  0
LINE
  5
B97
330
1E
100
AcDbEntity
  8
0
100
AcDbLine
 10
391.956
 20
154.6234155
 30
0.0
 11
392.501
 21
154.4464155
 31
0.0
  0
LINE
  5
B98
330
1E
100
AcDbEntity
  8
0
100
AcDbLine
 10
391.565
 20
154.8424155
 30
0.0
 11
391.956
 21
154.6234155
 31
0.0
  0
LINE
  5
B99
330
1E
100
AcDbEntity
  8
0
100
AcDbLine
 10
392.501
 20
154.4464155
 30
0.0
 11
393.134
 21
154.3354155
 31
0.0
  0
LINE
  5
B9A
330
1E
100
AcDbEntity
  8
0
100
AcDbLine
 10
393.134
 20
154.3354155
 30
0.0
 11
393.782
 21
154.3014155
 31
0.0
  0
LINE
  5
B9B
330
1E
100
AcDbEntity
  8
0
100
AcDbLine
 10
393.126
 20
156.4184155
 30
0.0
 11
393.781
 21
156.4644155
 31
0.0
  0
LINE
  5
B9C
330
1E
100
AcDbEntity
  8
0
100
AcDbLine
 10
392.502
 20
156.3204155
 30
0.0
 11
393.126
 21
156.4184155
 31
0.0
  0
LINE
  5
B9D
330
1E
100
AcDbEntity
  8
0
100
AcDbLine
 10
391.981
 20
156.1544155
 30
0.0
 11
392.502
 21
156.3204155
 31
0.0
  0
LINE
  5
B9E
330
1E
100
AcDbEntity
  8
0
100
AcDbLine
 10
391.564
 20
155.9244155
 30
0.0
 11
391.981
 21
156.1544155
 31
0.0
  0
LINE
  5
B9F
330
1E
100
AcDbEntity
  8
0
100
AcDbLine
 10
393.782
 20
154.3014155
 30
0.0
 11
394.437
 21
154.3494155
 31
0.0
  0
LINE
  5
BA0
330
1E
100
AcDbEntity
  8
0
100
AcDbLine
 10
394.437
 20
154.3494155
 30
0.0
 11
395.061
 21
154.4474155
 31
0.0
  0
LINE
  5
BA1
330
1E
100
AcDbEntity
  8
0
100
AcDbLine
 10
394.428
 20
156.4314155
 30
0.0
 11
395.061
 21
156.3204155
 31
0.0
  0
LINE
  5
BA2
330
1E
100
AcDbEntity
  8
0
100
AcDbLine
 10
393.781
 20
156.4644155
 30
0.0
 11
394.428
 21
156.4314155
 31
0.0
  0
LINE
  5
BA3
330
1E
100
AcDbEntity
  8
0
100
AcDbLine
 10
394.574
 20
152.565556029238
 30
0.0
 11
394.574
 21
151.6914155
 31
0.0
  0
LINE
  5
BA4
330
1E
100
AcDbEntity
  8
0
100
AcDbLine
 10
394.574
 20
151.6914155
 30
0.0
 11
395.304
 21
151.1574155
 31
0.0
  0
LINE
  5
BA5
330
1E
100
AcDbEntity
  8
0
100
AcDbLine
 10
394.574
 20
151.6914155
 30
0.0
 11
394.574
 21
152.565556029238
 31
0.0
  0
LINE
  5
BA6
330
1E
100
AcDbEntity
  8
0
100
AcDbLine
 10
394.039
 20
150.8484155
 30
0.0
 11
395.304
 21
151.1574155
 31
0.0
  0
LINE
  5
BA7
330
1E
100
AcDbEntity
  8
0
100
AcDbLine
 10
394.926
 20
144.1744155
 30
0.0
 11
394.926
 21
145.325319705608
 31
0.0
  0
LINE
  5
BA8
330
1E
100
AcDbEntity
  8
0
100
AcDbLine
 10
394.926
 20
145.325319705608
 30
0.0
 11
394.926
 21
144.1744155
 31
0.0
  0
LINE
  5
BA9
330
1E
100
AcDbEntity
  8
0
100
AcDbLine
 10
395.304
 20
151.1574155
 30
0.0
 11
395.304
 21
152.275535119295
 31
0.0
  0
LINE
  5
BAA
330
1E
100
AcDbEntity
  8
0
100
AcDbLine
 10
395.061
 20
154.4474155
 30
0.0
 11
395.582
 21
154.6114155
 31
0.0
  0
LINE
  5
BAB
330
1E
100
AcDbEntity
  8
0
100
AcDbLine
 10
395.582
 20
154.6114155
 30
0.0
 11
395.999
 21
154.8424155
 31
0.0
  0
LINE
  5
BAC
330
1E
100
AcDbEntity
  8
0
100
AcDbLine
 10
395.061
 20
156.3204155
 30
0.0
 11
395.606
 21
156.1444155
 31
0.0
  0
LINE
  5
BAD
330
1E
100
AcDbEntity
  8
0
100
AcDbLine
 10
395.606
 20
156.1444155
 30
0.0
 11
395.998
 21
155.9234155
 31
0.0
  0
LINE
  5
BAE
330
1E
100
AcDbEntity
  8
0
100
AcDbLine
 10
395.998
 20
155.9234155
 30
0.0
 11
396.229
 21
155.6614155
 31
0.0
  0
LINE
  5
BAF
330
1E
100
AcDbEntity
  8
0
100
AcDbLine
 10
396.229
 20
155.6614155
 30
0.0
 11
396.341
 21
155.3834155
 31
0.0
  0
LINE
  5
BB0
330
1E
100
AcDbEntity
  8
0
100
AcDbLine
 10
396.262
 20
155.1094155
 30
0.0
 11
396.63136868048
 21
155.802692100286
 31
0.0
  0
LINE
  5
BB1
330
1E
100
AcDbEntity
  8
0
100
AcDbLine
 10
396.262
 20
155.1094155
 30
0.0
 11
396.341
 21
155.3834155
 31
0.0
  0
LINE
  5
BB2
330
1E
100
AcDbEntity
  8
0
100
AcDbLine
 10
395.999
 20
154.8424155
 30
0.0
 11
396.262
 21
155.1094155
 31
0.0
  0
LINE
  5
BB3
330
1E
100
AcDbEntity
  8
0
100
AcDbLine
 10
395.304
 20
152.275535119295
 30
0.0
 11
395.304
 21
151.1574155
 31
0.0
  0
LINE
  5
BB4
330
1E
100
AcDbEntity
  8
0
100
AcDbLine
 10
394.780256083385
 20
140.039074055487
 30
0.0
 11
395.368
 21
139.2554155
 31
0.0
  0
LINE
  5
BB5
330
1E
100
AcDbEntity
  8
0
100
AcDbLine
 10
393.64
 20
139.940461382159
 30
0.0
 11
393.64
 21
133.1654155
 31
0.0
  0
LINE
  5
BB6
330
1E
100
AcDbEntity
  8
0
100
AcDbLine
 10
396.387
 20
141.1604155
 30
0.0
 11
397.582249704487
 21
141.311982405745
 31
0.0
  0
LINE
  5
BB7
330
1E
100
AcDbEntity
  8
0
100
AcDbLine
 10
392.931
 20
173.5774155
 30
0.0
 11
394.196
 21
173.2684155
 31
0.0
  0
LINE
  5
BB8
330
1E
100
AcDbEntity
  8
0
100
AcDbLine
 10
392.931
 20
173.5774155
 30
0.0
 11
393.661
 21
174.1114155
 31
0.0
  0
LINE
  5
BB9
330
1E
100
AcDbEntity
  8
0
100
AcDbLine
 10
393.661
 20
174.1114155
 30
0.0
 11
394.926
 21
173.8024155
 31
0.0
  0
LINE
  5
BBA
330
1E
100
AcDbEntity
  8
0
100
AcDbLine
 10
394.039
 20
166.376741754496
 30
0.0
 11
394.039
 21
165.3164155
 31
0.0
  0
LINE
  5
BBB
330
1E
100
AcDbEntity
  8
0
100
AcDbLine
 10
393.31
 20
165.871410790289
 30
0.0
 11
393.31
 21
164.7824155
 31
0.0
  0
LINE
  5
BBC
330
1E
100
AcDbEntity
  8
0
100
AcDbLine
 10
393.31
 20
164.7824155
 30
0.0
 11
394.574
 21
164.4734155
 31
0.0
  0
LINE
  5
BBD
330
1E
100
AcDbEntity
  8
0
100
AcDbLine
 10
393.31
 20
164.7824155
 30
0.0
 11
394.039
 21
165.3164155
 31
0.0
  0
LINE
  5
BBE
330
1E
100
AcDbEntity
  8
0
100
AcDbLine
 10
393.31
 20
164.7824155
 30
0.0
 11
393.31
 21
165.871410790289
 31
0.0
  0
LINE
  5
BBF
330
1E
100
AcDbEntity
  8
0
100
AcDbLine
 10
395.304
 20
165.0084155
 30
0.0
 11
395.304
 21
165.312175396171
 31
0.0
  0
LINE
  5
BC0
330
1E
100
AcDbEntity
  8
0
100
AcDbLine
 10
394.574
 20
164.4734155
 30
0.0
 11
395.304
 21
165.0084155
 31
0.0
  0
LINE
  5
BC1
330
1E
100
AcDbEntity
  8
0
100
AcDbLine
 10
395.304
 20
165.312175396171
 30
0.0
 11
395.304
 21
165.0084155
 31
0.0
  0
LINE
  5
BC2
330
1E
100
AcDbEntity
  8
0
100
AcDbLine
 10
394.196
 20
173.2684155
 30
0.0
 11
394.926
 21
173.8024155
 31
0.0
  0
LINE
  5
BC3
330
1E
100
AcDbEntity
  8
0
100
AcDbLine
 10
394.039
 20
165.3164155
 30
0.0
 11
395.304
 21
165.0084155
 31
0.0
  0
LINE
  5
BC4
330
1E
100
AcDbEntity
  8
0
100
AcDbLine
 10
394.039
 20
165.3164155
 30
0.0
 11
394.039
 21
166.376741754496
 31
0.0
  0
LINE
  5
BC5
330
1E
100
AcDbEntity
  8
0
100
AcDbLine
 10
396.616
 20
130.0764155
 30
0.0
 11
397.0
 21
133.1654155
 31
0.0
  0
LINE
  5
BC6
330
1E
100
AcDbEntity
  8
0
100
AcDbLine
 10
397.0
 20
133.1654155
 30
0.0
 11
397.0
 21
61.1309155
 31
0.0
  0
LINE
  5
BC7
330
1E
100
AcDbEntity
  8
0
100
AcDbLine
 10
396.616
 20
136.3434155
 30
0.0
 11
397.0
 21
133.1654155
 31
0.0
  0
LINE
  5
BC8
330
1E
100
AcDbEntity
  8
0
100
AcDbLine
 10
397.251
 20
177.3304155
 30
0.0
 11
398.516
 21
177.0214155
 31
0.0
  0
LINE
  5
BC9
330
1E
100
AcDbEntity
  8
0
100
AcDbLine
 10
397.251
 20
177.3304155
 30
0.0
 11
397.982
 21
177.8644155
 31
0.0
  0
LINE
  5
BCA
330
1E
100
AcDbEntity
  8
0
100
AcDbLine
 10
397.251
 20
141.5544155
 30
0.0
 11
398.516
 21
141.8624155
 31
0.0
  0
LINE
  5
BCB
330
1E
100
AcDbEntity
  8
0
100
AcDbLine
 10
397.251
 20
141.5544155
 30
0.0
 11
397.982
 21
141.0194155
 31
0.0
  0
LINE
  5
BCC
330
1E
100
AcDbEntity
  8
0
100
AcDbLine
 10
397.409
 20
140.2664155
 30
0.0
 11
403.832
 21
141.1604155
 31
0.0
  0
LINE
  5
BCD
330
1E
100
AcDbEntity
  8
0
100
AcDbLine
 10
396.387
 20
179.5354155
 30
0.0
 11
402.956
 21
178.7034155
 31
0.0
  0
LINE
  5
BCE
330
1E
100
AcDbEntity
  8
0
100
AcDbLine
 10
397.409
 20
180.4304155
 30
0.0
 11
403.832
 21
179.5354155
 31
0.0
  0
LINE
  5
BCF
330
1E
100
AcDbEntity
  8
0
100
AcDbLine
 10
391.423
 20
182.1694155
 30
0.0
 11
397.92
 21
181.6144155
 31
0.0
  0
LINE
  5
BD0
330
1E
100
AcDbEntity
  8
0
100
AcDbLine
 10
391.423
 20
201.2024155
 30
0.0
 11
397.92
 21
200.6474155
 31
0.0
  0
LINE
  5
BD1
330
1E
100
AcDbEntity
  8
0
100
AcDbLine
 10
397.689
 20
168.906862494348
 30
0.0
 11
397.689
 21
168.4414155
 31
0.0
  0
LINE
  5
BD2
330
1E
100
AcDbEntity
  8
0
100
AcDbLine
 10
397.689
 20
168.4414155
 30
0.0
 11
398.953
 21
168.1334155
 31
0.0
  0
LINE
  5
BD3
330
1E
100
AcDbEntity
  8
0
100
AcDbLine
 10
397.689
 20
168.4414155
 30
0.0
 11
398.419
 21
168.9754155
 31
0.0
  0
LINE
  5
BD4
330
1E
100
AcDbEntity
  8
0
100
AcDbLine
 10
397.689
 20
168.4414155
 30
0.0
 11
397.689
 21
168.906862494348
 31
0.0
  0
LINE
  5
BD5
330
1E
100
AcDbEntity
  8
0
100
AcDbLine
 10
397.689
 20
149.374601662014
 30
0.0
 11
397.689
 21
148.6304155
 31
0.0
  0
LINE
  5
BD6
330
1E
100
AcDbEntity
  8
0
100
AcDbLine
 10
397.689
 20
148.6304155
 30
0.0
 11
398.953
 21
148.9394155
 31
0.0
  0
LINE
  5
BD7
330
1E
100
AcDbEntity
  8
0
100
AcDbLine
 10
397.689
 20
148.6304155
 30
0.0
 11
398.419
 21
148.0954155
 31
0.0
  0
LINE
  5
BD8
330
1E
100
AcDbEntity
  8
0
100
AcDbLine
 10
397.689
 20
148.6304155
 30
0.0
 11
397.689
 21
149.374601662014
 31
0.0
  0
LINE
  5
BD9
330
1E
100
AcDbEntity
  8
0
100
AcDbLine
 10
399.246
 20
141.3284155
 30
0.0
 11
399.246
 21
141.522958809484
 31
0.0
  0
LINE
  5
BDA
330
1E
100
AcDbEntity
  8
0
100
AcDbLine
 10
397.982
 20
141.0194155
 30
0.0
 11
399.246
 21
141.3284155
 31
0.0
  0
LINE
  5
BDB
330
1E
100
AcDbEntity
  8
0
100
AcDbLine
 10
397.982
 20
177.8644155
 30
0.0
 11
399.246
 21
177.5554155
 31
0.0
  0
LINE
  5
BDC
330
1E
100
AcDbEntity
  8
0
100
AcDbLine
 10
397.982
 20
177.8644155
 30
0.0
 11
397.982
 21
179.333399972523
 31
0.0
  0
LINE
  5
BDD
330
1E
100
AcDbEntity
  8
0
100
AcDbLine
 10
398.419
 20
169.412886642319
 30
0.0
 11
398.419
 21
168.9754155
 31
0.0
  0
LINE
  5
BDE
330
1E
100
AcDbEntity
  8
0
100
AcDbLine
 10
398.419
 20
168.9754155
 30
0.0
 11
399.683
 21
168.6674155
 31
0.0
  0
LINE
  5
BDF
330
1E
100
AcDbEntity
  8
0
100
AcDbLine
 10
398.419
 20
168.9754155
 30
0.0
 11
398.419
 21
169.412886642319
 31
0.0
  0
LINE
  5
BE0
330
1E
100
AcDbEntity
  8
0
100
AcDbLine
 10
398.516
 20
141.8624155
 30
0.0
 11
399.246
 21
141.3284155
 31
0.0
  0
LINE
  5
BE1
330
1E
100
AcDbEntity
  8
0
100
AcDbLine
 10
399.683
 20
148.4044155
 30
0.0
 11
399.683
 21
148.497932576035
 31
0.0
  0
LINE
  5
BE2
330
1E
100
AcDbEntity
  8
0
100
AcDbLine
 10
398.516
 20
177.0214155
 30
0.0
 11
399.246
 21
177.5554155
 31
0.0
  0
LINE
  5
BE3
330
1E
100
AcDbEntity
  8
0
100
AcDbLine
 10
398.953
 20
168.1334155
 30
0.0
 11
399.683
 21
168.6674155
 31
0.0
  0
LINE
  5
BE4
330
1E
100
AcDbEntity
  8
0
100
AcDbLine
 10
399.72
 20
153.7594155
 30
0.0
 11
399.72
 21
154.3764155
 31
0.0
  0
LINE
  5
BE5
330
1E
100
AcDbEntity
  8
0
100
AcDbLine
 10
399.72
 20
153.7594155
 30
0.0
 11
401.18
 21
153.7594155
 31
0.0
  0
LINE
  5
BE6
330
1E
100
AcDbEntity
  8
0
100
AcDbLine
 10
399.72
 20
153.7594155
 30
0.0
 11
399.72
 21
154.570947977301
 31
0.0
  0
LINE
  5
BE7
330
1E
100
AcDbEntity
  8
0
100
AcDbLine
 10
399.72
 20
154.570947977301
 30
0.0
 11
399.72
 21
153.7594155
 31
0.0
  0
LINE
  5
BE8
330
1E
100
AcDbEntity
  8
0
100
AcDbLine
 10
399.72
 20
155.15120603442
 30
0.0
 11
399.72
 21
154.3764155
 31
0.0
  0
LINE
  5
BE9
330
1E
100
AcDbEntity
  8
0
100
AcDbLine
 10
399.72
 20
154.3764155
 30
0.0
 11
401.18
 21
154.3764155
 31
0.0
  0
LINE
  5
BEA
330
1E
100
AcDbEntity
  8
0
100
AcDbLine
 10
399.72
 20
154.3764155
 30
0.0
 11
399.72
 21
155.15120603442
 31
0.0
  0
LINE
  5
BEB
330
1E
100
AcDbEntity
  8
0
100
AcDbLine
 10
399.72
 20
154.3764155
 30
0.0
 11
399.72
 21
153.7594155
 31
0.0
  0
LINE
  5
BEC
330
1E
100
AcDbEntity
  8
0
100
AcDbLine
 10
401.18
 20
153.7594155
 30
0.0
 11
401.18
 21
154.3764155
 31
0.0
  0
LINE
  5
BED
330
1E
100
AcDbEntity
  8
0
100
AcDbLine
 10
401.18
 20
154.86919063587
 30
0.0
 11
401.18
 21
154.3764155
 31
0.0
  0
LINE
  5
BEE
330
1E
100
AcDbEntity
  8
0
100
AcDbLine
 10
401.18
 20
154.3764155
 30
0.0
 11
401.18
 21
153.7594155
 31
0.0
  0
LINE
  5
BEF
330
1E
100
AcDbEntity
  8
0
100
AcDbLine
 10
401.18
 20
154.3764155
 30
0.0
 11
401.18
 21
154.86919063587
 31
0.0
  0
LINE
  5
BF0
330
1E
100
AcDbEntity
  8
0
100
AcDbLine
 10
399.72
 20
161.7884155
 30
0.0
 11
401.18
 21
161.7884155
 31
0.0
  0
LINE
  5
BF1
330
1E
100
AcDbEntity
  8
0
100
AcDbLine
 10
399.72
 20
161.7884155
 30
0.0
 11
399.72
 21
162.29168820154
 31
0.0
  0
LINE
  5
BF2
330
1E
100
AcDbEntity
  8
0
100
AcDbLine
 10
399.72
 20
161.7884155
 30
0.0
 11
399.72
 21
162.4054155
 31
0.0
  0
LINE
  5
BF3
330
1E
100
AcDbEntity
  8
0
100
AcDbLine
 10
399.72
 20
162.94541367332
 30
0.0
 11
399.72
 21
162.4054155
 31
0.0
  0
LINE
  5
BF4
330
1E
100
AcDbEntity
  8
0
100
AcDbLine
 10
399.72
 20
162.4054155
 30
0.0
 11
399.72
 21
161.7884155
 31
0.0
  0
LINE
  5
BF5
330
1E
100
AcDbEntity
  8
0
100
AcDbLine
 10
399.72
 20
162.4054155
 30
0.0
 11
401.18
 21
162.4054155
 31
0.0
  0
LINE
  5
BF6
330
1E
100
AcDbEntity
  8
0
100
AcDbLine
 10
399.72
 20
162.4054155
 30
0.0
 11
399.72
 21
162.94541367332
 31
0.0
  0
LINE
  5
BF7
330
1E
100
AcDbEntity
  8
0
100
AcDbLine
 10
401.18
 20
163.309295906168
 30
0.0
 11
401.18
 21
162.4054155
 31
0.0
  0
LINE
  5
BF8
330
1E
100
AcDbEntity
  8
0
100
AcDbLine
 10
399.72
 20
162.29168820154
 30
0.0
 11
399.72
 21
161.7884155
 31
0.0
  0
LINE
  5
BF9
330
1E
100
AcDbEntity
  8
0
100
AcDbLine
 10
401.18
 20
162.4054155
 30
0.0
 11
401.18
 21
163.309295906168
 31
0.0
  0
LINE
  5
BFA
330
1E
100
AcDbEntity
  8
0
100
AcDbLine
 10
401.18
 20
162.4054155
 30
0.0
 11
401.18
 21
161.7884155
 31
0.0
  0
LINE
  5
BFB
330
1E
100
AcDbEntity
  8
0
100
AcDbLine
 10
401.18
 20
161.7884155
 30
0.0
 11
401.18
 21
162.4054155
 31
0.0
  0
LINE
  5
BFC
330
1E
100
AcDbEntity
  8
0
100
AcDbLine
 10
399.683
 20
168.6674155
 30
0.0
 11
399.683
 21
170.051294450974
 31
0.0
  0
LINE
  5
BFD
330
1E
100
AcDbEntity
  8
0
100
AcDbLine
 10
399.246
 20
177.5554155
 30
0.0
 11
399.246
 21
179.173307416578
 31
0.0
  0
LINE
  5
BFE
330
1E
100
AcDbEntity
  8
0
100
AcDbLine
 10
399.683
 20
170.051294450974
 30
0.0
 11
399.683
 21
168.6674155
 31
0.0
  0
LINE
  5
BFF
330
1E
100
AcDbEntity
  8
0
100
AcDbLine
 10
398.953
 20
148.9394155
 30
0.0
 11
399.683
 21
148.4044155
 31
0.0
  0
LINE
  5
C00
330
1E
100
AcDbEntity
  8
0
100
AcDbLine
 10
399.683
 20
148.497932576035
 30
0.0
 11
399.683
 21
148.4044155
 31
0.0
  0
LINE
  5
C01
330
1E
100
AcDbEntity
  8
0
100
AcDbLine
 10
398.419
 20
148.0954155
 30
0.0
 11
399.683
 21
148.4044155
 31
0.0
  0
LINE
  5
C02
330
1E
100
AcDbEntity
  8
0
100
AcDbLine
 10
399.246
 20
141.522958809484
 30
0.0
 11
402.956
 21
141.9934155
 31
0.0
  0
LINE
  5
C03
330
1E
100
AcDbEntity
  8
0
100
AcDbLine
 10
399.246
 20
141.522958809484
 30
0.0
 11
399.246
 21
141.3284155
 31
0.0
  0
LINE
  5
C04
330
1E
100
AcDbEntity
  8
0
100
AcDbLine
 10
402.069
 20
172.0994155
 30
0.0
 11
403.333
 21
171.7914155
 31
0.0
  0
LINE
  5
C05
330
1E
100
AcDbEntity
  8
0
100
AcDbLine
 10
402.069
 20
172.0994155
 30
0.0
 11
402.798
 21
172.6334155
 31
0.0
  0
LINE
  5
C06
330
1E
100
AcDbEntity
  8
0
100
AcDbLine
 10
402.069
 20
146.982620979452
 30
0.0
 11
402.069
 21
145.8784155
 31
0.0
  0
LINE
  5
C07
330
1E
100
AcDbEntity
  8
0
100
AcDbLine
 10
402.883
 20
158.238972826079
 30
0.0
 11
402.883
 21
157.7744155
 31
0.0
  0
LINE
  5
C08
330
1E
100
AcDbEntity
  8
0
100
AcDbLine
 10
402.883
 20
157.7744155
 30
0.0
 11
402.883
 21
158.3904155
 31
0.0
  0
LINE
  5
C09
330
1E
100
AcDbEntity
  8
0
100
AcDbLine
 10
402.883
 20
157.7744155
 30
0.0
 11
404.343
 21
157.7744155
 31
0.0
  0
LINE
  5
C0A
330
1E
100
AcDbEntity
  8
0
100
AcDbLine
 10
402.883
 20
157.7744155
 30
0.0
 11
402.883
 21
158.238972826079
 31
0.0
  0
LINE
  5
C0B
330
1E
100
AcDbEntity
  8
0
100
AcDbLine
 10
402.798
 20
172.6334155
 30
0.0
 11
404.063
 21
172.3264155
 31
0.0
  0
LINE
  5
C0C
330
1E
100
AcDbEntity
  8
0
100
AcDbLine
 10
402.883
 20
159.295708688885
 30
0.0
 11
402.883
 21
158.3904155
 31
0.0
  0
LINE
  5
C0D
330
1E
100
AcDbEntity
  8
0
100
AcDbLine
 10
402.883
 20
158.3904155
 30
0.0
 11
404.343
 21
158.3904155
 31
0.0
  0
LINE
  5
C0E
330
1E
100
AcDbEntity
  8
0
100
AcDbLine
 10
402.883
 20
158.3904155
 30
0.0
 11
402.883
 21
159.295708688885
 31
0.0
  0
LINE
  5
C0F
330
1E
100
AcDbEntity
  8
0
100
AcDbLine
 10
402.883
 20
158.3904155
 30
0.0
 11
402.883
 21
157.7744155
 31
0.0
  0
LINE
  5
C10
330
1E
100
AcDbEntity
  8
0
100
AcDbLine
 10
402.069
 20
145.8784155
 30
0.0
 11
403.333
 21
146.1864155
 31
0.0
  0
LINE
  5
C11
330
1E
100
AcDbEntity
  8
0
100
AcDbLine
 10
402.069
 20
145.8784155
 30
0.0
 11
402.798
 21
145.3434155
 31
0.0
  0
LINE
  5
C12
330
1E
100
AcDbEntity
  8
0
100
AcDbLine
 10
402.069
 20
145.8784155
 30
0.0
 11
402.069
 21
146.982620979452
 31
0.0
  0
LINE
  5
C13
330
1E
100
AcDbEntity
  8
0
100
AcDbLine
 10
402.798
 20
145.3434155
 30
0.0
 11
404.063
 21
145.6524155
 31
0.0
  0
LINE
  5
C14
330
1E
100
AcDbEntity
  8
0
100
AcDbLine
 10
403.333
 20
171.7914155
 30
0.0
 11
404.063
 21
172.3264155
 31
0.0
  0
LINE
  5
C15
330
1E
100
AcDbEntity
  8
0
100
AcDbLine
 10
403.333
 20
146.891672557456
 30
0.0
 11
403.333
 21
146.1864155
 31
0.0
  0
LINE
  5
C16
330
1E
100
AcDbEntity
  8
0
100
AcDbLine
 10
403.333
 20
146.1864155
 30
0.0
 11
404.063
 21
145.6524155
 31
0.0
  0
LINE
  5
C17
330
1E
100
AcDbEntity
  8
0
100
AcDbLine
 10
403.333
 20
146.1864155
 30
0.0
 11
403.333
 21
146.891672557456
 31
0.0
  0
LINE
  5
C18
330
1E
100
AcDbEntity
  8
0
100
AcDbLine
 10
402.956
 20
141.9934155
 30
0.0
 11
406.900442275788
 21
142.793831092402
 31
0.0
  0
LINE
  5
C19
330
1E
100
AcDbEntity
  8
0
100
AcDbLine
 10
403.832
 20
141.1604155
 30
0.0
 11
409.526
 21
142.3024155
 31
0.0
  0
LINE
  5
C1A
330
1E
100
AcDbEntity
  8
0
100
AcDbLine
 10
397.982
 20
179.333399972523
 30
0.0
 11
397.982
 21
177.8644155
 31
0.0
  0
LINE
  5
C1B
330
1E
100
AcDbEntity
  8
0
100
AcDbLine
 10
399.246
 20
179.173307416578
 30
0.0
 11
399.246
 21
177.5554155
 31
0.0
  0
LINE
  5
C1C
330
1E
100
AcDbEntity
  8
0
100
AcDbLine
 10
402.956
 20
178.7034155
 30
0.0
 11
408.431
 21
177.5924155
 31
0.0
  0
LINE
  5
C1D
330
1E
100
AcDbEntity
  8
0
100
AcDbLine
 10
406.448
 20
143.1254155
 30
0.0
 11
407.712
 21
143.4334155
 31
0.0
  0
LINE
  5
C1E
330
1E
100
AcDbEntity
  8
0
100
AcDbLine
 10
406.448
 20
143.1254155
 30
0.0
 11
407.178
 21
142.5904155
 31
0.0
  0
LINE
  5
C1F
330
1E
100
AcDbEntity
  8
0
100
AcDbLine
 10
406.448
 20
143.1254155
 30
0.0
 11
406.448
 21
143.729254549394
 31
0.0
  0
LINE
  5
C20
330
1E
100
AcDbEntity
  8
0
100
AcDbLine
 10
404.063
 20
145.6524155
 30
0.0
 11
404.063
 21
146.727901385088
 31
0.0
  0
LINE
  5
C21
330
1E
100
AcDbEntity
  8
0
100
AcDbLine
 10
404.18
 20
151.068060910292
 30
0.0
 11
404.18
 21
150.6454155
 31
0.0
  0
LINE
  5
C22
330
1E
100
AcDbEntity
  8
0
100
AcDbLine
 10
404.18
 20
150.6454155
 30
0.0
 11
404.18
 21
151.2624155
 31
0.0
  0
LINE
  5
C23
330
1E
100
AcDbEntity
  8
0
100
AcDbLine
 10
404.18
 20
150.6454155
 30
0.0
 11
405.64
 21
150.6454155
 31
0.0
  0
LINE
  5
C24
330
1E
100
AcDbEntity
  8
0
100
AcDbLine
 10
404.18
 20
150.6454155
 30
0.0
 11
404.18
 21
151.068060910292
 31
0.0
  0
LINE
  5
C25
330
1E
100
AcDbEntity
  8
0
100
AcDbLine
 10
404.18
 20
151.2624155
 30
0.0
 11
405.64
 21
151.2624155
 31
0.0
  0
LINE
  5
C26
330
1E
100
AcDbEntity
  8
0
100
AcDbLine
 10
404.18
 20
151.2624155
 30
0.0
 11
404.18
 21
150.6454155
 31
0.0
  0
LINE
  5
C27
330
1E
100
AcDbEntity
  8
0
100
AcDbLine
 10
404.343
 20
157.7744155
 30
0.0
 11
404.343
 21
158.3904155
 31
0.0
  0
LINE
  5
C28
330
1E
100
AcDbEntity
  8
0
100
AcDbLine
 10
404.063
 20
172.3264155
 30
0.0
 11
404.063
 21
172.531354888907
 31
0.0
  0
LINE
  5
C29
330
1E
100
AcDbEntity
  8
0
100
AcDbLine
 10
404.18
 20
167.279812996523
 30
0.0
 11
404.18
 21
166.4264155
 31
0.0
  0
LINE
  5
C2A
330
1E
100
AcDbEntity
  8
0
100
AcDbLine
 10
404.18
 20
166.4264155
 30
0.0
 11
404.18
 21
165.8094155
 31
0.0
  0
LINE
  5
C2B
330
1E
100
AcDbEntity
  8
0
100
AcDbLine
 10
404.18
 20
166.4264155
 30
0.0
 11
405.64
 21
166.4264155
 31
0.0
  0
LINE
  5
C2C
330
1E
100
AcDbEntity
  8
0
100
AcDbLine
 10
404.18
 20
166.4264155
 30
0.0
 11
404.18
 21
167.279812996523
 31
0.0
  0
LINE
  5
C2D
330
1E
100
AcDbEntity
  8
0
100
AcDbLine
 10
404.18
 20
165.8094155
 30
0.0
 11
405.64
 21
165.8094155
 31
0.0
  0
LINE
  5
C2E
330
1E
100
AcDbEntity
  8
0
100
AcDbLine
 10
404.18
 20
165.8094155
 30
0.0
 11
404.18
 21
166.4264155
 31
0.0
  0
LINE
  5
C2F
330
1E
100
AcDbEntity
  8
0
100
AcDbLine
 10
404.063
 20
172.531354888907
 30
0.0
 11
404.063
 21
172.3264155
 31
0.0
  0
LINE
  5
C30
330
1E
100
AcDbEntity
  8
0
100
AcDbLine
 10
404.343
 20
159.309681677614
 30
0.0
 11
404.343
 21
158.3904155
 31
0.0
  0
LINE
  5
C31
330
1E
100
AcDbEntity
  8
0
100
AcDbLine
 10
405.64
 20
150.6454155
 30
0.0
 11
405.64
 21
151.2624155
 31
0.0
  0
LINE
  5
C32
330
1E
100
AcDbEntity
  8
0
100
AcDbLine
 10
405.64
 20
152.145173598224
 30
0.0
 11
405.64
 21
151.2624155
 31
0.0
  0
LINE
  5
C33
330
1E
100
AcDbEntity
  8
0
100
AcDbLine
 10
405.64
 20
151.2624155
 30
0.0
 11
405.64
 21
150.6454155
 31
0.0
  0
LINE
  5
C34
330
1E
100
AcDbEntity
  8
0
100
AcDbLine
 10
405.64
 20
151.2624155
 30
0.0
 11
405.64
 21
152.145173598224
 31
0.0
  0
LINE
  5
C35
330
1E
100
AcDbEntity
  8
0
100
AcDbLine
 10
405.64
 20
166.4264155
 30
0.0
 11
405.64
 21
165.8094155
 31
0.0
  0
LINE
  5
C36
330
1E
100
AcDbEntity
  8
0
100
AcDbLine
 10
405.64
 20
165.8094155
 30
0.0
 11
405.64
 21
166.4264155
 31
0.0
  0
LINE
  5
C37
330
1E
100
AcDbEntity
  8
0
100
AcDbLine
 10
406.448
 20
176.632517829916
 30
0.0
 11
406.448
 21
175.7584155
 31
0.0
  0
LINE
  5
C38
330
1E
100
AcDbEntity
  8
0
100
AcDbLine
 10
406.448
 20
175.7584155
 30
0.0
 11
407.712
 21
175.4504155
 31
0.0
  0
LINE
  5
C39
330
1E
100
AcDbEntity
  8
0
100
AcDbLine
 10
406.448
 20
175.7584155
 30
0.0
 11
407.178
 21
176.2934155
 31
0.0
  0
LINE
  5
C3A
330
1E
100
AcDbEntity
  8
0
100
AcDbLine
 10
406.448
 20
175.7584155
 30
0.0
 11
406.448
 21
176.632517829916
 31
0.0
  0
LINE
  5
C3B
330
1E
100
AcDbEntity
  8
0
100
AcDbLine
 10
404.343
 20
158.3904155
 30
0.0
 11
404.343
 21
157.7744155
 31
0.0
  0
LINE
  5
C3C
330
1E
100
AcDbEntity
  8
0
100
AcDbLine
 10
404.343
 20
158.3904155
 30
0.0
 11
404.343
 21
159.309681677614
 31
0.0
  0
LINE
  5
C3D
330
1E
100
AcDbEntity
  8
0
100
AcDbLine
 10
404.063
 20
146.727901385088
 30
0.0
 11
404.063
 21
145.6524155
 31
0.0
  0
LINE
  5
C3E
330
1E
100
AcDbEntity
  8
0
100
AcDbLine
 10
407.712
 20
175.4504155
 30
0.0
 11
408.442
 21
175.9844155
 31
0.0
  0
LINE
  5
C3F
330
1E
100
AcDbEntity
  8
0
100
AcDbLine
 10
407.178
 20
176.985884092731
 30
0.0
 11
407.178
 21
176.2934155
 31
0.0
  0
LINE
  5
C40
330
1E
100
AcDbEntity
  8
0
100
AcDbLine
 10
407.178
 20
176.2934155
 30
0.0
 11
408.442
 21
175.9844155
 31
0.0
  0
LINE
  5
C41
330
1E
100
AcDbEntity
  8
0
100
AcDbLine
 10
407.178
 20
176.2934155
 30
0.0
 11
407.178
 21
176.985884092731
 31
0.0
  0
LINE
  5
C42
330
1E
100
AcDbEntity
  8
0
100
AcDbLine
 10
406.448
 20
143.729254549394
 30
0.0
 11
406.448
 21
143.1254155
 31
0.0
  0
LINE
  5
C43
330
1E
100
AcDbEntity
  8
0
100
AcDbLine
 10
407.712
 20
143.542710020548
 30
0.0
 11
407.712
 21
143.4334155
 31
0.0
  0
LINE
  5
C44
330
1E
100
AcDbEntity
  8
0
100
AcDbLine
 10
407.712
 20
143.4334155
 30
0.0
 11
408.442
 21
142.8994155
 31
0.0
  0
LINE
  5
C45
330
1E
100
AcDbEntity
  8
0
100
AcDbLine
 10
407.712
 20
143.4334155
 30
0.0
 11
407.712
 21
143.542710020548
 31
0.0
  0
LINE
  5
C46
330
1E
100
AcDbEntity
  8
0
100
AcDbLine
 10
407.178
 20
142.5904155
 30
0.0
 11
408.442
 21
142.8994155
 31
0.0
  0
LINE
  5
C47
330
1E
100
AcDbEntity
  8
0
100
AcDbLine
 10
408.442
 20
175.9844155
 30
0.0
 11
408.442
 21
177.589271733115
 31
0.0
  0
LINE
  5
C48
330
1E
100
AcDbEntity
  8
0
100
AcDbLine
 10
408.442
 20
177.589271733115
 30
0.0
 11
408.442
 21
175.9844155
 31
0.0
  0
LINE
  5
C49
330
1E
100
AcDbEntity
  8
0
100
AcDbLine
 10
408.442
 20
142.8994155
 30
0.0
 11
408.442
 21
143.107559266885
 31
0.0
  0
LINE
  5
C4A
330
1E
100
AcDbEntity
  8
0
100
AcDbLine
 10
409.045
 20
147.7014155
 30
0.0
 11
409.045
 21
148.3184155
 31
0.0
  0
LINE
  5
C4B
330
1E
100
AcDbEntity
  8
0
100
AcDbLine
 10
409.045
 20
147.7014155
 30
0.0
 11
410.505
 21
147.7014155
 31
0.0
  0
LINE
  5
C4C
330
1E
100
AcDbEntity
  8
0
100
AcDbLine
 10
409.045
 20
149.33684132558
 30
0.0
 11
409.045
 21
148.3184155
 31
0.0
  0
LINE
  5
C4D
330
1E
100
AcDbEntity
  8
0
100
AcDbLine
 10
409.452
 20
154.86017429397
 30
0.0
 11
409.452
 21
154.4534155
 31
0.0
  0
LINE
  5
C4E
330
1E
100
AcDbEntity
  8
0
100
AcDbLine
 10
409.452
 20
154.4534155
 30
0.0
 11
409.452
 21
155.0694155
 31
0.0
  0
LINE
  5
C4F
330
1E
100
AcDbEntity
  8
0
100
AcDbLine
 10
409.452
 20
154.4534155
 30
0.0
 11
410.912
 21
154.4534155
 31
0.0
  0
LINE
  5
C50
330
1E
100
AcDbEntity
  8
0
100
AcDbLine
 10
409.452
 20
154.4534155
 30
0.0
 11
409.452
 21
154.86017429397
 31
0.0
  0
LINE
  5
C51
330
1E
100
AcDbEntity
  8
0
100
AcDbLine
 10
409.452
 20
156.070992870392
 30
0.0
 11
409.452
 21
155.0694155
 31
0.0
  0
LINE
  5
C52
330
1E
100
AcDbEntity
  8
0
100
AcDbLine
 10
409.452
 20
155.0694155
 30
0.0
 11
410.912
 21
155.0694155
 31
0.0
  0
LINE
  5
C53
330
1E
100
AcDbEntity
  8
0
100
AcDbLine
 10
409.452
 20
155.0694155
 30
0.0
 11
409.452
 21
156.070992870392
 31
0.0
  0
LINE
  5
C54
330
1E
100
AcDbEntity
  8
0
100
AcDbLine
 10
409.452
 20
155.0694155
 30
0.0
 11
409.452
 21
154.4534155
 31
0.0
  0
LINE
  5
C55
330
1E
100
AcDbEntity
  8
0
100
AcDbLine
 10
409.045
 20
148.3184155
 30
0.0
 11
410.505
 21
148.3184155
 31
0.0
  0
LINE
  5
C56
330
1E
100
AcDbEntity
  8
0
100
AcDbLine
 10
409.045
 20
148.3184155
 30
0.0
 11
409.045
 21
149.33684132558
 31
0.0
  0
LINE
  5
C57
330
1E
100
AcDbEntity
  8
0
100
AcDbLine
 10
409.045
 20
148.3184155
 30
0.0
 11
409.045
 21
147.7014155
 31
0.0
  0
LINE
  5
C58
330
1E
100
AcDbEntity
  8
0
100
AcDbLine
 10
409.045
 20
170.2764155
 30
0.0
 11
409.045
 21
169.6594155
 31
0.0
  0
LINE
  5
C59
330
1E
100
AcDbEntity
  8
0
100
AcDbLine
 10
409.045
 20
170.2764155
 30
0.0
 11
410.505
 21
170.2764155
 31
0.0
  0
LINE
  5
C5A
330
1E
100
AcDbEntity
  8
0
100
AcDbLine
 10
409.045
 20
169.6594155
 30
0.0
 11
410.505
 21
169.6594155
 31
0.0
  0
LINE
  5
C5B
330
1E
100
AcDbEntity
  8
0
100
AcDbLine
 10
409.045
 20
169.6594155
 30
0.0
 11
409.045
 21
170.2764155
 31
0.0
  0
LINE
  5
C5C
330
1E
100
AcDbEntity
  8
0
100
AcDbLine
 10
409.452
 20
163.42859375972
 30
0.0
 11
409.452
 21
162.6184155
 31
0.0
  0
LINE
  5
C5D
330
1E
100
AcDbEntity
  8
0
100
AcDbLine
 10
409.452
 20
162.6184155
 30
0.0
 11
409.452
 21
162.0014155
 31
0.0
  0
LINE
  5
C5E
330
1E
100
AcDbEntity
  8
0
100
AcDbLine
 10
409.452
 20
162.6184155
 30
0.0
 11
410.912
 21
162.6184155
 31
0.0
  0
LINE
  5
C5F
330
1E
100
AcDbEntity
  8
0
100
AcDbLine
 10
409.452
 20
162.6184155
 30
0.0
 11
409.452
 21
163.42859375972
 31
0.0
  0
LINE
  5
C60
330
1E
100
AcDbEntity
  8
0
100
AcDbLine
 10
409.452
 20
162.135152539227
 30
0.0
 11
409.452
 21
162.0014155
 31
0.0
  0
LINE
  5
C61
330
1E
100
AcDbEntity
  8
0
100
AcDbLine
 10
409.452
 20
162.0014155
 30
0.0
 11
410.912
 21
162.0014155
 31
0.0
  0
LINE
  5
C62
330
1E
100
AcDbEntity
  8
0
100
AcDbLine
 10
409.452
 20
162.0014155
 30
0.0
 11
409.452
 21
162.135152539227
 31
0.0
  0
LINE
  5
C63
330
1E
100
AcDbEntity
  8
0
100
AcDbLine
 10
409.452
 20
162.0014155
 30
0.0
 11
409.452
 21
162.6184155
 31
0.0
  0
LINE
  5
C64
330
1E
100
AcDbEntity
  8
0
100
AcDbLine
 10
408.442
 20
143.107559266885
 30
0.0
 11
413.613
 21
144.5854155
 31
0.0
  0
LINE
  5
C65
330
1E
100
AcDbEntity
  8
0
100
AcDbLine
 10
408.442
 20
143.107559266885
 30
0.0
 11
408.442
 21
142.8994155
 31
0.0
  0
LINE
  5
C66
330
1E
100
AcDbEntity
  8
0
100
AcDbLine
 10
409.526
 20
142.3024155
 30
0.0
 11
414.927
 21
143.8444155
 31
0.0
  0
LINE
  5
C67
330
1E
100
AcDbEntity
  8
0
100
AcDbLine
 10
408.431
 20
177.5924155
 30
0.0
 11
413.613
 21
176.1114155
 31
0.0
  0
LINE
  5
C68
330
1E
100
AcDbEntity
  8
0
100
AcDbLine
 10
409.526
 20
178.3944155
 30
0.0
 11
414.927
 21
176.8524155
 31
0.0
  0
LINE
  5
C69
330
1E
100
AcDbEntity
  8
0
100
AcDbLine
 10
403.832
 20
179.5354155
 30
0.0
 11
409.526
 21
178.3944155
 31
0.0
  0
LINE
  5
C6A
330
1E
100
AcDbEntity
  8
0
100
AcDbLine
 10
404.124
 20
180.7504155
 30
0.0
 11
409.891
 21
179.5474155
 31
0.0
  0
LINE
  5
C6B
330
1E
100
AcDbEntity
  8
0
100
AcDbLine
 10
397.92
 20
181.6144155
 30
0.0
 11
404.124
 21
180.7504155
 31
0.0
  0
LINE
  5
C6C
330
1E
100
AcDbEntity
  8
0
100
AcDbLine
 10
404.124
 20
199.7834155
 30
0.0
 11
409.891
 21
198.5804155
 31
0.0
  0
LINE
  5
C6D
330
1E
100
AcDbEntity
  8
0
100
AcDbLine
 10
410.505
 20
147.7014155
 30
0.0
 11
410.505
 21
148.3184155
 31
0.0
  0
LINE
  5
C6E
330
1E
100
AcDbEntity
  8
0
100
AcDbLine
 10
410.505
 20
148.855150291944
 30
0.0
 11
410.505
 21
148.3184155
 31
0.0
  0
LINE
  5
C6F
330
1E
100
AcDbEntity
  8
0
100
AcDbLine
 10
410.912
 20
154.4534155
 30
0.0
 11
410.912
 21
155.0694155
 31
0.0
  0
LINE
  5
C70
330
1E
100
AcDbEntity
  8
0
100
AcDbLine
 10
410.912
 20
156.025304914548
 30
0.0
 11
410.912
 21
155.0694155
 31
0.0
  0
LINE
  5
C71
330
1E
100
AcDbEntity
  8
0
100
AcDbLine
 10
410.912
 20
155.0694155
 30
0.0
 11
410.912
 21
154.4534155
 31
0.0
  0
LINE
  5
C72
330
1E
100
AcDbEntity
  8
0
100
AcDbLine
 10
410.912
 20
155.0694155
 30
0.0
 11
410.912
 21
156.025304914548
 31
0.0
  0
LINE
  5
C73
330
1E
100
AcDbEntity
  8
0
100
AcDbLine
 10
410.505
 20
148.3184155
 30
0.0
 11
410.505
 21
147.7014155
 31
0.0
  0
LINE
  5
C74
330
1E
100
AcDbEntity
  8
0
100
AcDbLine
 10
410.505
 20
148.3184155
 30
0.0
 11
410.505
 21
148.855150291944
 31
0.0
  0
LINE
  5
C75
330
1E
100
AcDbEntity
  8
0
100
AcDbLine
 10
411.642
 20
158.2274155
 30
0.0
 11
411.642
 21
158.8444155
 31
0.0
  0
LINE
  5
C76
330
1E
100
AcDbEntity
  8
0
100
AcDbLine
 10
411.642
 20
158.2274155
 30
0.0
 11
413.102
 21
158.2274155
 31
0.0
  0
LINE
  5
C77
330
1E
100
AcDbEntity
  8
0
100
AcDbLine
 10
411.642
 20
158.2274155
 30
0.0
 11
411.642
 21
158.926620707928
 31
0.0
  0
LINE
  5
C78
330
1E
100
AcDbEntity
  8
0
100
AcDbLine
 10
413.262
 20
144.742265750179
 30
0.0
 11
413.262
 21
144.6204155
 31
0.0
  0
LINE
  5
C79
330
1E
100
AcDbEntity
  8
0
100
AcDbLine
 10
413.262
 20
144.6204155
 30
0.0
 11
413.262
 21
145.2374155
 31
0.0
  0
LINE
  5
C7A
330
1E
100
AcDbEntity
  8
0
100
AcDbLine
 10
413.262
 20
144.6204155
 30
0.0
 11
414.722
 21
144.6204155
 31
0.0
  0
LINE
  5
C7B
330
1E
100
AcDbEntity
  8
0
100
AcDbLine
 10
413.262
 20
144.6204155
 30
0.0
 11
413.262
 21
144.742265750179
 31
0.0
  0
LINE
  5
C7C
330
1E
100
AcDbEntity
  8
0
100
AcDbLine
 10
413.262
 20
145.2374155
 30
0.0
 11
414.722
 21
145.2374155
 31
0.0
  0
LINE
  5
C7D
330
1E
100
AcDbEntity
  8
0
100
AcDbLine
 10
413.262
 20
145.2374155
 30
0.0
 11
413.262
 21
144.6204155
 31
0.0
  0
LINE
  5
C7E
330
1E
100
AcDbEntity
  8
0
100
AcDbLine
 10
413.102
 20
158.2274155
 30
0.0
 11
413.102
 21
158.8444155
 31
0.0
  0
LINE
  5
C7F
330
1E
100
AcDbEntity
  8
0
100
AcDbLine
 10
411.642
 20
158.8444155
 30
0.0
 11
413.102
 21
158.8444155
 31
0.0
  0
LINE
  5
C80
330
1E
100
AcDbEntity
  8
0
100
AcDbLine
 10
411.642
 20
158.8444155
 30
0.0
 11
411.642
 21
159.379537050719
 31
0.0
  0
LINE
  5
C81
330
1E
100
AcDbEntity
  8
0
100
AcDbLine
 10
411.642
 20
158.8444155
 30
0.0
 11
411.642
 21
158.2274155
 31
0.0
  0
LINE
  5
C82
330
1E
100
AcDbEntity
  8
0
100
AcDbLine
 10
411.642
 20
158.926620707928
 30
0.0
 11
411.642
 21
158.2274155
 31
0.0
  0
LINE
  5
C83
330
1E
100
AcDbEntity
  8
0
100
AcDbLine
 10
410.912
 20
162.0014155
 30
0.0
 11
410.912
 21
162.6184155
 31
0.0
  0
LINE
  5
C84
330
1E
100
AcDbEntity
  8
0
100
AcDbLine
 10
411.642
 20
159.379537050719
 30
0.0
 11
411.642
 21
158.8444155
 31
0.0
  0
LINE
  5
C85
330
1E
100
AcDbEntity
  8
0
100
AcDbLine
 10
413.102
 20
159.393510039448
 30
0.0
 11
413.102
 21
158.8444155
 31
0.0
  0
LINE
  5
C86
330
1E
100
AcDbEntity
  8
0
100
AcDbLine
 10
413.102
 20
158.8444155
 30
0.0
 11
413.102
 21
158.2274155
 31
0.0
  0
LINE
  5
C87
330
1E
100
AcDbEntity
  8
0
100
AcDbLine
 10
413.102
 20
158.8444155
 30
0.0
 11
413.102
 21
159.393510039448
 31
0.0
  0
LINE
  5
C88
330
1E
100
AcDbEntity
  8
0
100
AcDbLine
 10
413.613
 20
144.5854155
 30
0.0
 11
413.706204979734
 21
144.6204155
 31
0.0
  0
LINE
  5
C89
330
1E
100
AcDbEntity
  8
0
100
AcDbLine
 10
410.505
 20
170.412903998109
 30
0.0
 11
410.505
 21
170.2764155
 31
0.0
  0
LINE
  5
C8A
330
1E
100
AcDbEntity
  8
0
100
AcDbLine
 10
410.505
 20
170.2764155
 30
0.0
 11
410.505
 21
170.412903998109
 31
0.0
  0
LINE
  5
C8B
330
1E
100
AcDbEntity
  8
0
100
AcDbLine
 10
410.505
 20
170.2764155
 30
0.0
 11
410.505
 21
169.6594155
 31
0.0
  0
LINE
  5
C8C
330
1E
100
AcDbEntity
  8
0
100
AcDbLine
 10
410.505
 20
169.6594155
 30
0.0
 11
410.505
 21
170.2764155
 31
0.0
  0
LINE
  5
C8D
330
1E
100
AcDbEntity
  8
0
100
AcDbLine
 10
410.912
 20
163.753492992727
 30
0.0
 11
410.912
 21
162.6184155
 31
0.0
  0
LINE
  5
C8E
330
1E
100
AcDbEntity
  8
0
100
AcDbLine
 10
413.262
 20
174.2634155
 30
0.0
 11
413.262
 21
173.6464155
 31
0.0
  0
LINE
  5
C8F
330
1E
100
AcDbEntity
  8
0
100
AcDbLine
 10
413.262
 20
174.2634155
 30
0.0
 11
414.722
 21
174.2634155
 31
0.0
  0
LINE
  5
C90
330
1E
100
AcDbEntity
  8
0
100
AcDbLine
 10
413.262
 20
173.6464155
 30
0.0
 11
414.722
 21
173.6464155
 31
0.0
  0
LINE
  5
C91
330
1E
100
AcDbEntity
  8
0
100
AcDbLine
 10
413.262
 20
173.6464155
 30
0.0
 11
413.262
 21
174.2634155
 31
0.0
  0
LINE
  5
C92
330
1E
100
AcDbEntity
  8
0
100
AcDbLine
 10
410.912
 20
162.6184155
 30
0.0
 11
410.912
 21
163.753492992727
 31
0.0
  0
LINE
  5
C93
330
1E
100
AcDbEntity
  8
0
100
AcDbLine
 10
410.912
 20
162.6184155
 30
0.0
 11
410.912
 21
162.0014155
 31
0.0
  0
LINE
  5
C94
330
1E
100
AcDbEntity
  8
0
100
AcDbLine
 10
414.399
 20
150.800269417114
 30
0.0
 11
414.399
 21
150.5154155
 31
0.0
  0
LINE
  5
C95
330
1E
100
AcDbEntity
  8
0
100
AcDbLine
 10
414.399
 20
150.5154155
 30
0.0
 11
414.399
 21
151.1324155
 31
0.0
  0
LINE
  5
C96
330
1E
100
AcDbEntity
  8
0
100
AcDbLine
 10
414.399
 20
150.5154155
 30
0.0
 11
415.859
 21
150.5154155
 31
0.0
  0
LINE
  5
C97
330
1E
100
AcDbEntity
  8
0
100
AcDbLine
 10
414.399
 20
150.5154155
 30
0.0
 11
414.399
 21
150.800269417114
 31
0.0
  0
LINE
  5
C98
330
1E
100
AcDbEntity
  8
0
100
AcDbLine
 10
414.399
 20
151.1324155
 30
0.0
 11
415.859
 21
151.1324155
 31
0.0
  0
LINE
  5
C99
330
1E
100
AcDbEntity
  8
0
100
AcDbLine
 10
414.399
 20
151.1324155
 30
0.0
 11
414.399
 21
150.5154155
 31
0.0
  0
LINE
  5
C9A
330
1E
100
AcDbEntity
  8
0
100
AcDbLine
 10
414.722
 20
144.6204155
 30
0.0
 11
414.722
 21
145.2374155
 31
0.0
  0
LINE
  5
C9B
330
1E
100
AcDbEntity
  8
0
100
AcDbLine
 10
414.722
 20
145.2374155
 30
0.0
 11
414.722
 21
144.6204155
 31
0.0
  0
LINE
  5
C9C
330
1E
100
AcDbEntity
  8
0
100
AcDbLine
 10
414.399
 20
168.473790689316
 30
0.0
 11
414.399
 21
167.4624155
 31
0.0
  0
LINE
  5
C9D
330
1E
100
AcDbEntity
  8
0
100
AcDbLine
 10
414.722
 20
175.694726654599
 30
0.0
 11
414.722
 21
174.2634155
 31
0.0
  0
LINE
  5
C9E
330
1E
100
AcDbEntity
  8
0
100
AcDbLine
 10
414.722
 20
174.2634155
 30
0.0
 11
414.722
 21
175.694726654599
 31
0.0
  0
LINE
  5
C9F
330
1E
100
AcDbEntity
  8
0
100
AcDbLine
 10
414.722
 20
174.2634155
 30
0.0
 11
414.722
 21
173.6464155
 31
0.0
  0
LINE
  5
CA0
330
1E
100
AcDbEntity
  8
0
100
AcDbLine
 10
414.722
 20
173.6464155
 30
0.0
 11
414.722
 21
174.2634155
 31
0.0
  0
LINE
  5
CA1
330
1E
100
AcDbEntity
  8
0
100
AcDbLine
 10
414.399
 20
167.4624155
 30
0.0
 11
414.399
 21
166.8454155
 31
0.0
  0
LINE
  5
CA2
330
1E
100
AcDbEntity
  8
0
100
AcDbLine
 10
414.399
 20
167.4624155
 30
0.0
 11
415.859
 21
167.4624155
 31
0.0
  0
LINE
  5
CA3
330
1E
100
AcDbEntity
  8
0
100
AcDbLine
 10
414.399
 20
167.4624155
 30
0.0
 11
414.399
 21
168.473790689316
 31
0.0
  0
LINE
  5
CA4
330
1E
100
AcDbEntity
  8
0
100
AcDbLine
 10
414.399
 20
166.8454155
 30
0.0
 11
415.859
 21
166.8454155
 31
0.0
  0
LINE
  5
CA5
330
1E
100
AcDbEntity
  8
0
100
AcDbLine
 10
414.399
 20
166.8454155
 30
0.0
 11
414.399
 21
167.4624155
 31
0.0
  0
LINE
  5
CA6
330
1E
100
AcDbEntity
  8
0
100
AcDbLine
 10
414.722
 20
145.001863206023
 30
0.0
 11
418.212
 21
146.3124155
 31
0.0
  0
LINE
  5
CA7
330
1E
100
AcDbEntity
  8
0
100
AcDbLine
 10
414.927
 20
143.8444155
 30
0.0
 11
419.818
 21
145.6334155
 31
0.0
  0
LINE
  5
CA8
330
1E
100
AcDbEntity
  8
0
100
AcDbLine
 10
413.613
 20
176.1114155
 30
0.0
 11
418.212
 21
174.3834155
 31
0.0
  0
LINE
  5
CA9
330
1E
100
AcDbEntity
  8
0
100
AcDbLine
 10
414.927
 20
176.8524155
 30
0.0
 11
419.818
 21
175.0624155
 31
0.0
  0
LINE
  5
CAA
330
1E
100
AcDbEntity
  8
0
100
AcDbLine
 10
415.365
 20
178.0054155
 30
0.0
 11
420.328
 21
176.1854155
 31
0.0
  0
LINE
  5
CAB
330
1E
100
AcDbEntity
  8
0
100
AcDbLine
 10
409.891
 20
179.5474155
 30
0.0
 11
415.365
 21
178.0054155
 31
0.0
  0
LINE
  5
CAC
330
1E
100
AcDbEntity
  8
0
100
AcDbLine
 10
419.67
 20
147.4674155
 30
0.0
 11
419.67
 21
148.0844155
 31
0.0
  0
LINE
  5
CAD
330
1E
100
AcDbEntity
  8
0
100
AcDbLine
 10
419.67
 20
147.4674155
 30
0.0
 11
421.13
 21
147.4674155
 31
0.0
  0
LINE
  5
CAE
330
1E
100
AcDbEntity
  8
0
100
AcDbLine
 10
419.67
 20
147.4674155
 30
0.0
 11
419.67
 21
148.498827383473
 31
0.0
  0
LINE
  5
CAF
330
1E
100
AcDbEntity
  8
0
100
AcDbLine
 10
418.212
 20
146.3124155
 30
0.0
 11
420.641482758621
 21
147.4674155
 31
0.0
  0
LINE
  5
CB0
330
1E
100
AcDbEntity
  8
0
100
AcDbLine
 10
421.13
 20
147.4674155
 30
0.0
 11
421.13
 21
148.0844155
 31
0.0
  0
LINE
  5
CB1
330
1E
100
AcDbEntity
  8
0
100
AcDbLine
 10
421.13
 20
147.699661401639
 30
0.0
 11
422.299
 21
148.2554155
 31
0.0
  0
LINE
  5
CB2
330
1E
100
AcDbEntity
  8
0
100
AcDbLine
 10
419.818
 20
145.6334155
 30
0.0
 11
424.051
 21
147.7004155
 31
0.0
  0
LINE
  5
CB3
330
1E
100
AcDbEntity
  8
0
100
AcDbLine
 10
419.67
 20
148.0844155
 30
0.0
 11
421.13
 21
148.0844155
 31
0.0
  0
LINE
  5
CB4
330
1E
100
AcDbEntity
  8
0
100
AcDbLine
 10
419.67
 20
148.0844155
 30
0.0
 11
419.67
 21
148.885593144711
 31
0.0
  0
LINE
  5
CB5
330
1E
100
AcDbEntity
  8
0
100
AcDbLine
 10
419.67
 20
148.0844155
 30
0.0
 11
419.67
 21
147.4674155
 31
0.0
  0
LINE
  5
CB6
330
1E
100
AcDbEntity
  8
0
100
AcDbLine
 10
421.13
 20
148.0844155
 30
0.0
 11
421.13
 21
147.4674155
 31
0.0
  0
LINE
  5
CB7
330
1E
100
AcDbEntity
  8
0
100
AcDbLine
 10
421.13
 20
148.0844155
 30
0.0
 11
421.13
 21
148.535627621212
 31
0.0
  0
LINE
  5
CB8
330
1E
100
AcDbEntity
  8
0
100
AcDbLine
 10
419.67
 20
148.498827383473
 30
0.0
 11
419.67
 21
147.4674155
 31
0.0
  0
LINE
  5
CB9
330
1E
100
AcDbEntity
  8
0
100
AcDbLine
 10
415.859
 20
150.5154155
 30
0.0
 11
415.859
 21
151.1324155
 31
0.0
  0
LINE
  5
CBA
330
1E
100
AcDbEntity
  8
0
100
AcDbLine
 10
415.859
 20
152.091740309034
 30
0.0
 11
415.859
 21
151.1324155
 31
0.0
  0
LINE
  5
CBB
330
1E
100
AcDbEntity
  8
0
100
AcDbLine
 10
415.859
 20
151.1324155
 30
0.0
 11
415.859
 21
150.5154155
 31
0.0
  0
LINE
  5
CBC
330
1E
100
AcDbEntity
  8
0
100
AcDbLine
 10
415.859
 20
151.1324155
 30
0.0
 11
415.859
 21
152.091740309034
 31
0.0
  0
LINE
  5
CBD
330
1E
100
AcDbEntity
  8
0
100
AcDbLine
 10
419.67
 20
148.885593144711
 30
0.0
 11
419.67
 21
148.0844155
 31
0.0
  0
LINE
  5
CBE
330
1E
100
AcDbEntity
  8
0
100
AcDbLine
 10
424.456
 20
150.8994155
 30
0.0
 11
424.456
 21
151.5164155
 31
0.0
  0
LINE
  5
CBF
330
1E
100
AcDbEntity
  8
0
100
AcDbLine
 10
424.456
 20
150.8994155
 30
0.0
 11
425.916
 21
150.8994155
 31
0.0
  0
LINE
  5
CC0
330
1E
100
AcDbEntity
  8
0
100
AcDbLine
 10
424.456
 20
151.5164155
 30
0.0
 11
425.916
 21
151.5164155
 31
0.0
  0
LINE
  5
CC1
330
1E
100
AcDbEntity
  8
0
100
AcDbLine
 10
424.456
 20
151.5164155
 30
0.0
 11
424.456
 21
152.67344882879
 31
0.0
  0
LINE
  5
CC2
330
1E
100
AcDbEntity
  8
0
100
AcDbLine
 10
424.456
 20
151.5164155
 30
0.0
 11
424.456
 21
150.8994155
 31
0.0
  0
LINE
  5
CC3
330
1E
100
AcDbEntity
  8
0
100
AcDbLine
 10
421.13
 20
148.535627621212
 30
0.0
 11
421.13
 21
148.0844155
 31
0.0
  0
LINE
  5
CC4
330
1E
100
AcDbEntity
  8
0
100
AcDbLine
 10
422.299
 20
148.2554155
 30
0.0
 11
425.803
 21
150.4454155
 31
0.0
  0
LINE
  5
CC5
330
1E
100
AcDbEntity
  8
0
100
AcDbLine
 10
425.916
 20
150.8994155
 30
0.0
 11
425.916
 21
151.5164155
 31
0.0
  0
LINE
  5
CC6
330
1E
100
AcDbEntity
  8
0
100
AcDbLine
 10
425.916
 20
151.5164155
 30
0.0
 11
425.916
 21
150.8994155
 31
0.0
  0
LINE
  5
CC7
330
1E
100
AcDbEntity
  8
0
100
AcDbLine
 10
425.916
 20
151.5164155
 30
0.0
 11
425.916
 21
152.705391304253
 31
0.0
  0
LINE
  5
CC8
330
1E
100
AcDbEntity
  8
0
100
AcDbLine
 10
425.803
 20
150.4454155
 30
0.0
 11
428.431
 21
152.7604155
 31
0.0
  0
LINE
  5
CC9
330
1E
100
AcDbEntity
  8
0
100
AcDbLine
 10
424.051
 20
147.7004155
 30
0.0
 11
427.701
 21
149.9834155
 31
0.0
  0
LINE
  5
CCA
330
1E
100
AcDbEntity
  8
0
100
AcDbLine
 10
427.701
 20
149.9834155
 30
0.0
 11
430.401
 21
152.3904155
 31
0.0
  0
LINE
  5
CCB
330
1E
100
AcDbEntity
  8
0
100
AcDbLine
 10
424.456
 20
152.67344882879
 30
0.0
 11
424.456
 21
151.5164155
 31
0.0
  0
LINE
  5
CCC
330
1E
100
AcDbEntity
  8
0
100
AcDbLine
 10
425.916
 20
152.705391304253
 30
0.0
 11
425.916
 21
151.5164155
 31
0.0
  0
LINE
  5
CCD
330
1E
100
AcDbEntity
  8
0
100
AcDbLine
 10
418.86
 20
154.5974155
 30
0.0
 11
418.86
 21
155.2144155
 31
0.0
  0
LINE
  5
CCE
330
1E
100
AcDbEntity
  8
0
100
AcDbLine
 10
418.86
 20
154.5974155
 30
0.0
 11
420.32
 21
154.5974155
 31
0.0
  0
LINE
  5
CCF
330
1E
100
AcDbEntity
  8
0
100
AcDbLine
 10
418.86
 20
154.5974155
 30
0.0
 11
418.86
 21
155.79289981534
 31
0.0
  0
LINE
  5
CD0
330
1E
100
AcDbEntity
  8
0
100
AcDbLine
 10
420.32
 20
154.5974155
 30
0.0
 11
420.32
 21
155.2144155
 31
0.0
  0
LINE
  5
CD1
330
1E
100
AcDbEntity
  8
0
100
AcDbLine
 10
418.86
 20
155.2144155
 30
0.0
 11
420.32
 21
155.2144155
 31
0.0
  0
LINE
  5
CD2
330
1E
100
AcDbEntity
  8
0
100
AcDbLine
 10
418.86
 20
155.2144155
 30
0.0
 11
418.86
 21
155.79289981534
 31
0.0
  0
LINE
  5
CD3
330
1E
100
AcDbEntity
  8
0
100
AcDbLine
 10
418.86
 20
155.2144155
 30
0.0
 11
418.86
 21
154.5974155
 31
0.0
  0
LINE
  5
CD4
330
1E
100
AcDbEntity
  8
0
100
AcDbLine
 10
418.86
 20
155.79289981534
 30
0.0
 11
418.86
 21
155.2144155
 31
0.0
  0
LINE
  5
CD5
330
1E
100
AcDbEntity
  8
0
100
AcDbLine
 10
418.86
 20
155.79289981534
 30
0.0
 11
418.86
 21
154.5974155
 31
0.0
  0
LINE
  5
CD6
330
1E
100
AcDbEntity
  8
0
100
AcDbLine
 10
420.32
 20
155.760326632739
 30
0.0
 11
420.32
 21
155.2144155
 31
0.0
  0
LINE
  5
CD7
330
1E
100
AcDbEntity
  8
0
100
AcDbLine
 10
420.32
 20
155.2144155
 30
0.0
 11
420.32
 21
154.5974155
 31
0.0
  0
LINE
  5
CD8
330
1E
100
AcDbEntity
  8
0
100
AcDbLine
 10
420.32
 20
155.2144155
 30
0.0
 11
420.32
 21
155.760326632739
 31
0.0
  0
LINE
  5
CD9
330
1E
100
AcDbEntity
  8
0
100
AcDbLine
 10
420.401
 20
158.6804155
 30
0.0
 11
420.401
 21
159.2974155
 31
0.0
  0
LINE
  5
CDA
330
1E
100
AcDbEntity
  8
0
100
AcDbLine
 10
420.401
 20
158.6804155
 30
0.0
 11
421.861
 21
158.6804155
 31
0.0
  0
LINE
  5
CDB
330
1E
100
AcDbEntity
  8
0
100
AcDbLine
 10
420.401
 20
158.6804155
 30
0.0
 11
420.401
 21
159.58542343193
 31
0.0
  0
LINE
  5
CDC
330
1E
100
AcDbEntity
  8
0
100
AcDbLine
 10
420.401
 20
159.58542343193
 30
0.0
 11
420.401
 21
159.2974155
 31
0.0
  0
LINE
  5
CDD
330
1E
100
AcDbEntity
  8
0
100
AcDbLine
 10
420.401
 20
159.58542343193
 30
0.0
 11
420.401
 21
158.6804155
 31
0.0
  0
LINE
  5
CDE
330
1E
100
AcDbEntity
  8
0
100
AcDbLine
 10
421.861
 20
158.6804155
 30
0.0
 11
421.861
 21
159.2974155
 31
0.0
  0
LINE
  5
CDF
330
1E
100
AcDbEntity
  8
0
100
AcDbLine
 10
420.401
 20
159.2974155
 30
0.0
 11
421.861
 21
159.2974155
 31
0.0
  0
LINE
  5
CE0
330
1E
100
AcDbEntity
  8
0
100
AcDbLine
 10
420.401
 20
159.2974155
 30
0.0
 11
420.401
 21
159.58542343193
 31
0.0
  0
LINE
  5
CE1
330
1E
100
AcDbEntity
  8
0
100
AcDbLine
 10
420.401
 20
159.2974155
 30
0.0
 11
420.401
 21
158.6804155
 31
0.0
  0
LINE
  5
CE2
330
1E
100
AcDbEntity
  8
0
100
AcDbLine
 10
421.861
 20
159.680805606721
 30
0.0
 11
421.861
 21
159.2974155
 31
0.0
  0
LINE
  5
CE3
330
1E
100
AcDbEntity
  8
0
100
AcDbLine
 10
427.782
 20
155.59384643509
 30
0.0
 11
427.782
 21
154.9824155
 31
0.0
  0
LINE
  5
CE4
330
1E
100
AcDbEntity
  8
0
100
AcDbLine
 10
427.782
 20
154.9824155
 30
0.0
 11
427.782
 21
155.5994155
 31
0.0
  0
LINE
  5
CE5
330
1E
100
AcDbEntity
  8
0
100
AcDbLine
 10
427.782
 20
154.9824155
 30
0.0
 11
429.241
 21
154.9824155
 31
0.0
  0
LINE
  5
CE6
330
1E
100
AcDbEntity
  8
0
100
AcDbLine
 10
427.782
 20
154.9824155
 30
0.0
 11
427.782
 21
155.59384643509
 31
0.0
  0
LINE
  5
CE7
330
1E
100
AcDbEntity
  8
0
100
AcDbLine
 10
427.782
 20
155.5994155
 30
0.0
 11
429.241
 21
155.5994155
 31
0.0
  0
LINE
  5
CE8
330
1E
100
AcDbEntity
  8
0
100
AcDbLine
 10
427.782
 20
155.5994155
 30
0.0
 11
427.782
 21
154.9824155
 31
0.0
  0
LINE
  5
CE9
330
1E
100
AcDbEntity
  8
0
100
AcDbLine
 10
421.861
 20
159.2974155
 30
0.0
 11
421.861
 21
158.6804155
 31
0.0
  0
LINE
  5
CEA
330
1E
100
AcDbEntity
  8
0
100
AcDbLine
 10
421.861
 20
159.2974155
 30
0.0
 11
421.861
 21
159.680805606721
 31
0.0
  0
LINE
  5
CEB
330
1E
100
AcDbEntity
  8
0
100
AcDbLine
 10
429.161
 20
159.789143877714
 30
0.0
 11
429.161
 21
159.1344155
 31
0.0
  0
LINE
  5
CEC
330
1E
100
AcDbEntity
  8
0
100
AcDbLine
 10
429.161
 20
159.1344155
 30
0.0
 11
429.161
 21
159.7514155
 31
0.0
  0
LINE
  5
CED
330
1E
100
AcDbEntity
  8
0
100
AcDbLine
 10
429.161
 20
159.1344155
 30
0.0
 11
430.62
 21
159.1344155
 31
0.0
  0
LINE
  5
CEE
330
1E
100
AcDbEntity
  8
0
100
AcDbLine
 10
429.161
 20
159.1344155
 30
0.0
 11
429.161
 21
159.789143877714
 31
0.0
  0
LINE
  5
CEF
330
1E
100
AcDbEntity
  8
0
100
AcDbLine
 10
418.86
 20
163.3804155
 30
0.0
 11
418.86
 21
162.7634155
 31
0.0
  0
LINE
  5
CF0
330
1E
100
AcDbEntity
  8
0
100
AcDbLine
 10
418.86
 20
163.3804155
 30
0.0
 11
420.32
 21
163.3804155
 31
0.0
  0
LINE
  5
CF1
330
1E
100
AcDbEntity
  8
0
100
AcDbLine
 10
418.86
 20
163.338152342105
 30
0.0
 11
418.86
 21
162.7634155
 31
0.0
  0
LINE
  5
CF2
330
1E
100
AcDbEntity
  8
0
100
AcDbLine
 10
418.86
 20
162.7634155
 30
0.0
 11
420.32
 21
162.7634155
 31
0.0
  0
LINE
  5
CF3
330
1E
100
AcDbEntity
  8
0
100
AcDbLine
 10
418.86
 20
162.7634155
 30
0.0
 11
418.86
 21
163.338152342105
 31
0.0
  0
LINE
  5
CF4
330
1E
100
AcDbEntity
  8
0
100
AcDbLine
 10
418.86
 20
162.7634155
 30
0.0
 11
418.86
 21
163.3804155
 31
0.0
  0
LINE
  5
CF5
330
1E
100
AcDbEntity
  8
0
100
AcDbLine
 10
420.32
 20
163.568678657895
 30
0.0
 11
420.32
 21
163.3804155
 31
0.0
  0
LINE
  5
CF6
330
1E
100
AcDbEntity
  8
0
100
AcDbLine
 10
420.32
 20
163.3804155
 30
0.0
 11
420.32
 21
163.568678657895
 31
0.0
  0
LINE
  5
CF7
330
1E
100
AcDbEntity
  8
0
100
AcDbLine
 10
420.32
 20
163.3804155
 30
0.0
 11
420.32
 21
162.7634155
 31
0.0
  0
LINE
  5
CF8
330
1E
100
AcDbEntity
  8
0
100
AcDbLine
 10
420.32
 20
162.7634155
 30
0.0
 11
420.32
 21
163.3804155
 31
0.0
  0
LINE
  5
CF9
330
1E
100
AcDbEntity
  8
0
100
AcDbLine
 10
427.782
 20
164.746889184211
 30
0.0
 11
427.782
 21
163.9014155
 31
0.0
  0
LINE
  5
CFA
330
1E
100
AcDbEntity
  8
0
100
AcDbLine
 10
427.782
 20
163.9014155
 30
0.0
 11
427.782
 21
163.2844155
 31
0.0
  0
LINE
  5
CFB
330
1E
100
AcDbEntity
  8
0
100
AcDbLine
 10
427.782
 20
163.9014155
 30
0.0
 11
429.241
 21
163.9014155
 31
0.0
  0
LINE
  5
CFC
330
1E
100
AcDbEntity
  8
0
100
AcDbLine
 10
427.782
 20
163.9014155
 30
0.0
 11
427.782
 21
164.746889184211
 31
0.0
  0
LINE
  5
CFD
330
1E
100
AcDbEntity
  8
0
100
AcDbLine
 10
427.782
 20
163.2844155
 30
0.0
 11
429.241
 21
163.2844155
 31
0.0
  0
LINE
  5
CFE
330
1E
100
AcDbEntity
  8
0
100
AcDbLine
 10
427.782
 20
163.2844155
 30
0.0
 11
427.782
 21
163.9014155
 31
0.0
  0
LINE
  5
CFF
330
1E
100
AcDbEntity
  8
0
100
AcDbLine
 10
429.161
 20
160.535864807946
 30
0.0
 11
429.161
 21
159.7514155
 31
0.0
  0
LINE
  5
D00
330
1E
100
AcDbEntity
  8
0
100
AcDbLine
 10
429.241
 20
154.9824155
 30
0.0
 11
429.241
 21
155.5994155
 31
0.0
  0
LINE
  5
D01
330
1E
100
AcDbEntity
  8
0
100
AcDbLine
 10
429.241
 20
155.5994155
 30
0.0
 11
429.241
 21
154.9824155
 31
0.0
  0
LINE
  5
D02
330
1E
100
AcDbEntity
  8
0
100
AcDbLine
 10
429.241
 20
164.977257605263
 30
0.0
 11
429.241
 21
163.9014155
 31
0.0
  0
LINE
  5
D03
330
1E
100
AcDbEntity
  8
0
100
AcDbLine
 10
429.241
 20
163.9014155
 30
0.0
 11
429.241
 21
164.977257605263
 31
0.0
  0
LINE
  5
D04
330
1E
100
AcDbEntity
  8
0
100
AcDbLine
 10
429.241
 20
163.9014155
 30
0.0
 11
429.241
 21
163.2844155
 31
0.0
  0
LINE
  5
D05
330
1E
100
AcDbEntity
  8
0
100
AcDbLine
 10
429.241
 20
163.2844155
 30
0.0
 11
429.241
 21
163.9014155
 31
0.0
  0
LINE
  5
D06
330
1E
100
AcDbEntity
  8
0
100
AcDbLine
 10
429.161
 20
159.7514155
 30
0.0
 11
430.62
 21
159.7514155
 31
0.0
  0
LINE
  5
D07
330
1E
100
AcDbEntity
  8
0
100
AcDbLine
 10
429.161
 20
159.7514155
 30
0.0
 11
429.161
 21
160.535864807946
 31
0.0
  0
LINE
  5
D08
330
1E
100
AcDbEntity
  8
0
100
AcDbLine
 10
429.161
 20
159.7514155
 30
0.0
 11
429.161
 21
159.1344155
 31
0.0
  0
LINE
  5
D09
330
1E
100
AcDbEntity
  8
0
100
AcDbLine
 10
428.431
 20
152.7604155
 30
0.0
 11
430.401
 21
155.5354155
 31
0.0
  0
LINE
  5
D0A
330
1E
100
AcDbEntity
  8
0
100
AcDbLine
 10
430.62
 20
159.1344155
 30
0.0
 11
430.62
 21
159.7514155
 31
0.0
  0
LINE
  5
D0B
330
1E
100
AcDbEntity
  8
0
100
AcDbLine
 10
430.62
 20
160.442172262453
 30
0.0
 11
430.62
 21
159.7514155
 31
0.0
  0
LINE
  5
D0C
330
1E
100
AcDbEntity
  8
0
100
AcDbLine
 10
430.62
 20
159.7514155
 30
0.0
 11
430.62
 21
159.1344155
 31
0.0
  0
LINE
  5
D0D
330
1E
100
AcDbEntity
  8
0
100
AcDbLine
 10
430.62
 20
159.7514155
 30
0.0
 11
430.62
 21
160.442172262453
 31
0.0
  0
LINE
  5
D0E
330
1E
100
AcDbEntity
  8
0
100
AcDbLine
 10
430.401
 20
155.5354155
 30
0.0
 11
431.642
 21
157.7254155
 31
0.0
  0
LINE
  5
D0F
330
1E
100
AcDbEntity
  8
0
100
AcDbLine
 10
430.401
 20
152.3904155
 30
0.0
 11
431.131
 21
153.1724155
 31
0.0
  0
LINE
  5
D10
330
1E
100
AcDbEntity
  8
0
100
AcDbLine
 10
430.401
 20
152.3904155
 30
0.0
 11
432.518
 21
155.1044155
 31
0.0
  0
LINE
  5
D11
330
1E
100
AcDbEntity
  8
0
100
AcDbLine
 10
431.642
 20
157.7254155
 30
0.0
 11
432.08
 21
160.3484155
 31
0.0
  0
LINE
  5
D12
330
1E
100
AcDbEntity
  8
0
100
AcDbLine
 10
431.131
 20
153.1724155
 30
0.0
 11
433.175
 21
155.7944155
 31
0.0
  0
LINE
  5
D13
330
1E
100
AcDbEntity
  8
0
100
AcDbLine
 10
430.401
 20
165.1604155
 30
0.0
 11
431.642
 21
162.9704155
 31
0.0
  0
LINE
  5
D14
330
1E
100
AcDbEntity
  8
0
100
AcDbLine
 10
432.518
 20
155.1044155
 30
0.0
 11
433.759
 21
157.6644155
 31
0.0
  0
LINE
  5
D15
330
1E
100
AcDbEntity
  8
0
100
AcDbLine
 10
433.759
 20
157.6644155
 30
0.0
 11
434.27
 21
160.3484155
 31
0.0
  0
LINE
  5
D16
330
1E
100
AcDbEntity
  8
0
100
AcDbLine
 10
433.175
 20
155.7944155
 30
0.0
 11
434.489
 21
158.5404155
 31
0.0
  0
LINE
  5
D17
330
1E
100
AcDbEntity
  8
0
100
AcDbLine
 10
431.642
 20
162.9704155
 30
0.0
 11
432.08
 21
160.3484155
 31
0.0
  0
LINE
  5
D18
330
1E
100
AcDbEntity
  8
0
100
AcDbLine
 10
432.518
 20
165.5924155
 30
0.0
 11
433.759
 21
163.0324155
 31
0.0
  0
LINE
  5
D19
330
1E
100
AcDbEntity
  8
0
100
AcDbLine
 10
434.489
 20
158.5404155
 30
0.0
 11
435.0
 21
161.2554155
 31
0.0
  0
LINE
  5
D1A
330
1E
100
AcDbEntity
  8
0
100
AcDbLine
 10
433.759
 20
163.0324155
 30
0.0
 11
434.27
 21
160.3484155
 31
0.0
  0
LINE
  5
D1B
330
1E
100
AcDbEntity
  8
0
100
AcDbLine
 10
415.859
 20
166.8454155
 30
0.0
 11
415.859
 21
167.4624155
 31
0.0
  0
LINE
  5
D1C
330
1E
100
AcDbEntity
  8
0
100
AcDbLine
 10
415.859
 20
167.4624155
 30
0.0
 11
415.859
 21
168.701243532493
 31
0.0
  0
LINE
  5
D1D
330
1E
100
AcDbEntity
  8
0
100
AcDbLine
 10
415.859
 20
167.4624155
 30
0.0
 11
415.859
 21
166.8454155
 31
0.0
  0
LINE
  5
D1E
330
1E
100
AcDbEntity
  8
0
100
AcDbLine
 10
415.859
 20
168.701243532493
 30
0.0
 11
415.859
 21
167.4624155
 31
0.0
  0
LINE
  5
D1F
330
1E
100
AcDbEntity
  8
0
100
AcDbLine
 10
424.456
 20
167.9854155
 30
0.0
 11
424.456
 21
167.3684155
 31
0.0
  0
LINE
  5
D20
330
1E
100
AcDbEntity
  8
0
100
AcDbLine
 10
424.456
 20
167.9854155
 30
0.0
 11
425.916
 21
167.9854155
 31
0.0
  0
LINE
  5
D21
330
1E
100
AcDbEntity
  8
0
100
AcDbLine
 10
425.916
 20
167.9854155
 30
0.0
 11
425.916
 21
167.3684155
 31
0.0
  0
LINE
  5
D22
330
1E
100
AcDbEntity
  8
0
100
AcDbLine
 10
424.456
 20
167.532925655398
 30
0.0
 11
424.456
 21
167.3684155
 31
0.0
  0
LINE
  5
D23
330
1E
100
AcDbEntity
  8
0
100
AcDbLine
 10
424.456
 20
167.3684155
 30
0.0
 11
425.916
 21
167.3684155
 31
0.0
  0
LINE
  5
D24
330
1E
100
AcDbEntity
  8
0
100
AcDbLine
 10
424.456
 20
167.3684155
 30
0.0
 11
424.456
 21
167.532925655398
 31
0.0
  0
LINE
  5
D25
330
1E
100
AcDbEntity
  8
0
100
AcDbLine
 10
424.456
 20
167.3684155
 30
0.0
 11
424.456
 21
167.9854155
 31
0.0
  0
LINE
  5
D26
330
1E
100
AcDbEntity
  8
0
100
AcDbLine
 10
425.916
 20
167.3684155
 30
0.0
 11
425.916
 21
167.9854155
 31
0.0
  0
LINE
  5
D27
330
1E
100
AcDbEntity
  8
0
100
AcDbLine
 10
425.803
 20
170.2504155
 30
0.0
 11
428.431
 21
167.9374155
 31
0.0
  0
LINE
  5
D28
330
1E
100
AcDbEntity
  8
0
100
AcDbLine
 10
428.431
 20
167.9374155
 30
0.0
 11
430.401
 21
165.1604155
 31
0.0
  0
LINE
  5
D29
330
1E
100
AcDbEntity
  8
0
100
AcDbLine
 10
419.67
 20
171.4164155
 30
0.0
 11
419.67
 21
170.7994155
 31
0.0
  0
LINE
  5
D2A
330
1E
100
AcDbEntity
  8
0
100
AcDbLine
 10
419.67
 20
171.4164155
 30
0.0
 11
421.13
 21
171.4164155
 31
0.0
  0
LINE
  5
D2B
330
1E
100
AcDbEntity
  8
0
100
AcDbLine
 10
419.67
 20
171.4164155
 30
0.0
 11
419.67
 21
171.853497126767
 31
0.0
  0
LINE
  5
D2C
330
1E
100
AcDbEntity
  8
0
100
AcDbLine
 10
419.67
 20
171.378272785429
 30
0.0
 11
419.67
 21
170.7994155
 31
0.0
  0
LINE
  5
D2D
330
1E
100
AcDbEntity
  8
0
100
AcDbLine
 10
419.67
 20
170.7994155
 30
0.0
 11
421.13
 21
170.7994155
 31
0.0
  0
LINE
  5
D2E
330
1E
100
AcDbEntity
  8
0
100
AcDbLine
 10
419.67
 20
170.7994155
 30
0.0
 11
419.67
 21
171.378272785429
 31
0.0
  0
LINE
  5
D2F
330
1E
100
AcDbEntity
  8
0
100
AcDbLine
 10
419.67
 20
170.7994155
 30
0.0
 11
419.67
 21
171.4164155
 31
0.0
  0
LINE
  5
D30
330
1E
100
AcDbEntity
  8
0
100
AcDbLine
 10
421.13
 20
171.4164155
 30
0.0
 11
421.13
 21
172.179438863138
 31
0.0
  0
LINE
  5
D31
330
1E
100
AcDbEntity
  8
0
100
AcDbLine
 10
421.13
 20
171.4164155
 30
0.0
 11
421.13
 21
170.7994155
 31
0.0
  0
LINE
  5
D32
330
1E
100
AcDbEntity
  8
0
100
AcDbLine
 10
421.13
 20
170.7994155
 30
0.0
 11
421.13
 21
171.4164155
 31
0.0
  0
LINE
  5
D33
330
1E
100
AcDbEntity
  8
0
100
AcDbLine
 10
427.701
 20
170.7134155
 30
0.0
 11
430.401
 21
168.3074155
 31
0.0
  0
LINE
  5
D34
330
1E
100
AcDbEntity
  8
0
100
AcDbLine
 10
430.401
 20
168.3074155
 30
0.0
 11
432.518
 21
165.5924155
 31
0.0
  0
LINE
  5
D35
330
1E
100
AcDbEntity
  8
0
100
AcDbLine
 10
421.13
 20
172.179438863138
 30
0.0
 11
421.13
 21
171.4164155
 31
0.0
  0
LINE
  5
D36
330
1E
100
AcDbEntity
  8
0
100
AcDbLine
 10
419.67
 20
171.853497126767
 30
0.0
 11
419.67
 21
171.4164155
 31
0.0
  0
LINE
  5
D37
330
1E
100
AcDbEntity
  8
0
100
AcDbLine
 10
418.212
 20
174.3834155
 30
0.0
 11
422.299
 21
172.4404155
 31
0.0
  0
LINE
  5
D38
330
1E
100
AcDbEntity
  8
0
100
AcDbLine
 10
422.299
 20
172.4404155
 30
0.0
 11
425.803
 21
170.2504155
 31
0.0
  0
LINE
  5
D39
330
1E
100
AcDbEntity
  8
0
100
AcDbLine
 10
419.818
 20
175.0624155
 30
0.0
 11
424.051
 21
172.9964155
 31
0.0
  0
LINE
  5
D3A
330
1E
100
AcDbEntity
  8
0
100
AcDbLine
 10
424.051
 20
172.9964155
 30
0.0
 11
427.701
 21
170.7134155
 31
0.0
  0
LINE
  5
D3B
330
1E
100
AcDbEntity
  8
0
100
AcDbLine
 10
420.328
 20
176.1854155
 30
0.0
 11
424.635
 21
174.0874155
 31
0.0
  0
LINE
  5
D3C
330
1E
100
AcDbEntity
  8
0
100
AcDbLine
 10
424.635
 20
174.0874155
 30
0.0
 11
428.285
 21
171.7744155
 31
0.0
  0
LINE
  5
D3D
330
1E
100
AcDbEntity
  8
0
100
AcDbLine
 10
428.285
 20
171.7744155
 30
0.0
 11
431.131
 21
169.3374155
 31
0.0
  0
LINE
  5
D3E
330
1E
100
AcDbEntity
  8
0
100
AcDbLine
 10
431.131
 20
169.3374155
 30
0.0
 11
433.175
 21
166.7144155
 31
0.0
  0
LINE
  5
D3F
330
1E
100
AcDbEntity
  8
0
100
AcDbLine
 10
433.175
 20
166.7144155
 30
0.0
 11
434.489
 21
163.9694155
 31
0.0
  0
LINE
  5
D40
330
1E
100
AcDbEntity
  8
0
100
AcDbLine
 10
434.489
 20
163.9694155
 30
0.0
 11
435.0
 21
161.2554155
 31
0.0
  0
LINE
  5
D41
330
1E
100
AcDbEntity
  8
0
100
AcDbLine
 10
428.285
 20
190.8054155
 30
0.0
 11
431.131
 21
188.3694155
 31
0.0
  0
LINE
  5
D42
330
1E
100
AcDbEntity
  8
0
100
AcDbLine
 10
430.401
 20
189.1524155
 30
0.0
 11
431.131
 21
188.3694155
 31
0.0
  0
LINE
  5
D43
330
1E
100
AcDbEntity
  8
0
100
AcDbLine
 10
431.131
 20
188.3694155
 30
0.0
 11
433.175
 21
185.7474155
 31
0.0
  0
LINE
  5
D44
330
1E
100
AcDbEntity
  8
0
100
AcDbLine
 10
433.175
 20
185.7474155
 30
0.0
 11
434.489
 21
183.0024155
 31
0.0
  0
LINE
  5
D45
330
1E
100
AcDbEntity
  8
0
100
AcDbLine
 10
435.0
 20
180.2874155
 30
0.0
 11
435.0
 21
161.2554155
 31
0.0
  0
LINE
  5
D46
330
1E
100
AcDbEntity
  8
0
100
AcDbLine
 10
435.0
 20
161.2554155
 30
0.0
 11
435.0
 21
180.2874155
 31
0.0
  0
LINE
  5
D47
330
1E
100
AcDbEntity
  8
0
100
AcDbLine
 10
434.489
 20
183.0024155
 30
0.0
 11
435.0
 21
180.2874155
 31
0.0
  0
LINE
  5
D48
330
1E
100
AcDbEntity
  8
0
100
AcDbLine
 10
420.328
 20
195.2174155
 30
0.0
 11
424.635
 21
193.1204155
 31
0.0
  0
LINE
  5
D49
330
1E
100
AcDbEntity
  8
0
100
AcDbLine
 10
419.818
 20
195.9084155
 30
0.0
 11
424.051
 21
193.8414155
 31
0.0
  0
LINE
  5
D4A
330
1E
100
AcDbEntity
  8
0
100
AcDbLine
 10
424.635
 20
193.1204155
 30
0.0
 11
428.285
 21
190.8054155
 31
0.0
  0
LINE
  5
D4B
330
1E
100
AcDbEntity
  8
0
100
AcDbLine
 10
424.051
 20
193.8414155
 30
0.0
 11
427.701
 21
191.5584155
 31
0.0
  0
LINE
  5
D4C
330
1E
100
AcDbEntity
  8
0
100
AcDbLine
 10
427.701
 20
191.5584155
 30
0.0
 11
430.401
 21
189.1524155
 31
0.0
  0
LINE
  5
D4D
330
1E
100
AcDbEntity
  8
0
100
AcDbLine
 10
415.365
 20
197.0384155
 30
0.0
 11
420.328
 21
195.2174155
 31
0.0
  0
LINE
  5
D4E
330
1E
100
AcDbEntity
  8
0
100
AcDbLine
 10
409.891
 20
198.5804155
 30
0.0
 11
415.365
 21
197.0384155
 31
0.0
  0
LINE
  5
D4F
330
1E
100
AcDbEntity
  8
0
100
AcDbLine
 10
414.927
 20
197.6974155
 30
0.0
 11
419.818
 21
195.9084155
 31
0.0
  0
LINE
  5
D50
330
1E
100
AcDbEntity
  8
0
100
AcDbLine
 10
409.526
 20
199.2404155
 30
0.0
 11
414.927
 21
197.6974155
 31
0.0
  0
LINE
  5
D51
330
1E
100
AcDbEntity
  8
0
100
AcDbLine
 10
397.92
 20
200.6474155
 30
0.0
 11
404.124
 21
199.7834155
 31
0.0
  0
LINE
  5
D52
330
1E
100
AcDbEntity
  8
0
100
AcDbLine
 10
403.832
 20
200.3814155
 30
0.0
 11
409.526
 21
199.2404155
 31
0.0
  0
LINE
  5
D53
330
1E
100
AcDbEntity
  8
0
100
AcDbLine
 10
397.409
 20
201.2754155
 30
0.0
 11
403.832
 21
200.3814155
 31
0.0
  0
LINE
  5
D54
330
1E
100
AcDbEntity
  8
0
100
AcDbLine
 10
391.35
 20
201.8004155
 30
0.0
 11
397.409
 21
201.2754155
 31
0.0
  0
LINE
  5
D55
330
1E
100
AcDbEntity
  8
0
100
AcDbLine
 10
385.0
 20
202.0154155
 30
0.0
 11
391.35
 21
201.8004155
 31
0.0
  0
LINE
  5
D56
330
1E
100
AcDbEntity
  8
0
100
AcDbLine
 10
401.353186137138
 20
12.406067434747
 30
0.0
 11
400.991351854483
 21
13.858146738196
 31
0.0
  0
LINE
  5
D57
330
1E
100
AcDbEntity
  8
0
100
AcDbLine
 10
368.983343998511
 20
45.493394294785
 30
0.0
 11
368.967
 21
60.2669155
 31
0.0
  0
LINE
  5
D58
330
1E
100
AcDbEntity
  8
0
100
AcDbLine
 10
373.727
 20
38.1690155
 30
0.0
 11
375.125
 21
37.4414155
 31
0.0
  0
LINE
  5
D59
330
1E
100
AcDbEntity
  8
0
100
AcDbLine
 10
400.974
 20
14.1474155
 30
0.0
 11
400.961
 21
44.6143155
 31
0.0
  0
ENDSEC
  0
SECTION
  2
OBJECTS
  0
DICTIONARY
  5
C
330
0
100
AcDbDictionary
281
     1
  3
ACAD_GROUP
350
D
  3
ACAD_LAYOUT
350
19
  3
ACAD_MLEADERSTYLE
350
D5C
  3
ACAD_MLINESTYLE
350
16
  3
ACAD_PLOTSETTINGS
350
18
  3
ACAD_PLOTSTYLENAME
350
E
  3
ACAD_SCALELIST
350
345
  3
AcDbVariableDictionary
350
342
  3
DWGPROPS
350
D5F
  0
DICTIONARY
  5
D
102
{ACAD_REACTORS
330
C
102
}
330
C
100
AcDbDictionary
281
     1
  0
DICTIONARY
  5
19
102
{ACAD_REACTORS
330
C
102
}
330
C
100
AcDbDictionary
281
     1
  3
Layout1
350
1D
  3
Model
350
21
  0
DICTIONARY
  5
D5C
102
{ACAD_REACTORS
330
C
102
}
330
C
100
AcDbDictionary
281
     1
  0
DICTIONARY
  5
16
102
{ACAD_REACTORS
330
C
102
}
330
C
100
AcDbDictionary
281
     1
  3
Standard
350
17
  0
DICTIONARY
  5
18
102
{ACAD_REACTORS
330
C
102
}
330
C
100
AcDbDictionary
281
     1
  0
ACDBDICTIONARYWDFLT
  5
E
102
{ACAD_REACTORS
330
C
102
}
330
C
100
AcDbDictionary
281
     1
  3
Normal
350
F
100
AcDbDictionaryWithDefault
340
F
  0
DICTIONARY
  5
345
102
{ACAD_REACTORS
330
C
102
}
330
C
100
AcDbDictionary
281
     1
  3
A0
350
346
  3
A1
350
347
  3
A2
350
348
  3
A3
350
349
  3
A4
350
34A
  3
A5
350
34B
  3
A6
350
34C
  3
A7
350
34D
  3
A8
350
34E
  3
A9
350
34F
  3
B0
350
350
  3
B1
350
351
  3
B2
350
352
  3
B3
350
353
  3
B4
350
354
  3
B5
350
355
  3
B6
350
356
  3
B7
350
357
  3
B8
350
358
  3
B9
350
359
  3
C0
350
35A
  3
C1
350
35B
  3
C2
350
35C
  3
C3
350
35D
  3
C4
350
35E
  3
C5
350
35F
  3
C6
350
360
  3
C7
350
361
  3
C8
350
362
  3
C9
350
363
  3
D0
350
364
  3
D1
350
365
  3
D2
350
366
  0
DICTIONARY
  5
342
102
{ACAD_REACTORS
330
C
102
}
330
C
100
AcDbDictionary
281
     1
  3
CANNOSCALE
350
D5D
  3
DIMASSOC
350
343
  0
XRECORD
  5
D5F
102
{ACAD_REACTORS
330
C
102
}
330
C
100
AcDbXrecord
280
     1
  1
DWGPROPS COOKIE
  2

  3

  4

  6

  7

  8
MARTIN
  9

300
=
301
=
302
=
303
=
304
=
305
=
306
=
307
=
308
=
309
=
 40
0.0
 41
2454636.693761204
 42
2456210.343608218
  1

 90
        0
  0
LAYOUT
  5
1D
102
{ACAD_REACTORS
330
19
102
}
330
19
100
AcDbPlotSettings
  1

  2
hp deskjet 980c series
  4

  6

 40
0.0
 41
0.0
 42
0.0
 43
0.0
 44
0.0
 45
0.0
 46
0.0
 47
0.0
 48
0.0
 49
0.0
140
0.0
141
0.0
142
1.0
143
1.0
 70
   688
 72
     0
 73
     0
 74
     5
  7

 75
    16
147
1.0
148
0.0
149
0.0
100
AcDbLayout
  1
Layout1
 70
     1
 71
     1
 10
0.0
 20
0.0
 11
12.0
 21
9.0
 12
0.0
 22
0.0
 32
0.0
 14
1.000000000000E+20
 24
1.000000000000E+20
 34
1.000000000000E+20
 15
-1.000000000000E+20
 25
-1.000000000000E+20
 35
-1.000000000000E+20
146
0.0
 13
0.0
 23
0.0
 33
0.0
 16
1.0
 26
0.0
 36
0.0
 17
0.0
 27
1.0
 37
0.0
 76
     0
330
1A
  0
LAYOUT
  5
21
102
{ACAD_REACTORS
330
19
102
}
330
19
100
AcDbPlotSettings
  1

  2
hp deskjet 980c series
  4

  6

 40
0.0
 41
0.0
 42
0.0
 43
0.0
 44
0.0
 45
0.0
 46
0.0
 47
0.0
 48
0.0
 49
0.0
140
0.0
141
0.0
142
1.0
143
1.0
 70
  1712
 72
     0
 73
     0
 74
     0
  7

 75
     0
147
1.0
148
0.0
149
0.0
100
AcDbLayout
  1
Model
 70
     1
 71
     0
 10
0.0
 20
0.0
 11
12.0
 21
9.0
 12
0.0
 22
0.0
 32
0.0
 14
0.0
 24
0.0
 34
0.0
 15
435.0
 25
202.0154155
 35
0.0
146
0.0
 13
0.0
 23
0.0
 33
0.0
 16
1.0
 26
0.0
 36
0.0
 17
0.0
 27
1.0
 37
0.0
 76
     0
330
1E
331
344
  0
MLINESTYLE
  5
17
102
{ACAD_REACTORS
330
16
102
}
330
16
100
AcDbMlineStyle
  2
STANDARD
 70
     0
  3

 62
   256
 51
90.0
 52
90.0
 71
     2
 49
0.5
 62
   256
  6
BYLAYER
 49
-0.5
 62
   256
  6
BYLAYER
  0
ACDBPLACEHOLDER
  5
F
102
{ACAD_REACTORS
330
E
102
}
330
E
  0
SCALE
  5
346
102
{ACAD_REACTORS
330
345
102
}
330
345
100
AcDbScale
 70
     0
300
1:1
140
1.0
141
1.0
290
     1
  0
SCALE
  5
347
102
{ACAD_REACTORS
330
345
102
}
330
345
100
AcDbScale
 70
     0
300
1:2
140
1.0
141
2.0
290
     0
  0
SCALE
  5
348
102
{ACAD_REACTORS
330
345
102
}
330
345
100
AcDbScale
 70
     0
300
1:4
140
1.0
141
4.0
290
     0
  0
SCALE
  5
349
102
{ACAD_REACTORS
330
345
102
}
330
345
100
AcDbScale
 70
     0
300
1:5
140
1.0
141
5.0
290
     0
  0
SCALE
  5
34A
102
{ACAD_REACTORS
330
345
102
}
330
345
100
AcDbScale
 70
     0
300
1:8
140
1.0
141
8.0
290
     0
  0
SCALE
  5
34B
102
{ACAD_REACTORS
330
345
102
}
330
345
100
AcDbScale
 70
     0
300
1:10
140
1.0
141
10.0
290
     0
  0
SCALE
  5
34C
102
{ACAD_REACTORS
330
345
102
}
330
345
100
AcDbScale
 70
     0
300
1:16
140
1.0
141
16.0
290
     0
  0
SCALE
  5
34D
102
{ACAD_REACTORS
330
345
102
}
330
345
100
AcDbScale
 70
     0
300
1:20
140
1.0
141
20.0
290
     0
  0
SCALE
  5
34E
102
{ACAD_REACTORS
330
345
102
}
330
345
100
AcDbScale
 70
     0
300
1:30
140
1.0
141
30.0
290
     0
  0
SCALE
  5
34F
102
{ACAD_REACTORS
330
345
102
}
330
345
100
AcDbScale
 70
     0
300
1:40
140
1.0
141
40.0
290
     0
  0
SCALE
  5
350
102
{ACAD_REACTORS
330
345
102
}
330
345
100
AcDbScale
 70
     0
300
1:50
140
1.0
141
50.0
290
     0
  0
SCALE
  5
351
102
{ACAD_REACTORS
330
345
102
}
330
345
100
AcDbScale
 70
     0
300
1:100
140
1.0
141
100.0
290
     0
  0
SCALE
  5
352
102
{ACAD_REACTORS
330
345
102
}
330
345
100
AcDbScale
 70
     0
300
2:1
140
2.0
141
1.0
290
     0
  0
SCALE
  5
353
102
{ACAD_REACTORS
330
345
102
}
330
345
100
AcDbScale
 70
     0
300
4:1
140
4.0
141
1.0
290
     0
  0
SCALE
  5
354
102
{ACAD_REACTORS
330
345
102
}
330
345
100
AcDbScale
 70
     0
300
8:1
140
8.0
141
1.0
290
     0
  0
SCALE
  5
355
102
{ACAD_REACTORS
330
345
102
}
330
345
100
AcDbScale
 70
     0
300
10:1
140
10.0
141
1.0
290
     0
  0
SCALE
  5
356
102
{ACAD_REACTORS
330
345
102
}
330
345
100
AcDbScale
 70
     0
300
100:1
140
100.0
141
1.0
290
     0
  0
SCALE
  5
357
102
{ACAD_REACTORS
330
345
102
}
330
345
100
AcDbScale
 70
     0
300
1/128" = 1'-0"
140
0.0078125
141
12.0
290
     0
  0
SCALE
  5
358
102
{ACAD_REACTORS
330
345
102
}
330
345
100
AcDbScale
 70
     0
300
1/64" = 1'-0"
140
0.015625
141
12.0
290
     0
  0
SCALE
  5
359
102
{ACAD_REACTORS
330
345
102
}
330
345
100
AcDbScale
 70
     0
300
1/32" = 1'-0"
140
0.03125
141
12.0
290
     0
  0
SCALE
  5
35A
102
{ACAD_REACTORS
330
345
102
}
330
345
100
AcDbScale
 70
     0
300
1/16" = 1'-0"
140
0.0625
141
12.0
290
     0
  0
SCALE
  5
35B
102
{ACAD_REACTORS
330
345
102
}
330
345
100
AcDbScale
 70
     0
300
3/32" = 1'-0"
140
0.09375
141
12.0
290
     0
  0
SCALE
  5
35C
102
{ACAD_REACTORS
330
345
102
}
330
345
100
AcDbScale
 70
     0
300
1/8" = 1'-0"
140
0.125
141
12.0
290
     0
  0
SCALE
  5
35D
102
{ACAD_REACTORS
330
345
102
}
330
345
100
AcDbScale
 70
     0
300
3/16" = 1'-0"
140
0.1875
141
12.0
290
     0
  0
SCALE
  5
35E
102
{ACAD_REACTORS
330
345
102
}
330
345
100
AcDbScale
 70
     0
300
1/4" = 1'-0"
140
0.25
141
12.0
290
     0
  0
SCALE
  5
35F
102
{ACAD_REACTORS
330
345
102
}
330
345
100
AcDbScale
 70
     0
300
3/8" = 1'-0"
140
0.375
141
12.0
290
     0
  0
SCALE
  5
360
102
{ACAD_REACTORS
330
345
102
}
330
345
100
AcDbScale
 70
     0
300
1/2" = 1'-0"
140
0.5
141
12.0
290
     0
  0
SCALE
  5
361
102
{ACAD_REACTORS
330
345
102
}
330
345
100
AcDbScale
 70
     0
300
3/4" = 1'-0"
140
0.75
141
12.0
290
     0
  0
SCALE
  5
362
102
{ACAD_REACTORS
330
345
102
}
330
345
100
AcDbScale
 70
     0
300
1" = 1'-0"
140
1.0
141
12.0
290
     0
  0
SCALE
  5
363
102
{ACAD_REACTORS
330
345
102
}
330
345
100
AcDbScale
 70
     0
300
1-1/2" = 1'-0"
140
1.5
141
12.0
290
     0
  0
SCALE
  5
364
102
{ACAD_REACTORS
330
345
102
}
330
345
100
AcDbScale
 70
     0
300
3" = 1'-0"
140
3.0
141
12.0
290
     0
  0
SCALE
  5
365
102
{ACAD_REACTORS
330
345
102
}
330
345
100
AcDbScale
 70
     0
300
6" = 1'-0"
140
6.0
141
12.0
290
     0
  0
SCALE
  5
366
102
{ACAD_REACTORS
330
345
102
}
330
345
100
AcDbScale
 70
     0
300
1'-0" = 1'-0"
140
12.0
141
12.0
290
     0
  0
DICTIONARYVAR
  5
D5D
102
{ACAD_REACTORS
330
342
102
}
330
342
100
DictionaryVariables
280
     0
  1
1:1
  0
DICTIONARYVAR
  5
343
102
{ACAD_REACTORS
330
342
102
}
330
342
100
DictionaryVariables
280
     0
  1
1
  0
ENDSEC
  0
SECTION
  2
THUMBNAILIMAGE
 90
    16364
310
28000000B40000005500000001000800000000000000000000000000000000000000000000000000FFFFFF000000FF0000FFFF0000FF0000FFFF0000FF000000FF00FF000000000080808000C0C0C0000000FF007F7FFF000000A5005252A50000007F003F3F7F0000004C0026264C000000260013132600003FFF007F9FFF
310
000029A5005267A500001F7F003F4F7F0000134C00262F4C000009260013172600007FFF007FBFFF000052A500527CA500003F7F003F5F7F0000264C0026394C0000132600131C260000BFFF007FDFFF00007CA5005291A500005F7F003F6F7F0000394C0026424C00001C26001321260000FFFF007FFFFF0000A5A50052A5
310
A500007F7F003F7F7F00004C4C00264C4C00002626001326260000FFBF007FFFDF0000A57C0052A59100007F5F003F7F6F00004C3900264C420000261C001326210000FF7F007FFFBF0000A5520052A57C00007F3F003F7F5F00004C2600264C39000026130013261C0000FF3F007FFF9F0000A5290052A56700007F1F003F
310
7F4F00004C1300264C2F00002609001326170000FF00007FFF7F0000A5000052A55200007F00003F7F3F00004C0000264C260000260000132613003FFF00009FFF7F0029A5000067A552001F7F00004F7F3F00134C00002F4C260009260000172613007FFF0000BFFF7F0052A500007CA552003F7F00005F7F3F00264C0000
310
394C2600132600001C261300BFFF0000DFFF7F007CA5000091A552005F7F00006F7F3F00394C0000424C26001C26000021261300FFFF0000FFFF7F00A5A50000A5A552007F7F00007F7F3F004C4C00004C4C26002626000026261300FFBF0000FFDF7F00A57C0000A59152007F5F00007F6F3F004C3900004C422600261C00
310
0026211300FF7F0000FFBF7F00A5520000A57C52007F3F00007F5F3F004C2600004C39260026130000261C1300FF3F0000FF9F7F00A5290000A56752007F1F00007F4F3F004C1300004C2F26002609000026171300FF000000FF7F7F00A5000000A55252007F0000007F3F3F004C0000004C2626002600000026131300FF00
310
3F00FF7F9F00A5002900A55267007F001F007F3F4F004C0013004C262F002600090026131700FF007F00FF7FBF00A5005200A5527C007F003F007F3F5F004C0026004C2639002600130026131C00FF00BF00FF7FDF00A5007C00A55291007F005F007F3F6F004C0039004C26420026001C0026132100FF00FF00FF7FFF00A5
310
00A500A552A5007F007F007F3F7F004C004C004C264C002600260026132600BF00FF00DF7FFF007C00A5009152A5005F007F006F3F7F0039004C0042264C001C002600211326007F00FF00BF7FFF005200A5007C52A5003F007F005F3F7F0026004C0039264C00130026001C1326003F00FF009F7FFF002900A5006752A500
310
1F007F004F3F7F0013004C002F264C000900260017132600000000002D2D2D005B5B5B0089898900B7B7B700B3B3B30000000000000000000000000000000000000000000000000000000000000000000000000000000000000000000000000000000000000000000000000000000000000000000000000000000000000000
310
00000000000000000000000000000000000000000000000000000000000000000000000000000000000000000000000000000000000000000000000000000000000000000000000000000000000000000000000000000000000000000000000000000000000000000000000000000000000000000000000000000000000000
310
00000000000000000000000000000000000000000000000000000000000000000000000000000000000000000000000000000000000000000000000000000000000000000000000000000000000000000000000000000000000000000000000000000000000000000000000000000000000000000000000000000000000000
310
00000000000000000000000000000000000000000000000000000000000000000000000000000000000000000000000000000000000000000000000000000000000000000000000000000000000000000000000000000000000000000000000000000000000000000000000000000000000000000000000000000000000000
310
00000000000000000000000000000000000000000000000000000000000000000000000000000000000000000000000000000000000000000000000000000000000000000000000000000000000000000000000000000000000000000000070707070707070707070707070707070707070707070707070707070000000000
310
00000000000000000007070707070707070707070707070707070707070707070707070707000000000000000000000000000000070707070707070707070707070707070707070707070707070707070000000000000000000000000000070707070707070707070707070707070707070707070707070707000000000000
310
00000000000000000000000000000000000000000700000000000000000000000000000000000000000000000000000700000000000000000000000000000700000000000000000000000000000000000000000000000000000700000000000000000000000000000007000000000000000000000000000000000000000000
310
00000000000700000000000000000000000000000700000000000000000000000000000000000000000000000000000700000000000000000000000000000000000000000000000000070000000000000000000000000000000000000000000000000000070000000000000000000000000000070000000000000000000000
310
00000000000000000000000000000007000000000000000000000000000000070000000000000000000000000000000000000000000000000000070000000000000000000000000000070000000000000000000000000000000000000000000000000000070000000000000000000000000000000000000000000000000007
310
07070707070707070707070707070707070707070707070707070700000000000000000000000000000707070707070707070707070707070707070707070707070707070700000000000000000000000000000007070707070707070707070707070707070707070707070707070707000000000000000000000000000007
310
07070707070707070707070707070707070707070707070707070700000000000000000000000000000000000000000000000000070707070707070707070707070707070707070707070707070707070000000000000000000000000000000707070707070707070707070707070707070707070707070707070000000000
310
00000000000000000000070707070707070707070707070707070707070707070707070707000000000000000000000000000000000000000000000700000000000000000000000007000000000000000000000000000000000000000000000000000000000000000000000000000000070000000000000000000000000700
310
00000000000000000000000000000000000000000000000007000000000000000000000000000000000000070000000000000000000000000000000000000000000000000007000000000000000000000000000700000000000000000000000000000000000000000000000000000000070000000000000000000000000700
310
00000000000000000000000000000000000000000000000000000000000000000000000000000700000000000000000000000007000000000000000000000000000000000000000000000000000700000000000000000000000000000000000007000000000000000000000000000000000000000000000000000700000000
310
00000000000000000007000000000000000000000000000000000000000000000000000000000700000000000000000000000007000000000000000000000000000000000000000000000000000000000000000000000000000000070000000000000000000000000700000000000000000000000000000000000000000000
310
00000007000000000000000000000000000000000000070000000000000000000000000000000000000000000000000007000000000000000000000000000700000000000000000000000000000000000000000000000000000000070000000000000000000000000700000000000000000000000000000000000000000000
310
00000000000000000000000000000000000700000000000000000000000007000000000000000000000000000000000000000000000000000700000000000000000000000000000000000007000000000000000000000000000000000000000000000000000700000000000000000000000000070000000000000000000000
310
00000000000000000000000000000000000700000000000000000000000007000000000000000000000000000000000000000000000000000000000000000000000000000000070000000000000000000000000700000000000000000000000000000000000000000000000000070000000000000000000000000000000000
310
00070000000000000000000000000000000000000000000000000007000000000000000000000000000700000000000000000000000000000000000000000000000000000000070000000000000000000000000700000000000000000000000000000000000000000000000000000000000000000000000000000007000000
310
00000000000000000007000000000000000000000000000000000000000000000000000700000000000000000000000000000000000007000000000000000000000000000000000000000000000000000700000000000000000000000000070000000000000000000000000000000000000000000000000000000007000000
310
00000000000000000007000000000000000000000000000000000000000000000000000000000000000000000000000000070000000000000000000000000700000000000000000000000000000000000000000000000000070000000000000000000000000000000000000700000000000000000000000000000000000000
310
00000000000007000000000000000000000000000700000000000000000000000000000000000000000000000000000000070000000000000000000000000700000000000000000000000000000000000000000000000000000000000000000000000000000007000000000000000000000000070000000000000000000000
310
00000000000000000000000000000700000000000000000000000000000000000007000000000000000000000000000000000000000000000000000700000000000000000000000000070000000000000000000000000000000000000000000000000000000007000000000000000000000000070000000000000000000000
310
00000000000000000000000000000000000000000000000000000000070000000000000000000000000700000000000000000000000000000000000000000000000000070000000000000000000000000000000000000700000000000000000000000000000000000000000000000000070000000000000000000000000007
310
00000000000000000000000000000000000000000000000000000000070000000707070707070000000700000000000000000000000000000000000000000000000000000000000000000000000000000007000000000000000000000000070000000000000000000000000000000000000000000000000007000000000000
310
00000000000000000000000007000000000000000000000000000000000000000000000000000700000000000000000000000000070000000000000000000000000000000000000000000000000000000007000707000000000707070700070000000000000000000000000000000000000000000000000000000000000000
310
00000000000000070000000000000000000000000700000000000000000000000000000000000000000000000000070000000000000000000000000000000000000700000000000000000000000000000000000000000000000000070000000000000000000000000007000000000000000000000000000000000000000000
310
00000000000000070700000000000000000007070700000000000000000000000000000000000000000000000000000000000000000000000000000007000000000000000000000000070000000000000000000000000000000000000000000000000007000000000000000000000000000000000000070000000000000000
310
00000000000000000000000000000000000700000000000000000000000000070000000000000000000000000000000000000000000000000000000007070000000000000000000007070000000000000000000000000000000000000000000000000000000000000000000000000000000707070707070707070707070707
310
00000000000000000000000000000000000000000000000000070000000000000000000000000000000000000700000000000000000000000000000000000000000000000000070707070707070707070707070707000000000000000000000000000000000000000000000000000000000700000000000000000000000007
310
00000000000000000000000000000000000000000000000000000000000000000000000000000000000000000700000700000000000000000000000000000000000000000000000000000000000007000000000000000000000000000000000000070000000000000000000000000000000000000000000000000000000000
310
00070000000700000000000000000000000000000000000000000000000000000000000000000007000000000000000000000000070000000000000000000000000000000000000000000000000000000000000000000000000000000000000000070000070000000000000000000000000000000000000000000000000000
310
00000000070000000000000000000000000000000000000700000000000000000000000000000000000000000000000000000000000007000000070000000000000000000000000000000000000000000000000000000000000000000700000707070707070707000007000000000000000000000000000000000000000000
310
00000000000000000000000000000000000000000000000700000700000000000000000000000000000000000000000000000000000000000007000000000000000000000000000000000000070000000000000000000000000000000000000000000000000000000000000700000007000000000000000000000000000000
310
00000000000000000000000000000000000007000707000707070700000700070000000000000000000000000000000000000000000000000000000000000000000000000000000000000000070000070000000000000000000000000000000000000000000000000000000000000700000000000000000000000000000000
310
00000700000000000000000000000000000000000000000000000000000000000007000000070000000000000000000000000000000000000000000000000000000000000000000707000707000000000707000707000000000000000000000000000000000000000000000000000000000000000000000000000000000000
310
00000700000700000000000000000000000000000000000000000000000000000000000007000000000000000000000000000000000000070000000000000000000000000000000000000000000000000000000000000700000007000000000000000000000000000000000000000000000000000000000000000000070707
310
00000000000000070707000000000000000000000000000000000000000000000000000000000000000000000000000000000000000000070000070000000000000000000000000000000000000000000000000000000000000700000000000000000000000000000000000007000000000000000000000000000000000000
310
00000000000000000000000007000000070000000000000000000000000000000000000000000000000000000000000000000700070000000000000000070700000000000000000000000000000000000000000000000000000000000000000000000000000000000000000007000007000000000000000000000000000000
310
00000000000000000000000000000007070707070707070707070707070707070707070000000000000000000000000000000000000000000000000000000000000700000007000000000000000000000000000000000000000000000000000000000000000000070707000000000000000007070000000000000000000000
310
00000000000000000000000000000000000000000000000000000000000000000000070000070000000000000000000000000000000000000000000000000000000000000707070707070707070707070707070707070707000000000000000000000000000000000000000000000000000000000000070000000700000000
310
00000000000000000000000000000000000000000000000000000000000007070000000000000000070700000000000000000000000000000000000000000000000000000000000000000000000000000000000000000007000007000000000000000000000000000000000000000000000000000000000000000000000707
310
00000000000000000007000000000000000000000000000000000000000000000000000000000000000000000700000007000000000000000000000000000000000000000000000000000000000000000000000007000000000000000007000000000000000000000000000000000000000000000000000000000000000000
310
00000000000000000000000000070000070000000000000000000000000000000000000000000000000000000000000000000007070000000000000000000700000000000000000000000000000000000000000000000000000000000000000000070000000700000000000000000000000000000000000000000000000000
310
00000000000000000000070000000000000000070000000000000000000000000000000000000000000000000000000000000000000000000000000000000000000007000007000000000000000000000000000000000000000000000000000000000000000000000707000000000000000000070000000000000000000000
310
00000000000000000000000000000000000000000000000700000007000000000000000000000000000000000000000000000000000000000000000000000007000000000000000007000000000000000000000000000000000000000000000000000000000000000000000000000000000000000000000700000700000000
310
00000000000000000000000000000000000000000000000000000000000007070000000000000000000700000000000000000000000000000000000000000000000000000000000000000000070000000700000000000000000000000000000000000000000000000000000000000000000000000700000000000000000700
310
00000000000000000000000000000000000000000000000000070707070707070707070707070707070707070707000007000000000000000000000000000000000000000000000000000000000000000000000707000000000000000000070000000000000000000000000000000000000000000000000000000000000000
310
00000700000007070707070707070707070707070707070707070000000000000000000000000000000007000000000000000007000000000000000000000000000000000000000000000000000007070707070707070707070707070707070707000000000700000000000000000000000000000000000000000000000000
310
00000000000000000007070000000000000000000700000000000000000000000000000000000000000000000000000000000000000000070000000007070707070707070707070707070707070707000000000000000000000000000000000700000000000000000700000000000000000000000000000000000000000000
310
00000000070700000000000000000000000000000000000000000007000000000000000000000000000000000000000000000000000000000000000000000707000000000000000000070000000000000000000000000000000000000000000000000000000000000000000007000000000000000000000000000000000000
310
00000000070000000000000000000000000000000007000000000000000007000000000000000000000000000000000000000000000000000007070000000000000000000000000000000000000000000700000000000000000000000000000000000000000000000000000000000000000000070700000000000000000007
310
00000000000000000000000000000000000000000000000000000000000000000000070000000000000000000000000000000000000000000007000000000000000000000000000000000700000000000000000700000000000000000000000000000000000000000000000000000707000000000000000000000000000000
310
00000000000007000000000000000000000000000000000000000000000000000000000000000000000707000000000000000000070000000000000000000000000000000000000000000000000000000000000000000007000000000000000000000000000000000000000000000700000000000000000000000000000000
310
07000000000000000007000000000000000000000000000000000000000000000000000007070000000000000000000000000000000000000000000700000000000000000000000000000000000000000000000000000000000000000000070700000000000000000007000000000000000000000000000000000000000000
310
00000000000000000000000000070000000000000000000000000000000000000000000007000000000000000000000000000000000700000000000000000700000000000000000000000000000000000000000000000000000707070707070707070707070707070707070707070707070000000000000000000000000000
310
00000000000000000000000000000000000000000707000000000000000000070000000000000000000000000000000000000000000000000000000000000000000007070707070707070707070707070707070707070707070700000000000000000000000000000000070000000000000000070000000000000000000000
310
00000000000000000000000000000007070707070707070707070707070707070707070707070700000000000000000000000000000000000000000000000000000000000000000000070700000000000000000007000000000000000000000000000000000000000000000000000000000000000000000707070707070707
310
07070707070707070707070707070707000000000000000000000000000000000700000000000000000700000000000000000000000000000000000000000000000000000000000000000000000000000000000000000000000000000000000000000000000000000000000000000000000000000000000000000000000007
310
07000000000000000000070000000000000000000000000000000000000000000000000000000000000000000000000000000000000000000000000000000000000000000000000000000000000000000000000000070000000000000000070000000000000000000000000000000000000000000000000000000000000000
310
00000000000000000000000000000000000000000000000000000000000000000000000000000000000000000000000000000000070700000000000000000007000000000000000000000000000000000000000000000000000000000000000000000000000000000000000000000000000000000000000000000000000000
310
00000000000000000000000700000000000000000700000000000000000000000000000000000000000000000000000000000000000000000000000000000000000000000000000000000000000000000000000000000000000000000000000000000000000000000007070000000000000000000700000000000000000000
310
00000000000000000000000000000000000000000000000000000000000000000000000000000000000000000000000000000000000000000000000000000000070000000000000000070000000000000000000000000000000000000000000000000000000000000000000000000000000000000000000000000000000000
310
00000000000000000000000000000000000000000000000000000000000000070700000000000000000007000000000000000000000000000000000000000000000000000000000000000000000000000000000000000000000000000000000000000000000000000000000000000000000000000007000000000000000007
310
00000000000000000000000000000000000000000000000000000000000000000000000000000000000000000000000000000000000000000000000000000000000000000000000000000000000000000000000007070000000000000000000700000000000000000000000000000000000000000000000000000000000000
310
00000000000000000000000000000000000000000000000000000000000000000000000000000000000000070000000000000000070000000000000000000000000000000000000000000000000000000000000000000000000000000000000000000000000000000000000000000000000000000000000000000000000000
310
00000000000000000000070707070707070707070707000000000000000000000000000000000000000000000000000000000000000000000000000000000000000000000000000000000000000000000000000000000000000000000000000007000000000000000007000000000000000000000000000000000000000000
310
00000000000000000000000000000000000000000000000000000000000000000000000000000000000000000000000000000000000000000000000000000007070707070707070707070700000000000000000000000000000000000000000000000000000000000000000000000000000000000000000000000000000000
310
00000000000000000000000000000000000000000000070000000000000000070000000000000000000000000000000000000000000000000000000000000000000000000000000000000000000000000000000000000000000000000000000000000000000000000000000000000000000000000707070707070707070707
310
07000000000000000000000000000000000000000000000000000000000000000000000000000000000000000000000000000000000000000000000000000000000000000000000000000007000000000000000007000000000000000000000000000000000000000000000000000000000000000000000000000000000000
310
00000000000000000000000000000000000000000000000000000000000000000000000000000000000007070000000000000000000700000000000000000000000000000000000000000000000000000000000000000000000000000000000000000000000000000000000000000000000000000000000000000000000000
310
00070000070707070000070000000000000000000000000000000000000000000000000000000000000000000000000000000000000000000000000000000000000000000000000000000000000000000000000000000000000000000000000707000000000000000000070000000000000000000000000000000000000000
310
00000000000000000000000000000000000000000000000000000000000000000000000000000000000000000000000000000000000007000700000000070007000000000000000000000000000000000000000000000000000000000000000000000000000000000000000000000000000000000000000000000000000000
310
00000000000000000000000000000000000000000007070000000000000000000700000000000000000000000000000000000000000000000000000000000000000000000000000000000000000000000000000000000000000000000000000000000000000000000000000707000707070700070700000000000000000000
310
00000000000000000000000000000000000000000000000000000000000000000000000000000000000000000000000000000000000000000000000000000000000000000000000000000707000000000000000000070000000000000000000000000000000000000000000000000000000000000000000000000000000000
310
00000000000000000000000000000000000000000000000000000000000000000007000700000000070707000000000000000000000000000000000000000000000000000000000000000000000000000000000000000000000000000000000000000000000000000000000000000000000000000000000000000000000000
310
07070000000000000000000700000000000000000000000000000000000000000000000000000000000000000000000000000000000000000000000000000000000000000000000000000000000000000000000000000707000000000000070700000000000000000000000000000000000000000000000000000000000000
310
00000000000000000000000000000000000000000000000000000000000000000000000000000000000000000000000000000000000707000000000000000000070000000000000000000000000000000000000000000000000000000000000000000000000000000000000000000000000000000000000000000000000000
310
00000000000000000000000007070000000000000707000000000000000000000000000000000000000000000000000000000000000000000000000000000000000000000000000000000000000000000000000000000000000000000000000000000000000000000000070700000000000000000007000000000000000000
310
00000000000000000000000000000000000000000000000000000000000000000000000000000000000000000000000000000000000000000000000000000000000707000007070000070700000000000000000000000000000000000000000000000000000000000000000000000000000000000000000000000000000000
310
00000000000000000000000000000000000000000000000000000000000000000707000000000000000000070000000000000000000000000000000000000000000000000000000000000000000000000000000000000000000000000000000000000000000000000000000000000000000000000000070707070707070707
310
00000000000000000000000000000000000000000000000000000000000000000000000000000000000000000000000000000000000000000000000000000000000000000000000000000000000000000000000000070700000000000000000007000000000000000000000000000000000000000000000000000000000000
310
00000000000000000000000000000000000000000000000000000000000000000000000000000007070707070707070707070707070707070707070000000000000000000000000000000000000000000000000000000000000000000000000000000000000000000000000000000000000000000000000000000000000000
310
00000000000000000000000707000000000000000000070000000000000000000000000000000000000000000000000000000000000000000000000000000000000000000000000000000000000000000000000000000000000007070707000707070700070707000707000000070707070700000000000000000000000000
310
00000000000000000000000000000000000000000000000000000000000000000000000000000000000000000000000000000000000000000000000000000000070700000000000000000007000000000000000000000000000000000000000000000000000000000000000000000000000000000000000000000000000000
310
00000000000000000000000007070707070707000707000007070000000700070000070700070707070707000000000000000000000000000000000000000000000000000000000000000000000000000000000000000000000000000000000000000000000000000000000000000000000000000007070000000000000000
310
00070000000000000000000000000000000000000000000000000000000000000000000000000000000000000000000000000000000000000000000000000000070007070000000700000007070007000700070000070700000007000000070707070000000000000000000000000000000000000000000000000000000000
310
00000000000000000000000000000000000000000000000000000000000000000000000000000000000000070700000000000000000007000000000000000000000000000000000000000000000000000000000000000000000000000000000000000000000000000000000000000000000000000707070000000700000707
310
00000707000007000000070000000700000007000000070707000000000000000000000000000000000000000000000000000000000000000000000000000000000000000000000000000000000000000000000000000000000000000000000007070000000000000000000700000000000000000000000000000000000000
310
00000000000000000000000000000000000000000000000000000000000000000000000000000000000707070000070000070700000707070707000707000707070707000007000007070000070707000000000000000000000000000000000000000000000000000000000000000000000000000000000000000000000000
310
00000000000000000000000000000000000000000000070700000000000000000007000000000000000000000000000000000000000000000000000000000000000000000000000000000000000000000000000000000000000000000000070000000007000007070007070007070707000007070707000707000700000707
310
00000007070000000000000000000000000000000000000000000000000000000000000000000000000000000000000000000000000000000000000000000000000000000000000000000007070000000000000000000700000000000000000000000000000000000000000000000000000000000000000000000000000000
310
00000000000000000000000000000000000000070707000007070000070000070700000007070707070700000007070000070000070700070707000000000000000000000000000000000000000000000000000000000000000000000000000000000000000000000000000000000000000000000000000000000000000000
310
00070700000000000000000007000000000000000000000000000000000000000000000000000000000000000000000000000000000000000000000000000000000000000000000007070707000007000007070000070700000007070700000000070700000700000707000007070707000000000000000000000000000000
310
00000000000000000000000000000000000000000000000000000000000000000000000000000000000000000000000000000000000007070000000000000000000700000000000000000000000000000000000000000000000000000000000000000000000000000000000000000000000000000000000000000000000707
310
07070000070000070707070000070700000700000007000000070007000000070000070707070000000000000000000000000000000000000000000000000000000000000000000000000000000000000000000000000000000000000000000000000000000000000000000707000000000000000000070000000000000000
310
00000000000000000000000000000000000000000000000000000000000000000000000000000000000000000000000000000007070707070000000700000707000707070000070000000707070007000000070000000707070707000000000000000000000000000000000000000000000000000000000000000000000000
310
00000000000000000000000000000000000000000000000000000000000000000007070707070707070707070700000000000000000000000000000000000000000000000000000000000000000000000000000000000000000000000000000000000000000000000700070707070700070007000000070700070000000700
310
00070700000007000700070007070700070000000000000000000000000000000000000000000000000000000000000000000000000000000000000000000000000000000000000000000000000000000000000000000000000000000000000000000000000000000000000000000000000000000000000000000000000000
310
00000000000000000000000000000000000000000000000000000000000007000007070707000707000007070007070000070000070700000707000007070007070707000007000000000000000000000000000000000000000000000000000000000000000000000000000000000000000000000000000000000000000000
310
00000000000000000000000000000000000000000000000000000000000000000000000000000000000000000000000000000000000000000000000000000000000000000000000000000000000000000000000700000007070707070707070000000707000707000000070000000007000707070707070000000700000000
310
00000000000000000000000000000000000000000000000000000000000000000000000000000000000000000000000000000000000000000000000000000000000000000000000000000000000000000000000000000000000000000000000000000000000000000000000000000000000000000000000000000000000000
310
00000000000000000007000000000000070707070707070700000700000707000007070707070707070700000000000007000000000000000000000000000000000000000000000000000000000000000000000000000000000000000000000000000000000000000000000000000000000000000000000000000000000000
310
00000000000000000000000000000000000000000000000000000000000000000000000000000000000000000000000000000000000000000000000000000700000000000000000707070707070707070707070707070707070707070700000000000000000700000000000000000000000000000000000000000000000000
310
00000000000000000000000000000000000000000000000000000000000000000000000000000000000000000000000000000000000000000000000000000000000000000000000000000000000000000000000000000000000000000000000000000000000000000000000000000000000000070000000000000000000000
310
00000000070707070707070700000000000000000000000000000700000000000000000000000000000000000000000000000000000000000000000000000000000000000000000000000000000000000000000000000000000000000000000000000000000000000000000000000000000000000000000000000000000000
310
00000000000000000000000000000000000000000000000000000000000000000000000000000000000007000000000000000000000000000000000000000000000000000000000000000000000000070000000000000000000000000000000000000000000000000000000000000000000000000000000000000000000000
310
00000000000000000000000000000000000000000000000000000000000000000000000000000000000000000000000000000000000000000000000000000000000000000000000000000000000000000000000000000000000000000000000007000000000000000000000000000000000000000000000000000000000000
310
00000000070000000000000000000000000000000000000000000000000000000000000000000000000000000000000000000000000000000000000000000000000000000000000000000000000000000000000000000000000000000000000000000000000000000000000000000000000000000000000000000000000000
310
00000000000000000000000000000000000000000000000700000000000000000000000000000000000000000000000000000000000000000700000000000000000000000000000000000000000000000000000000000000000000000000000000000000000000000000000000000000000000000000000000000000000000
310
00000000000000000000000000000000000000000000000000000000000000000000000000000000000000000000000000000000000000000000000000000000000000000000000000000000000700000000000000000000000000000000000000000000000000000000000707000000000000000000000000000000000000
310
00000000000000000000000000000000000000000000000000000000000000000000000000000000000000000000000000000000000000000000000000000000000000000000000000000000000000000000000000000000000000000000000000000000000000000000000000000000000000000000000000000000000000
310
00000000070707070000000000000000000000000000000000000000000007070707000000000000000000000000000000000000000000000000000000000000000000000000000000000000000000000000000000000000000000000000000000000000000000000000000000000000000000000000000000000000000000
310
00000000000000000000000000000000000000000000000000000000000000000000000000000000000000000000000000000000000000000000000707070707070000000000000000000000000007070707070707000000000000000000000000000000000000000000000000000000000000000000000000000000000000
310
00000000000000000000000000000000000000000000000000000000000000000000000000000000000000000000000000000000000000000000000000000000000000000000000000000000000000000000000000000000000000000000000000000000000000000000000000000000000000000707070707070707070707
310
07070707070707000000000000000000000000000000000000000000000000000000000000000000000000000000000000000000000000000000000000000000000000000000000000000000000000000000000000000000000000000000000000000000000000000000000000000000000000000000000000000000000000
310
00000000000000000000000000000000000000000000000000000000000000000000000000000000000000000000000000000000000000000000000000000000000000000000000000000000000000000000000000000000000000000000000000000000000000000000000000000000000000000000000000000000000000
310
00000000000000000000000000000000000000000000000000000000000000000000000000000000000000000000000000000000000000000000000000000000000000000000000000000000000000000000000000000000000000000000000000000000000000000000000000000000000000000000000000000000000000
310
00000000000000000000000000000000000000000000000000000000000000000000000000000000000000000000000000000000000000000000000000000000000000000000000000000000000000000000000000000000000000000000000000000000000000000000000000000000000000000000000000000000000000
310
00000000000000000000000000000000000000000000000000000000000000000000000000000000000000000000000000000000000000000000000000000000000000000000000000000000000000000000000000000000000000000000000000000000000000000000000000000000000000000000000000000000000000
310
000000000000000000000000000000000000000000000000000000000000000000000000000000000000000000000000000000000000000000000000000000000000000000000000000000000000000000000000000000000000000000000000000000000000000000000000
  0
ENDSEC
  0
EOF
