  0
SECTION
  2
HEADER
  9
$ACADVER
  1
AC1015
  9
$ACADMAINTVER
 70
     6
  9
$DWGCODEPAGE
  3
ANSI_1252
  9
$INSBASE
 10
0.0
 20
0.0
 30
0.0
  9
$EXTMIN
 10
-5.7103
 20
-0.1105
 30
0.0
  9
$EXTMAX
 10
244.0
 20
201.819888
 30
0.0
  9
$LIMMIN
 10
0.0
 20
0.0
  9
$LIMMAX
 10
12.0
 20
9.0
  9
$ORTHOMODE
 70
     0
  9
$REGENMODE
 70
     1
  9
$FILLMODE
 70
     1
  9
$QTEXTMODE
 70
     0
  9
$MIRRTEXT
 70
     1
  9
$LTSCALE
 40
1.0
  9
$ATTMODE
 70
     1
  9
$TEXTSIZE
 40
0.2
  9
$TRACEWID
 40
0.05
  9
$TEXTSTYLE
  7
Standard
  9
$CLAYER
  8
0
  9
$CELTYPE
  6
Continuous
  9
$CECOLOR
 62
   256
  9
$CELTSCALE
 40
1.0
  9
$DISPSILH
 70
     0
  9
$DIMSCALE
 40
1.0
  9
$DIMASZ
 40
0.18
  9
$DIMEXO
 40
0.0625
  9
$DIMDLI
 40
0.38
  9
$DIMRND
 40
0.0
  9
$DIMDLE
 40
0.0
  9
$DIMEXE
 40
0.18
  9
$DIMTP
 40
0.0
  9
$DIMTM
 40
0.0
  9
$DIMTXT
 40
0.18
  9
$DIMCEN
 40
0.09
  9
$DIMTSZ
 40
0.0
  9
$DIMTOL
 70
     0
  9
$DIMLIM
 70
     0
  9
$DIMTIH
 70
     1
  9
$DIMTOH
 70
     1
  9
$DIMSE1
 70
     0
  9
$DIMSE2
 70
     0
  9
$DIMTAD
 70
     0
  9
$DIMZIN
 70
     0
  9
$DIMBLK
  1

  9
$DIMASO
 70
     1
  9
$DIMSHO
 70
     1
  9
$DIMPOST
  1

  9
$DIMAPOST
  1

  9
$DIMALT
 70
     0
  9
$DIMALTD
 70
     2
  9
$DIMALTF
 40
25.4
  9
$DIMLFAC
 40
1.0
  9
$DIMTOFL
 70
     0
  9
$DIMTVP
 40
0.0
  9
$DIMTIX
 70
     0
  9
$DIMSOXD
 70
     0
  9
$DIMSAH
 70
     0
  9
$DIMBLK1
  1

  9
$DIMBLK2
  1

  9
$DIMSTYLE
  2
Standard
  9
$DIMCLRD
 70
     0
  9
$DIMCLRE
 70
     0
  9
$DIMCLRT
 70
     0
  9
$DIMTFAC
 40
1.0
  9
$DIMGAP
 40
0.09
  9
$DIMJUST
 70
     0
  9
$DIMSD1
 70
     0
  9
$DIMSD2
 70
     0
  9
$DIMTOLJ
 70
     1
  9
$DIMTZIN
 70
     0
  9
$DIMALTZ
 70
     0
  9
$DIMALTTZ
 70
     0
  9
$DIMUPT
 70
     0
  9
$DIMDEC
 70
     4
  9
$DIMTDEC
 70
     4
  9
$DIMALTU
 70
     2
  9
$DIMALTTD
 70
     2
  9
$DIMTXSTY
  7
Standard
  9
$DIMAUNIT
 70
     0
  9
$DIMADEC
 70
     0
  9
$DIMALTRND
 40
0.0
  9
$DIMAZIN
 70
     0
  9
$DIMDSEP
 70
    46
  9
$DIMATFIT
 70
     3
  9
$DIMFRAC
 70
     0
  9
$DIMLDRBLK
  1

  9
$DIMLUNIT
 70
     2
  9
$DIMLWD
 70
    -2
  9
$DIMLWE
 70
    -2
  9
$DIMTMOVE
 70
     0
  9
$LUNITS
 70
     2
  9
$LUPREC
 70
     4
  9
$SKETCHINC
 40
0.1
  9
$FILLETRAD
 40
0.0
  9
$AUNITS
 70
     0
  9
$AUPREC
 70
     0
  9
$MENU
  1
.
  9
$ELEVATION
 40
0.0
  9
$PELEVATION
 40
0.0
  9
$THICKNESS
 40
0.0
  9
$LIMCHECK
 70
     0
  9
$CHAMFERA
 40
0.0
  9
$CHAMFERB
 40
0.0
  9
$CHAMFERC
 40
0.0
  9
$CHAMFERD
 40
0.0
  9
$SKPOLY
 70
     0
  9
$TDCREATE
 40
2454635.824185104
  9
$TDUCREATE
 40
2454635.740851771
  9
$TDUPDATE
 40
2456210.42131184
  9
$TDUUPDATE
 40
2456210.337978507
  9
$TDINDWG
 40
0.0106638773
  9
$TDUSRTIMER
 40
0.0106638773
  9
$USRTIMER
 70
     1
  9
$ANGBASE
 50
0.0
  9
$ANGDIR
 70
     0
  9
$PDMODE
 70
     0
  9
$PDSIZE
 40
0.0
  9
$PLINEWID
 40
0.0
  9
$SPLFRAME
 70
     0
  9
$SPLINETYPE
 70
     6
  9
$SPLINESEGS
 70
     8
  9
$HANDSEED
  5
E76
  9
$SURFTAB1
 70
     6
  9
$SURFTAB2
 70
     6
  9
$SURFTYPE
 70
     6
  9
$SURFU
 70
     6
  9
$SURFV
 70
     6
  9
$UCSBASE
  2

  9
$UCSNAME
  2

  9
$UCSORG
 10
0.0
 20
0.0
 30
0.0
  9
$UCSXDIR
 10
1.0
 20
0.0
 30
0.0
  9
$UCSYDIR
 10
0.0
 20
1.0
 30
0.0
  9
$UCSORTHOREF
  2

  9
$UCSORTHOVIEW
 70
     1
  9
$UCSORGTOP
 10
0.0
 20
0.0
 30
0.0
  9
$UCSORGBOTTOM
 10
0.0
 20
0.0
 30
0.0
  9
$UCSORGLEFT
 10
0.0
 20
0.0
 30
0.0
  9
$UCSORGRIGHT
 10
0.0
 20
0.0
 30
0.0
  9
$UCSORGFRONT
 10
0.0
 20
0.0
 30
0.0
  9
$UCSORGBACK
 10
0.0
 20
0.0
 30
0.0
  9
$PUCSBASE
  2

  9
$PUCSNAME
  2

  9
$PUCSORG
 10
0.0
 20
0.0
 30
0.0
  9
$PUCSXDIR
 10
1.0
 20
0.0
 30
0.0
  9
$PUCSYDIR
 10
0.0
 20
1.0
 30
0.0
  9
$PUCSORTHOREF
  2

  9
$PUCSORTHOVIEW
 70
     0
  9
$PUCSORGTOP
 10
0.0
 20
0.0
 30
0.0
  9
$PUCSORGBOTTOM
 10
0.0
 20
0.0
 30
0.0
  9
$PUCSORGLEFT
 10
0.0
 20
0.0
 30
0.0
  9
$PUCSORGRIGHT
 10
0.0
 20
0.0
 30
0.0
  9
$PUCSORGFRONT
 10
0.0
 20
0.0
 30
0.0
  9
$PUCSORGBACK
 10
0.0
 20
0.0
 30
0.0
  9
$USERI1
 70
     0
  9
$USERI2
 70
     0
  9
$USERI3
 70
     0
  9
$USERI4
 70
     0
  9
$USERI5
 70
     0
  9
$USERR1
 40
0.0
  9
$USERR2
 40
0.0
  9
$USERR3
 40
0.0
  9
$USERR4
 40
0.0
  9
$USERR5
 40
0.0
  9
$WORLDVIEW
 70
     1
  9
$SHADEDGE
 70
     3
  9
$SHADEDIF
 70
    70
  9
$TILEMODE
 70
     1
  9
$MAXACTVP
 70
    64
  9
$PINSBASE
 10
0.0
 20
0.0
 30
0.0
  9
$PLIMCHECK
 70
     0
  9
$PEXTMIN
 10
1.000000000000E+20
 20
1.000000000000E+20
 30
1.000000000000E+20
  9
$PEXTMAX
 10
-1.000000000000E+20
 20
-1.000000000000E+20
 30
-1.000000000000E+20
  9
$PLIMMIN
 10
0.0
 20
0.0
  9
$PLIMMAX
 10
12.0
 20
9.0
  9
$UNITMODE
 70
     0
  9
$VISRETAIN
 70
     1
  9
$PLINEGEN
 70
     0
  9
$PSLTSCALE
 70
     1
  9
$TREEDEPTH
 70
  3020
  9
$CMLSTYLE
  2
Standard
  9
$CMLJUST
 70
     0
  9
$CMLSCALE
 40
1.0
  9
$PROXYGRAPHICS
 70
     1
  9
$MEASUREMENT
 70
     0
  9
$CELWEIGHT
370
    -1
  9
$ENDCAPS
280
     0
  9
$JOINSTYLE
280
     0
  9
$LWDISPLAY
290
     0
  9
$INSUNITS
 70
     0
  9
$HYPERLINKBASE
  1

  9
$STYLESHEET
  1

  9
$XEDIT
290
     1
  9
$CEPSNTYPE
380
     0
  9
$PSTYLEMODE
290
     1
  9
$FINGERPRINTGUID
  2
{63E7305F-5DC1-4806-811C-3A53DB15C8E8}
  9
$VERSIONGUID
  2
{C6FFD1D6-22F0-478B-8D4F-3E022EED496D}
  9
$EXTNAMES
290
     1
  9
$PSVPSCALE
 40
0.0
  9
$OLESTARTUP
290
     0
  0
ENDSEC
  0
SECTION
  2
CLASSES
  0
CLASS
  1
ACDBDICTIONARYWDFLT
  2
AcDbDictionaryWithDefault
  3
ObjectDBX Classes
 90
        0
280
     0
281
     0
  0
CLASS
  1
ACDBPLACEHOLDER
  2
AcDbPlaceHolder
  3
ObjectDBX Classes
 90
        0
280
     0
281
     0
  0
CLASS
  1
LAYOUT
  2
AcDbLayout
  3
ObjectDBX Classes
 90
        0
280
     0
281
     0
  0
CLASS
  1
DICTIONARYVAR
  2
AcDbDictionaryVar
  3
ObjectDBX Classes
 90
        0
280
     0
281
     0
  0
CLASS
  1
SCALE
  2
AcDbScale
  3
ObjectDBX Classes
 90
     1153
280
     0
281
     0
  0
ENDSEC
  0
SECTION
  2
TABLES
  0
TABLE
  2
VPORT
  5
8
330
0
100
AcDbSymbolTable
 70
     1
  0
VPORT
  5
3A8
330
8
100
AcDbSymbolTableRecord
100
AcDbViewportTableRecord
  2
*Active
 70
     0
 10
0.0
 20
0.0
 11
1.0
 21
1.0
 12
119.14485
 22
100.854694
 13
0.0
 23
0.0
 14
1.0
 24
1.0
 15
0.0
 25
0.0
 16
0.0
 26
0.0
 36
1.0
 17
0.0
 27
0.0
 37
0.0
 40
205.96899576
 41
2.271724137931
 42
50.0
 43
0.0
 44
0.0
 50
0.0
 51
0.0
 71
    16
 72
   100
 73
     1
 74
     3
 75
     0
 76
     0
 77
     0
 78
     0
281
     0
 65
     1
110
0.0
120
0.0
130
0.0
111
1.0
121
0.0
131
0.0
112
0.0
122
1.0
132
0.0
 79
     1
146
0.0
  0
ENDTAB
  0
TABLE
  2
LTYPE
  5
5
330
0
100
AcDbSymbolTable
 70
     1
  0
LTYPE
  5
13
330
5
100
AcDbSymbolTableRecord
100
AcDbLinetypeTableRecord
  2
ByBlock
 70
     0
  3

 72
    65
 73
     0
 40
0.0
  0
LTYPE
  5
14
330
5
100
AcDbSymbolTableRecord
100
AcDbLinetypeTableRecord
  2
ByLayer
 70
     0
  3

 72
    65
 73
     0
 40
0.0
  0
LTYPE
  5
15
330
5
100
AcDbSymbolTableRecord
100
AcDbLinetypeTableRecord
  2
Continuous
 70
     0
  3
Solid line
 72
    65
 73
     0
 40
0.0
  0
ENDTAB
  0
TABLE
  2
LAYER
  5
2
330
0
100
AcDbSymbolTable
 70
     1
  0
LAYER
  5
10
330
2
100
AcDbSymbolTableRecord
100
AcDbLayerTableRecord
  2
0
 70
     0
 62
     7
  6
Continuous
370
    -3
390
F
  0
ENDTAB
  0
TABLE
  2
STYLE
  5
3
330
0
100
AcDbSymbolTable
 70
     1
  0
STYLE
  5
11
330
3
100
AcDbSymbolTableRecord
100
AcDbTextStyleTableRecord
  2
Standard
 70
     0
 40
0.0
 41
1.0
 50
0.0
 71
     0
 42
0.2
  3
txt
  4

  0
ENDTAB
  0
TABLE
  2
VIEW
  5
6
330
0
100
AcDbSymbolTable
 70
     0
  0
ENDTAB
  0
TABLE
  2
UCS
  5
7
330
0
100
AcDbSymbolTable
 70
     0
  0
ENDTAB
  0
TABLE
  2
APPID
  5
9
330
0
100
AcDbSymbolTable
 70
     1
  0
APPID
  5
12
330
9
100
AcDbSymbolTableRecord
100
AcDbRegAppTableRecord
  2
ACAD
 70
     0
  0
ENDTAB
  0
TABLE
  2
DIMSTYLE
  5
A
330
0
100
AcDbSymbolTable
 70
     1
100
AcDbDimStyleTable
  0
DIMSTYLE
105
3A2
330
A
100
AcDbSymbolTableRecord
100
AcDbDimStyleTableRecord
  2
Standard
 70
     0
340
11
  0
ENDTAB
  0
TABLE
  2
BLOCK_RECORD
  5
1
330
0
100
AcDbSymbolTable
 70
     2
  0
BLOCK_RECORD
  5
1E
330
1
100
AcDbSymbolTableRecord
100
AcDbBlockTableRecord
  2
*Model_Space
340
21
  0
BLOCK_RECORD
  5
1A
330
1
100
AcDbSymbolTableRecord
100
AcDbBlockTableRecord
  2
*Paper_Space
340
1D
  0
ENDTAB
  0
ENDSEC
  0
SECTION
  2
BLOCKS
  0
BLOCK
  5
1F
330
1E
100
AcDbEntity
  8
0
100
AcDbBlockBegin
  2
*Model_Space
 70
     0
 10
0.0
 20
0.0
 30
0.0
  3
*Model_Space
  1
*Model_Space
  0
ENDBLK
  5
20
330
1E
100
AcDbEntity
  8
0
100
AcDbBlockEnd
  0
BLOCK
  5
1B
330
1A
100
AcDbEntity
 67
     1
  8
0
100
AcDbBlockBegin
  2
*Paper_Space
 70
     0
 10
0.0
 20
0.0
 30
0.0
  3
*Paper_Space
  1
*Paper_Space
  0
ENDBLK
  5
1C
330
1A
100
AcDbEntity
 67
     1
  8
0
100
AcDbBlockEnd
  0
ENDSEC
  0
SECTION
  2
ENTITIES
  0
LINE
  5
10A
330
1E
100
AcDbEntity
  8
0
100
AcDbLine
 10
242.7
 20
-0.1105
 30
0.0
 11
244.0
 21
-0.1105
 31
0.0
  0
LINE
  5
10C
330
1E
100
AcDbEntity
  8
0
100
AcDbLine
 10
239.3
 20
-0.1105
 30
0.0
 11
242.7
 21
-0.1105
 31
0.0
  0
LINE
  5
10D
330
1E
100
AcDbEntity
  8
0
100
AcDbLine
 10
233.7
 20
-0.1105
 30
0.0
 11
239.3
 21
-0.1105
 31
0.0
  0
LINE
  5
10E
330
1E
100
AcDbEntity
  8
0
100
AcDbLine
 10
209.0
 20
-0.1105
 30
0.0
 11
233.7
 21
-0.1105
 31
0.0
  0
LINE
  5
110
330
1E
100
AcDbEntity
  8
0
100
AcDbLine
 10
174.0
 20
-0.1105
 30
0.0
 11
175.3
 21
-0.1105
 31
0.0
  0
LINE
  5
113
330
1E
100
AcDbEntity
  8
0
100
AcDbLine
 10
175.3
 20
-0.1105
 30
0.0
 11
178.7
 21
-0.1105
 31
0.0
  0
LINE
  5
114
330
1E
100
AcDbEntity
  8
0
100
AcDbLine
 10
178.7
 20
-0.1105
 30
0.0
 11
184.3
 21
-0.1105
 31
0.0
  0
LINE
  5
115
330
1E
100
AcDbEntity
  8
0
100
AcDbLine
 10
184.3
 20
-0.1105
 30
0.0
 11
191.6
 21
-0.1105
 31
0.0
  0
LINE
  5
116
330
1E
100
AcDbEntity
  8
0
100
AcDbLine
 10
191.6
 20
-0.1105
 30
0.0
 11
200.0
 21
-0.1105
 31
0.0
  0
LINE
  5
124
330
1E
100
AcDbEntity
  8
0
100
AcDbLine
 10
200.0
 20
-0.1105
 30
0.0
 11
209.0
 21
-0.1105
 31
0.0
  0
LINE
  5
B48
330
1E
100
AcDbEntity
  8
0
100
AcDbLine
 10
10.707
 20
111.4895
 30
0.0
 11
14.0
 21
111.4895
 31
0.0
  0
LINE
  5
B49
330
1E
100
AcDbEntity
  8
0
100
AcDbLine
 10
7.63
 20
111.4895
 30
0.0
 11
10.707
 21
111.4895
 31
0.0
  0
LINE
  5
B4A
330
1E
100
AcDbEntity
  8
0
100
AcDbLine
 10
4.987
 20
111.4895
 30
0.0
 11
7.63
 21
111.4895
 31
0.0
  0
LINE
  5
B4B
330
1E
100
AcDbEntity
  8
0
100
AcDbLine
 10
2.95
 20
111.4895
 30
0.0
 11
4.987
 21
111.4895
 31
0.0
  0
LINE
  5
B4C
330
1E
100
AcDbEntity
  8
0
100
AcDbLine
 10
1.693
 20
111.4895
 30
0.0
 11
2.95
 21
111.4895
 31
0.0
  0
LINE
  5
B4D
330
1E
100
AcDbEntity
  8
0
100
AcDbLine
 10
1.217
 20
111.4895
 30
0.0
 11
1.693
 21
111.4895
 31
0.0
  0
LINE
  5
B4E
330
1E
100
AcDbEntity
  8
0
100
AcDbLine
 10
1.217
 20
111.4895
 30
0.0
 11
14.0
 21
111.3895
 31
0.0
  0
LINE
  5
B4F
330
1E
100
AcDbEntity
  8
0
100
AcDbLine
 10
14.0
 20
111.4895
 30
0.0
 11
17.293
 21
111.4895
 31
0.0
  0
LINE
  5
B50
330
1E
100
AcDbEntity
  8
0
100
AcDbLine
 10
17.293
 20
111.4895
 30
0.0
 11
20.37
 21
111.4895
 31
0.0
  0
LINE
  5
B51
330
1E
100
AcDbEntity
  8
0
100
AcDbLine
 10
10.663
 20
111.7395
 30
0.0
 11
14.0
 21
111.7395
 31
0.0
  0
LINE
  5
B52
330
1E
100
AcDbEntity
  8
0
100
AcDbLine
 10
7.543
 20
111.7395
 30
0.0
 11
10.663
 21
111.7395
 31
0.0
  0
LINE
  5
B53
330
1E
100
AcDbEntity
  8
0
100
AcDbLine
 10
4.813
 20
111.7395
 30
0.0
 11
7.543
 21
111.7395
 31
0.0
  0
LINE
  5
B54
330
1E
100
AcDbEntity
  8
0
100
AcDbLine
 10
2.733
 20
111.7395
 30
0.0
 11
4.813
 21
111.7395
 31
0.0
  0
LINE
  5
B55
330
1E
100
AcDbEntity
  8
0
100
AcDbLine
 10
1.477
 20
111.7395
 30
0.0
 11
2.733
 21
111.7395
 31
0.0
  0
LINE
  5
B56
330
1E
100
AcDbEntity
  8
0
100
AcDbLine
 10
0.5
 20
116.8895
 30
0.0
 11
0.5
 21
123.8895
 31
0.0
  0
LINE
  5
B57
330
1E
100
AcDbEntity
  8
0
100
AcDbLine
 10
0.5
 20
116.8895
 30
0.0
 11
27.5
 21
116.8895
 31
0.0
  0
LINE
  5
B58
330
1E
100
AcDbEntity
  8
0
100
AcDbLine
 10
0.5
 20
116.8895
 30
0.0
 11
0.5
 21
116.3895
 31
0.0
  0
LINE
  5
B59
330
1E
100
AcDbEntity
  8
0
100
AcDbLine
 10
0.5
 20
116.3895
 30
0.0
 11
27.5
 21
116.3895
 31
0.0
  0
LINE
  5
B5A
330
1E
100
AcDbEntity
  8
0
100
AcDbLine
 10
0.5
 20
116.3895
 30
0.0
 11
0.5
 21
116.8895
 31
0.0
  0
LINE
  5
B5B
330
1E
100
AcDbEntity
  8
0
100
AcDbLine
 10
0.5
 20
123.8895
 30
0.0
 11
2.2
 21
135.6895
 31
0.0
  0
LINE
  5
B5C
330
1E
100
AcDbEntity
  8
0
100
AcDbLine
 10
0.5
 20
123.8895
 30
0.0
 11
0.5
 21
116.8895
 31
0.0
  0
LINE
  5
B5D
330
1E
100
AcDbEntity
  8
0
100
AcDbLine
 10
0.0
 20
123.8895
 30
0.0
 11
1.7
 21
135.7895
 31
0.0
  0
LINE
  5
B5E
330
1E
100
AcDbEntity
  8
0
100
AcDbLine
 10
0.0
 20
123.8895
 30
0.0
 11
0.0
 21
116.8895
 31
0.0
  0
LINE
  5
B5F
330
1E
100
AcDbEntity
  8
0
100
AcDbLine
 10
0.0
 20
116.8895
 30
0.0
 11
0.5
 21
116.3895
 31
0.0
  0
LINE
  5
B60
330
1E
100
AcDbEntity
  8
0
100
AcDbLine
 10
0.0
 20
116.8895
 30
0.0
 11
0.0
 21
123.8895
 31
0.0
  0
LINE
  5
B61
330
1E
100
AcDbEntity
  8
0
100
AcDbLine
 10
0.0
 20
116.8895
 30
0.0
 11
0.5
 21
116.8895
 31
0.0
  0
LINE
  5
B62
330
1E
100
AcDbEntity
  8
0
100
AcDbLine
 10
2.2
 20
135.6895
 30
0.0
 11
6.6
 21
146.5895
 31
0.0
  0
LINE
  5
B63
330
1E
100
AcDbEntity
  8
0
100
AcDbLine
 10
6.6
 20
146.5895
 30
0.0
 11
13.9
 21
155.9895
 31
0.0
  0
LINE
  5
B64
330
1E
100
AcDbEntity
  8
0
100
AcDbLine
 10
1.7
 20
135.7895
 30
0.0
 11
6.2
 21
146.7895
 31
0.0
  0
LINE
  5
B65
330
1E
100
AcDbEntity
  8
0
100
AcDbLine
 10
6.2
 20
146.7895
 30
0.0
 11
13.6
 21
156.3895
 31
0.0
  0
LINE
  5
B66
330
1E
100
AcDbEntity
  8
0
100
AcDbLine
 10
1.0
 20
116.3895
 30
0.0
 11
1.0
 21
111.7395
 31
0.0
  0
LINE
  5
B67
330
1E
100
AcDbEntity
  8
0
100
AcDbLine
 10
1.0
 20
111.7395
 30
0.0
 11
1.0
 21
116.3895
 31
0.0
  0
LINE
  5
B68
330
1E
100
AcDbEntity
  8
0
100
AcDbLine
 10
1.0
 20
111.7395
 30
0.0
 11
1.477
 21
111.7395
 31
0.0
  0
LINE
  5
B69
330
1E
100
AcDbEntity
  8
0
100
AcDbLine
 10
1.0
 20
111.7395
 30
0.0
 11
1.217
 21
111.4895
 31
0.0
  0
LINE
  5
B6A
330
1E
100
AcDbEntity
  8
0
100
AcDbLine
 10
14.0
 20
111.7395
 30
0.0
 11
17.337
 21
111.7395
 31
0.0
  0
LINE
  5
B6B
330
1E
100
AcDbEntity
  8
0
100
AcDbLine
 10
17.337
 20
111.7395
 30
0.0
 11
20.457
 21
111.7395
 31
0.0
  0
LINE
  5
B6C
330
1E
100
AcDbEntity
  8
0
100
AcDbLine
 10
17.337
 20
116.3895
 30
0.0
 11
20.457
 21
116.3895
 31
0.0
  0
LINE
  5
B6D
330
1E
100
AcDbEntity
  8
0
100
AcDbLine
 10
14.0
 20
111.3895
 30
0.0
 11
26.783
 21
111.4895
 31
0.0
  0
LINE
  5
B6E
330
1E
100
AcDbEntity
  8
0
100
AcDbLine
 10
13.9
 20
155.9895
 30
0.0
 11
17.269143906255
 21
158.578421106912
 31
0.0
  0
LINE
  5
B6F
330
1E
100
AcDbEntity
  8
0
100
AcDbLine
 10
13.9
 20
155.9895
 30
0.0
 11
17.269143906255
 21
158.578421106912
 31
0.0
  0
LINE
  5
B70
330
1E
100
AcDbEntity
  8
0
100
AcDbLine
 10
13.6
 20
156.3895
 30
0.0
 11
17.727365366133
 21
159.561054439239
 31
0.0
  0
LINE
  5
B71
330
1E
100
AcDbEntity
  8
0
100
AcDbLine
 10
20.37
 20
111.4895
 30
0.0
 11
23.013
 21
111.4895
 31
0.0
  0
LINE
  5
B72
330
1E
100
AcDbEntity
  8
0
100
AcDbLine
 10
23.013
 20
111.4895
 30
0.0
 11
25.05
 21
111.4895
 31
0.0
  0
LINE
  5
B73
330
1E
100
AcDbEntity
  8
0
100
AcDbLine
 10
25.05
 20
111.4895
 30
0.0
 11
26.307
 21
111.4895
 31
0.0
  0
LINE
  5
B74
330
1E
100
AcDbEntity
  8
0
100
AcDbLine
 10
20.457
 20
111.7395
 30
0.0
 11
23.187
 21
111.7395
 31
0.0
  0
LINE
  5
B75
330
1E
100
AcDbEntity
  8
0
100
AcDbLine
 10
23.187
 20
111.7395
 30
0.0
 11
25.267
 21
111.7395
 31
0.0
  0
LINE
  5
B76
330
1E
100
AcDbEntity
  8
0
100
AcDbLine
 10
25.267
 20
111.7395
 30
0.0
 11
26.523
 21
111.7395
 31
0.0
  0
LINE
  5
B77
330
1E
100
AcDbEntity
  8
0
100
AcDbLine
 10
26.523
 20
111.7395
 30
0.0
 11
27.0
 21
111.7395
 31
0.0
  0
LINE
  5
B78
330
1E
100
AcDbEntity
  8
0
100
AcDbLine
 10
26.307
 20
111.4895
 30
0.0
 11
26.783
 21
111.4895
 31
0.0
  0
LINE
  5
B79
330
1E
100
AcDbEntity
  8
0
100
AcDbLine
 10
26.783
 20
111.4895
 30
0.0
 11
27.0
 21
111.7395
 31
0.0
  0
LINE
  5
B7A
330
1E
100
AcDbEntity
  8
0
100
AcDbLine
 10
20.457
 20
116.3895
 30
0.0
 11
23.187
 21
116.3895
 31
0.0
  0
LINE
  5
B7B
330
1E
100
AcDbEntity
  8
0
100
AcDbLine
 10
23.187
 20
116.3895
 30
0.0
 11
25.267
 21
116.3895
 31
0.0
  0
LINE
  5
B7C
330
1E
100
AcDbEntity
  8
0
100
AcDbLine
 10
25.267
 20
116.3895
 30
0.0
 11
26.523
 21
116.3895
 31
0.0
  0
LINE
  5
B7D
330
1E
100
AcDbEntity
  8
0
100
AcDbLine
 10
27.5
 20
116.3895
 30
0.0
 11
28.0
 21
116.8895
 31
0.0
  0
LINE
  5
B7E
330
1E
100
AcDbEntity
  8
0
100
AcDbLine
 10
27.5
 20
116.3895
 30
0.0
 11
27.5
 21
116.8895
 31
0.0
  0
LINE
  5
B7F
330
1E
100
AcDbEntity
  8
0
100
AcDbLine
 10
28.0
 20
116.8895
 30
0.0
 11
28.0
 21
123.8895
 31
0.0
  0
LINE
  5
B80
330
1E
100
AcDbEntity
  8
0
100
AcDbLine
 10
28.0
 20
123.8895
 30
0.0
 11
28.6
 21
128.5895
 31
0.0
  0
LINE
  5
B81
330
1E
100
AcDbEntity
  8
0
100
AcDbLine
 10
28.0
 20
123.8895
 30
0.0
 11
28.0
 21
116.8895
 31
0.0
  0
LINE
  5
B82
330
1E
100
AcDbEntity
  8
0
100
AcDbLine
 10
27.5
 20
116.8895
 30
0.0
 11
27.5
 21
123.8895
 31
0.0
  0
LINE
  5
B83
330
1E
100
AcDbEntity
  8
0
100
AcDbLine
 10
27.5
 20
116.8895
 30
0.0
 11
28.0
 21
116.8895
 31
0.0
  0
LINE
  5
B84
330
1E
100
AcDbEntity
  8
0
100
AcDbLine
 10
27.5
 20
116.8895
 30
0.0
 11
27.5
 21
116.3895
 31
0.0
  0
LINE
  5
B85
330
1E
100
AcDbEntity
  8
0
100
AcDbLine
 10
27.5
 20
123.8895
 30
0.0
 11
28.1
 21
128.6895
 31
0.0
  0
LINE
  5
B86
330
1E
100
AcDbEntity
  8
0
100
AcDbLine
 10
27.5
 20
123.8895
 30
0.0
 11
27.5
 21
116.8895
 31
0.0
  0
LINE
  5
B87
330
1E
100
AcDbEntity
  8
0
100
AcDbLine
 10
28.6
 20
128.5895
 30
0.0
 11
30.4
 21
132.8895
 31
0.0
  0
LINE
  5
B88
330
1E
100
AcDbEntity
  8
0
100
AcDbLine
 10
28.1
 20
128.6895
 30
0.0
 11
30.0
 21
133.0895
 31
0.0
  0
LINE
  5
B89
330
1E
100
AcDbEntity
  8
0
100
AcDbLine
 10
27.0
 20
116.3895
 30
0.0
 11
27.0
 21
111.7395
 31
0.0
  0
LINE
  5
B8A
330
1E
100
AcDbEntity
  8
0
100
AcDbLine
 10
26.523
 20
116.3895
 30
0.0
 11
27.0
 21
116.3895
 31
0.0
  0
LINE
  5
B8B
330
1E
100
AcDbEntity
  8
0
100
AcDbLine
 10
27.0
 20
111.7395
 30
0.0
 11
27.0
 21
116.3895
 31
0.0
  0
LINE
  5
B8C
330
1E
100
AcDbEntity
  8
0
100
AcDbLine
 10
30.4
 20
132.8895
 30
0.0
 11
33.4
 21
136.6895
 31
0.0
  0
LINE
  5
B8D
330
1E
100
AcDbEntity
  8
0
100
AcDbLine
 10
30.0
 20
133.0895
 30
0.0
 11
32.9
 21
136.9895
 31
0.0
  0
LINE
  5
B8E
330
1E
100
AcDbEntity
  8
0
100
AcDbLine
 10
33.4
 20
136.6895
 30
0.0
 11
37.0
 21
139.4895
 31
0.0
  0
LINE
  5
B8F
330
1E
100
AcDbEntity
  8
0
100
AcDbLine
 10
32.9
 20
136.9895
 30
0.0
 11
36.8
 21
139.9895
 31
0.0
  0
LINE
  5
B90
330
1E
100
AcDbEntity
  8
0
100
AcDbLine
 10
36.8
 20
139.9895
 30
0.0
 11
37.889726951319
 21
140.435297389176
 31
0.0
  0
LINE
  5
B91
330
1E
100
AcDbEntity
  8
0
100
AcDbLine
 10
36.8
 20
139.9895
 30
0.0
 11
37.889726951319
 21
140.435297389176
 31
0.0
  0
LINE
  5
B92
330
1E
100
AcDbEntity
  8
0
100
AcDbLine
 10
37.0
 20
139.4895
 30
0.0
 11
38.537900763662
 21
140.133272412696
 31
0.0
  0
LINE
  5
B94
330
1E
100
AcDbEntity
  8
0
100
AcDbLine
 10
174.5
 20
95.8895
 30
0.0
 11
205.2
 21
95.8895
 31
0.0
  0
LINE
  5
B95
330
1E
100
AcDbEntity
  8
0
100
AcDbLine
 10
174.0
 20
95.3895
 30
0.0
 11
174.0
 21
80.3895
 31
0.0
  0
LINE
  5
B96
330
1E
100
AcDbEntity
  8
0
100
AcDbLine
 10
174.0
 20
95.3895
 30
0.0
 11
174.5
 21
95.8895
 31
0.0
  0
LINE
  5
B97
330
1E
100
AcDbEntity
  8
0
100
AcDbLine
 10
174.0
 20
95.3895
 30
0.0
 11
204.6
 21
95.3895
 31
0.0
  0
LINE
  5
B98
330
1E
100
AcDbEntity
  8
0
100
AcDbLine
 10
174.0
 20
80.3895
 30
0.0
 11
174.5
 21
79.8895
 31
0.0
  0
LINE
  5
B99
330
1E
100
AcDbEntity
  8
0
100
AcDbLine
 10
174.0
 20
80.3895
 30
0.0
 11
174.0
 21
95.3895
 31
0.0
  0
LINE
  5
B9A
330
1E
100
AcDbEntity
  8
0
100
AcDbLine
 10
174.0
 20
80.3895
 30
0.0
 11
204.6
 21
80.3895
 31
0.0
  0
LINE
  5
B9B
330
1E
100
AcDbEntity
  8
0
100
AcDbLine
 10
184.0
 20
62.496100563011
 30
0.0
 11
184.0
 21
64.3895
 31
0.0
  0
LINE
  5
B9C
330
1E
100
AcDbEntity
  8
0
100
AcDbLine
 10
184.5
 20
64.8895
 30
0.0
 11
185.4
 21
64.8895
 31
0.0
  0
LINE
  5
B9D
330
1E
100
AcDbEntity
  8
0
100
AcDbLine
 10
185.4
 20
64.8895
 30
0.0
 11
187.8
 21
64.8895
 31
0.0
  0
LINE
  5
B9E
330
1E
100
AcDbEntity
  8
0
100
AcDbLine
 10
187.8
 20
64.8895
 30
0.0
 11
191.7
 21
64.8895
 31
0.0
  0
LINE
  5
B9F
330
1E
100
AcDbEntity
  8
0
100
AcDbLine
 10
184.0
 20
64.3895
 30
0.0
 11
184.0
 21
62.496100563011
 31
0.0
  0
LINE
  5
BA0
330
1E
100
AcDbEntity
  8
0
100
AcDbLine
 10
184.0
 20
64.3895
 30
0.0
 11
184.5
 21
64.8895
 31
0.0
  0
LINE
  5
BA1
330
1E
100
AcDbEntity
  8
0
100
AcDbLine
 10
191.7
 20
64.8895
 30
0.0
 11
196.8
 21
64.8895
 31
0.0
  0
LINE
  5
BA2
330
1E
100
AcDbEntity
  8
0
100
AcDbLine
 10
195.0
 20
79.8895
 30
0.0
 11
195.0
 21
64.8895
 31
0.0
  0
LINE
  5
BA3
330
1E
100
AcDbEntity
  8
0
100
AcDbLine
 10
199.209257010155
 20
44.3895
 30
0.0
 11
204.4
 21
44.3895
 31
0.0
  0
LINE
  5
BA4
330
1E
100
AcDbEntity
  8
0
100
AcDbLine
 10
204.4
 20
44.3895
 30
0.0
 11
209.0
 21
44.3895
 31
0.0
  0
LINE
  5
BA5
330
1E
100
AcDbEntity
  8
0
100
AcDbLine
 10
221.7
 20
44.3895
 30
0.0
 11
224.6
 21
44.3895
 31
0.0
  0
LINE
  5
BA6
330
1E
100
AcDbEntity
  8
0
100
AcDbLine
 10
217.9
 20
44.3895
 30
0.0
 11
221.7
 21
44.3895
 31
0.0
  0
LINE
  5
BA7
330
1E
100
AcDbEntity
  8
0
100
AcDbLine
 10
213.6
 20
44.3895
 30
0.0
 11
217.9
 21
44.3895
 31
0.0
  0
LINE
  5
BA8
330
1E
100
AcDbEntity
  8
0
100
AcDbLine
 10
198.789763802379
 20
44.8895
 30
0.0
 11
200.3
 21
44.8895
 31
0.0
  0
LINE
  5
BA9
330
1E
100
AcDbEntity
  8
0
100
AcDbLine
 10
200.3
 20
44.8895
 30
0.0
 11
204.5
 21
44.8895
 31
0.0
  0
LINE
  5
BAA
330
1E
100
AcDbEntity
  8
0
100
AcDbLine
 10
195.5
 20
64.8895
 30
0.0
 11
195.5
 21
79.8895
 31
0.0
  0
LINE
  5
BAB
330
1E
100
AcDbEntity
  8
0
100
AcDbLine
 10
195.5
 20
79.8895
 30
0.0
 11
195.5
 21
64.8895
 31
0.0
  0
LINE
  5
BAC
330
1E
100
AcDbEntity
  8
0
100
AcDbLine
 10
196.8
 20
64.8895
 30
0.0
 11
202.7
 21
64.8895
 31
0.0
  0
LINE
  5
BAD
330
1E
100
AcDbEntity
  8
0
100
AcDbLine
 10
184.0
 20
64.3895
 30
0.0
 11
202.6
 21
64.3895
 31
0.0
  0
LINE
  5
BAE
330
1E
100
AcDbEntity
  8
0
100
AcDbLine
 10
202.7
 20
64.8895
 30
0.0
 11
204.0
 21
64.8895
 31
0.0
  0
LINE
  5
BAF
330
1E
100
AcDbEntity
  8
0
100
AcDbLine
 10
202.6
 20
64.3895
 30
0.0
 11
204.0
 21
64.3895
 31
0.0
  0
LINE
  5
BB0
330
1E
100
AcDbEntity
  8
0
100
AcDbLine
 10
204.0
 20
44.8895
 30
0.0
 11
204.0
 21
79.8895
 31
0.0
  0
LINE
  5
BB1
330
1E
100
AcDbEntity
  8
0
100
AcDbLine
 10
204.5
 20
44.8895
 30
0.0
 11
209.0
 21
44.8895
 31
0.0
  0
LINE
  5
BB2
330
1E
100
AcDbEntity
  8
0
100
AcDbLine
 10
204.0
 20
79.8895
 30
0.0
 11
204.0
 21
44.8895
 31
0.0
  0
LINE
  5
BB3
330
1E
100
AcDbEntity
  8
0
100
AcDbLine
 10
204.0
 20
79.8895
 30
0.0
 11
204.2
 21
79.8895
 31
0.0
  0
LINE
  5
BB4
330
1E
100
AcDbEntity
  8
0
100
AcDbLine
 10
204.2
 20
79.8895
 30
0.0
 11
204.7
 21
79.8895
 31
0.0
  0
LINE
  5
BB5
330
1E
100
AcDbEntity
  8
0
100
AcDbLine
 10
204.7
 20
79.8895
 30
0.0
 11
205.5
 21
79.8895
 31
0.0
  0
LINE
  5
BB6
330
1E
100
AcDbEntity
  8
0
100
AcDbLine
 10
205.5
 20
79.8895
 30
0.0
 11
206.5
 21
79.8895
 31
0.0
  0
LINE
  5
BB7
330
1E
100
AcDbEntity
  8
0
100
AcDbLine
 10
205.5
 20
79.8895
 30
0.0
 11
209.0
 21
79.8895
 31
0.0
  0
LINE
  5
BB8
330
1E
100
AcDbEntity
  8
0
100
AcDbLine
 10
209.0
 20
79.8895
 30
0.0
 11
210.3
 21
79.8895
 31
0.0
  0
LINE
  5
BB9
330
1E
100
AcDbEntity
  8
0
100
AcDbLine
 10
209.0
 20
79.8895
 30
0.0
 11
212.5
 21
79.8895
 31
0.0
  0
LINE
  5
BBA
330
1E
100
AcDbEntity
  8
0
100
AcDbLine
 10
206.5
 20
79.8895
 30
0.0
 11
207.7
 21
79.8895
 31
0.0
  0
LINE
  5
BBB
330
1E
100
AcDbEntity
  8
0
100
AcDbLine
 10
207.7
 20
79.8895
 30
0.0
 11
209.0
 21
79.8895
 31
0.0
  0
LINE
  5
BBC
330
1E
100
AcDbEntity
  8
0
100
AcDbLine
 10
214.0
 20
44.8895
 30
0.0
 11
214.0
 21
79.8895
 31
0.0
  0
LINE
  5
BBD
330
1E
100
AcDbEntity
  8
0
100
AcDbLine
 10
221.4
 20
44.8895
 30
0.0
 11
224.2
 21
44.8895
 31
0.0
  0
LINE
  5
BBE
330
1E
100
AcDbEntity
  8
0
100
AcDbLine
 10
217.7
 20
44.8895
 30
0.0
 11
221.4
 21
44.8895
 31
0.0
  0
LINE
  5
BBF
330
1E
100
AcDbEntity
  8
0
100
AcDbLine
 10
214.0
 20
64.8895
 30
0.0
 11
215.3
 21
64.8895
 31
0.0
  0
LINE
  5
BC0
330
1E
100
AcDbEntity
  8
0
100
AcDbLine
 10
214.0
 20
64.3895
 30
0.0
 11
215.4
 21
64.3895
 31
0.0
  0
LINE
  5
BC1
330
1E
100
AcDbEntity
  8
0
100
AcDbLine
 10
213.8
 20
79.8895
 30
0.0
 11
214.0
 21
79.8895
 31
0.0
  0
LINE
  5
BC2
330
1E
100
AcDbEntity
  8
0
100
AcDbLine
 10
213.3
 20
79.8895
 30
0.0
 11
213.8
 21
79.8895
 31
0.0
  0
LINE
  5
BC3
330
1E
100
AcDbEntity
  8
0
100
AcDbLine
 10
212.5
 20
79.8895
 30
0.0
 11
213.3
 21
79.8895
 31
0.0
  0
LINE
  5
BC4
330
1E
100
AcDbEntity
  8
0
100
AcDbLine
 10
212.5
 20
79.8895
 30
0.0
 11
213.0
 21
80.3895
 31
0.0
  0
LINE
  5
BC5
330
1E
100
AcDbEntity
  8
0
100
AcDbLine
 10
211.5
 20
79.8895
 30
0.0
 11
212.5
 21
79.8895
 31
0.0
  0
LINE
  5
BC6
330
1E
100
AcDbEntity
  8
0
100
AcDbLine
 10
210.3
 20
79.8895
 30
0.0
 11
211.5
 21
79.8895
 31
0.0
  0
LINE
  5
BC7
330
1E
100
AcDbEntity
  8
0
100
AcDbLine
 10
212.8
 20
79.8895
 30
0.0
 11
243.5
 21
79.8895
 31
0.0
  0
LINE
  5
BC8
330
1E
100
AcDbEntity
  8
0
100
AcDbLine
 10
212.8
 20
79.8895
 30
0.0
 11
213.4
 21
80.3895
 31
0.0
  0
LINE
  5
BC9
330
1E
100
AcDbEntity
  8
0
100
AcDbLine
 10
221.4
 20
64.3895
 30
0.0
 11
233.1
 21
64.3895
 31
0.0
  0
LINE
  5
BCA
330
1E
100
AcDbEntity
  8
0
100
AcDbLine
 10
222.5
 20
64.8895
 30
0.0
 11
222.5
 21
79.8895
 31
0.0
  0
LINE
  5
BCB
330
1E
100
AcDbEntity
  8
0
100
AcDbLine
 10
223.0
 20
64.8895
 30
0.0
 11
223.0
 21
79.8895
 31
0.0
  0
LINE
  5
BCC
330
1E
100
AcDbEntity
  8
0
100
AcDbLine
 10
222.5
 20
79.8895
 30
0.0
 11
222.5
 21
64.8895
 31
0.0
  0
LINE
  5
BCD
330
1E
100
AcDbEntity
  8
0
100
AcDbLine
 10
221.2
 20
64.8895
 30
0.0
 11
226.3
 21
64.8895
 31
0.0
  0
LINE
  5
BCE
330
1E
100
AcDbEntity
  8
0
100
AcDbLine
 10
215.3
 20
64.8895
 30
0.0
 11
221.2
 21
64.8895
 31
0.0
  0
LINE
  5
BCF
330
1E
100
AcDbEntity
  8
0
100
AcDbLine
 10
215.4
 20
64.3895
 30
0.0
 11
221.4
 21
64.3895
 31
0.0
  0
LINE
  5
BD0
330
1E
100
AcDbEntity
  8
0
100
AcDbLine
 10
214.0
 20
79.8895
 30
0.0
 11
243.5
 21
79.8895
 31
0.0
  0
LINE
  5
BD1
330
1E
100
AcDbEntity
  8
0
100
AcDbLine
 10
213.5
 20
44.8895
 30
0.0
 11
217.7
 21
44.8895
 31
0.0
  0
LINE
  5
BD2
330
1E
100
AcDbEntity
  8
0
100
AcDbLine
 10
209.0
 20
44.8895
 30
0.0
 11
213.5
 21
44.8895
 31
0.0
  0
LINE
  5
BD3
330
1E
100
AcDbEntity
  8
0
100
AcDbLine
 10
209.0
 20
44.3895
 30
0.0
 11
213.6
 21
44.3895
 31
0.0
  0
LINE
  5
BD4
330
1E
100
AcDbEntity
  8
0
100
AcDbLine
 10
195.0
 20
64.8895
 30
0.0
 11
195.0
 21
79.8895
 31
0.0
  0
LINE
  5
BD5
330
1E
100
AcDbEntity
  8
0
100
AcDbLine
 10
226.3
 20
44.3895
 30
0.0
 11
227.0
 21
44.3895
 31
0.0
  0
LINE
  5
BD6
330
1E
100
AcDbEntity
  8
0
100
AcDbLine
 10
224.0
 20
64.8895
 30
0.0
 11
224.0
 21
79.8895
 31
0.0
  0
LINE
  5
BD7
330
1E
100
AcDbEntity
  8
0
100
AcDbLine
 10
224.0
 20
79.8895
 30
0.0
 11
236.0
 21
79.8895
 31
0.0
  0
LINE
  5
BD8
330
1E
100
AcDbEntity
  8
0
100
AcDbLine
 10
224.0
 20
79.8895
 30
0.0
 11
224.0
 21
64.8895
 31
0.0
  0
LINE
  5
BD9
330
1E
100
AcDbEntity
  8
0
100
AcDbLine
 10
224.0
 20
79.8895
 30
0.0
 11
227.0
 21
79.8895
 31
0.0
  0
LINE
  5
BDA
330
1E
100
AcDbEntity
  8
0
100
AcDbLine
 10
226.3
 20
64.8895
 30
0.0
 11
230.2
 21
64.8895
 31
0.0
  0
LINE
  5
BDB
330
1E
100
AcDbEntity
  8
0
100
AcDbLine
 10
225.9
 20
44.8895
 30
0.0
 11
226.5
 21
44.8895
 31
0.0
  0
LINE
  5
BDC
330
1E
100
AcDbEntity
  8
0
100
AcDbLine
 10
224.2
 20
44.8895
 30
0.0
 11
225.9
 21
44.8895
 31
0.0
  0
LINE
  5
BDD
330
1E
100
AcDbEntity
  8
0
100
AcDbLine
 10
224.6
 20
44.3895
 30
0.0
 11
226.3
 21
44.3895
 31
0.0
  0
LINE
  5
BDE
330
1E
100
AcDbEntity
  8
0
100
AcDbLine
 10
234.0
 20
8.932615588918
 30
0.0
 11
234.0
 21
64.3895
 31
0.0
  0
LINE
  5
BDF
330
1E
100
AcDbEntity
  8
0
100
AcDbLine
 10
227.0
 20
11.699681569132
 30
0.0
 11
227.0
 21
44.3895
 31
0.0
  0
LINE
  5
BE0
330
1E
100
AcDbEntity
  8
0
100
AcDbLine
 10
233.1
 20
64.3895
 30
0.0
 11
234.0
 21
64.3895
 31
0.0
  0
LINE
  5
BE1
330
1E
100
AcDbEntity
  8
0
100
AcDbLine
 10
227.0
 20
64.8895
 30
0.0
 11
227.0
 21
79.8895
 31
0.0
  0
LINE
  5
BE2
330
1E
100
AcDbEntity
  8
0
100
AcDbLine
 10
230.2
 20
64.8895
 30
0.0
 11
232.6
 21
64.8895
 31
0.0
  0
LINE
  5
BE3
330
1E
100
AcDbEntity
  8
0
100
AcDbLine
 10
233.5
 20
64.8895
 30
0.0
 11
234.0
 21
64.3895
 31
0.0
  0
LINE
  5
BE4
330
1E
100
AcDbEntity
  8
0
100
AcDbLine
 10
232.6
 20
64.8895
 30
0.0
 11
233.5
 21
64.8895
 31
0.0
  0
LINE
  5
BE5
330
1E
100
AcDbEntity
  8
0
100
AcDbLine
 10
234.0
 20
64.3895
 30
0.0
 11
234.0
 21
8.932615588918
 31
0.0
  0
LINE
  5
BE6
330
1E
100
AcDbEntity
  8
0
100
AcDbLine
 10
226.5
 20
44.8895
 30
0.0
 11
227.0
 21
44.3895
 31
0.0
  0
LINE
  5
BE7
330
1E
100
AcDbEntity
  8
0
100
AcDbLine
 10
227.0
 20
44.3895
 30
0.0
 11
227.0
 21
11.699681569132
 31
0.0
  0
LINE
  5
BE8
330
1E
100
AcDbEntity
  8
0
100
AcDbLine
 10
227.0
 20
79.8895
 30
0.0
 11
243.5
 21
79.8895
 31
0.0
  0
LINE
  5
BE9
330
1E
100
AcDbEntity
  8
0
100
AcDbLine
 10
227.0
 20
79.8895
 30
0.0
 11
236.0
 21
79.8895
 31
0.0
  0
LINE
  5
BEA
330
1E
100
AcDbEntity
  8
0
100
AcDbLine
 10
227.0
 20
79.8895
 30
0.0
 11
227.0
 21
64.8895
 31
0.0
  0
LINE
  5
BEB
330
1E
100
AcDbEntity
  8
0
100
AcDbLine
 10
223.0
 20
79.8895
 30
0.0
 11
224.0
 21
79.8895
 31
0.0
  0
LINE
  5
BEC
330
1E
100
AcDbEntity
  8
0
100
AcDbLine
 10
223.0
 20
79.8895
 30
0.0
 11
223.0
 21
64.8895
 31
0.0
  0
LINE
  5
BED
330
1E
100
AcDbEntity
  8
0
100
AcDbLine
 10
204.6
 20
80.3895
 30
0.0
 11
205.2
 21
79.8895
 31
0.0
  0
LINE
  5
BEE
330
1E
100
AcDbEntity
  8
0
100
AcDbLine
 10
204.6
 20
80.3895
 30
0.0
 11
204.8
 21
80.3895
 31
0.0
  0
LINE
  5
BEF
330
1E
100
AcDbEntity
  8
0
100
AcDbLine
 10
204.6
 20
80.3895
 30
0.0
 11
204.6
 21
95.3895
 31
0.0
  0
LINE
  5
BF0
330
1E
100
AcDbEntity
  8
0
100
AcDbLine
 10
204.8
 20
80.3895
 30
0.0
 11
205.0
 21
80.3895
 31
0.0
  0
LINE
  5
BF1
330
1E
100
AcDbEntity
  8
0
100
AcDbLine
 10
213.0
 20
80.3895
 30
0.0
 11
213.2
 21
80.3895
 31
0.0
  0
LINE
  5
BF2
330
1E
100
AcDbEntity
  8
0
100
AcDbLine
 10
213.0
 20
80.3895
 30
0.0
 11
213.0
 21
95.3895
 31
0.0
  0
LINE
  5
BF3
330
1E
100
AcDbEntity
  8
0
100
AcDbLine
 10
209.0
 20
80.3895
 30
0.0
 11
213.0
 21
80.3895
 31
0.0
  0
LINE
  5
BF4
330
1E
100
AcDbEntity
  8
0
100
AcDbLine
 10
205.0
 20
80.3895
 30
0.0
 11
209.0
 21
80.3895
 31
0.0
  0
LINE
  5
BF5
330
1E
100
AcDbEntity
  8
0
100
AcDbLine
 10
205.0
 20
80.3895
 30
0.0
 11
205.5
 21
79.8895
 31
0.0
  0
LINE
  5
BF6
330
1E
100
AcDbEntity
  8
0
100
AcDbLine
 10
205.0
 20
80.3895
 30
0.0
 11
205.0
 21
95.3895
 31
0.0
  0
LINE
  5
BF7
330
1E
100
AcDbEntity
  8
0
100
AcDbLine
 10
204.6
 20
95.3895
 30
0.0
 11
204.6
 21
80.3895
 31
0.0
  0
LINE
  5
BF8
330
1E
100
AcDbEntity
  8
0
100
AcDbLine
 10
204.6
 20
95.3895
 30
0.0
 11
204.8
 21
95.3895
 31
0.0
  0
LINE
  5
BF9
330
1E
100
AcDbEntity
  8
0
100
AcDbLine
 10
204.6
 20
95.3895
 30
0.0
 11
205.2
 21
95.8895
 31
0.0
  0
LINE
  5
BFA
330
1E
100
AcDbEntity
  8
0
100
AcDbLine
 10
204.8
 20
95.3895
 30
0.0
 11
205.0
 21
95.3895
 31
0.0
  0
LINE
  5
BFB
330
1E
100
AcDbEntity
  8
0
100
AcDbLine
 10
213.0
 20
95.3895
 30
0.0
 11
213.0
 21
80.3895
 31
0.0
  0
LINE
  5
BFC
330
1E
100
AcDbEntity
  8
0
100
AcDbLine
 10
213.0
 20
95.3895
 30
0.0
 11
213.2
 21
95.3895
 31
0.0
  0
LINE
  5
BFD
330
1E
100
AcDbEntity
  8
0
100
AcDbLine
 10
209.0
 20
95.3895
 30
0.0
 11
213.0
 21
95.3895
 31
0.0
  0
LINE
  5
BFE
330
1E
100
AcDbEntity
  8
0
100
AcDbLine
 10
205.0
 20
95.3895
 30
0.0
 11
209.0
 21
95.3895
 31
0.0
  0
LINE
  5
BFF
330
1E
100
AcDbEntity
  8
0
100
AcDbLine
 10
205.0
 20
95.3895
 30
0.0
 11
205.0
 21
80.3895
 31
0.0
  0
LINE
  5
C00
330
1E
100
AcDbEntity
  8
0
100
AcDbLine
 10
205.0
 20
95.3895
 30
0.0
 11
205.5
 21
95.8895
 31
0.0
  0
LINE
  5
C01
330
1E
100
AcDbEntity
  8
0
100
AcDbLine
 10
195.5
 20
95.8895
 30
0.0
 11
195.5
 21
123.8895
 31
0.0
  0
LINE
  5
C02
330
1E
100
AcDbEntity
  8
0
100
AcDbLine
 10
212.5
 20
95.8895
 30
0.0
 11
213.0
 21
95.3895
 31
0.0
  0
LINE
  5
C03
330
1E
100
AcDbEntity
  8
0
100
AcDbLine
 10
209.0
 20
95.8895
 30
0.0
 11
212.5
 21
95.8895
 31
0.0
  0
LINE
  5
C04
330
1E
100
AcDbEntity
  8
0
100
AcDbLine
 10
205.5
 20
95.8895
 30
0.0
 11
209.0
 21
95.8895
 31
0.0
  0
LINE
  5
C05
330
1E
100
AcDbEntity
  8
0
100
AcDbLine
 10
212.8
 20
95.8895
 30
0.0
 11
243.5
 21
95.8895
 31
0.0
  0
LINE
  5
C06
330
1E
100
AcDbEntity
  8
0
100
AcDbLine
 10
212.8
 20
95.8895
 30
0.0
 11
213.4
 21
95.3895
 31
0.0
  0
LINE
  5
C07
330
1E
100
AcDbEntity
  8
0
100
AcDbLine
 10
213.2
 20
95.3895
 30
0.0
 11
213.4
 21
95.3895
 31
0.0
  0
LINE
  5
C08
330
1E
100
AcDbEntity
  8
0
100
AcDbLine
 10
213.4
 20
95.3895
 30
0.0
 11
244.0
 21
95.3895
 31
0.0
  0
LINE
  5
C09
330
1E
100
AcDbEntity
  8
0
100
AcDbLine
 10
213.4
 20
95.3895
 30
0.0
 11
213.4
 21
80.3895
 31
0.0
  0
LINE
  5
C0A
330
1E
100
AcDbEntity
  8
0
100
AcDbLine
 10
213.2
 20
80.3895
 30
0.0
 11
213.4
 21
80.3895
 31
0.0
  0
LINE
  5
C0B
330
1E
100
AcDbEntity
  8
0
100
AcDbLine
 10
222.5
 20
95.8895
 30
0.0
 11
222.5
 21
123.8895
 31
0.0
  0
LINE
  5
C0C
330
1E
100
AcDbEntity
  8
0
100
AcDbLine
 10
223.0
 20
95.8895
 30
0.0
 11
223.0
 21
123.8895
 31
0.0
  0
LINE
  5
C0D
330
1E
100
AcDbEntity
  8
0
100
AcDbLine
 10
243.5
 20
95.8895
 30
0.0
 11
244.0
 21
95.3895
 31
0.0
  0
LINE
  5
C0E
330
1E
100
AcDbEntity
  8
0
100
AcDbLine
 10
244.0
 20
95.3895
 30
0.0
 11
244.0
 21
80.3895
 31
0.0
  0
LINE
  5
C0F
330
1E
100
AcDbEntity
  8
0
100
AcDbLine
 10
244.0
 20
80.3895
 30
0.0
 11
244.0
 21
95.3895
 31
0.0
  0
LINE
  5
C10
330
1E
100
AcDbEntity
  8
0
100
AcDbLine
 10
213.4
 20
80.3895
 30
0.0
 11
244.0
 21
80.3895
 31
0.0
  0
LINE
  5
C11
330
1E
100
AcDbEntity
  8
0
100
AcDbLine
 10
213.4
 20
80.3895
 30
0.0
 11
213.4
 21
95.3895
 31
0.0
  0
LINE
  5
C12
330
1E
100
AcDbEntity
  8
0
100
AcDbLine
 10
195.0
 20
95.8895
 30
0.0
 11
195.0
 21
123.8895
 31
0.0
  0
LINE
  5
C13
330
1E
100
AcDbEntity
  8
0
100
AcDbLine
 10
243.5
 20
79.8895
 30
0.0
 11
244.0
 21
80.3895
 31
0.0
  0
LINE
  5
C14
330
1E
100
AcDbEntity
  8
0
100
AcDbLine
 10
174.5
 20
79.8895
 30
0.0
 11
195.0
 21
79.8895
 31
0.0
  0
LINE
  5
C15
330
1E
100
AcDbEntity
  8
0
100
AcDbLine
 10
174.5
 20
79.8895
 30
0.0
 11
205.2
 21
79.8895
 31
0.0
  0
LINE
  5
C16
330
1E
100
AcDbEntity
  8
0
100
AcDbLine
 10
174.5
 20
79.8895
 30
0.0
 11
204.0
 21
79.8895
 31
0.0
  0
LINE
  5
C17
330
1E
100
AcDbEntity
  8
0
100
AcDbLine
 10
195.5
 20
123.8895
 30
0.0
 11
195.5
 21
95.8895
 31
0.0
  0
LINE
  5
C18
330
1E
100
AcDbEntity
  8
0
100
AcDbLine
 10
222.5
 20
123.8895
 30
0.0
 11
222.5
 21
95.8895
 31
0.0
  0
LINE
  5
C19
330
1E
100
AcDbEntity
  8
0
100
AcDbLine
 10
223.0
 20
123.8895
 30
0.0
 11
223.0
 21
95.8895
 31
0.0
  0
LINE
  5
C1A
330
1E
100
AcDbEntity
  8
0
100
AcDbLine
 10
195.0
 20
123.8895
 30
0.0
 11
195.0
 21
95.8895
 31
0.0
  0
LINE
  5
C1B
330
1E
100
AcDbEntity
  8
0
100
AcDbLine
 10
194.9
 20
128.6895
 30
0.0
 11
195.5
 21
123.8895
 31
0.0
  0
LINE
  5
C1C
330
1E
100
AcDbEntity
  8
0
100
AcDbLine
 10
194.4
 20
128.5895
 30
0.0
 11
195.0
 21
123.8895
 31
0.0
  0
LINE
  5
C1D
330
1E
100
AcDbEntity
  8
0
100
AcDbLine
 10
192.6
 20
132.8895
 30
0.0
 11
194.4
 21
128.5895
 31
0.0
  0
LINE
  5
C1E
330
1E
100
AcDbEntity
  8
0
100
AcDbLine
 10
193.1
 20
133.0895
 30
0.0
 11
194.9
 21
128.6895
 31
0.0
  0
LINE
  5
C1F
330
1E
100
AcDbEntity
  8
0
100
AcDbLine
 10
220.9
 20
135.5895
 30
0.0
 11
222.5
 21
123.8895
 31
0.0
  0
LINE
  5
C20
330
1E
100
AcDbEntity
  8
0
100
AcDbLine
 10
221.3
 20
135.6895
 30
0.0
 11
223.0
 21
123.8895
 31
0.0
  0
LINE
  5
C21
330
1E
100
AcDbEntity
  8
0
100
AcDbLine
 10
110.613034612716
 20
141.8895
 30
0.0
 11
170.0
 21
141.8895
 31
0.0
  0
LINE
  5
C22
330
1E
100
AcDbEntity
  8
0
100
AcDbLine
 10
170.0
 20
141.8895
 30
0.0
 11
177.0
 21
141.8895
 31
0.0
  0
LINE
  5
C23
330
1E
100
AcDbEntity
  8
0
100
AcDbLine
 10
110.193447340785
 20
142.3895
 30
0.0
 11
170.0
 21
142.3895
 31
0.0
  0
LINE
  5
C24
330
1E
100
AcDbEntity
  8
0
100
AcDbLine
 10
110.193447340785
 20
142.3895
 30
0.0
 11
170.0
 21
142.3895
 31
0.0
  0
LINE
  5
C25
330
1E
100
AcDbEntity
  8
0
100
AcDbLine
 10
170.0
 20
142.3895
 30
0.0
 11
177.0
 21
142.3895
 31
0.0
  0
LINE
  5
C26
330
1E
100
AcDbEntity
  8
0
100
AcDbLine
 10
177.0
 20
142.3895
 30
0.0
 11
181.8
 21
141.7895
 31
0.0
  0
LINE
  5
C27
330
1E
100
AcDbEntity
  8
0
100
AcDbLine
 10
177.0
 20
141.8895
 30
0.0
 11
181.7
 21
141.2895
 31
0.0
  0
LINE
  5
C28
330
1E
100
AcDbEntity
  8
0
100
AcDbLine
 10
181.8
 20
141.7895
 30
0.0
 11
186.2
 21
139.8895
 31
0.0
  0
LINE
  5
C29
330
1E
100
AcDbEntity
  8
0
100
AcDbLine
 10
186.2
 20
139.8895
 30
0.0
 11
190.1
 21
136.9895
 31
0.0
  0
LINE
  5
C2A
330
1E
100
AcDbEntity
  8
0
100
AcDbLine
 10
181.7
 20
141.2895
 30
0.0
 11
186.0
 21
139.4895
 31
0.0
  0
LINE
  5
C2B
330
1E
100
AcDbEntity
  8
0
100
AcDbLine
 10
186.0
 20
139.4895
 30
0.0
 11
189.8
 21
136.4895
 31
0.0
  0
LINE
  5
C2C
330
1E
100
AcDbEntity
  8
0
100
AcDbLine
 10
190.1
 20
136.9895
 30
0.0
 11
193.1
 21
133.0895
 31
0.0
  0
LINE
  5
C2D
330
1E
100
AcDbEntity
  8
0
100
AcDbLine
 10
189.8
 20
136.4895
 30
0.0
 11
192.6
 21
132.8895
 31
0.0
  0
LINE
  5
C2E
330
1E
100
AcDbEntity
  8
0
100
AcDbLine
 10
216.4
 20
146.4895
 30
0.0
 11
220.9
 21
135.5895
 31
0.0
  0
LINE
  5
C2F
330
1E
100
AcDbEntity
  8
0
100
AcDbLine
 10
216.8
 20
146.7895
 30
0.0
 11
221.3
 21
135.6895
 31
0.0
  0
LINE
  5
C30
330
1E
100
AcDbEntity
  8
0
100
AcDbLine
 10
188.8
 20
167.6895
 30
0.0
 11
199.7
 21
163.2895
 31
0.0
  0
LINE
  5
C31
330
1E
100
AcDbEntity
  8
0
100
AcDbLine
 10
75.721987128748
 20
169.3895
 30
0.0
 11
170.0
 21
169.3895
 31
0.0
  0
LINE
  5
C32
330
1E
100
AcDbEntity
  8
0
100
AcDbLine
 10
74.754273411054
 20
169.8895
 30
0.0
 11
170.0
 21
169.8895
 31
0.0
  0
LINE
  5
C33
330
1E
100
AcDbEntity
  8
0
100
AcDbLine
 10
170.0
 20
169.3895
 30
0.0
 11
177.0
 21
169.3895
 31
0.0
  0
LINE
  5
C34
330
1E
100
AcDbEntity
  8
0
100
AcDbLine
 10
177.0
 20
169.3895
 30
0.0
 11
188.8
 21
167.6895
 31
0.0
  0
LINE
  5
C35
330
1E
100
AcDbEntity
  8
0
100
AcDbLine
 10
170.0
 20
169.8895
 30
0.0
 11
177.0
 21
169.8895
 31
0.0
  0
LINE
  5
C36
330
1E
100
AcDbEntity
  8
0
100
AcDbLine
 10
177.0
 20
169.8895
 30
0.0
 11
188.9
 21
168.1895
 31
0.0
  0
LINE
  5
C37
330
1E
100
AcDbEntity
  8
0
100
AcDbLine
 10
209.1
 20
155.9895
 30
0.0
 11
216.4
 21
146.4895
 31
0.0
  0
LINE
  5
C38
330
1E
100
AcDbEntity
  8
0
100
AcDbLine
 10
199.7
 20
163.2895
 30
0.0
 11
209.1
 21
155.9895
 31
0.0
  0
LINE
  5
C39
330
1E
100
AcDbEntity
  8
0
100
AcDbLine
 10
199.9
 20
163.6895
 30
0.0
 11
209.5
 21
156.2895
 31
0.0
  0
LINE
  5
C3A
330
1E
100
AcDbEntity
  8
0
100
AcDbLine
 10
209.5
 20
156.2895
 30
0.0
 11
216.8
 21
146.7895
 31
0.0
  0
LINE
  5
C3B
330
1E
100
AcDbEntity
  8
0
100
AcDbLine
 10
188.9
 20
168.1895
 30
0.0
 11
199.9
 21
163.6895
 31
0.0
  0
LINE
  5
C3C
330
1E
100
AcDbEntity
  8
0
100
AcDbLine
 10
-5.0088
 20
180.758888
 30
0.0
 11
-3.8839
 21
180.234888
 31
0.0
  0
LINE
  5
C3D
330
1E
100
AcDbEntity
  8
0
100
AcDbLine
 10
-5.4715
 20
180.975888
 30
0.0
 11
-5.0088
 21
180.758888
 31
0.0
  0
LINE
  5
C3E
330
1E
100
AcDbEntity
  8
0
100
AcDbLine
 10
-2.5148
 20
178.492888
 30
0.0
 11
-2.125964434094
 21
179.326961451239
 31
0.0
  0
LINE
  5
C3F
330
1E
100
AcDbEntity
  8
0
100
AcDbLine
 10
-2.5148
 20
178.492888
 30
0.0
 11
-1.8534
 21
178.183888
 31
0.0
  0
LINE
  5
C40
330
1E
100
AcDbEntity
  8
0
100
AcDbLine
 10
-3.486888642761
 20
180.049658805021
 30
0.0
 11
-2.139126082978
 21
179.298728998061
 31
0.0
  0
LINE
  5
C41
330
1E
100
AcDbEntity
  8
0
100
AcDbLine
 10
-3.486888642761
 20
180.049658805021
 30
0.0
 11
-2.139126082978
 21
179.298728998061
 31
0.0
  0
LINE
  5
C42
330
1E
100
AcDbEntity
  8
0
100
AcDbLine
 10
-0.46056
 20
177.534888
 30
0.0
 11
-0.400443393377
 21
177.506849125723
 31
0.0
  0
LINE
  5
C43
330
1E
100
AcDbEntity
  8
0
100
AcDbLine
 10
-0.46056
 20
177.534888
 30
0.0
 11
-0.400443393377
 21
177.506849125723
 31
0.0
  0
LINE
  5
C44
330
1E
100
AcDbEntity
  8
0
100
AcDbLine
 10
-0.707482087106
 20
177.649947871842
 30
0.0
 11
-0.63004
 21
177.613888
 31
0.0
  0
LINE
  5
C45
330
1E
100
AcDbEntity
  8
0
100
AcDbLine
 10
-0.707471758408
 20
177.649970026414
 30
0.0
 11
-0.63004
 21
177.613888
 31
0.0
  0
LINE
  5
C46
330
1E
100
AcDbEntity
  8
0
100
AcDbLine
 10
-0.08588
 20
177.359888
 30
0.0
 11
0.318236906299
 21
178.226689480178
 31
0.0
  0
LINE
  5
C47
330
1E
100
AcDbEntity
  8
0
100
AcDbLine
 10
-0.08588
 20
177.359888
 30
0.0
 11
1.06004
 21
176.825888
 31
0.0
  0
LINE
  5
C48
330
1E
100
AcDbEntity
  8
0
100
AcDbLine
 10
-1.460870761524
 20
178.000964147496
 30
0.0
 11
-1.2915
 21
177.921888
 31
0.0
  0
LINE
  5
C49
330
1E
100
AcDbEntity
  8
0
100
AcDbLine
 10
-1.460870761525
 20
178.000964147496
 30
0.0
 11
-1.2915
 21
177.921888
 31
0.0
  0
LINE
  5
C4A
330
1E
100
AcDbEntity
  8
0
100
AcDbLine
 10
-1.8534
 20
178.183888
 30
0.0
 11
-1.486697362511
 21
178.970475808673
 31
0.0
  0
LINE
  5
C4B
330
1E
100
AcDbEntity
  8
0
100
AcDbLine
 10
-1.8534
 20
178.183888
 30
0.0
 11
-0.70751
 21
177.649888
 31
0.0
  0
LINE
  5
C4C
330
1E
100
AcDbEntity
  8
0
100
AcDbLine
 10
-1.2915
 20
177.921888
 30
0.0
 11
-0.900953184317
 21
177.740035100005
 31
0.0
  0
LINE
  5
C4D
330
1E
100
AcDbEntity
  8
0
100
AcDbLine
 10
-1.2915
 20
177.921888
 30
0.0
 11
-0.900953184317
 21
177.740035100005
 31
0.0
  0
LINE
  5
C4E
330
1E
100
AcDbEntity
  8
0
100
AcDbLine
 10
-0.74728
 20
177.668888
 30
0.0
 11
-0.376614183266
 21
178.463510190055
 31
0.0
  0
LINE
  5
C4F
330
1E
100
AcDbEntity
  8
0
100
AcDbLine
 10
-0.74728
 20
177.668888
 30
0.0
 11
-0.08588
 21
177.359888
 31
0.0
  0
LINE
  5
C50
330
1E
100
AcDbEntity
  8
0
100
AcDbLine
 10
-1.9656
 20
179.339888
 30
0.0
 11
0.48219
 21
178.198888
 31
0.0
  0
LINE
  5
C51
330
1E
100
AcDbEntity
  8
0
100
AcDbLine
 10
-3.8839
 20
180.234888
 30
0.0
 11
-1.9656
 21
179.339888
 31
0.0
  0
LINE
  5
C52
330
1E
100
AcDbEntity
  8
0
100
AcDbLine
 10
-3.8839
 20
180.234888
 30
0.0
 11
-3.486888642761
 21
180.049658805021
 31
0.0
  0
LINE
  5
C53
330
1E
100
AcDbEntity
  8
0
100
AcDbLine
 10
-3.8839
 20
180.234888
 30
0.0
 11
-3.486888642761
 21
180.049658805021
 31
0.0
  0
LINE
  5
C54
330
1E
100
AcDbEntity
  8
0
100
AcDbLine
 10
0.519011253886
 20
177.078008000022
 30
0.0
 11
0.68436
 21
177.000888
 31
0.0
  0
LINE
  5
C55
330
1E
100
AcDbEntity
  8
0
100
AcDbLine
 10
0.519011253886
 20
177.078008000022
 30
0.0
 11
0.68436
 21
177.000888
 31
0.0
  0
LINE
  5
C56
330
1E
100
AcDbEntity
  8
0
100
AcDbLine
 10
0.68436
 20
177.000888
 30
0.0
 11
0.749554439891
 21
176.970574617825
 31
0.0
  0
LINE
  5
C57
330
1E
100
AcDbEntity
  8
0
100
AcDbLine
 10
0.68436
 20
177.000888
 30
0.0
 11
0.749554439891
 21
176.970574617825
 31
0.0
  0
LINE
  5
C58
330
1E
100
AcDbEntity
  8
0
100
AcDbLine
 10
1.06016280501
 20
176.826151410964
 30
0.0
 11
1.34677
 21
176.692888
 31
0.0
  0
LINE
  5
C59
330
1E
100
AcDbEntity
  8
0
100
AcDbLine
 10
1.060276120695
 20
176.826394467772
 30
0.0
 11
1.34677
 21
176.692888
 31
0.0
  0
LINE
  5
C5A
330
1E
100
AcDbEntity
  8
0
100
AcDbLine
 10
1.06004
 20
176.825888
 30
0.0
 11
1.422179992574
 21
177.602661231906
 31
0.0
  0
LINE
  5
C5B
330
1E
100
AcDbEntity
  8
0
100
AcDbLine
 10
1.315531512984
 20
177.373905264966
 30
0.0
 11
2.825316670734
 21
176.532701694774
 31
0.0
  0
LINE
  5
C5C
330
1E
100
AcDbEntity
  8
0
100
AcDbLine
 10
1.34677
 20
176.692888
 30
0.0
 11
1.59246697609
 21
177.219605761435
 31
0.0
  0
LINE
  5
C5D
330
1E
100
AcDbEntity
  8
0
100
AcDbLine
 10
1.315531512984
 20
177.373905264966
 30
0.0
 11
2.825316670734
 21
176.532701694774
 31
0.0
  0
LINE
  5
C5E
330
1E
100
AcDbEntity
  8
0
100
AcDbLine
 10
0.48219
 20
178.198888
 30
0.0
 11
3.79022
 21
176.656888
 31
0.0
  0
LINE
  5
C5F
330
1E
100
AcDbEntity
  8
0
100
AcDbLine
 10
0.37528
 20
179.351888
 30
0.0
 11
3.68332
 21
177.809888
 31
0.0
  0
LINE
  5
C60
330
1E
100
AcDbEntity
  8
0
100
AcDbLine
 10
-2.2044
 20
180.554888
 30
0.0
 11
0.37528
 21
179.351888
 31
0.0
  0
LINE
  5
C61
330
1E
100
AcDbEntity
  8
0
100
AcDbLine
 10
-4.0567
 20
181.418888
 30
0.0
 11
-2.2044
 21
180.554888
 31
0.0
  0
LINE
  5
C62
330
1E
100
AcDbEntity
  8
0
100
AcDbLine
 10
-5.2476
 20
181.973888
 30
0.0
 11
-4.0567
 21
181.418888
 31
0.0
  0
LINE
  5
C63
330
1E
100
AcDbEntity
  8
0
100
AcDbLine
 10
-5.7103
 20
182.190888
 30
0.0
 11
-5.2476
 21
181.973888
 31
0.0
  0
LINE
  5
C64
330
1E
100
AcDbEntity
  8
0
100
AcDbLine
 10
-5.7103
 20
182.190888
 30
0.0
 11
3.16477
 21
201.222888
 31
0.0
  0
LINE
  5
C65
330
1E
100
AcDbEntity
  8
0
100
AcDbLine
 10
-5.7103
 20
182.190888
 30
0.0
 11
-5.4715
 21
180.975888
 31
0.0
  0
LINE
  5
C66
330
1E
100
AcDbEntity
  8
0
100
AcDbLine
 10
2.096983472668
 20
177.446170662233
 30
0.0
 11
3.045234305409
 21
177.004154482184
 31
0.0
  0
LINE
  5
C67
330
1E
100
AcDbEntity
  8
0
100
AcDbLine
 10
2.62249
 20
176.097888
 30
0.0
 11
3.012541169576
 21
176.934067924367
 31
0.0
  0
LINE
  5
C68
330
1E
100
AcDbEntity
  8
0
100
AcDbLine
 10
2.62249
 20
176.097888
 30
0.0
 11
3.28389
 21
175.788888
 31
0.0
  0
LINE
  5
C69
330
1E
100
AcDbEntity
  8
0
100
AcDbLine
 10
2.62249
 20
176.097888
 30
0.0
 11
3.76741
 21
175.562888
 31
0.0
  0
LINE
  5
C6A
330
1E
100
AcDbEntity
  8
0
100
AcDbLine
 10
2.20264
 20
177.396888
 30
0.0
 11
5.37779
 21
175.915888
 31
0.0
  0
LINE
  5
C6B
330
1E
100
AcDbEntity
  8
0
100
AcDbLine
 10
2.096983472668
 20
177.446170662233
 30
0.0
 11
2.20264
 21
177.396888
 31
0.0
  0
LINE
  5
C6C
330
1E
100
AcDbEntity
  8
0
100
AcDbLine
 10
2.096983472668
 20
177.446170662233
 30
0.0
 11
3.045234305409
 21
177.004154482184
 31
0.0
  0
LINE
  5
C6D
330
1E
100
AcDbEntity
  8
0
100
AcDbLine
 10
2.096983472668
 20
177.446170662233
 30
0.0
 11
2.20264
 21
177.396888
 31
0.0
  0
LINE
  5
C6E
330
1E
100
AcDbEntity
  8
0
100
AcDbLine
 10
152.87
 20
51.408288
 30
0.0
 11
153.306
 21
51.862688
 31
0.0
  0
LINE
  5
C6F
330
1E
100
AcDbEntity
  8
0
100
AcDbLine
 10
153.306
 20
51.862688
 30
0.0
 11
154.251
 21
52.654388
 31
0.0
  0
LINE
  5
C70
330
1E
100
AcDbEntity
  8
0
100
AcDbLine
 10
152.823
 20
50.559188
 30
0.0
 11
153.221
 21
49.351688
 31
0.0
  0
LINE
  5
C71
330
1E
100
AcDbEntity
  8
0
100
AcDbLine
 10
152.823
 20
50.559188
 30
0.0
 11
152.87
 21
51.408288
 31
0.0
  0
LINE
  5
C72
330
1E
100
AcDbEntity
  8
0
100
AcDbLine
 10
153.221
 20
49.351688
 30
0.0
 11
165.285
 21
35.058288
 31
0.0
  0
LINE
  5
C73
330
1E
100
AcDbEntity
  8
0
100
AcDbLine
 10
153.776
 20
53.128788
 30
0.0
 11
154.152
 21
53.483288
 31
0.0
  0
LINE
  5
C74
330
1E
100
AcDbEntity
  8
0
100
AcDbLine
 10
153.776
 20
53.128788
 30
0.0
 11
154.719328535095
 21
53.043825959753
 31
0.0
  0
LINE
  5
C75
330
1E
100
AcDbEntity
  8
0
100
AcDbLine
 10
154.152
 20
53.483288
 30
0.0
 11
155.032
 21
54.237388
 31
0.0
  0
LINE
  5
C76
330
1E
100
AcDbEntity
  8
0
100
AcDbLine
 10
155.032
 20
54.237388
 30
0.0
 11
156.456
 21
55.479088
 31
0.0
  0
LINE
  5
C77
330
1E
100
AcDbEntity
  8
0
100
AcDbLine
 10
156.456
 20
55.479088
 30
0.0
 11
158.346
 21
57.032088
 31
0.0
  0
LINE
  5
C78
330
1E
100
AcDbEntity
  8
0
100
AcDbLine
 10
158.346
 20
57.032088
 30
0.0
 11
160.612
 21
58.939588
 31
0.0
  0
LINE
  5
C79
330
1E
100
AcDbEntity
  8
0
100
AcDbLine
 10
160.612
 20
58.939588
 30
0.0
 11
162.916
 21
60.935388
 31
0.0
  0
LINE
  5
C7A
330
1E
100
AcDbEntity
  8
0
100
AcDbLine
 10
162.916
 20
60.935388
 30
0.0
 11
165.31
 21
62.887888
 31
0.0
  0
LINE
  5
C7B
330
1E
100
AcDbEntity
  8
0
100
AcDbLine
 10
165.789
 20
34.437588
 30
0.0
 11
183.004
 21
13.951388
 31
0.0
  0
LINE
  5
C7C
330
1E
100
AcDbEntity
  8
0
100
AcDbLine
 10
165.31
 20
62.887888
 30
0.0
 11
167.536
 21
64.707188
 31
0.0
  0
LINE
  5
C7D
330
1E
100
AcDbEntity
  8
0
100
AcDbLine
 10
167.536
 20
64.707188
 30
0.0
 11
169.466
 21
66.348388
 31
0.0
  0
LINE
  5
C7E
330
1E
100
AcDbEntity
  8
0
100
AcDbLine
 10
169.543588653744
 20
65.40265144926
 30
0.0
 11
169.85
 21
65.655588
 31
0.0
  0
LINE
  5
C7F
330
1E
100
AcDbEntity
  8
0
100
AcDbLine
 10
169.466
 20
66.348388
 30
0.0
 11
170.89
 21
67.590088
 31
0.0
  0
LINE
  5
C80
330
1E
100
AcDbEntity
  8
0
100
AcDbLine
 10
170.89
 20
67.590088
 30
0.0
 11
171.77
 21
68.344088
 31
0.0
  0
LINE
  5
C81
330
1E
100
AcDbEntity
  8
0
100
AcDbLine
 10
172.055313101317
 20
67.557981027107
 30
0.0
 11
172.107
 21
68.610388
 31
0.0
  0
LINE
  5
C82
330
1E
100
AcDbEntity
  8
0
100
AcDbLine
 10
171.77
 20
68.344088
 30
0.0
 11
172.107
 21
68.610388
 31
0.0
  0
LINE
  5
C83
330
1E
100
AcDbEntity
  8
0
100
AcDbLine
 10
3.28389
 20
175.788888
 30
0.0
 11
3.658319233982
 21
176.59202107606
 31
0.0
  0
LINE
  5
C84
330
1E
100
AcDbEntity
  8
0
100
AcDbLine
 10
3.28389
 20
175.788888
 30
0.0
 11
3.658319233982
 21
176.59202107606
 31
0.0
  0
LINE
  5
C85
330
1E
100
AcDbEntity
  8
0
100
AcDbLine
 10
3.28389
 20
175.788888
 30
0.0
 11
4.42981
 21
175.254888
 31
0.0
  0
LINE
  5
C86
330
1E
100
AcDbEntity
  8
0
100
AcDbLine
 10
3.76741
 20
175.562888
 30
0.0
 11
4.42981
 21
175.254888
 31
0.0
  0
LINE
  5
C87
330
1E
100
AcDbEntity
  8
0
100
AcDbLine
 10
3.79022
 20
176.656888
 30
0.0
 11
7.62678
 21
174.866888
 31
0.0
  0
LINE
  5
C88
330
1E
100
AcDbEntity
  8
0
100
AcDbLine
 10
3.68332
 20
177.809888
 30
0.0
 11
7.58677
 21
175.989888
 31
0.0
  0
LINE
  5
C89
330
1E
100
AcDbEntity
  8
0
100
AcDbLine
 10
3.16477
 20
201.222888
 30
0.0
 11
4.2488
 21
201.819888
 31
0.0
  0
LINE
  5
C8A
330
1E
100
AcDbEntity
  8
0
100
AcDbLine
 10
4.42981
 20
175.254888
 30
0.0
 11
4.767322531345
 21
175.978836487208
 31
0.0
  0
LINE
  5
C8B
330
1E
100
AcDbEntity
  8
0
100
AcDbLine
 10
4.42981
 20
175.254888
 30
0.0
 11
4.571862054006
 21
175.559582967008
 31
0.0
  0
LINE
  5
C8C
330
1E
100
AcDbEntity
  8
0
100
AcDbLine
 10
5.24094
 20
174.324888
 30
0.0
 11
5.568033806526
 21
175.026488813061
 31
0.0
  0
LINE
  5
C8D
330
1E
100
AcDbEntity
  8
0
100
AcDbLine
 10
5.24094
 20
174.324888
 30
0.0
 11
5.90234
 21
174.016888
 31
0.0
  0
LINE
  5
C8E
330
1E
100
AcDbEntity
  8
0
100
AcDbLine
 10
5.24094
 20
174.324888
 30
0.0
 11
6.118051838029
 21
173.916149336835
 31
0.0
  0
LINE
  5
C8F
330
1E
100
AcDbEntity
  8
0
100
AcDbLine
 10
4.571862054006
 20
175.559582967008
 30
0.0
 11
6.407434393489
 21
174.536861292078
 31
0.0
  0
LINE
  5
C90
330
1E
100
AcDbEntity
  8
0
100
AcDbLine
 10
4.571862054006
 20
175.559582967008
 30
0.0
 11
6.407434393489
 21
174.536861292078
 31
0.0
  0
LINE
  5
C91
330
1E
100
AcDbEntity
  8
0
100
AcDbLine
 10
4.852396023373
 20
176.161315121735
 30
0.0
 11
5.874727470235
 21
175.684332280366
 31
0.0
  0
LINE
  5
C92
330
1E
100
AcDbEntity
  8
0
100
AcDbLine
 10
5.37779
 20
175.915888
 30
0.0
 11
9.08247
 21
174.187888
 31
0.0
  0
LINE
  5
C93
330
1E
100
AcDbEntity
  8
0
100
AcDbLine
 10
5.90234
 20
174.016888
 30
0.0
 11
6.207747351285
 21
174.671611061531
 31
0.0
  0
LINE
  5
C94
330
1E
100
AcDbEntity
  8
0
100
AcDbLine
 10
5.90234
 20
174.016888
 30
0.0
 11
6.207747351285
 21
174.671611061531
 31
0.0
  0
LINE
  5
C95
330
1E
100
AcDbEntity
  8
0
100
AcDbLine
 10
5.90234
 20
174.016888
 30
0.0
 11
6.118062735508
 21
173.916172711414
 31
0.0
  0
LINE
  5
C96
330
1E
100
AcDbEntity
  8
0
100
AcDbLine
 10
6.77934
 20
173.606888
 30
0.0
 11
6.990808167268
 21
174.060477261342
 31
0.0
  0
LINE
  5
C97
330
1E
100
AcDbEntity
  8
0
100
AcDbLine
 10
6.77934
 20
173.606888
 30
0.0
 11
7.92426
 21
173.072888
 31
0.0
  0
LINE
  5
C98
330
1E
100
AcDbEntity
  8
0
100
AcDbLine
 10
6.11793
 20
173.915888
 30
0.0
 11
6.447166743571
 21
174.622085312117
 31
0.0
  0
LINE
  5
C99
330
1E
100
AcDbEntity
  8
0
100
AcDbLine
 10
6.11793
 20
173.915888
 30
0.0
 11
6.77934
 21
173.606888
 31
0.0
  0
LINE
  5
C9A
330
1E
100
AcDbEntity
  8
0
100
AcDbLine
 10
6.97492
 20
174.067888
 30
0.0
 11
7.39733134147
 21
174.973940437279
 31
0.0
  0
LINE
  5
C9B
330
1E
100
AcDbEntity
  8
0
100
AcDbLine
 10
6.97492
 20
174.067888
 30
0.0
 11
8.29773
 21
173.450888
 31
0.0
  0
LINE
  5
C9C
330
1E
100
AcDbEntity
  8
0
100
AcDbLine
 10
6.97492
 20
174.067888
 30
0.0
 11
7.329526419493
 21
174.828502072382
 31
0.0
  0
LINE
  5
C9D
330
1E
100
AcDbEntity
  8
0
100
AcDbLine
 10
6.97492
 20
174.067888
 30
0.0
 11
7.39733134147
 21
174.973940437279
 31
0.0
  0
LINE
  5
C9E
330
1E
100
AcDbEntity
  8
0
100
AcDbLine
 10
7.924724987035
 20
173.073885375294
 30
0.0
 11
8.23395
 21
172.929888
 31
0.0
  0
LINE
  5
C9F
330
1E
100
AcDbEntity
  8
0
100
AcDbLine
 10
8.23395
 20
172.929888
 30
0.0
 11
8.452132659217
 21
173.397621399391
 31
0.0
  0
LINE
  5
CA0
330
1E
100
AcDbEntity
  8
0
100
AcDbLine
 10
8.23395
 20
172.929888
 30
0.0
 11
8.452132659217
 21
173.397621399391
 31
0.0
  0
LINE
  5
CA1
330
1E
100
AcDbEntity
  8
0
100
AcDbLine
 10
7.924763986631
 20
173.073969027593
 30
0.0
 11
8.23395
 21
172.929888
 31
0.0
  0
LINE
  5
CA2
330
1E
100
AcDbEntity
  8
0
100
AcDbLine
 10
7.92426
 20
173.072888
 30
0.0
 11
8.135718006211
 21
173.526455466354
 31
0.0
  0
LINE
  5
CA3
330
1E
100
AcDbEntity
  8
0
100
AcDbLine
 10
8.29773
 20
173.450888
 30
0.0
 11
8.720250288444
 21
174.357163401301
 31
0.0
  0
LINE
  5
CA4
330
1E
100
AcDbEntity
  8
0
100
AcDbLine
 10
8.29773
 20
173.450888
 30
0.0
 11
8.607933970327
 21
174.116253037802
 31
0.0
  0
LINE
  5
CA5
330
1E
100
AcDbEntity
  8
0
100
AcDbLine
 10
8.65985
 20
173.281888
 30
0.0
 11
9.477986922777
 21
172.850481934635
 31
0.0
  0
LINE
  5
CA6
330
1E
100
AcDbEntity
  8
0
100
AcDbLine
 10
8.65985
 20
173.281888
 30
0.0
 11
9.477986922777
 21
172.850481934635
 31
0.0
  0
LINE
  5
CA7
330
1E
100
AcDbEntity
  8
0
100
AcDbLine
 10
8.309854509096
 20
173.476894193423
 30
0.0
 11
8.65985
 21
173.281888
 31
0.0
  0
LINE
  5
CA8
330
1E
100
AcDbEntity
  8
0
100
AcDbLine
 10
8.867672081609
 20
174.288442270828
 30
0.0
 11
9.919495494106
 21
173.798131493751
 31
0.0
  0
LINE
  5
CA9
330
1E
100
AcDbEntity
  8
0
100
AcDbLine
 10
8.867672081609
 20
174.288442270828
 30
0.0
 11
9.919495494106
 21
173.798131493751
 31
0.0
  0
LINE
  5
CAA
330
1E
100
AcDbEntity
  8
0
100
AcDbLine
 10
9.08247
 20
174.187888
 30
0.0
 11
13.2497
 21
172.244888
 31
0.0
  0
LINE
  5
CAB
330
1E
100
AcDbEntity
  8
0
100
AcDbLine
 10
7.62678
 20
174.866888
 30
0.0
 11
12.0588
 21
172.800888
 31
0.0
  0
LINE
  5
CAC
330
1E
100
AcDbEntity
  8
0
100
AcDbLine
 10
7.58677
 20
175.989888
 30
0.0
 11
12.0847
 21
173.891888
 31
0.0
  0
LINE
  5
CAD
330
1E
100
AcDbEntity
  8
0
100
AcDbLine
 10
9.9471
 20
172.130888
 30
0.0
 11
10.256605888934
 21
172.794428784132
 31
0.0
  0
LINE
  5
CAE
330
1E
100
AcDbEntity
  8
0
100
AcDbLine
 10
9.9471
 20
172.130888
 30
0.0
 11
11.0931
 21
171.595888
 31
0.0
  0
LINE
  5
CAF
330
1E
100
AcDbEntity
  8
0
100
AcDbLine
 10
9.28576
 20
172.437888
 30
0.0
 11
9.621074917539
 21
173.157604568162
 31
0.0
  0
LINE
  5
CB0
330
1E
100
AcDbEntity
  8
0
100
AcDbLine
 10
9.28576
 20
172.437888
 30
0.0
 11
9.9471
 21
172.130888
 31
0.0
  0
LINE
  5
CB1
330
1E
100
AcDbEntity
  8
0
100
AcDbLine
 10
9.28576
 20
172.437888
 30
0.0
 11
10.4317
 21
171.903888
 31
0.0
  0
LINE
  5
CB2
330
1E
100
AcDbEntity
  8
0
100
AcDbLine
 10
9.28576
 20
172.437888
 30
0.0
 11
9.477986922777
 21
172.850481934635
 31
0.0
  0
LINE
  5
CB3
330
1E
100
AcDbEntity
  8
0
100
AcDbLine
 10
10.4317
 20
171.903888
 30
0.0
 11
11.0931
 21
171.595888
 31
0.0
  0
LINE
  5
CB4
330
1E
100
AcDbEntity
  8
0
100
AcDbLine
 10
11.0931
 20
171.595888
 30
0.0
 11
11.358454762782
 21
172.164774453102
 31
0.0
  0
LINE
  5
CB5
330
1E
100
AcDbEntity
  8
0
100
AcDbLine
 10
11.24394749159
 20
171.919285603836
 30
0.0
 11
13.920884058796
 21
170.507728883268
 31
0.0
  0
LINE
  5
CB6
330
1E
100
AcDbEntity
  8
0
100
AcDbLine
 10
11.24394749159
 20
171.919285603836
 30
0.0
 11
13.920884058796
 21
170.507728883268
 31
0.0
  0
LINE
  5
CB7
330
1E
100
AcDbEntity
  8
0
100
AcDbLine
 10
11.727256552732
 20
172.955438016032
 30
0.0
 11
12.0588
 21
172.800888
 31
0.0
  0
LINE
  5
CB8
330
1E
100
AcDbEntity
  8
0
100
AcDbLine
 10
11.727256552732
 20
172.955438016032
 30
0.0
 11
12.0588
 21
172.800888
 31
0.0
  0
LINE
  5
CB9
330
1E
100
AcDbEntity
  8
0
100
AcDbLine
 10
12.0588
 20
172.800888
 30
0.0
 11
16.9544
 21
170.517888
 31
0.0
  0
LINE
  5
CBA
330
1E
100
AcDbEntity
  8
0
100
AcDbLine
 10
12.0847
 20
173.891888
 30
0.0
 11
17.0462
 21
171.578888
 31
0.0
  0
LINE
  5
CBB
330
1E
100
AcDbEntity
  8
0
100
AcDbLine
 10
27.0268
 20
162.368888
 30
0.0
 11
27.4905
 21
162.152888
 31
0.0
  0
LINE
  5
CBC
330
1E
100
AcDbEntity
  8
0
100
AcDbLine
 10
26.6418
 20
162.547888
 30
0.0
 11
27.0268
 21
162.368888
 31
0.0
  0
LINE
  5
CBD
330
1E
100
AcDbEntity
  8
0
100
AcDbLine
 10
26.4105
 20
162.656888
 30
0.0
 11
26.6418
 21
162.547888
 31
0.0
  0
LINE
  5
CBE
330
1E
100
AcDbEntity
  8
0
100
AcDbLine
 10
26.3299
 20
162.693888
 30
0.0
 11
26.4105
 21
162.656888
 31
0.0
  0
LINE
  5
CBF
330
1E
100
AcDbEntity
  8
0
100
AcDbLine
 10
29.8106
 20
161.070888
 30
0.0
 11
30.2742
 21
160.854888
 31
0.0
  0
LINE
  5
CC0
330
1E
100
AcDbEntity
  8
0
100
AcDbLine
 10
29.2664
 20
161.324888
 30
0.0
 11
29.8106
 21
161.070888
 31
0.0
  0
LINE
  5
CC1
330
1E
100
AcDbEntity
  8
0
100
AcDbLine
 10
30.2742
 20
160.854888
 30
0.0
 11
30.6583
 21
160.674888
 31
0.0
  0
LINE
  5
CC2
330
1E
100
AcDbEntity
  8
0
100
AcDbLine
 10
30.6583
 20
160.674888
 30
0.0
 11
30.8906
 21
160.566888
 31
0.0
  0
LINE
  5
CC3
330
1E
100
AcDbEntity
  8
0
100
AcDbLine
 10
30.9702
 20
160.529888
 30
0.0
 11
31.938147969856
 21
161.323719707244
 31
0.0
  0
LINE
  5
CC4
330
1E
100
AcDbEntity
  8
0
100
AcDbLine
 10
30.8906
 20
160.566888
 30
0.0
 11
30.9702
 21
160.529888
 31
0.0
  0
LINE
  5
CC5
330
1E
100
AcDbEntity
  8
0
100
AcDbLine
 10
30.1785
 20
161.592888
 30
0.0
 11
30.38976833096
 21
162.046070068187
 31
0.0
  0
LINE
  5
CC6
330
1E
100
AcDbEntity
  8
0
100
AcDbLine
 10
32.611
 20
160.316888
 30
0.0
 11
32.8067
 21
160.225888
 31
0.0
  0
LINE
  5
CC7
330
1E
100
AcDbEntity
  8
0
100
AcDbLine
 10
32.611
 20
160.316888
 30
0.0
 11
32.876444043887
 21
160.886279920926
 31
0.0
  0
LINE
  5
CC8
330
1E
100
AcDbEntity
  8
0
100
AcDbLine
 10
32.8067
 20
160.225888
 30
0.0
 11
33.3289
 21
159.982888
 31
0.0
  0
LINE
  5
CC9
330
1E
100
AcDbEntity
  8
0
100
AcDbLine
 10
33.3289
 20
159.982888
 30
0.0
 11
34.1985
 21
159.576888
 31
0.0
  0
LINE
  5
CCA
330
1E
100
AcDbEntity
  8
0
100
AcDbLine
 10
31.938147969856
 20
161.323719707244
 30
0.0
 11
32.5812
 21
161.023888
 31
0.0
  0
LINE
  5
CCB
330
1E
100
AcDbEntity
  8
0
100
AcDbLine
 10
28.0346
 20
161.898888
 30
0.0
 11
28.651
 21
161.611888
 31
0.0
  0
LINE
  5
CCC
330
1E
100
AcDbEntity
  8
0
100
AcDbLine
 10
27.4905
 20
162.152888
 30
0.0
 11
28.0346
 21
161.898888
 31
0.0
  0
LINE
  5
CCD
330
1E
100
AcDbEntity
  8
0
100
AcDbLine
 10
28.651
 20
161.611888
 30
0.0
 11
29.2664
 21
161.324888
 31
0.0
  0
LINE
  5
CCE
330
1E
100
AcDbEntity
  8
0
100
AcDbLine
 10
29.5819
 20
162.422888
 30
0.0
 11
29.793206494778
 21
162.876151931653
 31
0.0
  0
LINE
  5
CCF
330
1E
100
AcDbEntity
  8
0
100
AcDbLine
 10
29.5819
 20
162.422888
 30
0.0
 11
30.9047
 21
161.805888
 31
0.0
  0
LINE
  5
CD0
330
1E
100
AcDbEntity
  8
0
100
AcDbLine
 10
28.8557
 20
162.209888
 30
0.0
 11
29.227195382726
 21
163.00676581458
 31
0.0
  0
LINE
  5
CD1
330
1E
100
AcDbEntity
  8
0
100
AcDbLine
 10
28.8557
 20
162.209888
 30
0.0
 11
30.1785
 21
161.592888
 31
0.0
  0
LINE
  5
CD2
330
1E
100
AcDbEntity
  8
0
100
AcDbLine
 10
28.8557
 20
162.209888
 30
0.0
 11
29.185024344668
 21
162.916306642787
 31
0.0
  0
LINE
  5
CD3
330
1E
100
AcDbEntity
  8
0
100
AcDbLine
 10
30.4546
 20
162.567888
 30
0.0
 11
30.723827991133
 21
163.145078156097
 31
0.0
  0
LINE
  5
CD4
330
1E
100
AcDbEntity
  8
0
100
AcDbLine
 10
29.1308
 20
163.184888
 30
0.0
 11
29.341972542398
 21
163.637614747309
 31
0.0
  0
LINE
  5
CD5
330
1E
100
AcDbEntity
  8
0
100
AcDbLine
 10
29.1308
 20
163.184888
 30
0.0
 11
30.4546
 21
162.567888
 31
0.0
  0
LINE
  5
CD6
330
1E
100
AcDbEntity
  8
0
100
AcDbLine
 10
30.9047
 20
161.805888
 30
0.0
 11
31.300012040474
 21
162.653853841671
 31
0.0
  0
LINE
  5
CD7
330
1E
100
AcDbEntity
  8
0
100
AcDbLine
 10
30.5184
 20
163.088888
 30
0.0
 11
30.941181295192
 21
163.995776888054
 31
0.0
  0
LINE
  5
CD8
330
1E
100
AcDbEntity
  8
0
100
AcDbLine
 10
31.3244
 20
161.609888
 30
0.0
 11
32.5812
 21
161.023888
 31
0.0
  0
LINE
  5
CD9
330
1E
100
AcDbEntity
  8
0
100
AcDbLine
 10
27.1572
 20
163.552888
 30
0.0
 11
27.6857
 21
163.305888
 31
0.0
  0
LINE
  5
CDA
330
1E
100
AcDbEntity
  8
0
100
AcDbLine
 10
29.1956
 20
163.705888
 30
0.0
 11
29.56850708645
 21
164.505793995899
 31
0.0
  0
LINE
  5
CDB
330
1E
100
AcDbEntity
  8
0
100
AcDbLine
 10
29.1956
 20
163.705888
 30
0.0
 11
30.5184
 21
163.088888
 31
0.0
  0
LINE
  5
CDC
330
1E
100
AcDbEntity
  8
0
100
AcDbLine
 10
26.8924
 20
163.676888
 30
0.0
 11
27.1572
 21
163.552888
 31
0.0
  0
LINE
  5
CDD
330
1E
100
AcDbEntity
  8
0
100
AcDbLine
 10
31.749818934547
 20
163.618714110191
 30
0.0
 11
33.4265
 21
162.836888
 31
0.0
  0
LINE
  5
CDE
330
1E
100
AcDbEntity
  8
0
100
AcDbLine
 10
34.1985
 20
159.576888
 30
0.0
 11
35.3518
 21
159.038888
 31
0.0
  0
LINE
  5
CDF
330
1E
100
AcDbEntity
  8
0
100
AcDbLine
 10
36.6568
 20
158.430888
 30
0.0
 11
38.0486
 21
157.781888
 31
0.0
  0
LINE
  5
CE0
330
1E
100
AcDbEntity
  8
0
100
AcDbLine
 10
35.3518
 20
159.038888
 30
0.0
 11
36.6568
 21
158.430888
 31
0.0
  0
LINE
  5
CE1
330
1E
100
AcDbEntity
  8
0
100
AcDbLine
 10
38.0486
 20
157.781888
 30
0.0
 11
39.4405
 21
157.131888
 31
0.0
  0
LINE
  5
CE2
330
1E
100
AcDbEntity
  8
0
100
AcDbLine
 10
39.4405
 20
157.131888
 30
0.0
 11
40.105065427228
 21
156.822266712832
 31
0.0
  0
LINE
  5
CE3
330
1E
100
AcDbEntity
  8
0
100
AcDbLine
 10
38.9984
 20
158.031888
 30
0.0
 11
39.209624794227
 21
158.484923078592
 31
0.0
  0
LINE
  5
CE4
330
1E
100
AcDbEntity
  8
0
100
AcDbLine
 10
38.7871
 20
157.578888
 30
0.0
 11
38.998304269183
 21
158.031932652188
 31
0.0
  0
LINE
  5
CE5
330
1E
100
AcDbEntity
  8
0
100
AcDbLine
 10
37.6756
 20
158.648888
 30
0.0
 11
38.098155763783
 21
159.555293110907
 31
0.0
  0
LINE
  5
CE6
330
1E
100
AcDbEntity
  8
0
100
AcDbLine
 10
37.4644
 20
158.194888
 30
0.0
 11
38.7871
 21
157.578888
 31
0.0
  0
LINE
  5
CE7
330
1E
100
AcDbEntity
  8
0
100
AcDbLine
 10
37.4644
 20
158.194888
 30
0.0
 11
37.675852968041
 21
158.648770006894
 31
0.0
  0
LINE
  5
CE8
330
1E
100
AcDbEntity
  8
0
100
AcDbLine
 10
37.8869
 20
159.101888
 30
0.0
 11
39.2097
 21
158.484888
 31
0.0
  0
LINE
  5
CE9
330
1E
100
AcDbEntity
  8
0
100
AcDbLine
 10
37.8869
 20
159.101888
 30
0.0
 11
38.09848719245
 21
159.555754043437
 31
0.0
  0
LINE
  5
CEA
330
1E
100
AcDbEntity
  8
0
100
AcDbLine
 10
39.2097
 20
158.484888
 30
0.0
 11
39.470802434163
 21
159.04490067377
 31
0.0
  0
LINE
  5
CEB
330
1E
100
AcDbEntity
  8
0
100
AcDbLine
 10
39.421
 20
158.938888
 30
0.0
 11
39.843482610513
 21
159.844529180942
 31
0.0
  0
LINE
  5
CEC
330
1E
100
AcDbEntity
  8
0
100
AcDbLine
 10
38.0982
 20
159.555888
 30
0.0
 11
39.421
 21
158.938888
 31
0.0
  0
LINE
  5
CED
330
1E
100
AcDbEntity
  8
0
100
AcDbLine
 10
38.0982
 20
159.555888
 30
0.0
 11
38.520620476942
 21
160.461395990321
 31
0.0
  0
LINE
  5
CEE
330
1E
100
AcDbEntity
  8
0
100
AcDbLine
 10
39.1822
 20
160.152888
 30
0.0
 11
44.9381
 21
157.468888
 31
0.0
  0
LINE
  5
CEF
330
1E
100
AcDbEntity
  8
0
100
AcDbLine
 10
39.1822
 20
160.152888
 30
0.0
 11
44.8052
 21
157.529888
 31
0.0
  0
LINE
  5
CF0
330
1E
100
AcDbEntity
  8
0
100
AcDbLine
 10
40.4254
 20
156.120888
 30
0.0
 11
40.55419805985
 21
156.061211906609
 31
0.0
  0
LINE
  5
CF1
330
1E
100
AcDbEntity
  8
0
100
AcDbLine
 10
40.367471803853
 20
156.148068385289
 30
0.0
 11
40.4254
 21
156.120888
 31
0.0
  0
LINE
  5
CF2
330
1E
100
AcDbEntity
  8
0
100
AcDbLine
 10
40.2161
 20
156.217888
 30
0.0
 11
40.4264
 21
156.120888
 31
0.0
  0
LINE
  5
CF3
330
1E
100
AcDbEntity
  8
0
100
AcDbLine
 10
40.1784
 20
156.235888
 30
0.0
 11
40.4181
 21
156.124888
 31
0.0
  0
LINE
  5
CF4
330
1E
100
AcDbEntity
  8
0
100
AcDbLine
 10
40.1083
 20
156.268888
 30
0.0
 11
40.1784
 21
156.235888
 31
0.0
  0
LINE
  5
CF5
330
1E
100
AcDbEntity
  8
0
100
AcDbLine
 10
40.1009995371
 20
157.517869255966
 30
0.0
 11
40.1083
 21
156.268888
 31
0.0
  0
LINE
  5
CF6
330
1E
100
AcDbEntity
  8
0
100
AcDbLine
 10
40.4181
 20
156.124888
 30
0.0
 11
40.7729
 21
155.958888
 31
0.0
  0
LINE
  5
CF7
330
1E
100
AcDbEntity
  8
0
100
AcDbLine
 10
40.4181
 20
156.124888
 30
0.0
 11
40.7948
 21
155.948888
 31
0.0
  0
LINE
  5
CF8
330
1E
100
AcDbEntity
  8
0
100
AcDbLine
 10
41.403295958728
 20
155.665102617368
 30
0.0
 11
41.8403
 21
155.460888
 31
0.0
  0
LINE
  5
CF9
330
1E
100
AcDbEntity
  8
0
100
AcDbLine
 10
40.7948
 20
155.948888
 30
0.0
 11
41.2679
 21
155.727888
 31
0.0
  0
LINE
  5
CFA
330
1E
100
AcDbEntity
  8
0
100
AcDbLine
 10
41.2679
 20
155.727888
 30
0.0
 11
41.8329
 21
155.465888
 31
0.0
  0
LINE
  5
CFB
330
1E
100
AcDbEntity
  8
0
100
AcDbLine
 10
41.8403
 20
155.460888
 30
0.0
 11
42.289914918338
 21
155.251782595049
 31
0.0
  0
LINE
  5
CFC
330
1E
100
AcDbEntity
  8
0
100
AcDbLine
 10
41.8329
 20
155.465888
 30
0.0
 11
42.4263
 21
155.187888
 31
0.0
  0
LINE
  5
CFD
330
1E
100
AcDbEntity
  8
0
100
AcDbLine
 10
42.4263
 20
155.187888
 30
0.0
 11
43.0134
 21
154.913888
 31
0.0
  0
LINE
  5
CFE
330
1E
100
AcDbEntity
  8
0
100
AcDbLine
 10
40.7729
 20
155.958888
 30
0.0
 11
40.931606727656
 21
155.884981242841
 31
0.0
  0
LINE
  5
CFF
330
1E
100
AcDbEntity
  8
0
100
AcDbLine
 10
39.6049
 20
161.059888
 30
0.0
 11
45.4266
 21
158.344888
 31
0.0
  0
LINE
  5
D00
330
1E
100
AcDbEntity
  8
0
100
AcDbLine
 10
33.5593
 20
162.774888
 30
0.0
 11
39.182199999996
 21
160.152888000002
 31
0.0
  0
LINE
  5
D01
330
1E
100
AcDbEntity
  8
0
100
AcDbLine
 10
33.5593
 20
162.774888
 30
0.0
 11
39.1822
 21
160.152888
 31
0.0
  0
LINE
  5
D02
330
1E
100
AcDbEntity
  8
0
100
AcDbLine
 10
33.4265
 20
162.836888
 30
0.0
 11
39.1822
 21
160.152888
 31
0.0
  0
LINE
  5
D03
330
1E
100
AcDbEntity
  8
0
100
AcDbLine
 10
33.4265
 20
162.836888
 30
0.0
 11
38.520579531862
 21
160.461415083844
 31
0.0
  0
LINE
  5
D04
330
1E
100
AcDbEntity
  8
0
100
AcDbLine
 10
17.0949
 20
168.245888
 30
0.0
 11
17.7563
 21
167.937888
 31
0.0
  0
LINE
  5
D05
330
1E
100
AcDbEntity
  8
0
100
AcDbLine
 10
17.7563
 20
167.937888
 30
0.0
 11
18.041486996522
 21
168.549292209297
 31
0.0
  0
LINE
  5
D06
330
1E
100
AcDbEntity
  8
0
100
AcDbLine
 10
21.4527
 20
165.661888
 30
0.0
 11
21.663831928297
 21
166.114777477049
 31
0.0
  0
LINE
  5
D07
330
1E
100
AcDbEntity
  8
0
100
AcDbLine
 10
21.4527
 20
165.661888
 30
0.0
 11
22.5987
 21
165.126888
 31
0.0
  0
LINE
  5
D08
330
1E
100
AcDbEntity
  8
0
100
AcDbLine
 10
20.7913
 20
165.970888
 30
0.0
 11
21.138246263959
 21
166.714696128601
 31
0.0
  0
LINE
  5
D09
330
1E
100
AcDbEntity
  8
0
100
AcDbLine
 10
20.7913
 20
165.970888
 30
0.0
 11
21.4527
 21
165.661888
 31
0.0
  0
LINE
  5
D0A
330
1E
100
AcDbEntity
  8
0
100
AcDbLine
 10
20.7913
 20
165.970888
 30
0.0
 11
21.9373
 21
165.434888
 31
0.0
  0
LINE
  5
D0B
330
1E
100
AcDbEntity
  8
0
100
AcDbLine
 10
21.4149
 20
166.230888
 30
0.0
 11
21.626018805543
 21
166.683695753992
 31
0.0
  0
LINE
  5
D0C
330
1E
100
AcDbEntity
  8
0
100
AcDbLine
 10
21.4149
 20
166.230888
 30
0.0
 11
22.7377
 21
165.613888
 31
0.0
  0
LINE
  5
D0D
330
1E
100
AcDbEntity
  8
0
100
AcDbLine
 10
21.6985
 20
166.649888
 30
0.0
 11
21.980979963889
 21
167.25582289651
 31
0.0
  0
LINE
  5
D0E
330
1E
100
AcDbEntity
  8
0
100
AcDbLine
 10
20.3757
 20
167.266888
 30
0.0
 11
20.587346246235
 21
167.720880717019
 31
0.0
  0
LINE
  5
D0F
330
1E
100
AcDbEntity
  8
0
100
AcDbLine
 10
20.3757
 20
167.266888
 30
0.0
 11
21.6985
 21
166.649888
 31
0.0
  0
LINE
  5
D10
330
1E
100
AcDbEntity
  8
0
100
AcDbLine
 10
21.9373
 20
165.434888
 30
0.0
 11
22.5987
 21
165.126888
 31
0.0
  0
LINE
  5
D11
330
1E
100
AcDbEntity
  8
0
100
AcDbLine
 10
21.7622
 20
167.172888
 30
0.0
 11
22.184900446232
 21
168.079103343791
 31
0.0
  0
LINE
  5
D12
330
1E
100
AcDbEntity
  8
0
100
AcDbLine
 10
20.4394
 20
167.789888
 30
0.0
 11
20.862014760033
 21
168.695919643611
 31
0.0
  0
LINE
  5
D13
330
1E
100
AcDbEntity
  8
0
100
AcDbLine
 10
20.4394
 20
167.789888
 30
0.0
 11
21.7622
 21
167.172888
 31
0.0
  0
LINE
  5
D14
330
1E
100
AcDbEntity
  8
0
100
AcDbLine
 10
20.4394
 20
167.789888
 30
0.0
 11
20.735090411864
 21
168.423810179718
 31
0.0
  0
LINE
  5
D15
330
1E
100
AcDbEntity
  8
0
100
AcDbLine
 10
17.961234024554
 20
168.377240168117
 30
0.0
 11
21.525152985773
 21
166.497974957692
 31
0.0
  0
LINE
  5
D16
330
1E
100
AcDbEntity
  8
0
100
AcDbLine
 10
15.4832
 20
168.997888
 30
0.0
 11
15.740050376536
 21
169.54847700069
 31
0.0
  0
LINE
  5
D17
330
1E
100
AcDbEntity
  8
0
100
AcDbLine
 10
15.428927593835
 20
169.023161512396
 30
0.0
 11
15.4832
 21
168.997888
 31
0.0
  0
LINE
  5
D18
330
1E
100
AcDbEntity
  8
0
100
AcDbLine
 10
15.4289344649
 20
169.023176241333
 30
0.0
 11
15.4832
 21
168.997888
 31
0.0
  0
LINE
  5
D19
330
1E
100
AcDbEntity
  8
0
100
AcDbLine
 10
15.4288
 20
169.022888
 30
0.0
 11
15.640026000402
 21
169.475675782714
 31
0.0
  0
LINE
  5
D1A
330
1E
100
AcDbEntity
  8
0
100
AcDbLine
 10
16.6104
 20
168.471888
 30
0.0
 11
16.924422066565
 21
169.14511088762
 31
0.0
  0
LINE
  5
D1B
330
1E
100
AcDbEntity
  8
0
100
AcDbLine
 10
16.6104
 20
168.471888
 30
0.0
 11
17.7563
 21
167.937888
 31
0.0
  0
LINE
  5
D1C
330
1E
100
AcDbEntity
  8
0
100
AcDbLine
 10
15.9489
 20
168.779888
 30
0.0
 11
16.274509002278
 21
169.478254403797
 31
0.0
  0
LINE
  5
D1D
330
1E
100
AcDbEntity
  8
0
100
AcDbLine
 10
15.9489
 20
168.779888
 30
0.0
 11
16.6104
 21
168.471888
 31
0.0
  0
LINE
  5
D1E
330
1E
100
AcDbEntity
  8
0
100
AcDbLine
 10
15.9489
 20
168.779888
 30
0.0
 11
17.0949
 21
168.245888
 31
0.0
  0
LINE
  5
D1F
330
1E
100
AcDbEntity
  8
0
100
AcDbLine
 10
15.9489
 20
168.779888
 30
0.0
 11
16.195320814616
 21
169.308411526439
 31
0.0
  0
LINE
  5
D20
330
1E
100
AcDbEntity
  8
0
100
AcDbLine
 10
17.961234024554
 20
168.377240168117
 30
0.0
 11
21.525152985773
 21
166.497974957692
 31
0.0
  0
LINE
  5
D21
330
1E
100
AcDbEntity
  8
0
100
AcDbLine
 10
22.5987
 20
165.126888
 30
0.0
 11
22.904241543808
 21
165.782368793898
 31
0.0
  0
LINE
  5
D22
330
1E
100
AcDbEntity
  8
0
100
AcDbLine
 10
23.7581
 20
164.586888
 30
0.0
 11
24.4195
 21
164.277888
 31
0.0
  0
LINE
  5
D23
330
1E
100
AcDbEntity
  8
0
100
AcDbLine
 10
24.4195
 20
164.277888
 30
0.0
 11
24.744163727934
 21
164.974226978759
 31
0.0
  0
LINE
  5
D24
330
1E
100
AcDbEntity
  8
0
100
AcDbLine
 10
22.7377
 20
165.613888
 30
0.0
 11
23.058880471665
 21
166.302376128069
 31
0.0
  0
LINE
  5
D25
330
1E
100
AcDbEntity
  8
0
100
AcDbLine
 10
22.7377
 20
165.613888
 30
0.0
 11
22.993006162115
 21
166.161166795401
 31
0.0
  0
LINE
  5
D26
330
1E
100
AcDbEntity
  8
0
100
AcDbLine
 10
23.2746
 20
164.812888
 30
0.0
 11
23.627672206277
 21
165.569739813289
 31
0.0
  0
LINE
  5
D27
330
1E
100
AcDbEntity
  8
0
100
AcDbLine
 10
23.2746
 20
164.812888
 30
0.0
 11
24.4195
 21
164.277888
 31
0.0
  0
LINE
  5
D28
330
1E
100
AcDbEntity
  8
0
100
AcDbLine
 10
22.6132
 20
165.120888
 30
0.0
 11
22.968360900155
 21
165.882637333943
 31
0.0
  0
LINE
  5
D29
330
1E
100
AcDbEntity
  8
0
100
AcDbLine
 10
22.6132
 20
165.120888
 30
0.0
 11
23.2746
 21
164.812888
 31
0.0
  0
LINE
  5
D2A
330
1E
100
AcDbEntity
  8
0
100
AcDbLine
 10
22.6132
 20
165.120888
 30
0.0
 11
23.7581
 21
164.586888
 31
0.0
  0
LINE
  5
D2B
330
1E
100
AcDbEntity
  8
0
100
AcDbLine
 10
22.82931906811
 20
165.810284251527
 30
0.0
 11
22.913845702703
 21
165.765713102331
 31
0.0
  0
LINE
  5
D2C
330
1E
100
AcDbEntity
  8
0
100
AcDbLine
 10
22.82931906811
 20
165.810284251527
 30
0.0
 11
22.913845702703
 21
165.765713102331
 31
0.0
  0
LINE
  5
D2D
330
1E
100
AcDbEntity
  8
0
100
AcDbLine
 10
26.315542375552
 20
163.981430224797
 30
0.0
 11
26.3299
 21
162.693888
 31
0.0
  0
LINE
  5
D2E
330
1E
100
AcDbEntity
  8
0
100
AcDbLine
 10
24.679178941042
 20
164.834847564781
 30
0.0
 11
26.315648288182
 21
163.971932345476
 31
0.0
  0
LINE
  5
D2F
330
1E
100
AcDbEntity
  8
0
100
AcDbLine
 10
24.679178941042
 20
164.834847564781
 30
0.0
 11
26.315648288182
 21
163.971932345476
 31
0.0
  0
LINE
  5
D30
330
1E
100
AcDbEntity
  8
0
100
AcDbLine
 10
22.9079
 20
167.741888
 30
0.0
 11
28.8626
 21
164.964888
 31
0.0
  0
LINE
  5
D31
330
1E
100
AcDbEntity
  8
0
100
AcDbLine
 10
22.1146
 20
168.111888
 30
0.0
 11
27.9364
 21
165.396888
 31
0.0
  0
LINE
  5
D32
330
1E
100
AcDbEntity
  8
0
100
AcDbLine
 10
13.6759
 20
169.839888
 30
0.0
 11
14.062699999994
 21
169.659763415787
 31
0.0
  0
LINE
  5
D33
330
1E
100
AcDbEntity
  8
0
100
AcDbLine
 10
13.6759
 20
169.839888
 30
0.0
 11
14.062699999994
 21
169.659763415787
 31
0.0
  0
LINE
  5
D34
330
1E
100
AcDbEntity
  8
0
100
AcDbLine
 10
13.6759
 20
169.839888
 30
0.0
 11
14.170857141256
 21
169.609233393637
 31
0.0
  0
LINE
  5
D35
330
1E
100
AcDbEntity
  8
0
100
AcDbLine
 10
14.516999999976
 20
169.447795234499
 30
0.0
 11
14.7674
 21
169.330888
 31
0.0
  0
LINE
  5
D36
330
1E
100
AcDbEntity
  8
0
100
AcDbLine
 10
14.516999999977
 20
169.447795234499
 30
0.0
 11
14.7674
 21
169.330888
 31
0.0
  0
LINE
  5
D37
330
1E
100
AcDbEntity
  8
0
100
AcDbLine
 10
14.7674
 20
169.330888
 30
0.0
 11
15.4288
 21
169.022888
 31
0.0
  0
LINE
  5
D38
330
1E
100
AcDbEntity
  8
0
100
AcDbLine
 10
14.2829
 20
169.556888
 30
0.0
 11
14.494201594774
 21
170.010087800457
 31
0.0
  0
LINE
  5
D39
330
1E
100
AcDbEntity
  8
0
100
AcDbLine
 10
14.2829
 20
169.556888
 30
0.0
 11
15.4288
 21
169.022888
 31
0.0
  0
LINE
  5
D3A
330
1E
100
AcDbEntity
  8
0
100
AcDbLine
 10
13.6215
 20
169.865888
 30
0.0
 11
13.941256599372
 21
170.551404987769
 31
0.0
  0
LINE
  5
D3B
330
1E
100
AcDbEntity
  8
0
100
AcDbLine
 10
13.6215
 20
169.865888
 30
0.0
 11
14.2829
 21
169.556888
 31
0.0
  0
LINE
  5
D3C
330
1E
100
AcDbEntity
  8
0
100
AcDbLine
 10
15.6653
 20
169.463888
 30
0.0
 11
15.955023063294
 21
170.08535973894
 31
0.0
  0
LINE
  5
D3D
330
1E
100
AcDbEntity
  8
0
100
AcDbLine
 10
14.3424
 20
170.080888
 30
0.0
 11
14.695137882819
 21
170.837440444754
 31
0.0
  0
LINE
  5
D3E
330
1E
100
AcDbEntity
  8
0
100
AcDbLine
 10
14.3424
 20
170.080888
 30
0.0
 11
15.6653
 21
169.463888
 31
0.0
  0
LINE
  5
D3F
330
1E
100
AcDbEntity
  8
0
100
AcDbLine
 10
14.3424
 20
170.080888
 30
0.0
 11
14.653464779489
 21
170.748059945124
 31
0.0
  0
LINE
  5
D40
330
1E
100
AcDbEntity
  8
0
100
AcDbLine
 10
15.711702886728
 20
169.563424717509
 30
0.0
 11
16.195320814616
 21
169.308411526439
 31
0.0
  0
LINE
  5
D41
330
1E
100
AcDbEntity
  8
0
100
AcDbLine
 10
13.0813
 20
171.220888
 30
0.0
 11
13.489632576731
 21
172.09619691877
 31
0.0
  0
LINE
  5
D42
330
1E
100
AcDbEntity
  8
0
100
AcDbLine
 10
13.0813
 20
171.220888
 30
0.0
 11
14.4052
 21
170.603888
 31
0.0
  0
LINE
  5
D43
330
1E
100
AcDbEntity
  8
0
100
AcDbLine
 10
14.4052
 20
170.603888
 30
0.0
 11
14.766396051296
 21
171.378245838321
 31
0.0
  0
LINE
  5
D44
330
1E
100
AcDbEntity
  8
0
100
AcDbLine
 10
16.328270964574
 20
170.809397035617
 30
0.0
 11
16.793914061711
 21
170.592274719368
 31
0.0
  0
LINE
  5
D45
330
1E
100
AcDbEntity
  8
0
100
AcDbLine
 10
13.2497
 20
172.244888
 30
0.0
 11
17.9464
 21
170.054888
 31
0.0
  0
LINE
  5
D46
330
1E
100
AcDbEntity
  8
0
100
AcDbLine
 10
13.2497
 20
172.244888
 30
0.0
 11
13.50373814529
 21
172.126433864504
 31
0.0
  0
LINE
  5
D47
330
1E
100
AcDbEntity
  8
0
100
AcDbLine
 10
13.2497
 20
172.244888
 30
0.0
 11
13.50373814529
 21
172.126433864504
 31
0.0
  0
LINE
  5
D48
330
1E
100
AcDbEntity
  8
0
100
AcDbLine
 10
16.9544
 20
170.517888
 30
0.0
 11
22.1146
 21
168.111888
 31
0.0
  0
LINE
  5
D49
330
1E
100
AcDbEntity
  8
0
100
AcDbLine
 10
18.578365380995
 20
169.760696281331
 30
0.0
 11
20.862014760033
 21
168.695919643611
 31
0.0
  0
LINE
  5
D4A
330
1E
100
AcDbEntity
  8
0
100
AcDbLine
 10
18.578365380995
 20
169.760696281331
 30
0.0
 11
20.862014760033
 21
168.695919643611
 31
0.0
  0
LINE
  5
D4B
330
1E
100
AcDbEntity
  8
0
100
AcDbLine
 10
17.12221138213
 20
170.439644097553
 30
0.0
 11
17.4556
 21
170.283888
 31
0.0
  0
LINE
  5
D4C
330
1E
100
AcDbEntity
  8
0
100
AcDbLine
 10
17.12221138213
 20
170.439644097553
 30
0.0
 11
17.4556
 21
170.283888
 31
0.0
  0
LINE
  5
D4D
330
1E
100
AcDbEntity
  8
0
100
AcDbLine
 10
17.4556
 20
170.283888
 30
0.0
 11
18.6015
 21
169.749888
 31
0.0
  0
LINE
  5
D4E
330
1E
100
AcDbEntity
  8
0
100
AcDbLine
 10
17.9464
 20
170.054888
 30
0.0
 11
22.9079
 21
167.741888
 31
0.0
  0
LINE
  5
D4F
330
1E
100
AcDbEntity
  8
0
100
AcDbLine
 10
17.0462
 20
171.578888
 30
0.0
 11
22.2725
 21
169.141888
 31
0.0
  0
LINE
  5
D50
330
1E
100
AcDbEntity
  8
0
100
AcDbLine
 10
22.2725
 20
169.141888
 30
0.0
 11
27.8955
 21
166.518888
 31
0.0
  0
LINE
  5
D51
330
1E
100
AcDbEntity
  8
0
100
AcDbLine
 10
30.975771875216
 20
165.082784547469
 30
0.0
 11
33.7832
 21
163.773888
 31
0.0
  0
LINE
  5
D52
330
1E
100
AcDbEntity
  8
0
100
AcDbLine
 10
30.975771875217
 20
165.082784547468
 30
0.0
 11
33.7832
 21
163.773888
 31
0.0
  0
LINE
  5
D53
330
1E
100
AcDbEntity
  8
0
100
AcDbLine
 10
28.8626
 20
164.964888
 30
0.0
 11
33.5593
 21
162.774888
 31
0.0
  0
LINE
  5
D54
330
1E
100
AcDbEntity
  8
0
100
AcDbLine
 10
27.9364
 20
165.396888
 30
0.0
 11
33.4265
 21
162.836888
 31
0.0
  0
LINE
  5
D55
330
1E
100
AcDbEntity
  8
0
100
AcDbLine
 10
27.9364
 20
165.396888
 30
0.0
 11
29.618309890353
 21
164.612623720788
 31
0.0
  0
LINE
  5
D56
330
1E
100
AcDbEntity
  8
0
100
AcDbLine
 10
27.8955
 20
166.518888
 30
0.0
 11
33.7832
 21
163.773888
 31
0.0
  0
LINE
  5
D57
330
1E
100
AcDbEntity
  8
0
100
AcDbLine
 10
27.8955
 20
166.518888
 30
0.0
 11
30.040725298077
 21
165.51872776031
 31
0.0
  0
LINE
  5
D58
330
1E
100
AcDbEntity
  8
0
100
AcDbLine
 10
33.7832
 20
163.773888
 30
0.0
 11
39.6049
 21
161.059888
 31
0.0
  0
LINE
  5
D59
330
1E
100
AcDbEntity
  8
0
100
AcDbLine
 10
43.541590563277
 20
154.667982367228
 30
0.0
 11
43.5953
 21
154.642888
 31
0.0
  0
LINE
  5
D5A
330
1E
100
AcDbEntity
  8
0
100
AcDbLine
 10
44.17772170133
 20
154.371121270318
 30
0.0
 11
44.444
 21
154.246888
 31
0.0
  0
LINE
  5
D5B
330
1E
100
AcDbEntity
  8
0
100
AcDbLine
 10
44.207963417723
 20
154.357138632911
 30
0.0
 11
44.444
 21
154.246888
 31
0.0
  0
LINE
  5
D5C
330
1E
100
AcDbEntity
  8
0
100
AcDbLine
 10
44.304291909718
 20
154.31259994476
 30
0.0
 11
44.4357
 21
154.250888
 31
0.0
  0
LINE
  5
D5D
330
1E
100
AcDbEntity
  8
0
100
AcDbLine
 10
44.7538
 20
154.102888
 30
0.0
 11
45.714317924951
 21
154.899497582376
 31
0.0
  0
LINE
  5
D5E
330
1E
100
AcDbEntity
  8
0
100
AcDbLine
 10
44.444
 20
154.246888
 30
0.0
 11
44.6826
 21
154.135888
 31
0.0
  0
LINE
  5
D5F
330
1E
100
AcDbEntity
  8
0
100
AcDbLine
 10
44.4357
 20
154.250888
 30
0.0
 11
44.6752
 21
154.139888
 31
0.0
  0
LINE
  5
D60
330
1E
100
AcDbEntity
  8
0
100
AcDbLine
 10
44.6752
 20
154.139888
 30
0.0
 11
44.7465
 21
154.105888
 31
0.0
  0
LINE
  5
D61
330
1E
100
AcDbEntity
  8
0
100
AcDbLine
 10
44.6459
 20
154.153888
 30
0.0
 11
44.7465
 21
154.105888
 31
0.0
  0
LINE
  5
D62
330
1E
100
AcDbEntity
  8
0
100
AcDbLine
 10
44.7465
 20
154.105888
 30
0.0
 11
45.707328294337
 21
154.902754988532
 31
0.0
  0
LINE
  5
D63
330
1E
100
AcDbEntity
  8
0
100
AcDbLine
 10
44.4356
 20
154.251888
 30
0.0
 11
44.6459
 21
154.153888
 31
0.0
  0
LINE
  5
D64
330
1E
100
AcDbEntity
  8
0
100
AcDbLine
 10
43.5953
 20
154.642888
 30
0.0
 11
43.668443976652
 21
154.608757112133
 31
0.0
  0
LINE
  5
D65
330
1E
100
AcDbEntity
  8
0
100
AcDbLine
 10
44.0809
 20
154.415888
 30
0.0
 11
44.4356
 21
154.251888
 31
0.0
  0
LINE
  5
D66
330
1E
100
AcDbEntity
  8
0
100
AcDbLine
 10
43.5869
 20
154.646888
 30
0.0
 11
44.0809
 21
154.415888
 31
0.0
  0
LINE
  5
D67
330
1E
100
AcDbEntity
  8
0
100
AcDbLine
 10
43.0134
 20
154.913888
 30
0.0
 11
43.5869
 21
154.646888
 31
0.0
  0
LINE
  5
D68
330
1E
100
AcDbEntity
  8
0
100
AcDbLine
 10
47.3958
 20
153.563888
 30
0.0
 11
47.767456243721
 21
154.361110870169
 31
0.0
  0
LINE
  5
D69
330
1E
100
AcDbEntity
  8
0
100
AcDbLine
 10
47.0921
 20
154.257888
 30
0.0
 11
47.303240387154
 21
154.710742042246
 31
0.0
  0
LINE
  5
D6A
330
1E
100
AcDbEntity
  8
0
100
AcDbLine
 10
47.9659
 20
154.401888
 30
0.0
 11
48.177270069075
 21
154.855234664182
 31
0.0
  0
LINE
  5
D6B
330
1E
100
AcDbEntity
  8
0
100
AcDbLine
 10
46.6421
 20
155.018888
 30
0.0
 11
47.9659
 21
154.401888
 31
0.0
  0
LINE
  5
D6C
330
1E
100
AcDbEntity
  8
0
100
AcDbLine
 10
46.6421
 20
155.018888
 30
0.0
 11
46.911637254986
 21
155.596991683058
 31
0.0
  0
LINE
  5
D6D
330
1E
100
AcDbEntity
  8
0
100
AcDbLine
 10
48.3238
 20
154.786888
 30
0.0
 11
48.69635311763
 21
155.58559392658
 31
0.0
  0
LINE
  5
D6E
330
1E
100
AcDbEntity
  8
0
100
AcDbLine
 10
45.7684
 20
154.873888
 30
0.0
 11
46.284173437542
 21
154.633866516639
 31
0.0
  0
LINE
  5
D6F
330
1E
100
AcDbEntity
  8
0
100
AcDbLine
 10
45.7684
 20
154.873888
 30
0.0
 11
47.0921
 21
154.257888
 31
0.0
  0
LINE
  5
D70
330
1E
100
AcDbEntity
  8
0
100
AcDbLine
 10
45.7684
 20
154.873888
 30
0.0
 11
46.163997502085
 21
155.722934224304
 31
0.0
  0
LINE
  5
D71
330
1E
100
AcDbEntity
  8
0
100
AcDbLine
 10
45.7684
 20
154.873888
 30
0.0
 11
45.989226688362
 21
155.347834536547
 31
0.0
  0
LINE
  5
D72
330
1E
100
AcDbEntity
  8
0
100
AcDbLine
 10
46.073
 20
154.180888
 30
0.0
 11
47.3958
 21
153.563888
 31
0.0
  0
LINE
  5
D73
330
1E
100
AcDbEntity
  8
0
100
AcDbLine
 10
46.073
 20
154.180888
 30
0.0
 11
46.284173437542
 21
154.633866516639
 31
0.0
  0
LINE
  5
D74
330
1E
100
AcDbEntity
  8
0
100
AcDbLine
 10
45.714317924951
 20
154.899497582376
 30
0.0
 11
45.768555225679
 21
154.874221151186
 31
0.0
  0
LINE
  5
D75
330
1E
100
AcDbEntity
  8
0
100
AcDbLine
 10
48.392
 20
153.650888
 30
0.0
 11
49.9136
 21
152.941888
 31
0.0
  0
LINE
  5
D76
330
1E
100
AcDbEntity
  8
0
100
AcDbLine
 10
49.9136
 20
152.941888
 30
0.0
 11
52.090979325247
 21
152.05339863214
 31
0.0
  0
LINE
  5
D77
330
1E
100
AcDbEntity
  8
0
100
AcDbLine
 10
45.3487
 20
155.069888
 30
0.0
 11
45.768555225679
 21
154.874221151186
 31
0.0
  0
LINE
  5
D78
330
1E
100
AcDbEntity
  8
0
100
AcDbLine
 10
47.001
 20
155.403888
 30
0.0
 11
48.3238
 21
154.786888
 31
0.0
  0
LINE
  5
D79
330
1E
100
AcDbEntity
  8
0
100
AcDbLine
 10
47.001
 20
155.403888
 30
0.0
 11
47.423610181389
 21
156.309909827588
 31
0.0
  0
LINE
  5
D7A
330
1E
100
AcDbEntity
  8
0
100
AcDbLine
 10
49.502
 20
155.339888
 30
0.0
 11
55.456
 21
152.564888
 31
0.0
  0
LINE
  5
D7B
330
1E
100
AcDbEntity
  8
0
100
AcDbLine
 10
50.4282
 20
154.908888
 30
0.0
 11
56.2498
 21
152.194888
 31
0.0
  0
LINE
  5
D7C
330
1E
100
AcDbEntity
  8
0
100
AcDbLine
 10
50.4282
 20
154.908888
 30
0.0
 11
56.032185319895
 21
152.296338845439
 31
0.0
  0
LINE
  5
D7D
330
1E
100
AcDbEntity
  8
0
100
AcDbLine
 10
44.8052
 20
157.529888
 30
0.0
 11
49.502
 21
155.339888
 31
0.0
  0
LINE
  5
D7E
330
1E
100
AcDbEntity
  8
0
100
AcDbLine
 10
44.9381
 20
157.468888
 30
0.0
 11
50.4282
 21
154.908888
 31
0.0
  0
LINE
  5
D7F
330
1E
100
AcDbEntity
  8
0
100
AcDbLine
 10
53.6528
 20
150.646888
 30
0.0
 11
54.7988
 21
150.111888
 31
0.0
  0
LINE
  5
D80
330
1E
100
AcDbEntity
  8
0
100
AcDbLine
 10
53.9363
 20
151.066888
 30
0.0
 11
55.259
 21
150.449888
 31
0.0
  0
LINE
  5
D81
330
1E
100
AcDbEntity
  8
0
100
AcDbLine
 10
53.9363
 20
151.066888
 30
0.0
 11
54.256935193401
 21
151.754207259957
 31
0.0
  0
LINE
  5
D82
330
1E
100
AcDbEntity
  8
0
100
AcDbLine
 10
53.9363
 20
151.066888
 30
0.0
 11
54.191041775298
 21
151.612956965858
 31
0.0
  0
LINE
  5
D83
330
1E
100
AcDbEntity
  8
0
100
AcDbLine
 10
52.4923
 20
151.186888
 30
0.0
 11
53.6383
 21
150.652888
 31
0.0
  0
LINE
  5
D84
330
1E
100
AcDbEntity
  8
0
100
AcDbLine
 10
52.9768
 20
150.961888
 30
0.0
 11
53.6383
 21
150.652888
 31
0.0
  0
LINE
  5
D85
330
1E
100
AcDbEntity
  8
0
100
AcDbLine
 10
51.8309
 20
151.495888
 30
0.0
 11
52.9768
 21
150.961888
 31
0.0
  0
LINE
  5
D86
330
1E
100
AcDbEntity
  8
0
100
AcDbLine
 10
51.8309
 20
151.495888
 30
0.0
 11
52.155571015981
 21
152.191858520476
 31
0.0
  0
LINE
  5
D87
330
1E
100
AcDbEntity
  8
0
100
AcDbLine
 10
51.8309
 20
151.495888
 30
0.0
 11
52.4923
 21
151.186888
 31
0.0
  0
LINE
  5
D88
330
1E
100
AcDbEntity
  8
0
100
AcDbLine
 10
51.8309
 20
151.495888
 30
0.0
 11
52.090979325247
 21
152.05339863214
 31
0.0
  0
LINE
  5
D89
330
1E
100
AcDbEntity
  8
0
100
AcDbLine
 10
51.3143
 20
155.598888
 30
0.0
 11
56.937
 21
152.976888
 31
0.0
  0
LINE
  5
D8A
330
1E
100
AcDbEntity
  8
0
100
AcDbLine
 10
45.4266
 20
158.344888
 30
0.0
 11
51.3143
 21
155.598888
 31
0.0
  0
LINE
  5
D8B
330
1E
100
AcDbEntity
  8
0
100
AcDbLine
 10
60.7247
 20
147.899888
 30
0.0
 11
61.050113996383
 21
148.598303747088
 31
0.0
  0
LINE
  5
D8C
330
1E
100
AcDbEntity
  8
0
100
AcDbLine
 10
59.5788
 20
148.434888
 30
0.0
 11
60.7247
 21
147.899888
 31
0.0
  0
LINE
  5
D8D
330
1E
100
AcDbEntity
  8
0
100
AcDbLine
 10
55.4598
 20
149.803888
 30
0.0
 11
55.807027350804
 21
150.54870956532
 31
0.0
  0
LINE
  5
D8E
330
1E
100
AcDbEntity
  8
0
100
AcDbLine
 10
54.7988
 20
150.111888
 30
0.0
 11
55.4598
 21
149.803888
 31
0.0
  0
LINE
  5
D8F
330
1E
100
AcDbEntity
  8
0
100
AcDbLine
 10
54.7988
 20
150.111888
 30
0.0
 11
55.010344896002
 21
150.565878170989
 31
0.0
  0
LINE
  5
D90
330
1E
100
AcDbEntity
  8
0
100
AcDbLine
 10
58.9173
 20
148.743888
 30
0.0
 11
60.0631
 21
148.208888
 31
0.0
  0
LINE
  5
D91
330
1E
100
AcDbEntity
  8
0
100
AcDbLine
 10
58.9173
 20
148.743888
 30
0.0
 11
59.202260820573
 21
149.355072156748
 31
0.0
  0
LINE
  5
D92
330
1E
100
AcDbEntity
  8
0
100
AcDbLine
 10
58.9173
 20
148.743888
 30
0.0
 11
59.5788
 21
148.434888
 31
0.0
  0
LINE
  5
D93
330
1E
100
AcDbEntity
  8
0
100
AcDbLine
 10
58.9173
 20
148.743888
 30
0.0
 11
59.122560359768
 21
149.184130555613
 31
0.0
  0
LINE
  5
D94
330
1E
100
AcDbEntity
  8
0
100
AcDbLine
 10
60.0631
 20
148.208888
 30
0.0
 11
60.7247
 21
147.899888
 31
0.0
  0
LINE
  5
D95
330
1E
100
AcDbEntity
  8
0
100
AcDbLine
 10
60.0631
 20
148.208888
 30
0.0
 11
60.376975171543
 21
148.882167325612
 31
0.0
  0
LINE
  5
D96
330
1E
100
AcDbEntity
  8
0
100
AcDbLine
 10
61.1903
 20
147.683888
 30
0.0
 11
61.245341025285
 21
147.658190340058
 31
0.0
  0
LINE
  5
D97
330
1E
100
AcDbEntity
  8
0
100
AcDbLine
 10
61.1903
 20
147.683888
 30
0.0
 11
61.447434410723
 21
148.235455305537
 31
0.0
  0
LINE
  5
D98
330
1E
100
AcDbEntity
  8
0
100
AcDbLine
 10
61.2452
 20
147.657888
 30
0.0
 11
62.3909
 21
147.123888
 31
0.0
  0
LINE
  5
D99
330
1E
100
AcDbEntity
  8
0
100
AcDbLine
 10
61.2452
 20
147.657888
 30
0.0
 11
61.456595547751
 21
148.111092842078
 31
0.0
  0
LINE
  5
D9A
330
1E
100
AcDbEntity
  8
0
100
AcDbLine
 10
61.2452
 20
147.657888
 30
0.0
 11
61.9067
 21
147.348888
 31
0.0
  0
LINE
  5
D9B
330
1E
100
AcDbEntity
  8
0
100
AcDbLine
 10
60.97153250825
 20
148.429649204408
 30
0.0
 11
61.477995272083
 21
148.222984809434
 31
0.0
  0
LINE
  5
D9C
330
1E
100
AcDbEntity
  8
0
100
AcDbLine
 10
60.97153250825
 20
148.429649204408
 30
0.0
 11
61.477995272083
 21
148.222984809434
 31
0.0
  0
LINE
  5
D9D
330
1E
100
AcDbEntity
  8
0
100
AcDbLine
 10
55.259
 20
150.449888
 30
0.0
 11
55.470409937821
 21
150.903123692537
 31
0.0
  0
LINE
  5
D9E
330
1E
100
AcDbEntity
  8
0
100
AcDbLine
 10
56.7212
 20
150.319888
 30
0.0
 11
56.932329730142
 21
150.772522963343
 31
0.0
  0
LINE
  5
D9F
330
1E
100
AcDbEntity
  8
0
100
AcDbLine
 10
55.398
 20
150.936888
 30
0.0
 11
56.7212
 21
150.319888
 31
0.0
  0
LINE
  5
DA0
330
1E
100
AcDbEntity
  8
0
100
AcDbLine
 10
55.398
 20
150.936888
 30
0.0
 11
55.679975653505
 21
151.541335987876
 31
0.0
  0
LINE
  5
DA1
330
1E
100
AcDbEntity
  8
0
100
AcDbLine
 10
57.0795
 20
150.703888
 30
0.0
 11
57.502228670733
 21
151.610664005726
 31
0.0
  0
LINE
  5
DA2
330
1E
100
AcDbEntity
  8
0
100
AcDbLine
 10
57.0795
 20
150.703888
 30
0.0
 11
57.375106997984
 21
151.337981099082
 31
0.0
  0
LINE
  5
DA3
330
1E
100
AcDbEntity
  8
0
100
AcDbLine
 10
55.7565
 20
151.320888
 30
0.0
 11
57.0795
 21
150.703888
 31
0.0
  0
LINE
  5
DA4
330
1E
100
AcDbEntity
  8
0
100
AcDbLine
 10
55.7565
 20
151.320888
 30
0.0
 11
56.179276151944
 21
152.227765855508
 31
0.0
  0
LINE
  5
DA5
330
1E
100
AcDbEntity
  8
0
100
AcDbLine
 10
55.533022716987
 20
150.648857438139
 30
0.0
 11
59.122560359768
 21
149.184130555613
 31
0.0
  0
LINE
  5
DA6
330
1E
100
AcDbEntity
  8
0
100
AcDbLine
 10
57.502228670733
 20
151.610664005726
 30
0.0
 11
59.762360311792
 21
150.556373916573
 31
0.0
  0
LINE
  5
DA7
330
1E
100
AcDbEntity
  8
0
100
AcDbLine
 10
60.4176
 20
150.249888
 30
0.0
 11
65.1145
 21
148.059888
 31
0.0
  0
LINE
  5
DA8
330
1E
100
AcDbEntity
  8
0
100
AcDbLine
 10
61.4313
 20
148.122888
 30
0.0
 11
62.7545
 21
147.505888
 31
0.0
  0
LINE
  5
DA9
330
1E
100
AcDbEntity
  8
0
100
AcDbLine
 10
61.4313
 20
148.122888
 30
0.0
 11
61.721106416471
 21
148.744122149587
 31
0.0
  0
LINE
  5
DAA
330
1E
100
AcDbEntity
  8
0
100
AcDbLine
 10
61.4313
 20
148.122888
 30
0.0
 11
61.697965766011
 21
148.694517442816
 31
0.0
  0
LINE
  5
DAB
330
1E
100
AcDbEntity
  8
0
100
AcDbLine
 10
61.9067
 20
147.348888
 30
0.0
 11
63.0525
 21
146.814888
 31
0.0
  0
LINE
  5
DAC
330
1E
100
AcDbEntity
  8
0
100
AcDbLine
 10
61.56941114297
 20
149.712838796673
 30
0.0
 11
62.034975316403
 21
149.495762525129
 31
0.0
  0
LINE
  5
DAD
330
1E
100
AcDbEntity
  8
0
100
AcDbLine
 10
61.569645990744
 20
149.713342835791
 30
0.0
 11
62.03519401355
 21
149.496231642412
 31
0.0
  0
LINE
  5
DAE
330
1E
100
AcDbEntity
  8
0
100
AcDbLine
 10
61.4098
 20
149.787888
 30
0.0
 11
66.3052
 21
147.504888
 31
0.0
  0
LINE
  5
DAF
330
1E
100
AcDbEntity
  8
0
100
AcDbLine
 10
55.456
 20
152.564888
 30
0.0
 11
60.4176
 21
150.249888
 31
0.0
  0
LINE
  5
DB0
330
1E
100
AcDbEntity
  8
0
100
AcDbLine
 10
56.2498
 20
152.194888
 30
0.0
 11
61.4098
 21
149.787888
 31
0.0
  0
LINE
  5
DB1
330
1E
100
AcDbEntity
  8
0
100
AcDbLine
 10
63.0525
 20
146.814888
 30
0.0
 11
63.372981350213
 21
147.502337938401
 31
0.0
  0
LINE
  5
DB2
330
1E
100
AcDbEntity
  8
0
100
AcDbLine
 10
62.7545
 20
147.505888
 30
0.0
 11
63.107387972878
 21
148.262434387665
 31
0.0
  0
LINE
  5
DB3
330
1E
100
AcDbEntity
  8
0
100
AcDbLine
 10
63.1143
 20
147.888888
 30
0.0
 11
64.4374
 21
147.271888
 31
0.0
  0
LINE
  5
DB4
330
1E
100
AcDbEntity
  8
0
100
AcDbLine
 10
63.1143
 20
147.888888
 30
0.0
 11
63.475904202371
 21
148.664548694391
 31
0.0
  0
LINE
  5
DB5
330
1E
100
AcDbEntity
  8
0
100
AcDbLine
 10
63.1143
 20
147.888888
 30
0.0
 11
63.449406730766
 21
148.607710175674
 31
0.0
  0
LINE
  5
DB6
330
1E
100
AcDbEntity
  8
0
100
AcDbLine
 10
62.3909
 20
147.123888
 30
0.0
 11
63.0525
 21
146.814888
 31
0.0
  0
LINE
  5
DB7
330
1E
100
AcDbEntity
  8
0
100
AcDbLine
 10
62.3909
 20
147.123888
 30
0.0
 11
62.602206340896
 21
147.576901594065
 31
0.0
  0
LINE
  5
DB8
330
1E
100
AcDbEntity
  8
0
100
AcDbLine
 10
64.4374
 20
147.271888
 30
0.0
 11
64.845946771058
 21
148.148243059072
 31
0.0
  0
LINE
  5
DB9
330
1E
100
AcDbEntity
  8
0
100
AcDbLine
 10
63.352374837908
 20
147.458135847996
 30
0.0
 11
66.154485603721
 21
146.314722022888
 31
0.0
  0
LINE
  5
DBA
330
1E
100
AcDbEntity
  8
0
100
AcDbLine
 10
63.352374837908
 20
147.458135847996
 30
0.0
 11
66.154485603721
 21
146.314722022888
 31
0.0
  0
LINE
  5
DBB
330
1E
100
AcDbEntity
  8
0
100
AcDbLine
 10
63.388437766773
 20
148.864968967101
 30
0.0
 11
63.537078558194
 21
148.795771017044
 31
0.0
  0
LINE
  5
DBC
330
1E
100
AcDbEntity
  8
0
100
AcDbLine
 10
64.860062971326
 20
148.178523076922
 30
0.0
 11
65.1145
 21
148.059888
 31
0.0
  0
LINE
  5
DBD
330
1E
100
AcDbEntity
  8
0
100
AcDbLine
 10
64.860183019275
 20
148.178780586305
 30
0.0
 11
66.3052
 21
147.504888
 31
0.0
  0
LINE
  5
DBE
330
1E
100
AcDbEntity
  8
0
100
AcDbLine
 10
65.1145
 20
148.059888
 30
0.0
 11
67.061191101849
 21
147.152332079254
 31
0.0
  0
LINE
  5
DBF
330
1E
100
AcDbEntity
  8
0
100
AcDbLine
 10
62.1633
 20
150.539888
 30
0.0
 11
67.1249
 21
148.225888
 31
0.0
  0
LINE
  5
DC0
330
1E
100
AcDbEntity
  8
0
100
AcDbLine
 10
56.937
 20
152.976888
 30
0.0
 11
62.1633
 21
150.539888
 31
0.0
  0
LINE
  5
DC1
330
1E
100
AcDbEntity
  8
0
100
AcDbLine
 10
66.0035
 20
145.990888
 30
0.0
 11
67.1493
 21
145.456888
 31
0.0
  0
LINE
  5
DC2
330
1E
100
AcDbEntity
  8
0
100
AcDbLine
 10
66.0035
 20
145.990888
 30
0.0
 11
66.268396927568
 21
146.559039105739
 31
0.0
  0
LINE
  5
DC3
330
1E
100
AcDbEntity
  8
0
100
AcDbLine
 10
66.0035
 20
145.990888
 30
0.0
 11
67.015986946205
 21
145.51901853825
 31
0.0
  0
LINE
  5
DC4
330
1E
100
AcDbEntity
  8
0
100
AcDbLine
 10
66.0035
 20
145.990888
 30
0.0
 11
66.154485603721
 21
146.314722022888
 31
0.0
  0
LINE
  5
DC5
330
1E
100
AcDbEntity
  8
0
100
AcDbLine
 10
66.0035
 20
145.990888
 30
0.0
 11
67.015986946205
 21
145.51901853825
 31
0.0
  0
LINE
  5
DC6
330
1E
100
AcDbEntity
  8
0
100
AcDbLine
 10
74.049822605326
 20
142.790501026838
 30
0.0
 11
74.8971
 21
142.394888
 31
0.0
  0
LINE
  5
DC7
330
1E
100
AcDbEntity
  8
0
100
AcDbLine
 10
74.049822605326
 20
142.790501026838
 30
0.0
 11
74.8971
 21
142.394888
 31
0.0
  0
LINE
  5
DC8
330
1E
100
AcDbEntity
  8
0
100
AcDbLine
 10
70.0085
 20
144.122888
 30
0.0
 11
70.25640477865
 21
144.007461436396
 31
0.0
  0
LINE
  5
DC9
330
1E
100
AcDbEntity
  8
0
100
AcDbLine
 10
70.0085
 20
144.122888
 30
0.0
 11
70.25640477865
 21
144.007461436396
 31
0.0
  0
LINE
  5
DCA
330
1E
100
AcDbEntity
  8
0
100
AcDbLine
 10
69.8333
 20
144.204888
 30
0.0
 11
69.983000000006
 21
144.135120326756
 31
0.0
  0
LINE
  5
DCB
330
1E
100
AcDbEntity
  8
0
100
AcDbLine
 10
69.8333
 20
144.204888
 30
0.0
 11
69.983000000006
 21
144.135120326756
 31
0.0
  0
LINE
  5
DCC
330
1E
100
AcDbEntity
  8
0
100
AcDbLine
 10
71.8553
 20
143.261888
 30
0.0
 11
72.174537713733
 21
143.946589259906
 31
0.0
  0
LINE
  5
DCD
330
1E
100
AcDbEntity
  8
0
100
AcDbLine
 10
71.1937
 20
143.570888
 30
0.0
 11
71.8553
 21
143.261888
 31
0.0
  0
LINE
  5
DCE
330
1E
100
AcDbEntity
  8
0
100
AcDbLine
 10
70.7095
 20
143.795888
 30
0.0
 11
71.8553
 21
143.261888
 31
0.0
  0
LINE
  5
DCF
330
1E
100
AcDbEntity
  8
0
100
AcDbLine
 10
70.360199999991
 20
143.959053079369
 30
0.0
 11
70.7095
 21
143.795888
 31
0.0
  0
LINE
  5
DD0
330
1E
100
AcDbEntity
  8
0
100
AcDbLine
 10
70.979108828742
 20
143.670906927687
 30
0.0
 11
71.1937
 21
143.570888
 31
0.0
  0
LINE
  5
DD1
330
1E
100
AcDbEntity
  8
0
100
AcDbLine
 10
70.3176
 20
143.978888
 30
0.0
 11
70.9791
 21
143.670888
 31
0.0
  0
LINE
  5
DD2
330
1E
100
AcDbEntity
  8
0
100
AcDbLine
 10
73.0897
 20
143.237888
 30
0.0
 11
74.2357
 21
142.703888
 31
0.0
  0
LINE
  5
DD3
330
1E
100
AcDbEntity
  8
0
100
AcDbLine
 10
73.0897
 20
143.237888
 30
0.0
 11
73.427315253302
 21
143.962005418948
 31
0.0
  0
LINE
  5
DD4
330
1E
100
AcDbEntity
  8
0
100
AcDbLine
 10
73.0897
 20
143.237888
 30
0.0
 11
73.232073593837
 21
143.543250978382
 31
0.0
  0
LINE
  5
DD5
330
1E
100
AcDbEntity
  8
0
100
AcDbLine
 10
74.2357
 20
142.703888
 30
0.0
 11
74.8971
 21
142.394888
 31
0.0
  0
LINE
  5
DD6
330
1E
100
AcDbEntity
  8
0
100
AcDbLine
 10
71.268825763746
 20
144.292022741963
 30
0.0
 11
73.232073593837
 21
143.543250978382
 31
0.0
  0
LINE
  5
DD7
330
1E
100
AcDbEntity
  8
0
100
AcDbLine
 10
74.614183506517
 20
142.526988125688
 30
0.0
 11
77.9181
 21
137.667888
 31
0.0
  0
LINE
  5
DD8
330
1E
100
AcDbEntity
  8
0
100
AcDbLine
 10
74.8971
 20
142.394888
 30
0.0
 11
75.287251594427
 21
143.231685398198
 31
0.0
  0
LINE
  5
DD9
330
1E
100
AcDbEntity
  8
0
100
AcDbLine
 10
74.5744
 20
143.648888
 30
0.0
 11
77.8822
 21
142.106888
 31
0.0
  0
LINE
  5
DDA
330
1E
100
AcDbEntity
  8
0
100
AcDbLine
 10
67.8109
 20
145.147888
 30
0.0
 11
68.145854219225
 21
145.866383030118
 31
0.0
  0
LINE
  5
DDB
330
1E
100
AcDbEntity
  8
0
100
AcDbLine
 10
70.5442
 20
144.424888
 30
0.0
 11
70.966874081655
 21
145.330939621861
 31
0.0
  0
LINE
  5
DDC
330
1E
100
AcDbEntity
  8
0
100
AcDbLine
 10
69.5242
 20
144.348888
 30
0.0
 11
69.657513053828
 21
144.286757461735
 31
0.0
  0
LINE
  5
DDD
330
1E
100
AcDbEntity
  8
0
100
AcDbLine
 10
69.2211
 20
145.041888
 30
0.0
 11
70.5442
 21
144.424888
 31
0.0
  0
LINE
  5
DDE
330
1E
100
AcDbEntity
  8
0
100
AcDbLine
 10
69.2211
 20
145.041888
 30
0.0
 11
69.643735576974
 21
145.947964272453
 31
0.0
  0
LINE
  5
DDF
330
1E
100
AcDbEntity
  8
0
100
AcDbLine
 10
69.2211
 20
145.041888
 30
0.0
 11
69.531542978708
 21
145.707437783978
 31
0.0
  0
LINE
  5
DE0
330
1E
100
AcDbEntity
  8
0
100
AcDbLine
 10
68.8626
 20
144.657888
 30
0.0
 11
70.0085
 21
144.122888
 31
0.0
  0
LINE
  5
DE1
330
1E
100
AcDbEntity
  8
0
100
AcDbLine
 10
68.8626
 20
144.657888
 30
0.0
 11
69.081031423329
 21
145.126435291169
 31
0.0
  0
LINE
  5
DE2
330
1E
100
AcDbEntity
  8
0
100
AcDbLine
 10
68.8626
 20
144.657888
 30
0.0
 11
69.5242
 21
144.348888
 31
0.0
  0
LINE
  5
DE3
330
1E
100
AcDbEntity
  8
0
100
AcDbLine
 10
69.1718
 20
144.513888
 30
0.0
 11
70.3176
 21
143.978888
 31
0.0
  0
LINE
  5
DE4
330
1E
100
AcDbEntity
  8
0
100
AcDbLine
 10
69.1718
 20
144.513888
 30
0.0
 11
69.8333
 21
144.204888
 31
0.0
  0
LINE
  5
DE5
330
1E
100
AcDbEntity
  8
0
100
AcDbLine
 10
68.8596
 20
145.210888
 30
0.0
 11
69.23342579922
 21
145.068312926866
 31
0.0
  0
LINE
  5
DE6
330
1E
100
AcDbEntity
  8
0
100
AcDbLine
 10
67.015986946205
 20
145.51901853825
 30
0.0
 11
67.8109
 21
145.147888
 31
0.0
  0
LINE
  5
DE7
330
1E
100
AcDbEntity
  8
0
100
AcDbLine
 10
67.015986946205
 20
145.51901853825
 30
0.0
 11
67.8109
 21
145.147888
 31
0.0
  0
LINE
  5
DE8
330
1E
100
AcDbEntity
  8
0
100
AcDbLine
 10
67.1493
 20
145.456888
 30
0.0
 11
67.8109
 21
145.147888
 31
0.0
  0
LINE
  5
DE9
330
1E
100
AcDbEntity
  8
0
100
AcDbLine
 10
68.003185853599
 20
145.560351621125
 30
0.0
 11
68.8596
 21
145.210888
 31
0.0
  0
LINE
  5
DEA
330
1E
100
AcDbEntity
  8
0
100
AcDbLine
 10
70.7375
 20
145.437888
 30
0.0
 11
74.5744
 21
143.648888
 31
0.0
  0
LINE
  5
DEB
330
1E
100
AcDbEntity
  8
0
100
AcDbLine
 10
71.6233
 20
146.127888
 30
0.0
 11
75.5263
 21
144.308888
 31
0.0
  0
LINE
  5
DEC
330
1E
100
AcDbEntity
  8
0
100
AcDbLine
 10
75.5263
 20
144.308888
 30
0.0
 11
78.834
 21
142.765888
 31
0.0
  0
LINE
  5
DED
330
1E
100
AcDbEntity
  8
0
100
AcDbLine
 10
66.3052
 20
147.504888
 30
0.0
 11
70.7375
 21
145.437888
 31
0.0
  0
LINE
  5
DEE
330
1E
100
AcDbEntity
  8
0
100
AcDbLine
 10
66.3052
 20
147.504888
 30
0.0
 11
66.637204539288
 21
147.350057915685
 31
0.0
  0
LINE
  5
DEF
330
1E
100
AcDbEntity
  8
0
100
AcDbLine
 10
67.1249
 20
148.225888
 30
0.0
 11
71.6233
 21
146.127888
 31
0.0
  0
LINE
  5
DF0
330
1E
100
AcDbEntity
  8
0
100
AcDbLine
 10
82.1294
 20
135.676888
 30
0.0
 11
82.3708
 21
136.667888
 31
0.0
  0
LINE
  5
DF1
330
1E
100
AcDbEntity
  8
0
100
AcDbLine
 10
81.5678
 20
134.945888
 30
0.0
 11
82.1294
 21
135.676888
 31
0.0
  0
LINE
  5
DF2
330
1E
100
AcDbEntity
  8
0
100
AcDbLine
 10
80.9033
 20
134.703888
 30
0.0
 11
81.5678
 21
134.945888
 31
0.0
  0
LINE
  5
DF3
330
1E
100
AcDbEntity
  8
0
100
AcDbLine
 10
79.9547
 20
135.035888
 30
0.0
 11
80.9033
 21
134.703888
 31
0.0
  0
LINE
  5
DF4
330
1E
100
AcDbEntity
  8
0
100
AcDbLine
 10
79.2659
 20
135.687888
 30
0.0
 11
79.9547
 21
135.035888
 31
0.0
  0
LINE
  5
DF5
330
1E
100
AcDbEntity
  8
0
100
AcDbLine
 10
77.9181
 20
137.667888
 30
0.0
 11
79.2659
 21
135.687888
 31
0.0
  0
LINE
  5
DF6
330
1E
100
AcDbEntity
  8
0
100
AcDbLine
 10
82.106423190457
 20
140.137004486516
 30
0.0
 11
82.3708
 21
136.667888
 31
0.0
  0
LINE
  5
DF7
330
1E
100
AcDbEntity
  8
0
100
AcDbLine
 10
80.0338
 20
139.999888
 30
0.0
 11
80.422626312405
 21
140.833941601977
 31
0.0
  0
LINE
  5
DF8
330
1E
100
AcDbEntity
  8
0
100
AcDbLine
 10
82.2483
 20
140.070888
 30
0.0
 11
83.3729
 21
139.546888
 31
0.0
  0
LINE
  5
DF9
330
1E
100
AcDbEntity
  8
0
100
AcDbLine
 10
83.3729
 20
139.546888
 30
0.0
 11
83.836
 21
139.330888
 31
0.0
  0
LINE
  5
DFA
330
1E
100
AcDbEntity
  8
0
100
AcDbLine
 10
83.836
 20
139.330888
 30
0.0
 11
84.9202
 21
139.927888
 31
0.0
  0
LINE
  5
DFB
330
1E
100
AcDbEntity
  8
0
100
AcDbLine
 10
78.26635642782
 20
140.824223546188
 30
0.0
 11
78.8879
 21
140.533888
 31
0.0
  0
LINE
  5
DFC
330
1E
100
AcDbEntity
  8
0
100
AcDbLine
 10
78.8879
 20
140.533888
 30
0.0
 11
80.0338
 21
139.999888
 31
0.0
  0
LINE
  5
DFD
330
1E
100
AcDbEntity
  8
0
100
AcDbLine
 10
79.3723
 20
140.308888
 30
0.0
 11
80.0338
 21
139.999888
 31
0.0
  0
LINE
  5
DFE
330
1E
100
AcDbEntity
  8
0
100
AcDbLine
 10
77.454999999981
 20
141.20265567325
 30
0.0
 11
78.2662
 21
140.823888
 31
0.0
  0
LINE
  5
DFF
330
1E
100
AcDbEntity
  8
0
100
AcDbLine
 10
77.454999999981
 20
141.20265567325
 30
0.0
 11
78.2662
 21
140.823888
 31
0.0
  0
LINE
  5
E00
330
1E
100
AcDbEntity
  8
0
100
AcDbLine
 10
77.6047
 20
141.132888
 30
0.0
 11
78.2662
 21
140.823888
 31
0.0
  0
LINE
  5
E01
330
1E
100
AcDbEntity
  8
0
100
AcDbLine
 10
80.3299
 20
140.964888
 30
0.0
 11
82.2483
 21
140.070888
 31
0.0
  0
LINE
  5
E02
330
1E
100
AcDbEntity
  8
0
100
AcDbLine
 10
76.4589
 20
141.666888
 30
0.0
 11
77.6047
 21
141.132888
 31
0.0
  0
LINE
  5
E03
330
1E
100
AcDbEntity
  8
0
100
AcDbLine
 10
76.4589
 20
141.666888
 30
0.0
 11
76.820667112133
 21
142.442898144696
 31
0.0
  0
LINE
  5
E04
330
1E
100
AcDbEntity
  8
0
100
AcDbLine
 10
78.5437
 20
141.797888
 30
0.0
 11
80.3299
 21
140.964888
 31
0.0
  0
LINE
  5
E05
330
1E
100
AcDbEntity
  8
0
100
AcDbLine
 10
76.70663382344
 20
142.654902705924
 30
0.0
 11
78.5437
 21
141.797888
 31
0.0
  0
LINE
  5
E06
330
1E
100
AcDbEntity
  8
0
100
AcDbLine
 10
76.706633823441
 20
142.654902705924
 30
0.0
 11
78.5437
 21
141.797888
 31
0.0
  0
LINE
  5
E07
330
1E
100
AcDbEntity
  8
0
100
AcDbLine
 10
80.87879294193
 20
141.81244384917
 30
0.0
 11
81.414
 21
141.562888
 31
0.0
  0
LINE
  5
E08
330
1E
100
AcDbEntity
  8
0
100
AcDbLine
 10
78.834
 20
142.765888
 30
0.0
 11
81.414
 21
141.562888
 31
0.0
  0
LINE
  5
E09
330
1E
100
AcDbEntity
  8
0
100
AcDbLine
 10
81.414
 20
141.562888
 30
0.0
 11
83.2663
 21
140.699888
 31
0.0
  0
LINE
  5
E0A
330
1E
100
AcDbEntity
  8
0
100
AcDbLine
 10
83.2663
 20
140.699888
 30
0.0
 11
84.4571
 21
140.143888
 31
0.0
  0
LINE
  5
E0B
330
1E
100
AcDbEntity
  8
0
100
AcDbLine
 10
84.4571
 20
140.143888
 30
0.0
 11
84.9202
 21
139.927888
 31
0.0
  0
LINE
  5
E0C
330
1E
100
AcDbEntity
  8
0
100
AcDbLine
 10
85.126959564881
 20
140.371296991366
 30
0.0
 11
98.5305
 21
124.232888
 31
0.0
  0
LINE
  5
E0D
330
1E
100
AcDbEntity
  8
0
100
AcDbLine
 10
93.157460048768
 20
157.675792245797
 30
0.0
 11
106.378808615507
 21
141.79611786486
 31
0.0
  0
LINE
  5
E0E
330
1E
100
AcDbEntity
  8
0
100
AcDbLine
 10
93.182142418702
 20
157.646147161144
 30
0.0
 11
93.7952
 21
158.960888
 31
0.0
  0
LINE
  5
E0F
330
1E
100
AcDbEntity
  8
0
100
AcDbLine
 10
84.9202
 20
139.927888
 30
0.0
 11
85.130244603247
 21
140.37834196435
 31
0.0
  0
LINE
  5
E10
330
1E
100
AcDbEntity
  8
0
100
AcDbLine
 10
96.9924
 20
120.790888
 30
0.0
 11
97.1896
 21
121.231888
 31
0.0
  0
LINE
  5
E11
330
1E
100
AcDbEntity
  8
0
100
AcDbLine
 10
96.9924
 20
120.790888
 30
0.0
 11
153.776
 21
53.128788
 31
0.0
  0
LINE
  5
E12
330
1E
100
AcDbEntity
  8
0
100
AcDbLine
 10
97.1896
 20
121.231888
 30
0.0
 11
97.7417
 21
122.467888
 31
0.0
  0
LINE
  5
E13
330
1E
100
AcDbEntity
  8
0
100
AcDbLine
 10
97.7417
 20
122.467888
 30
0.0
 11
98.980808904114
 21
125.240303525124
 31
0.0
  0
LINE
  5
E14
330
1E
100
AcDbEntity
  8
0
100
AcDbLine
 10
106.378808615507
 20
141.79611786486
 30
0.0
 11
107.168
 21
143.560888
 31
0.0
  0
LINE
  5
E15
330
1E
100
AcDbEntity
  8
0
100
AcDbLine
 10
106.378808615507
 20
141.79611786486
 30
0.0
 11
107.168
 21
143.560888
 31
0.0
  0
LINE
  5
E16
330
1E
100
AcDbEntity
  8
0
100
AcDbLine
 10
107.168
 20
143.560888
 30
0.0
 11
107.68
 21
144.708888
 31
0.0
  0
LINE
  5
E17
330
1E
100
AcDbEntity
  8
0
100
AcDbLine
 10
107.68
 20
144.708888
 30
0.0
 11
107.877
 21
145.149888
 31
0.0
  0
LINE
  5
E18
330
1E
100
AcDbEntity
  8
0
100
AcDbLine
 10
93.5562
 20
160.174888
 30
0.0
 11
93.7952
 21
158.960888
 31
0.0
  0
LINE
  5
E19
330
1E
100
AcDbEntity
  8
0
100
AcDbLine
 10
80.4578
 20
166.282888
 30
0.0
 11
84.2946
 21
164.494888
 31
0.0
  0
LINE
  5
E1A
330
1E
100
AcDbEntity
  8
0
100
AcDbLine
 10
84.2946
 20
164.494888
 30
0.0
 11
87.6024
 21
162.951888
 31
0.0
  0
LINE
  5
E1B
330
1E
100
AcDbEntity
  8
0
100
AcDbLine
 10
87.6024
 20
162.951888
 30
0.0
 11
90.0501
 21
161.809888
 31
0.0
  0
LINE
  5
E1C
330
1E
100
AcDbEntity
  8
0
100
AcDbLine
 10
90.0501
 20
161.809888
 30
0.0
 11
91.9686
 21
160.915888
 31
0.0
  0
LINE
  5
E1D
330
1E
100
AcDbEntity
  8
0
100
AcDbLine
 10
91.9686
 20
160.915888
 30
0.0
 11
93.0931
 21
160.391888
 31
0.0
  0
LINE
  5
E1E
330
1E
100
AcDbEntity
  8
0
100
AcDbLine
 10
93.0931
 20
160.391888
 30
0.0
 11
93.5562
 21
160.174888
 31
0.0
  0
LINE
  5
E1F
330
1E
100
AcDbEntity
  8
0
100
AcDbLine
 10
76.0254
 20
168.350888
 30
0.0
 11
80.4578
 21
166.282888
 31
0.0
  0
LINE
  5
E20
330
1E
100
AcDbEntity
  8
0
100
AcDbLine
 10
71.1301
 20
170.632888
 30
0.0
 11
76.0254
 21
168.350888
 31
0.0
  0
LINE
  5
E21
330
1E
100
AcDbEntity
  8
0
100
AcDbLine
 10
65.9701
 20
173.038888
 30
0.0
 11
71.1301
 21
170.632888
 31
0.0
  0
LINE
  5
E22
330
1E
100
AcDbEntity
  8
0
100
AcDbLine
 10
60.1485
 20
175.753888
 30
0.0
 11
65.9701
 21
173.038888
 31
0.0
  0
LINE
  5
E23
330
1E
100
AcDbEntity
  8
0
100
AcDbLine
 10
54.6578
 20
178.313888
 30
0.0
 11
60.1485
 21
175.753888
 31
0.0
  0
LINE
  5
E24
330
1E
100
AcDbEntity
  8
0
100
AcDbLine
 10
49.7478
 20
182.809888
 30
0.0
 11
93.5562
 21
160.174888
 31
0.0
  0
LINE
  5
E25
330
1E
100
AcDbEntity
  8
0
100
AcDbLine
 10
48.9025
 20
180.997888
 30
0.0
 11
54.6578
 21
178.313888
 31
0.0
  0
LINE
  5
E26
330
1E
100
AcDbEntity
  8
0
100
AcDbLine
 10
17.347
 20
195.712888
 30
0.0
 11
21.7789
 21
193.645888
 31
0.0
  0
LINE
  5
E27
330
1E
100
AcDbEntity
  8
0
100
AcDbLine
 10
21.7789
 20
193.645888
 30
0.0
 11
26.6745
 21
191.362888
 31
0.0
  0
LINE
  5
E28
330
1E
100
AcDbEntity
  8
0
100
AcDbLine
 10
26.6745
 20
191.362888
 30
0.0
 11
31.8349
 21
188.956888
 31
0.0
  0
LINE
  5
E29
330
1E
100
AcDbEntity
  8
0
100
AcDbLine
 10
31.8349
 20
188.956888
 30
0.0
 11
37.6566
 21
186.242888
 31
0.0
  0
LINE
  5
E2A
330
1E
100
AcDbEntity
  8
0
100
AcDbLine
 10
37.6566
 20
186.242888
 30
0.0
 11
43.1467
 21
183.680888
 31
0.0
  0
LINE
  5
E2B
330
1E
100
AcDbEntity
  8
0
100
AcDbLine
 10
43.1467
 20
183.680888
 30
0.0
 11
48.9025
 21
180.997888
 31
0.0
  0
LINE
  5
E2C
330
1E
100
AcDbEntity
  8
0
100
AcDbLine
 10
13.5104
 20
197.501888
 30
0.0
 11
17.347
 21
195.712888
 31
0.0
  0
LINE
  5
E2D
330
1E
100
AcDbEntity
  8
0
100
AcDbLine
 10
10.2024
 20
199.044888
 30
0.0
 11
13.5104
 21
197.501888
 31
0.0
  0
LINE
  5
E2E
330
1E
100
AcDbEntity
  8
0
100
AcDbLine
 10
7.75461
 20
200.185888
 30
0.0
 11
10.2024
 21
199.044888
 31
0.0
  0
LINE
  5
E2F
330
1E
100
AcDbEntity
  8
0
100
AcDbLine
 10
5.83638
 20
201.079888
 30
0.0
 11
7.75461
 21
200.185888
 31
0.0
  0
LINE
  5
E30
330
1E
100
AcDbEntity
  8
0
100
AcDbLine
 10
4.71134
 20
201.604888
 30
0.0
 11
5.83638
 21
201.079888
 31
0.0
  0
LINE
  5
E31
330
1E
100
AcDbEntity
  8
0
100
AcDbLine
 10
4.2488
 20
201.819888
 30
0.0
 11
4.71134
 21
201.604888
 31
0.0
  0
LINE
  5
E32
330
1E
100
AcDbEntity
  8
0
100
AcDbLine
 10
4.2488
 20
201.819888
 30
0.0
 11
49.7478
 21
182.809888
 31
0.0
  0
LINE
  5
E33
330
1E
100
AcDbEntity
  8
0
100
AcDbLine
 10
4.2488
 20
201.819888
 30
0.0
 11
49.7478
 21
182.809888
 31
0.0
  0
LINE
  5
E34
330
1E
100
AcDbEntity
  8
0
100
AcDbLine
 10
107.877
 20
145.149888
 30
0.0
 11
172.107
 21
68.610388
 31
0.0
  0
LINE
  5
E35
330
1E
100
AcDbEntity
  8
0
100
AcDbLine
 10
174.0
 20
-0.1105
 30
0.0
 11
174.281
 21
6.834668
 31
0.0
  0
LINE
  5
E36
330
1E
100
AcDbEntity
  8
0
100
AcDbLine
 10
174.0
 20
-0.1105
 30
0.0
 11
174.281
 21
6.834668
 31
0.0
  0
LINE
  5
E37
330
1E
100
AcDbEntity
  8
0
100
AcDbLine
 10
174.281
 20
6.834668
 30
0.0
 11
174.412
 21
7.543748
 31
0.0
  0
LINE
  5
E38
330
1E
100
AcDbEntity
  8
0
100
AcDbLine
 10
175.087
 20
8.403218
 30
0.0
 11
176.165
 21
8.727258
 31
0.0
  0
LINE
  5
E39
330
1E
100
AcDbEntity
  8
0
100
AcDbLine
 10
176.293
 20
8.727258
 30
0.0
 11
180.45
 21
8.951888
 31
0.0
  0
LINE
  5
E3A
330
1E
100
AcDbEntity
  8
0
100
AcDbLine
 10
176.165
 20
8.727258
 30
0.0
 11
176.294
 21
8.727258
 31
0.0
  0
LINE
  5
E3B
330
1E
100
AcDbEntity
  8
0
100
AcDbLine
 10
176.165
 20
8.727258
 30
0.0
 11
176.293
 21
8.727258
 31
0.0
  0
LINE
  5
E3C
330
1E
100
AcDbEntity
  8
0
100
AcDbLine
 10
174.412
 20
7.543748
 30
0.0
 11
175.087
 21
8.403218
 31
0.0
  0
LINE
  5
E3D
330
1E
100
AcDbEntity
  8
0
100
AcDbLine
 10
180.45
 20
8.951888
 30
0.0
 11
180.592
 21
8.951888
 31
0.0
  0
LINE
  5
E3E
330
1E
100
AcDbEntity
  8
0
100
AcDbLine
 10
180.604
 20
8.951888
 30
0.0
 11
180.753
 21
8.951888
 31
0.0
  0
LINE
  5
E3F
330
1E
100
AcDbEntity
  8
0
100
AcDbLine
 10
180.753
 20
8.951888
 30
0.0
 11
181.313
 21
8.951888
 31
0.0
  0
LINE
  5
E40
330
1E
100
AcDbEntity
  8
0
100
AcDbLine
 10
181.88703157751
 20
8.951888
 30
0.0
 11
182.631656785869
 21
9.130384777647
 31
0.0
  0
LINE
  5
E41
330
1E
100
AcDbEntity
  8
0
100
AcDbLine
 10
181.016
 20
8.951888
 30
0.0
 11
181.721
 21
8.951888
 31
0.0
  0
LINE
  5
E42
330
1E
100
AcDbEntity
  8
0
100
AcDbLine
 10
182.631656785869
 20
9.130384777647
 30
0.0
 11
183.282
 21
9.824188
 31
0.0
  0
LINE
  5
E43
330
1E
100
AcDbEntity
  8
0
100
AcDbLine
 10
180.592
 20
8.951888
 30
0.0
 11
181.016
 21
8.951888
 31
0.0
  0
LINE
  5
E44
330
1E
100
AcDbEntity
  8
0
100
AcDbLine
 10
183.282
 20
9.824188
 30
0.0
 11
183.751624425727
 21
10.721385990046
 31
0.0
  0
LINE
  5
E45
330
1E
100
AcDbEntity
  8
0
100
AcDbLine
 10
231.673
 20
9.332248
 30
0.0
 11
233.887779621111
 21
8.951888
 31
0.0
  0
LINE
  5
E46
330
1E
100
AcDbEntity
  8
0
100
AcDbLine
 10
183.751624425727
 20
10.721385990046
 30
0.0
 11
183.89
 21
12.002988
 31
0.0
  0
LINE
  5
E47
330
1E
100
AcDbEntity
  8
0
100
AcDbLine
 10
183.495
 20
13.265388
 30
0.0
 11
183.89
 21
12.002988
 31
0.0
  0
LINE
  5
E48
330
1E
100
AcDbEntity
  8
0
100
AcDbLine
 10
229.34067058259
 20
10.231176717557
 30
0.0
 11
231.673
 21
9.332248
 31
0.0
  0
LINE
  5
E49
330
1E
100
AcDbEntity
  8
0
100
AcDbLine
 10
226.684
 20
11.937088
 30
0.0
 11
227.306
 21
11.469788
 31
0.0
  0
LINE
  5
E4A
330
1E
100
AcDbEntity
  8
0
100
AcDbLine
 10
227.306
 20
11.469788
 30
0.0
 11
229.34067058259
 21
10.231176717557
 31
0.0
  0
LINE
  5
E4B
330
1E
100
AcDbEntity
  8
0
100
AcDbLine
 10
183.751624425727
 20
10.721385990046
 30
0.0
 11
183.89
 21
12.002988
 31
0.0
  0
LINE
  5
E4C
330
1E
100
AcDbEntity
  8
0
100
AcDbLine
 10
183.004
 20
13.951388
 30
0.0
 11
183.495
 21
13.265388
 31
0.0
  0
LINE
  5
E4D
330
1E
100
AcDbEntity
  8
0
100
AcDbLine
 10
224.746
 20
13.951888
 30
0.0
 11
225.165227285216
 21
13.408907420048
 31
0.0
  0
LINE
  5
E4E
330
1E
100
AcDbEntity
  8
0
100
AcDbLine
 10
190.302
 20
55.006188
 30
0.0
 11
224.746
 21
13.951888
 31
0.0
  0
LINE
  5
E4F
330
1E
100
AcDbEntity
  8
0
100
AcDbLine
 10
176.875
 20
70.605588
 30
0.0
 11
177.74
 21
69.922288
 31
0.0
  0
LINE
  5
E50
330
1E
100
AcDbEntity
  8
0
100
AcDbLine
 10
175.609
 20
70.586888
 30
0.0
 11
176.875
 21
70.605588
 31
0.0
  0
LINE
  5
E51
330
1E
100
AcDbEntity
  8
0
100
AcDbLine
 10
175.33
 20
70.330088
 30
0.0
 11
175.609
 21
70.586888
 31
0.0
  0
LINE
  5
E52
330
1E
100
AcDbEntity
  8
0
100
AcDbLine
 10
177.740881746159
 20
69.921591471503
 30
0.0
 11
189.793
 21
55.623588
 31
0.0
  0
LINE
  5
E53
330
1E
100
AcDbEntity
  8
0
100
AcDbLine
 10
241.468
 20
8.814258
 30
0.0
 11
242.896
 21
8.144788
 31
0.0
  0
LINE
  5
E54
330
1E
100
AcDbEntity
  8
0
100
AcDbLine
 10
243.518
 20
6.834668
 30
0.0
 11
243.86
 21
-0.050766
 31
0.0
  0
LINE
  5
E55
330
1E
100
AcDbEntity
  8
0
100
AcDbLine
 10
243.518
 20
6.834668
 30
0.0
 11
243.86
 21
-0.050766
 31
0.0
  0
LINE
  5
E56
330
1E
100
AcDbEntity
  8
0
100
AcDbLine
 10
242.896
 20
8.144788
 30
0.0
 11
243.308
 21
7.545768
 31
0.0
  0
LINE
  5
E57
330
1E
100
AcDbEntity
  8
0
100
AcDbLine
 10
243.308
 20
7.545768
 30
0.0
 11
243.518
 21
6.834668
 31
0.0
  0
LINE
  5
E58
330
1E
100
AcDbEntity
  8
0
100
AcDbLine
 10
225.165227285216
 20
13.408907420048
 30
0.0
 11
226.684
 21
11.937088
 31
0.0
  0
LINE
  5
E59
330
1E
100
AcDbEntity
  8
0
100
AcDbLine
 10
233.887779621111
 20
8.951888
 30
0.0
 11
241.468
 21
8.814258
 31
0.0
  0
LINE
  5
E5A
330
1E
100
AcDbEntity
  8
0
100
AcDbLine
 10
233.887779621111
 20
8.951888
 30
0.0
 11
181.721
 21
8.951888
 31
0.0
  0
LINE
  5
E5B
330
1E
100
AcDbEntity
  8
0
100
AcDbLine
 10
154.251
 20
52.654388
 30
0.0
 11
169.543588653744
 21
65.40265144926
 31
0.0
  0
LINE
  5
E5C
330
1E
100
AcDbEntity
  8
0
100
AcDbLine
 10
169.85
 20
65.655588
 30
0.0
 11
172.055313101317
 21
67.557981027107
 31
0.0
  0
LINE
  5
E5D
330
1E
100
AcDbEntity
  8
0
100
AcDbLine
 10
172.055313101317
 20
67.557981027107
 30
0.0
 11
175.33
 21
70.330088
 31
0.0
  0
LINE
  5
E5E
330
1E
100
AcDbEntity
  8
0
100
AcDbLine
 10
165.285
 20
35.058288
 30
0.0
 11
189.793
 21
55.623588
 31
0.0
  0
LINE
  5
E5F
330
1E
100
AcDbEntity
  8
0
100
AcDbLine
 10
189.793
 20
55.623588
 30
0.0
 11
190.302
 21
55.006188
 31
0.0
  0
LINE
  5
E60
330
1E
100
AcDbEntity
  8
0
100
AcDbLine
 10
190.302
 20
55.006188
 30
0.0
 11
165.789
 21
34.437588
 31
0.0
  0
LINE
  5
E61
330
1E
100
AcDbEntity
  8
0
100
AcDbLine
 10
165.789
 20
34.437588
 30
0.0
 11
165.285
 21
35.058288
 31
0.0
  0
LINE
  5
E62
330
1E
100
AcDbEntity
  8
0
100
AcDbLine
 10
106.378808615507
 20
141.79611786486
 30
0.0
 11
98.980808904114
 21
125.240303525124
 31
0.0
  0
LINE
  5
E63
330
1E
100
AcDbEntity
  8
0
100
AcDbLine
 10
93.182142418702
 20
157.646147161144
 30
0.0
 11
85.130244603247
 21
140.37834196435
 31
0.0
  0
LINE
  5
E64
330
1E
100
AcDbEntity
  8
0
100
AcDbLine
 10
17.727365366133
 20
159.561054439239
 30
0.0
 11
22.024438362652
 21
162.048661177768
 31
0.0
  0
LINE
  5
E65
330
1E
100
AcDbEntity
  8
0
100
AcDbLine
 10
22.024438362652
 20
162.048661177768
 30
0.0
 11
25.932879281509
 21
163.798709350391
 31
0.0
  0
LINE
  5
E66
330
1E
100
AcDbEntity
  8
0
100
AcDbLine
 10
17.257899889491
 20
158.588634498324
 30
0.0
 11
20.293210898526
 21
160.431183996477
 31
0.0
  0
LINE
  5
E67
330
1E
100
AcDbEntity
  8
0
100
AcDbLine
 10
20.293210898526
 20
160.431183996477
 30
0.0
 11
24.4178407358
 21
162.44965000589
 31
0.0
  0
LINE
  5
E68
330
1E
100
AcDbEntity
  8
0
100
AcDbLine
 10
24.4178407358
 20
162.44965000589
 30
0.0
 11
26.271486155435
 21
163.265253990529
 31
0.0
  0
LINE
  5
E69
330
1E
100
AcDbEntity
  8
0
100
AcDbLine
 10
37.89097549189
 20
140.435707821219
 30
0.0
 11
44.681256523409
 21
142.234528388564
 31
0.0
  0
LINE
  5
E6A
330
1E
100
AcDbEntity
  8
0
100
AcDbLine
 10
44.681256523409
 20
142.234528388564
 30
0.0
 11
74.654806815044
 21
142.341195827324
 31
0.0
  0
LINE
  5
E6B
330
1E
100
AcDbEntity
  8
0
100
AcDbLine
 10
38.537892973436
 20
140.133066789584
 30
0.0
 11
44.841858525317
 21
141.636392262813
 31
0.0
  0
LINE
  5
E6C
330
1E
100
AcDbEntity
  8
0
100
AcDbLine
 10
44.841858525317
 20
141.636392262813
 30
0.0
 11
75.142128774549
 21
141.738301498867
 31
0.0
  0
ENDSEC
  0
SECTION
  2
OBJECTS
  0
DICTIONARY
  5
C
330
0
100
AcDbDictionary
281
     1
  3
ACAD_GROUP
350
D
  3
ACAD_LAYOUT
350
19
  3
ACAD_MLEADERSTYLE
350
E6F
  3
ACAD_MLINESTYLE
350
16
  3
ACAD_PLOTSETTINGS
350
18
  3
ACAD_PLOTSTYLENAME
350
E
  3
ACAD_SCALELIST
350
3A9
  3
AcDbVariableDictionary
350
3A6
  3
DWGPROPS
350
E75
  0
DICTIONARY
  5
D
102
{ACAD_REACTORS
330
C
102
}
330
C
100
AcDbDictionary
281
     1
  0
DICTIONARY
  5
19
102
{ACAD_REACTORS
330
C
102
}
330
C
100
AcDbDictionary
281
     1
  3
Layout1
350
1D
  3
Model
350
21
  0
DICTIONARY
  5
E6F
102
{ACAD_REACTORS
330
C
102
}
330
C
100
AcDbDictionary
281
     1
  0
DICTIONARY
  5
16
102
{ACAD_REACTORS
330
C
102
}
330
C
100
AcDbDictionary
281
     1
  3
Standard
350
17
  0
DICTIONARY
  5
18
102
{ACAD_REACTORS
330
C
102
}
330
C
100
AcDbDictionary
281
     1
  0
ACDBDICTIONARYWDFLT
  5
E
102
{ACAD_REACTORS
330
C
102
}
330
C
100
AcDbDictionary
281
     1
  3
Normal
350
F
100
AcDbDictionaryWithDefault
340
F
  0
DICTIONARY
  5
3A9
102
{ACAD_REACTORS
330
C
102
}
330
C
100
AcDbDictionary
281
     1
  3
A0
350
3AA
  3
A1
350
3AB
  3
A2
350
3AC
  3
A3
350
3AD
  3
A4
350
3AE
  3
A5
350
3AF
  3
A6
350
3B0
  3
A7
350
3B1
  3
A8
350
3B2
  3
A9
350
3B3
  3
B0
350
3B4
  3
B1
350
3B5
  3
B2
350
3B6
  3
B3
350
3B7
  3
B4
350
3B8
  3
B5
350
3B9
  3
B6
350
3BA
  3
B7
350
3BB
  3
B8
350
3BC
  3
B9
350
3BD
  3
C0
350
3BE
  3
C1
350
3BF
  3
C2
350
3C0
  3
C3
350
3C1
  3
C4
350
3C2
  3
C5
350
3C3
  3
C6
350
3C4
  3
C7
350
3C5
  3
C8
350
3C6
  3
C9
350
3C7
  3
D0
350
3C8
  3
D1
350
3C9
  3
D2
350
3CA
  0
DICTIONARY
  5
3A6
102
{ACAD_REACTORS
330
C
102
}
330
C
100
AcDbDictionary
281
     1
  3
CANNOSCALE
350
E70
  3
DIMASSOC
350
3A7
  0
XRECORD
  5
E75
102
{ACAD_REACTORS
330
C
102
}
330
C
100
AcDbXrecord
280
     1
  1
DWGPROPS COOKIE
  2

  3

  4

  6

  7

  8
MARTIN
  9

300
=
301
=
302
=
303
=
304
=
305
=
306
=
307
=
308
=
309
=
 40
0.0
 41
2454635.740851771
 42
2456210.337978507
  1

 90
        0
  0
LAYOUT
  5
1D
102
{ACAD_REACTORS
330
19
102
}
330
19
100
AcDbPlotSettings
  1

  2
hp deskjet 980c series
  4

  6

 40
0.0
 41
0.0
 42
0.0
 43
0.0
 44
0.0
 45
0.0
 46
0.0
 47
0.0
 48
0.0
 49
0.0
140
0.0
141
0.0
142
1.0
143
1.0
 70
   688
 72
     0
 73
     0
 74
     5
  7

 75
    16
147
1.0
148
0.0
149
0.0
100
AcDbLayout
  1
Layout1
 70
     1
 71
     1
 10
0.0
 20
0.0
 11
12.0
 21
9.0
 12
0.0
 22
0.0
 32
0.0
 14
1.000000000000E+20
 24
1.000000000000E+20
 34
1.000000000000E+20
 15
-1.000000000000E+20
 25
-1.000000000000E+20
 35
-1.000000000000E+20
146
0.0
 13
0.0
 23
0.0
 33
0.0
 16
1.0
 26
0.0
 36
0.0
 17
0.0
 27
1.0
 37
0.0
 76
     0
330
1A
  0
LAYOUT
  5
21
102
{ACAD_REACTORS
330
19
102
}
330
19
100
AcDbPlotSettings
  1

  2
hp deskjet 980c series
  4

  6

 40
0.0
 41
0.0
 42
0.0
 43
0.0
 44
0.0
 45
0.0
 46
0.0
 47
0.0
 48
0.0
 49
0.0
140
0.0
141
0.0
142
1.0
143
1.0
 70
  1712
 72
     0
 73
     0
 74
     0
  7

 75
     0
147
1.0
148
0.0
149
0.0
100
AcDbLayout
  1
Model
 70
     1
 71
     0
 10
0.0
 20
0.0
 11
12.0
 21
9.0
 12
0.0
 22
0.0
 32
0.0
 14
-5.7103
 24
-0.1105
 34
0.0
 15
244.0
 25
201.819888
 35
0.0
146
0.0
 13
0.0
 23
0.0
 33
0.0
 16
1.0
 26
0.0
 36
0.0
 17
0.0
 27
1.0
 37
0.0
 76
     0
330
1E
331
3A8
  0
MLINESTYLE
  5
17
102
{ACAD_REACTORS
330
16
102
}
330
16
100
AcDbMlineStyle
  2
STANDARD
 70
     0
  3

 62
   256
 51
90.0
 52
90.0
 71
     2
 49
0.5
 62
   256
  6
BYLAYER
 49
-0.5
 62
   256
  6
BYLAYER
  0
ACDBPLACEHOLDER
  5
F
102
{ACAD_REACTORS
330
E
102
}
330
E
  0
SCALE
  5
3AA
102
{ACAD_REACTORS
330
3A9
102
}
330
3A9
100
AcDbScale
 70
     0
300
1:1
140
1.0
141
1.0
290
     1
  0
SCALE
  5
3AB
102
{ACAD_REACTORS
330
3A9
102
}
330
3A9
100
AcDbScale
 70
     0
300
1:2
140
1.0
141
2.0
290
     0
  0
SCALE
  5
3AC
102
{ACAD_REACTORS
330
3A9
102
}
330
3A9
100
AcDbScale
 70
     0
300
1:4
140
1.0
141
4.0
290
     0
  0
SCALE
  5
3AD
102
{ACAD_REACTORS
330
3A9
102
}
330
3A9
100
AcDbScale
 70
     0
300
1:5
140
1.0
141
5.0
290
     0
  0
SCALE
  5
3AE
102
{ACAD_REACTORS
330
3A9
102
}
330
3A9
100
AcDbScale
 70
     0
300
1:8
140
1.0
141
8.0
290
     0
  0
SCALE
  5
3AF
102
{ACAD_REACTORS
330
3A9
102
}
330
3A9
100
AcDbScale
 70
     0
300
1:10
140
1.0
141
10.0
290
     0
  0
SCALE
  5
3B0
102
{ACAD_REACTORS
330
3A9
102
}
330
3A9
100
AcDbScale
 70
     0
300
1:16
140
1.0
141
16.0
290
     0
  0
SCALE
  5
3B1
102
{ACAD_REACTORS
330
3A9
102
}
330
3A9
100
AcDbScale
 70
     0
300
1:20
140
1.0
141
20.0
290
     0
  0
SCALE
  5
3B2
102
{ACAD_REACTORS
330
3A9
102
}
330
3A9
100
AcDbScale
 70
     0
300
1:30
140
1.0
141
30.0
290
     0
  0
SCALE
  5
3B3
102
{ACAD_REACTORS
330
3A9
102
}
330
3A9
100
AcDbScale
 70
     0
300
1:40
140
1.0
141
40.0
290
     0
  0
SCALE
  5
3B4
102
{ACAD_REACTORS
330
3A9
102
}
330
3A9
100
AcDbScale
 70
     0
300
1:50
140
1.0
141
50.0
290
     0
  0
SCALE
  5
3B5
102
{ACAD_REACTORS
330
3A9
102
}
330
3A9
100
AcDbScale
 70
     0
300
1:100
140
1.0
141
100.0
290
     0
  0
SCALE
  5
3B6
102
{ACAD_REACTORS
330
3A9
102
}
330
3A9
100
AcDbScale
 70
     0
300
2:1
140
2.0
141
1.0
290
     0
  0
SCALE
  5
3B7
102
{ACAD_REACTORS
330
3A9
102
}
330
3A9
100
AcDbScale
 70
     0
300
4:1
140
4.0
141
1.0
290
     0
  0
SCALE
  5
3B8
102
{ACAD_REACTORS
330
3A9
102
}
330
3A9
100
AcDbScale
 70
     0
300
8:1
140
8.0
141
1.0
290
     0
  0
SCALE
  5
3B9
102
{ACAD_REACTORS
330
3A9
102
}
330
3A9
100
AcDbScale
 70
     0
300
10:1
140
10.0
141
1.0
290
     0
  0
SCALE
  5
3BA
102
{ACAD_REACTORS
330
3A9
102
}
330
3A9
100
AcDbScale
 70
     0
300
100:1
140
100.0
141
1.0
290
     0
  0
SCALE
  5
3BB
102
{ACAD_REACTORS
330
3A9
102
}
330
3A9
100
AcDbScale
 70
     0
300
1/128" = 1'-0"
140
0.0078125
141
12.0
290
     0
  0
SCALE
  5
3BC
102
{ACAD_REACTORS
330
3A9
102
}
330
3A9
100
AcDbScale
 70
     0
300
1/64" = 1'-0"
140
0.015625
141
12.0
290
     0
  0
SCALE
  5
3BD
102
{ACAD_REACTORS
330
3A9
102
}
330
3A9
100
AcDbScale
 70
     0
300
1/32" = 1'-0"
140
0.03125
141
12.0
290
     0
  0
SCALE
  5
3BE
102
{ACAD_REACTORS
330
3A9
102
}
330
3A9
100
AcDbScale
 70
     0
300
1/16" = 1'-0"
140
0.0625
141
12.0
290
     0
  0
SCALE
  5
3BF
102
{ACAD_REACTORS
330
3A9
102
}
330
3A9
100
AcDbScale
 70
     0
300
3/32" = 1'-0"
140
0.09375
141
12.0
290
     0
  0
SCALE
  5
3C0
102
{ACAD_REACTORS
330
3A9
102
}
330
3A9
100
AcDbScale
 70
     0
300
1/8" = 1'-0"
140
0.125
141
12.0
290
     0
  0
SCALE
  5
3C1
102
{ACAD_REACTORS
330
3A9
102
}
330
3A9
100
AcDbScale
 70
     0
300
3/16" = 1'-0"
140
0.1875
141
12.0
290
     0
  0
SCALE
  5
3C2
102
{ACAD_REACTORS
330
3A9
102
}
330
3A9
100
AcDbScale
 70
     0
300
1/4" = 1'-0"
140
0.25
141
12.0
290
     0
  0
SCALE
  5
3C3
102
{ACAD_REACTORS
330
3A9
102
}
330
3A9
100
AcDbScale
 70
     0
300
3/8" = 1'-0"
140
0.375
141
12.0
290
     0
  0
SCALE
  5
3C4
102
{ACAD_REACTORS
330
3A9
102
}
330
3A9
100
AcDbScale
 70
     0
300
1/2" = 1'-0"
140
0.5
141
12.0
290
     0
  0
SCALE
  5
3C5
102
{ACAD_REACTORS
330
3A9
102
}
330
3A9
100
AcDbScale
 70
     0
300
3/4" = 1'-0"
140
0.75
141
12.0
290
     0
  0
SCALE
  5
3C6
102
{ACAD_REACTORS
330
3A9
102
}
330
3A9
100
AcDbScale
 70
     0
300
1" = 1'-0"
140
1.0
141
12.0
290
     0
  0
SCALE
  5
3C7
102
{ACAD_REACTORS
330
3A9
102
}
330
3A9
100
AcDbScale
 70
     0
300
1-1/2" = 1'-0"
140
1.5
141
12.0
290
     0
  0
SCALE
  5
3C8
102
{ACAD_REACTORS
330
3A9
102
}
330
3A9
100
AcDbScale
 70
     0
300
3" = 1'-0"
140
3.0
141
12.0
290
     0
  0
SCALE
  5
3C9
102
{ACAD_REACTORS
330
3A9
102
}
330
3A9
100
AcDbScale
 70
     0
300
6" = 1'-0"
140
6.0
141
12.0
290
     0
  0
SCALE
  5
3CA
102
{ACAD_REACTORS
330
3A9
102
}
330
3A9
100
AcDbScale
 70
     0
300
1'-0" = 1'-0"
140
12.0
141
12.0
290
     0
  0
DICTIONARYVAR
  5
E70
102
{ACAD_REACTORS
330
3A6
102
}
330
3A6
100
DictionaryVariables
280
     0
  1
1:1
  0
DICTIONARYVAR
  5
3A7
102
{ACAD_REACTORS
330
3A6
102
}
330
3A6
100
DictionaryVariables
280
     0
  1
1
  0
ENDSEC
  0
SECTION
  2
THUMBNAILIMAGE
 90
    16364
310
28000000B40000005500000001000800000000000000000000000000000000000000000000000000FFFFFF000000FF0000FFFF0000FF0000FFFF0000FF000000FF00FF000000000080808000C0C0C0000000FF007F7FFF000000A5005252A50000007F003F3F7F0000004C0026264C000000260013132600003FFF007F9FFF
310
000029A5005267A500001F7F003F4F7F0000134C00262F4C000009260013172600007FFF007FBFFF000052A500527CA500003F7F003F5F7F0000264C0026394C0000132600131C260000BFFF007FDFFF00007CA5005291A500005F7F003F6F7F0000394C0026424C00001C26001321260000FFFF007FFFFF0000A5A50052A5
310
A500007F7F003F7F7F00004C4C00264C4C00002626001326260000FFBF007FFFDF0000A57C0052A59100007F5F003F7F6F00004C3900264C420000261C001326210000FF7F007FFFBF0000A5520052A57C00007F3F003F7F5F00004C2600264C39000026130013261C0000FF3F007FFF9F0000A5290052A56700007F1F003F
310
7F4F00004C1300264C2F00002609001326170000FF00007FFF7F0000A5000052A55200007F00003F7F3F00004C0000264C260000260000132613003FFF00009FFF7F0029A5000067A552001F7F00004F7F3F00134C00002F4C260009260000172613007FFF0000BFFF7F0052A500007CA552003F7F00005F7F3F00264C0000
310
394C2600132600001C261300BFFF0000DFFF7F007CA5000091A552005F7F00006F7F3F00394C0000424C26001C26000021261300FFFF0000FFFF7F00A5A50000A5A552007F7F00007F7F3F004C4C00004C4C26002626000026261300FFBF0000FFDF7F00A57C0000A59152007F5F00007F6F3F004C3900004C422600261C00
310
0026211300FF7F0000FFBF7F00A5520000A57C52007F3F00007F5F3F004C2600004C39260026130000261C1300FF3F0000FF9F7F00A5290000A56752007F1F00007F4F3F004C1300004C2F26002609000026171300FF000000FF7F7F00A5000000A55252007F0000007F3F3F004C0000004C2626002600000026131300FF00
310
3F00FF7F9F00A5002900A55267007F001F007F3F4F004C0013004C262F002600090026131700FF007F00FF7FBF00A5005200A5527C007F003F007F3F5F004C0026004C2639002600130026131C00FF00BF00FF7FDF00A5007C00A55291007F005F007F3F6F004C0039004C26420026001C0026132100FF00FF00FF7FFF00A5
310
00A500A552A5007F007F007F3F7F004C004C004C264C002600260026132600BF00FF00DF7FFF007C00A5009152A5005F007F006F3F7F0039004C0042264C001C002600211326007F00FF00BF7FFF005200A5007C52A5003F007F005F3F7F0026004C0039264C00130026001C1326003F00FF009F7FFF002900A5006752A500
310
1F007F004F3F7F0013004C002F264C000900260017132600000000002D2D2D005B5B5B0089898900B7B7B700B3B3B30000000000000000000000000000000000000000000000000000000000000000000000000000000000000000000000000000000000000000000000000000000000000000000000000000000000000000
310
00000000000000000000000000000000000000000000000000000000000000000000000000000000000000000000000000000000000000000000000000000000000000000000000000000000000000000000000000000000000000000000000000000000000000000000000000000000000000000000000000000000000000
310
00000000000000000000000000000000000000000000000000000000000000000000000000000000000000000000000000000000000000000000000000000000000000000000000000000000000000000000000000000000000000000000000000000000000000000000000000000000000000000000000000000000000000
310
00000000000000000000000000000000000000000000000000000000000000000000000000000000000000000000000000000000000000000000000000000000000000000000000000000000000000000000000000000000000000000000000000000000000000000000000000000000000000000000000000000000000000
310
00000000000000000000000000000000000000000000000000000000000000000000000000000000000000000000000000000000000000000000000000000000000000000000000000000000000000000000000000000000000000000000000000000000000000000000000000000000000000000000000000000000000000
310
00000000000000000000000000000000000000000000000000000000000000000000000000000000000000000000000000000000000000000000000000000000070707070707070707070707070707070707070707070707070707070000000000000000000000000000000000000000000000000000000000000000000000
310
00000000000000000000000000000000000000000000000000000000000000000000000000000000000000000000000000000000000000000000000000000000000000000000000000000000000000000000000000000000000000000000000000000000000000000000000000000000000000000007000000000000000000
310
00000000000000000000000000000000000700000000000000000000000000000000000000000000000000000000000000000000000000000000000000000000000000000000000000000000000000000000000000000000000000000000000000000000000000000000000000000000000000000000000000000000000000
310
00000000000000000000000000000000000000000000000000000000000000000000000000000000000000070000000000000000000000000000000000000000000000000000070000000000000000000000000000000000000000000000000000000000000000000000000000000000000000000000000000000000000000
310
00000000000000000000000000000000000000000000000000000000000000000000000000000000000000000000000000000000000000000000000000000000000000000000000000000000000000000000000000000000000000000000000007070707070707070707070707070707070707070707070707070707000000
310
00000000000000000000000000000000000000000000000000000000000000000000000000000000000000000000000000000000000000000000000000000000000000000000000000000000000000000000000000000000000000000000000000000000000000000000000000000000000000000000000000000000000000
310
00000000000000000000000000000000000000000000000000000700000000000000000000000000000007070007000000000000000000000000000000000000000000000000000000000000000000000000000000000000000000000000000000000000000000000000000000000000000000000000000000000000000000
310
00000000000000000000000000000000000000000000000000000000000000000000000000000000000000000000000000000000000000000000000000000000000000000000000000000000000000070000000000000000000000000000000700000700000000000000000000000000000000000000000000000000000000
310
00000000000000000000000000000000000000000000000000000000000000000000000000000000000000000000000000000000000000000000000000000000000000000000000000000000000000000000000000000000000000000000000000000000000000000000000000000000000000000000000000000000000000
310
00000000070000000000000000000000000000000707000007000000000000000000000000000000000000000000000000000000000000000000000000000000000000000000000000000000000000000000000000000000000000000000000000000000000000000000000000000000000000000000000000000000000000
310
00000000000000000000000000000000000000000000000000000000000000000000000000000000000000000000000000000000000000000700000000000000000000000000000007000700000700000000000000000000000000000000000000000000000000000000000000000000000000000000000000000000000000
310
00000000000000000000000000000000000000000000000000000000000000000000000000000000000000000000000000000000000000000000000000000000000000000000000000000000000000000000000000000000000000000000000000000000000000000000000007000000000000000000000000000000070000
310
07000007000000000000000000000000000000000000000000000000000000000000000000000000000000000000000000000000000000000000000000000000000000000000000000000000000000000000000000000000000000000000000000000000000000000000000000000000000000000000000000000000000000
310
00000000000000000000000000000000000000000000000000000000000000000007000000000000000000000000000000070000000700000700000000000000000000000000000000000000000000000000000000000000000000000000000000000000000000000000000000000000000000000000000000000000000000
310
00000000000000000000000000000000000000000000000000000000000000000000000000000000000000000000000000000000000000000000000000000000000000000000000000000000000000000000000000000700000000000000000000000000000007000000070000070000000000000000000000000000000000
310
00000000000000000000000000000000000000000000000000000000000000000000000000000000000000000000000000000000000000000000000000000000000000000000000000000000000000000000000000000000000000000000000000000000000000000000000000000000000000000000000000000000000000
310
00000000000000000000000700000000000000000000000000000007000000000700000700000000000000000000000000000000000000000000000000000000000000000000000000000000000000000000000000000000000000000000000000000000000000000000000000000000000000000000000000000000000000
310
00000000000000000000000000000000000000000000000000000000000000000000000000000000000000000000000000000000000000000000000000000007000000000000000000000000000000070000000000070000070000000000000000000000000000000000000000000000000000000000000000000000000000
310
00000000000000000000000000000000000000000000000000000000000000000000000000000000000000000000000000000000000000000000000000000000000000000000000000000000000000000000000000000000000000000000000000000000000000000000000000000000000000070000000000000000000000
310
00000000070000000000000700000700000000000000000000000000000000000000000000000000000000000000000000000000000000000000000000000000000000000000000000000000000000000000000000000000000000000000000000000000000000000000000000000000000000000000000000000000000000
310
00000000000000000000000000000000000000000000000000000000000000000000000000000000070007000000000000000000000000000700000000000000070000070000000000000000000000000000000000000000000000000000000000000000000000000000000000000000000000000000000000000000000000
310
00000000000000000000000000000000000000000000000000000000000000000000000000000000000000000000000000000000000000000000000000000000000000000000000000000000000000000000000000000000000000000700000007000000000000000000000007000000000000000007000007000000000000
310
00000000000000000000000000000000000000000000000000000000000000000000000000000000000000000000000000000000000000000000000000000000000000000000000000000000000000000000000000000000000000000000000000000000000000000000000000000000000000000000000000000000000000
310
00000000000000000000000000000000000700000000000700000000000000000007000000000000000000070000070000000000000000000000000000000000000000000000000000000000000000000000000000000000000000000000000000000000000000000000000000000000000000000000000000000000000000
310
00000000000000000000000000000000000000000000000000000000000000000000000000000000000000000000000000000000000000000000000000000000000000000000070000000000000707000000000000070707070707070707070707000007000000000000000000000000000000000000000000000000000000
310
00000000000000000000000000000000000000000000000000000000000000000000000000000000000000000000000000000000000000000000000000000000000000000000000000000000000000000000000000000000000000000000000000000000000000000000000000000000000000000000000000000700000000
310
00000000000700000000000700000700000700000000000000070000000000000000000000000000000000000000000000000000000000000000000000000000000000000000000000000000000000000000000000000000000000000000000000000000000000000000000000000000000000000000000000000000000000
310
00000000000000000000000000000000000000000000000000000000000000000000000000000000000000000000000700000000000000000000000700000007000000070000070000000000000007000000000000000000000000000000000000000000000000000000000000000000000000000000000000000000000000
310
00000000000000000000000000000000000000000000000000000000000000000000000000000000000000000000000000000000000000000000000000000000000000000000000000000000000000000000000000000000000000000000000000000000070700000000000000000000000700070000000007000007000000
310
00000000070000000000000000000000000000000000000000000000000000000000000000000000000000000000000000000000000000000000000000000000000000000000000000000000000000000000000000000000000000000000000000000000000000000000000000000000000000000000000000000000000000
310
00000000000000000000000000000000000000000000000000070007070000000000000000000000070000000000070000070000000000000007000000000000000000000000000000000000000000000000000000000000000000000000000000000000000000000000000000000000000000000000000000000000000000
310
00000000000000000000000000000000000000000000000000000000000000000000000000000000000000000000000000000000000000000000000000000000000000000000000000000000000700000007070000000000000000000700000000000007000007000000000000000700000000000000000000000000000000
310
00000000000000000000000000000000000000000000000000000000000000000000000000000000000000000000000000000000000000000000000000000000000000000000000000000000000000000000000000000000000000000000000000000000000000000000000000000000000000000000000000000000000000
310
00000700000000000007000000000000000007000000000000070000070000000000000007000000000000000000000000000000000000000000000000000000000000000000000000000000000000000000000000000000000000000000000000000000000000000000000000000000000000000000000000000000000000
310
00000000000000000000000000000000000000000000000000000000000000000000000000000000000000000000000000000000000000070000000000000007000000000000070707070707070707000007070707070707070700000000000000000000000000000000000000000000000000000000000000000000000000
310
00000000000000000000000000000000000000000000000000000000000000000000000000000000000000000000000000000000000000000000000000000000000000000000000000000000000000000000000000000000000000000000000000000000000000000000000700000000000000000007070000000707070707
310
07070707070000070707070707070707000000000000000000000000000000000000000000000000000000000000000000000000000000000000000000000000000000000000000000000000000000000000000000000000000000000000000000000000000000000000000000000000000000000000000000000000000000
310
00000000000000000000000000000000000000000000000000000000000000000700000000000000000000000700000007000000000700000007000007000000070700000000000000000000000000000000000000000000000000000000000000000000000000000000000000000000000000000000000000000000000000
310
00000000000000000000000000000000000000000000000000000000000000000000000000000000000000000000000000000000000000000000000000000000000000000000000000000000000000000000000007000000000000000000000007000707070000000000070000000700000700000007070000000000000000
310
00000000000000000000000000000000000000000000000000000000000000000000000000000000000000000000000000000000000000000000000000000000000000000000000000000000000000000000000000000000000000000000000000000000000000000000000000000000000000000000000000000000000000
310
00000000000000000007000000000000000000000007000000000000000000000700000007000007000000070700000000000000000000000000000000000000000000000000000000000000000000000000000000000000000000000000000000000000000000000000000000000000000000000000000000000000000000
310
00000000000000000000000000000000000000000000000000000000000000000000000000000000000000000000000000000000000000000000000000070000000000000000000000000700000000000000000000070000000700000700000007070000000000000000000000000000000000000000000000000000000000
310
00000000000000000000000000000000000000000000000000000000000000000000000000000000000000000000000000000000000000000000000000000000000000000000000000000000000000000000000000000000000000000000000000000000000000000000000000000000000007000000000000000000000007
310
00000007070707070707070707070707070707070707070707070707070707000000000000000000000000000000000000000000000000000000000000000000000000000000000000000000000000000000000000000000000000000000000000000000000000000000000000000000000000000000000000000000000000
310
00000000000000000000000000000000000000000000000000000000000000000000000000000007000000000000000000000007000000000707070707070707070707070707070707070707070707070707070700000000000000000000000000000000000000000000000000000000000000000000000000000000000000
310
00000000000000000000000000000000000000000000000000000000000000000000000000000000000000000000000000000000000000000000000000000000000000000000000000000000000000000000000000000000000000070000000000000000000000070000000000070000000000000000000000070000070000
310
00000000000000000007000000000000000000000000000000000000000000000000000000000000000000000000000000000000000000000000000000000000000000000000000000000000000000000000000000000000000000000000000000000000000000000000000000000000000000000000000000000000000000
310
00000000000000000000000000000000070000000000000000000000070000000000000700000000000000000000000700000700000000000000000000000700000000000000000000000000000000000000000000000000000000000000000000000000000000000000000000000000000000000000000000000000000000
310
00000000000000000000000000000000000000000000000000000000000000000000000000000000000000000000000000000000000000000000000000000000000000000700000000000000000000000007000000000000070000000000000000000000070000070000000000000000000000070000000000000000000000
310
00000000000000000000000000000000000000000000000000000000000000000000000000000000000000000000000000000000000000000000000000000000000000000000000000000000000000000000000000000000000000000000000000000000000000000000000000000000000000000000000007000000000000
310
00000000000007000000000000000700000000000000000000000700000700000000000000000000000700000000000000000000000000000000000000000000000000000000000000000000000000000000000000000000000000000000000000000000000000000000000000000000000000000000000000000000000000
310
00000000000000000000000000000000000000000000000000000000000000000000000000000000000000000007000000000000000000000000070000000000000000070707070707070707070707070707070707070707070707070707070000000000000000000000000000000000000000000000000000000000000000
310
00000000000000000000000000000000000000000000000000000000000000000000000000000000000000000000000000000000000000000000000000000000000000000000000000000000000000000000000000000000000000000000000000000700000000000000000000000700000000000000000007070707070707
310
07070707070707070707070707070707070707070700000000000000000000000000000000000000000000000000000000000000000000000000000000000000000000000000000000000000000000000000000000000000000000000000000000000000000000000000000000000000000000000000000000000000000000
310
00000000000000000000000000000000000000000000000700000000000000000000000700000000000000000000000000000000000007000000000000000000000700000000000000000000000000000000000000000000000000000000000000000000000000000000000000000000000000000000000000000000000000
310
00000000000000000000000000000000000000000000000000000000000000000000000000000000000000000000000000000000000000000000000000000000000000000000000000000007000000000000000000000000070000000000000000000000000000000000000700000000000000000000070000000000000000
310
00000000000000000000000000000000000000000000000000000000000000000000000000000000000000000000000000000000000000000000000000000000000000000000000000000000000000000000000000000000000000000000000000000000000000000000000000000000000000000000000000000000000000
310
07000000000000000000000000070000000000000000000000000000000000000007000000000000000000000700000000000000000000000000000000000000000000000000000000000000000000000000000000000000000000000000000000000000000000000000000000000000000000000000000000000000000000
310
00000000000000000000000000000000000000000000000000000000000000000000000000000000000000000000000000000000070000000000000000000000000700000000000000000000000000000000000000000700000000000000000000070000000000000000000000000000000000000000000000000000000000
310
00000000000000000000000000000000000000000000000000000000000000000000000000000000000000000000000000000000000000000000000000000000000000000000000000000000000000000000000000000000000000000000000000000000000000000700000000000000000000000007000000000000000000
310
00000000000000000000000007000000000000000000000700000000000000000000000000000000000000000000000000000000000000000000000000000000000000000000000000000000000000000000000000000000000000000000000000000000000000000000000000000000000000000000070707070707070707
310
07070000000000000000000000000000000000000000000000000000000007000000000000000000000007000000000000000000000000000000000000000000000700000000000000000000070000000000000000000000000000000000000000000000000000000000000000000000000000000000000000000000000000
310
00000000000000000000000000000000000000000000000000000000000000000000000000000000000000070707070707070707070707000000000000000000000000000000000000000000000000000000070000000000000000000000000700000000000000000000000000000000000000000000070000000000000000
310
00000700000000000000000000000000000000000000000000000000000000000000000000000000000000000000000000000000000000000000000000000000000000000000000000000000000000000000000000000000000000000000000007070707070707070707070700000000000000000000000000000000000000
310
00000000000000070000000000000000000000000700000000000000000000000000000000000000000000000700000000000000000000070000000000000000000000000000000000000000000000000000000000000000000000000000000000000000000000000000000000000000000000000000000000000000000000
310
00000000000000000000000000000000000000000000070000000000000000000007000000000000000000000000000000000000000000000000000707000000000000000000000007000000000000000000000000000000000000000000000000070000000000000000000007000000000000000000000000000000000000
310
00000000000000000000000000000000000000000000000000000000000000000000000000000000000000000000000000000000000000000000000000000000000000000000000000000007000000000000000000000700000000000000000000000000000000000000000000000000000700000000000000000000070000
310
00000000000000000000000000000000000000000000000700000000000000000000070000000000000000000000000000000000000000000000000000000000000000000000000000000000000000000000000000000000000000000000000000000000000000000000000000000000000000000000000000000000000000
310
00070000000000000000000007000000000000000000000000000000000000000000000000000700000000000000000000070000000000000000000000000000000000000000000000000000070000000000000000000007000000000000000000000000000000000000000000000000000000000000000000000000000000
310
00000000000000000000000000000000000000000000000000000000000000000000000000000000000000000000000000000000000007000000000000000000000700000000000000000000000000000000000000000000000000070700000000000000000007000000000000000000000000000000000000000000000000
310
00000700000000000000000000070000000000000000000000000000000000000000000000000000000000000000000000000000000000000000000000000000000000000000000000000000000000000000000000000000000000000000000000000000000000000000000007000000000000000000070000000000000000
310
00000000000000000000000000000000070000070000000000000007000000000000000000000000000000000000000000000000000007000000000000000000000700000000000000000000000000000000000000000000000000000000000000000000000000000000000000000000000000000000000000000000000000
310
00000000000000000000000000000000000000000000000000000000000000000000070000000000000000000007000000000000000000000000000000000000000000000700000007000000000000070000000000000000000000000000000000000000000000000000000700000000000000000000070000000000000000
310
00000000000000000000000000000000000000000000000000000000000000000000000000000000000000000000000000000000000000000000000000000000000000000000000000000000000000000000000000000007000000000000000000000007000000000000000000000000000000000007070007000000000007
310
00000000070000000000000000000000000000000000000000000000000000000700000000000000000000000700000000000000000000000000000000000000000000000000000000000000000000000000000000000000000000000000000000000000000000000000000000000000000000000000000000000000000000
310
00000000000000000000000000070000000000000000000000070700000000000000000000000000000007000700070000000000070000000700000000000000000000000000000000000000000000000000000007000000000000000000000007070000000000000000000000000000000000000000000000000000000000
310
00000000000000000000000000000000000000000000000000000000000000000000000000000000000000000000000000000000000000000000000000000000000000070000000000000000000000070707070707070707070707070707070707070700000000000000070007070707070707070707070707070707070707
310
07070707070707070707070000000000000000000000070000000000000000000000000000000000000000000000000000000000000000000000000000000000000000000000000000000000000000000000000000000000000000000000000000000000000000000000000000000000000000000000000007000000000000
310
00000000000000000000000000000000000007070707000007000000000000070707070000000000000000000000000000000000000000000000000000000000000000000000000000000707000000000000000000000000000000000000000000000000000000000000000000000000000000000000000000000000000000
310
00000000000000000000000000000000000000000000000000000000000000000000000000000000000000000000000700000000000000000000000000000000000000000707070707000000000007000000000700000700000000000000000000000000000000000000000000000000000000000000000000000000000000
310
07070000000000000000000000000000000000000000000000000000000000000000000000000000000000000000000000000000000000000000000000000000000000000000000000000000000000000000000000000000000000000000000000000000070700000000000000000000000000000000070707070707070000
310
00000000070000000700000000000000000000000000000000000000000000000000000000000000000000000000000000000000070700000000000000000000000000000000000000000000000000000000000000000000000000000000000000000000000000000000000000000000000000000000000000000000000000
310
00000000000000000000000000000000000000000000000000000007000000000000000000000000000000070707070707000000000000000000070000070000000000000000000000000000000000000000000000000000000000000000000000000000000000000007000000000000000000000000000000000000000000
310
00000000000000000000000000000000000000000000000000000000000000000000000000000000000000000000000000000000000000000000000000000000000000000000000000000000000000000707000000000000000000000707070707070707000000000000000000000007000700000000000000000000000000
310
00000000000000000000000000000000000000000000000000000000000007070000000000000000000000000000000000000000000000000000000000000000000000000000000000000000000000000000000000000000000000000000000000000000000000000000000000000000000000000000000000000000000000
310
00000000000000070700000000000000000707070700070700000000000000000000000000000700000000000000000000000000000000000000000000000000000000000000000000000000000000000000000700000000000000000000000000000000000000000000000000000000000000000000000000000000000000
310
00000000000000000000000000000000000000000000000000000000000000000000000000000000000000000000000000000000000000000000000000070707000000070707070707070700000000000000000000000000000000070000000000000000000000000000000000000000000000000000000000000000000000
310
00000000000000000700000000000000000000000000000000000000000000000000000000000000000000000000000000000000000000000000000000000000000000000000000000000000000000000000000000000000000000000000000000000000000000000000000000000000000000000707070707070707070000
310
00000000000000000000000000000007070700000000000000000000000000000000000000000000000000000000000000000000000000000000000707000000000000000000000000000000000000000000000000000000000000000000000000000000000000000000000000000000000000000000000000000000000000
310
00000000000000000000000000000000000000000000000000000000000000000000000000000000000007070707070707000000000000000000000000000000000007070000000000000000000000000000000000000000000000000000000000000000000000000000000000000707000000000000000000000000000000
310
00000000000000000000000000000000000000000000000000000000000000000000000000000000000000000000000000000000000000000000000000000000000000000000000000000000000000000000000000000000000000000000070707070707000000000000000000000000000000000707070700000000000000
310
00000000000000000000000000000000000000000000000000000000000000070707070700000000000000000000000000000000000000000000000000000000000000000000000000000000000000000000000000000000000000000000000000000000000000000000000000000000000000000000000000000000000000
310
00000000000000000000000000000000000007070707070700000000000000000000000000000000000707070707070707070707070707070707070707070707070707070707070707070707070707070707070700000000000000000000000000000000000000000000000000000000000000000000000000000000000000
310
00000000000000000000000000000000000000000000000000000000000000000000000000000000000000000000000000000000000000000000000000000000000000000007070707070700000000000000000000000000000000070707000000000000000000000000000000000000000000000000000000000000000000
310
00000000000000000000000000000000000000000000000000000000000000000000000000000000000000000000000000000000000000000000000000000000000000000000000000000000000000000000000000000000000000000000000000000000000000000000000000000000000000000000000007070707070700
310
00000000000000000000000000000007070700000000000000000000000000000000000000000000000000000000000000000000000000000000000000000000000000000000000000000000000000000000000000000000000000000000000000000000000000000000000000000000000000000000000000000000000000
310
00000000000000000000000000000000000000000000000000000000000000000000000000000000000000000707070700000000000000000000000000000000000007070700000000000000000000000000000000000000000000000000000000000000000000000000000000000000000000000000000000000000000000
310
00000000000000000000000000000000000000000000000000000000000000000000000000000000000000000000000000000000000000000000000000000000000000000000000000000000000000000000000000000000000000000000000007070707000000000000000000000000000000000007070700000000000000
310
00000000000000000000000000000000000000000000000000000000000000000000000000000000000000000000000000000000000000000000000000000000000000000000000000000000000000000000000000000000000000000000000000000000000000000000000000000000000000000000000000000000000000
310
00000000000000000000000000000000000000000000070000000000000000000000000000000000000707070000000000000000000000000000000000000000000000000000000000000000000000000000000000000000000000000000000000000000000000000000000000000000000000000000000000000000000000
310
00000000000000000000000000000000000000000000000000000000000000000000000000000000000000000000000000000000000000000000000000000000000000000000000000000007000000000000000000000000000000070707070000000000000000000000000000000000000000000000000000000000000000
310
00000000000000000000000000000000000000000000000000000000000000000000000000000000000000000000000000000000000000000000000000000000000000000000000000000000000000000000000000000000000000000000000000000000000000000000000000000000000000000000000000000000000000
310
00000700000000000000000000000007070707000000000000000000000000000000000000000000000000000000000000000000000000000000000000000000000000000000000000000000000000000000000000000000000000000000000000000000000000000000000000000000000000000000000000000000000000
310
00000000000000000000000000000000000000000000000000000000000000000000000000000000000000000000000000000000000000070000000000000000000007070700000000000000000000000000000000000000000000000000000000000000000000000000000000000000000000000000000000000000000000
310
00000000000000000000000000000000000000000000000000000000000000000000000000000000000000000000000000000000000000000000000000000000000000000000000000000000000000000000000000000000000000000000000000000000000000000000000000070000000000000000070700000000000000
310
00000000000000000000000000000000000000000000000000000000000000000000000000000000000000000000000000000000000000000000000000000000000000000000000000000000000000000000000000000000000000000000000000000000000000000000000000000000000000000000000000000000000000
310
00000000000000000000000000000000000000000000000000000000000000000000000700000000000707070000000000000000000000000000000000000000000000000000000000000000000000000000000000000000000000000000000000000000000000000000000000000000000000000000000000000000000000
310
00000000000000000000000000000000000000000000000000000000000000000000000000000000000000000000000000000000000000000000000000000000000000000000000000000000000000000000000000000000000700000707070000000000000000000000000000000000000000000000000000000000000000
310
00000000000000000000000000000000000000000000000000000000000000000000000000000000000000000000000000000000000000000000000000000000000000000000000000000000000000000000000000000000000000000000000000000000000000000000000000000000000000000000000000000000000000
310
00000000000000000000000000000007070700000000000000000000000000000000000000000000000000000000000000000000000000000000000000000000000000000000000000000000000000000000000000000000000000000000000000000000000000000000000000000000000000000000000000000000000000
310
00000000000000000000000000000000000000000000000000000000000000000000000000000000000000000000000000000000000000000000000000000000000000000000000000000000000000000000000000000000000000000000000000000000000000000000000000000000000000000000000000000000000000
310
00000000000000000000000000000000000000000000000000000000000000000000000000000000000000000000000000000000000000000000000000000000000000000000000000000000000000000000000000000000000000000000000000000000000000000000000000000000000000000000000000000000000000
310
00000000000000000000000000000000000000000000000000000000000000000000000000000000000000000000000000000000000000000000000000000000000000000000000000000000000000000000000000000000000000000000000000000000000000000000000000000000000000000000000000000000000000
310
00000000000000000000000000000000000000000000000000000000000000000000000000000000000000000000000000000000000000000000000000000000000000000000000000000000000000000000000000000000000000000000000000000000000000000000000000000000000000000000000000000000000000
310
00000000000000000000000000000000000000000000000000000000000000000000000000000000000000000000000000000000000000000000000000000000000000000000000000000000000000000000000000000000000000000000000000000000000000000000000000000000000000000000000000000000000000
310
000000000000000000000000000000000000000000000000000000000000000000000000000000000000000000000000000000000000000000000000000000000000000000000000000000000000000000000000000000000000000000000000000000000000000000000000
  0
ENDSEC
  0
EOF
