  0
SECTION
  2
HEADER
  9
$ACADVER
  1
AC1015
  9
$ACADMAINTVER
 70
     6
  9
$DWGCODEPAGE
  3
ANSI_1252
  9
$INSBASE
 10
0.0
 20
0.0
 30
0.0
  9
$EXTMIN
 10
0.0
 20
-0.1105
 30
0.0
  9
$EXTMAX
 10
415.006362770654
 20
202.0909155
 30
0.0
  9
$LIMMIN
 10
0.0
 20
0.0
  9
$LIMMAX
 10
12.0
 20
9.0
  9
$ORTHOMODE
 70
     0
  9
$REGENMODE
 70
     1
  9
$FILLMODE
 70
     1
  9
$QTEXTMODE
 70
     0
  9
$MIRRTEXT
 70
     1
  9
$LTSCALE
 40
1.0
  9
$ATTMODE
 70
     1
  9
$TEXTSIZE
 40
0.2
  9
$TRACEWID
 40
0.05
  9
$TEXTSTYLE
  7
Standard
  9
$CLAYER
  8
0
  9
$CELTYPE
  6
Continuous
  9
$CECOLOR
 62
   256
  9
$CELTSCALE
 40
1.0
  9
$DISPSILH
 70
     0
  9
$DIMSCALE
 40
1.0
  9
$DIMASZ
 40
0.18
  9
$DIMEXO
 40
0.0625
  9
$DIMDLI
 40
0.38
  9
$DIMRND
 40
0.0
  9
$DIMDLE
 40
0.0
  9
$DIMEXE
 40
0.18
  9
$DIMTP
 40
0.0
  9
$DIMTM
 40
0.0
  9
$DIMTXT
 40
0.18
  9
$DIMCEN
 40
0.09
  9
$DIMTSZ
 40
0.0
  9
$DIMTOL
 70
     0
  9
$DIMLIM
 70
     0
  9
$DIMTIH
 70
     1
  9
$DIMTOH
 70
     1
  9
$DIMSE1
 70
     0
  9
$DIMSE2
 70
     0
  9
$DIMTAD
 70
     0
  9
$DIMZIN
 70
     0
  9
$DIMBLK
  1

  9
$DIMASO
 70
     1
  9
$DIMSHO
 70
     1
  9
$DIMPOST
  1

  9
$DIMAPOST
  1

  9
$DIMALT
 70
     0
  9
$DIMALTD
 70
     2
  9
$DIMALTF
 40
25.4
  9
$DIMLFAC
 40
1.0
  9
$DIMTOFL
 70
     0
  9
$DIMTVP
 40
0.0
  9
$DIMTIX
 70
     0
  9
$DIMSOXD
 70
     0
  9
$DIMSAH
 70
     0
  9
$DIMBLK1
  1

  9
$DIMBLK2
  1

  9
$DIMSTYLE
  2
Standard
  9
$DIMCLRD
 70
     0
  9
$DIMCLRE
 70
     0
  9
$DIMCLRT
 70
     0
  9
$DIMTFAC
 40
1.0
  9
$DIMGAP
 40
0.09
  9
$DIMJUST
 70
     0
  9
$DIMSD1
 70
     0
  9
$DIMSD2
 70
     0
  9
$DIMTOLJ
 70
     1
  9
$DIMTZIN
 70
     0
  9
$DIMALTZ
 70
     0
  9
$DIMALTTZ
 70
     0
  9
$DIMUPT
 70
     0
  9
$DIMDEC
 70
     4
  9
$DIMTDEC
 70
     4
  9
$DIMALTU
 70
     2
  9
$DIMALTTD
 70
     2
  9
$DIMTXSTY
  7
Standard
  9
$DIMAUNIT
 70
     0
  9
$DIMADEC
 70
     0
  9
$DIMALTRND
 40
0.0
  9
$DIMAZIN
 70
     0
  9
$DIMDSEP
 70
    46
  9
$DIMATFIT
 70
     3
  9
$DIMFRAC
 70
     0
  9
$DIMLDRBLK
  1

  9
$DIMLUNIT
 70
     2
  9
$DIMLWD
 70
    -2
  9
$DIMLWE
 70
    -2
  9
$DIMTMOVE
 70
     0
  9
$LUNITS
 70
     2
  9
$LUPREC
 70
     4
  9
$SKETCHINC
 40
0.1
  9
$FILLETRAD
 40
0.0
  9
$AUNITS
 70
     0
  9
$AUPREC
 70
     0
  9
$MENU
  1
.
  9
$ELEVATION
 40
0.0
  9
$PELEVATION
 40
0.0
  9
$THICKNESS
 40
0.0
  9
$LIMCHECK
 70
     0
  9
$CHAMFERA
 40
0.0
  9
$CHAMFERB
 40
0.0
  9
$CHAMFERC
 40
0.0
  9
$CHAMFERD
 40
0.0
  9
$SKPOLY
 70
     0
  9
$TDCREATE
 40
2454635.824182581
  9
$TDUCREATE
 40
2454635.740849248
  9
$TDUPDATE
 40
2456210.422856621
  9
$TDUUPDATE
 40
2456210.339523287
  9
$TDINDWG
 40
0.0125869907
  9
$TDUSRTIMER
 40
0.0125869907
  9
$USRTIMER
 70
     1
  9
$ANGBASE
 50
0.0
  9
$ANGDIR
 70
     0
  9
$PDMODE
 70
     0
  9
$PDSIZE
 40
0.0
  9
$PLINEWID
 40
0.0
  9
$SPLFRAME
 70
     0
  9
$SPLINETYPE
 70
     6
  9
$SPLINESEGS
 70
     8
  9
$HANDSEED
  5
1A37
  9
$SURFTAB1
 70
     6
  9
$SURFTAB2
 70
     6
  9
$SURFTYPE
 70
     6
  9
$SURFU
 70
     6
  9
$SURFV
 70
     6
  9
$UCSBASE
  2

  9
$UCSNAME
  2

  9
$UCSORG
 10
0.0
 20
0.0
 30
0.0
  9
$UCSXDIR
 10
1.0
 20
0.0
 30
0.0
  9
$UCSYDIR
 10
0.0
 20
1.0
 30
0.0
  9
$UCSORTHOREF
  2

  9
$UCSORTHOVIEW
 70
     1
  9
$UCSORGTOP
 10
0.0
 20
0.0
 30
0.0
  9
$UCSORGBOTTOM
 10
0.0
 20
0.0
 30
0.0
  9
$UCSORGLEFT
 10
0.0
 20
0.0
 30
0.0
  9
$UCSORGRIGHT
 10
0.0
 20
0.0
 30
0.0
  9
$UCSORGFRONT
 10
0.0
 20
0.0
 30
0.0
  9
$UCSORGBACK
 10
0.0
 20
0.0
 30
0.0
  9
$PUCSBASE
  2

  9
$PUCSNAME
  2

  9
$PUCSORG
 10
0.0
 20
0.0
 30
0.0
  9
$PUCSXDIR
 10
1.0
 20
0.0
 30
0.0
  9
$PUCSYDIR
 10
0.0
 20
1.0
 30
0.0
  9
$PUCSORTHOREF
  2

  9
$PUCSORTHOVIEW
 70
     0
  9
$PUCSORGTOP
 10
0.0
 20
0.0
 30
0.0
  9
$PUCSORGBOTTOM
 10
0.0
 20
0.0
 30
0.0
  9
$PUCSORGLEFT
 10
0.0
 20
0.0
 30
0.0
  9
$PUCSORGRIGHT
 10
0.0
 20
0.0
 30
0.0
  9
$PUCSORGFRONT
 10
0.0
 20
0.0
 30
0.0
  9
$PUCSORGBACK
 10
0.0
 20
0.0
 30
0.0
  9
$USERI1
 70
     0
  9
$USERI2
 70
     0
  9
$USERI3
 70
     0
  9
$USERI4
 70
     0
  9
$USERI5
 70
     0
  9
$USERR1
 40
0.0
  9
$USERR2
 40
0.0
  9
$USERR3
 40
0.0
  9
$USERR4
 40
0.0
  9
$USERR5
 40
0.0
  9
$WORLDVIEW
 70
     1
  9
$SHADEDGE
 70
     3
  9
$SHADEDIF
 70
    70
  9
$TILEMODE
 70
     1
  9
$MAXACTVP
 70
    64
  9
$PINSBASE
 10
0.0
 20
0.0
 30
0.0
  9
$PLIMCHECK
 70
     0
  9
$PEXTMIN
 10
1.000000000000E+20
 20
1.000000000000E+20
 30
1.000000000000E+20
  9
$PEXTMAX
 10
-1.000000000000E+20
 20
-1.000000000000E+20
 30
-1.000000000000E+20
  9
$PLIMMIN
 10
0.0
 20
0.0
  9
$PLIMMAX
 10
12.0
 20
9.0
  9
$UNITMODE
 70
     0
  9
$VISRETAIN
 70
     1
  9
$PLINEGEN
 70
     0
  9
$PSLTSCALE
 70
     1
  9
$TREEDEPTH
 70
  3020
  9
$CMLSTYLE
  2
Standard
  9
$CMLJUST
 70
     0
  9
$CMLSCALE
 40
1.0
  9
$PROXYGRAPHICS
 70
     1
  9
$MEASUREMENT
 70
     0
  9
$CELWEIGHT
370
    -1
  9
$ENDCAPS
280
     0
  9
$JOINSTYLE
280
     0
  9
$LWDISPLAY
290
     0
  9
$INSUNITS
 70
     0
  9
$HYPERLINKBASE
  1

  9
$STYLESHEET
  1

  9
$XEDIT
290
     1
  9
$CEPSNTYPE
380
     0
  9
$PSTYLEMODE
290
     1
  9
$FINGERPRINTGUID
  2
{41AA94E7-0200-477F-9DEB-943E32F04A3C}
  9
$VERSIONGUID
  2
{DD1BC0B4-17A6-4AC8-8E60-17ECD4E4087B}
  9
$EXTNAMES
290
     1
  9
$PSVPSCALE
 40
0.0
  9
$OLESTARTUP
290
     0
  0
ENDSEC
  0
SECTION
  2
CLASSES
  0
CLASS
  1
ACDBDICTIONARYWDFLT
  2
AcDbDictionaryWithDefault
  3
ObjectDBX Classes
 90
        0
280
     0
281
     0
  0
CLASS
  1
ACDBPLACEHOLDER
  2
AcDbPlaceHolder
  3
ObjectDBX Classes
 90
        0
280
     0
281
     0
  0
CLASS
  1
LAYOUT
  2
AcDbLayout
  3
ObjectDBX Classes
 90
        0
280
     0
281
     0
  0
CLASS
  1
DICTIONARYVAR
  2
AcDbDictionaryVar
  3
ObjectDBX Classes
 90
        0
280
     0
281
     0
  0
CLASS
  1
SCALE
  2
AcDbScale
  3
ObjectDBX Classes
 90
     1153
280
     0
281
     0
  0
ENDSEC
  0
SECTION
  2
TABLES
  0
TABLE
  2
VPORT
  5
8
330
0
100
AcDbSymbolTable
 70
     1
  0
VPORT
  5
726
330
8
100
AcDbSymbolTableRecord
100
AcDbViewportTableRecord
  2
*Active
 70
     0
 10
0.0
 20
0.0
 11
1.0
 21
1.0
 12
207.503181385327
 22
100.99020775
 13
0.0
 23
0.0
 14
1.0
 24
1.0
 15
0.0
 25
0.0
 16
0.0
 26
0.0
 36
1.0
 17
0.0
 27
0.0
 37
0.0
 40
206.24544381
 41
2.271724137931
 42
50.0
 43
0.0
 44
0.0
 50
0.0
 51
0.0
 71
    16
 72
   100
 73
     1
 74
     3
 75
     0
 76
     0
 77
     0
 78
     0
281
     0
 65
     1
110
0.0
120
0.0
130
0.0
111
1.0
121
0.0
131
0.0
112
0.0
122
1.0
132
0.0
 79
     1
146
0.0
  0
ENDTAB
  0
TABLE
  2
LTYPE
  5
5
330
0
100
AcDbSymbolTable
 70
     1
  0
LTYPE
  5
13
330
5
100
AcDbSymbolTableRecord
100
AcDbLinetypeTableRecord
  2
ByBlock
 70
     0
  3

 72
    65
 73
     0
 40
0.0
  0
LTYPE
  5
14
330
5
100
AcDbSymbolTableRecord
100
AcDbLinetypeTableRecord
  2
ByLayer
 70
     0
  3

 72
    65
 73
     0
 40
0.0
  0
LTYPE
  5
15
330
5
100
AcDbSymbolTableRecord
100
AcDbLinetypeTableRecord
  2
Continuous
 70
     0
  3
Solid line
 72
    65
 73
     0
 40
0.0
  0
ENDTAB
  0
TABLE
  2
LAYER
  5
2
330
0
100
AcDbSymbolTable
 70
     1
  0
LAYER
  5
10
330
2
100
AcDbSymbolTableRecord
100
AcDbLayerTableRecord
  2
0
 70
     0
 62
     7
  6
Continuous
370
    -3
390
F
  0
ENDTAB
  0
TABLE
  2
STYLE
  5
3
330
0
100
AcDbSymbolTable
 70
     1
  0
STYLE
  5
11
330
3
100
AcDbSymbolTableRecord
100
AcDbTextStyleTableRecord
  2
Standard
 70
     0
 40
0.0
 41
1.0
 50
0.0
 71
     0
 42
0.2
  3
txt
  4

  0
ENDTAB
  0
TABLE
  2
VIEW
  5
6
330
0
100
AcDbSymbolTable
 70
     0
  0
ENDTAB
  0
TABLE
  2
UCS
  5
7
330
0
100
AcDbSymbolTable
 70
     0
  0
ENDTAB
  0
TABLE
  2
APPID
  5
9
330
0
100
AcDbSymbolTable
 70
     1
  0
APPID
  5
12
330
9
100
AcDbSymbolTableRecord
100
AcDbRegAppTableRecord
  2
ACAD
 70
     0
  0
ENDTAB
  0
TABLE
  2
DIMSTYLE
  5
A
330
0
100
AcDbSymbolTable
 70
     1
100
AcDbDimStyleTable
  0
DIMSTYLE
105
720
330
A
100
AcDbSymbolTableRecord
100
AcDbDimStyleTableRecord
  2
Standard
 70
     0
340
11
  0
ENDTAB
  0
TABLE
  2
BLOCK_RECORD
  5
1
330
0
100
AcDbSymbolTable
 70
     2
  0
BLOCK_RECORD
  5
1E
330
1
100
AcDbSymbolTableRecord
100
AcDbBlockTableRecord
  2
*Model_Space
340
21
  0
BLOCK_RECORD
  5
1A
330
1
100
AcDbSymbolTableRecord
100
AcDbBlockTableRecord
  2
*Paper_Space
340
1D
  0
ENDTAB
  0
ENDSEC
  0
SECTION
  2
BLOCKS
  0
BLOCK
  5
1F
330
1E
100
AcDbEntity
  8
0
100
AcDbBlockBegin
  2
*Model_Space
 70
     0
 10
0.0
 20
0.0
 30
0.0
  3
*Model_Space
  1
*Model_Space
  0
ENDBLK
  5
20
330
1E
100
AcDbEntity
  8
0
100
AcDbBlockEnd
  0
BLOCK
  5
1B
330
1A
100
AcDbEntity
 67
     1
  8
0
100
AcDbBlockBegin
  2
*Paper_Space
 70
     0
 10
0.0
 20
0.0
 30
0.0
  3
*Paper_Space
  1
*Paper_Space
  0
ENDBLK
  5
1C
330
1A
100
AcDbEntity
 67
     1
  8
0
100
AcDbBlockEnd
  0
ENDSEC
  0
SECTION
  2
ENTITIES
  0
LINE
  5
22
330
1E
100
AcDbEntity
  8
0
100
AcDbLine
 10
35.0
 20
-0.1105
 30
0.0
 11
44.0
 21
-0.1105
 31
0.0
  0
LINE
  5
23
330
1E
100
AcDbEntity
  8
0
100
AcDbLine
 10
44.0
 20
-0.1105
 30
0.0
 11
52.4
 21
-0.1105
 31
0.0
  0
LINE
  5
24
330
1E
100
AcDbEntity
  8
0
100
AcDbLine
 10
52.4
 20
-0.1105
 30
0.0
 11
59.7
 21
-0.1105
 31
0.0
  0
LINE
  5
25
330
1E
100
AcDbEntity
  8
0
100
AcDbLine
 10
59.7
 20
-0.1105
 30
0.0
 11
65.3
 21
-0.1105
 31
0.0
  0
LINE
  5
26
330
1E
100
AcDbEntity
  8
0
100
AcDbLine
 10
26.0
 20
-0.1105
 30
0.0
 11
35.0
 21
-0.1105
 31
0.0
  0
LINE
  5
27
330
1E
100
AcDbEntity
  8
0
100
AcDbLine
 10
17.6
 20
-0.1105
 30
0.0
 11
26.0
 21
-0.1105
 31
0.0
  0
LINE
  5
28
330
1E
100
AcDbEntity
  8
0
100
AcDbLine
 10
65.3
 20
-0.1105
 30
0.0
 11
68.7
 21
-0.1105
 31
0.0
  0
LINE
  5
29
330
1E
100
AcDbEntity
  8
0
100
AcDbLine
 10
68.7
 20
-0.1105
 30
0.0
 11
70.0
 21
-0.1105
 31
0.0
  0
LINE
  5
2A
330
1E
100
AcDbEntity
  8
0
100
AcDbLine
 10
10.3
 20
-0.1105
 30
0.0
 11
17.6
 21
-0.1105
 31
0.0
  0
LINE
  5
2B
330
1E
100
AcDbEntity
  8
0
100
AcDbLine
 10
4.7
 20
-0.1105
 30
0.0
 11
10.3
 21
-0.1105
 31
0.0
  0
LINE
  5
2C
330
1E
100
AcDbEntity
  8
0
100
AcDbLine
 10
1.3
 20
-0.1105
 30
0.0
 11
4.7
 21
-0.1105
 31
0.0
  0
LINE
  5
2D
330
1E
100
AcDbEntity
  8
0
100
AcDbLine
 10
136.0
 20
-0.1105
 30
0.0
 11
145.0
 21
-0.1105
 31
0.0
  0
LINE
  5
2E
330
1E
100
AcDbEntity
  8
0
100
AcDbLine
 10
145.0
 20
-0.1105
 30
0.0
 11
154.0
 21
-0.1105
 31
0.0
  0
LINE
  5
2F
330
1E
100
AcDbEntity
  8
0
100
AcDbLine
 10
127.6
 20
-0.1105
 30
0.0
 11
136.0
 21
-0.1105
 31
0.0
  0
LINE
  5
30
330
1E
100
AcDbEntity
  8
0
100
AcDbLine
 10
120.3
 20
-0.1105
 30
0.0
 11
127.6
 21
-0.1105
 31
0.0
  0
LINE
  5
31
330
1E
100
AcDbEntity
  8
0
100
AcDbLine
 10
154.0
 20
-0.1105
 30
0.0
 11
162.4
 21
-0.1105
 31
0.0
  0
LINE
  5
32
330
1E
100
AcDbEntity
  8
0
100
AcDbLine
 10
162.4
 20
-0.1105
 30
0.0
 11
169.7
 21
-0.1105
 31
0.0
  0
LINE
  5
33
330
1E
100
AcDbEntity
  8
0
100
AcDbLine
 10
114.7
 20
-0.1105
 30
0.0
 11
120.3
 21
-0.1105
 31
0.0
  0
LINE
  5
34
330
1E
100
AcDbEntity
  8
0
100
AcDbLine
 10
111.3
 20
-0.1105
 30
0.0
 11
114.7
 21
-0.1105
 31
0.0
  0
LINE
  5
35
330
1E
100
AcDbEntity
  8
0
100
AcDbLine
 10
169.7
 20
-0.1105
 30
0.0
 11
175.3
 21
-0.1105
 31
0.0
  0
LINE
  5
36
330
1E
100
AcDbEntity
  8
0
100
AcDbLine
 10
175.3
 20
-0.1105
 30
0.0
 11
178.7
 21
-0.1105
 31
0.0
  0
LINE
  5
37
330
1E
100
AcDbEntity
  8
0
100
AcDbLine
 10
178.7
 20
-0.1105
 30
0.0
 11
180.0
 21
-0.1105
 31
0.0
  0
LINE
  5
38
330
1E
100
AcDbEntity
  8
0
100
AcDbLine
 10
180.0
 20
-0.1105
 30
0.0
 11
180.0
 21
9.3895
 31
0.0
  0
LINE
  5
39
330
1E
100
AcDbEntity
  8
0
100
AcDbLine
 10
110.0
 20
-0.1105
 30
0.0
 11
111.3
 21
-0.1105
 31
0.0
  0
LINE
  5
3A
330
1E
100
AcDbEntity
  8
0
100
AcDbLine
 10
110.0
 20
-0.1105
 30
0.0
 11
111.3
 21
-0.1105
 31
0.0
  0
LINE
  5
3B
330
1E
100
AcDbEntity
  8
0
100
AcDbLine
 10
110.0
 20
-0.1105
 30
0.0
 11
110.0
 21
9.3895
 31
0.0
  0
LINE
  5
3C
330
1E
100
AcDbEntity
  8
0
100
AcDbLine
 10
255.0
 20
-0.1105
 30
0.0
 11
264.0
 21
-0.1105
 31
0.0
  0
LINE
  5
3D
330
1E
100
AcDbEntity
  8
0
100
AcDbLine
 10
264.0
 20
-0.1105
 30
0.0
 11
272.4
 21
-0.1105
 31
0.0
  0
LINE
  5
3E
330
1E
100
AcDbEntity
  8
0
100
AcDbLine
 10
272.4
 20
-0.1105
 30
0.0
 11
279.7
 21
-0.1105
 31
0.0
  0
LINE
  5
3F
330
1E
100
AcDbEntity
  8
0
100
AcDbLine
 10
246.0
 20
-0.1105
 30
0.0
 11
255.0
 21
-0.1105
 31
0.0
  0
LINE
  5
40
330
1E
100
AcDbEntity
  8
0
100
AcDbLine
 10
279.7
 20
-0.1105
 30
0.0
 11
285.3
 21
-0.1105
 31
0.0
  0
LINE
  5
41
330
1E
100
AcDbEntity
  8
0
100
AcDbLine
 10
285.3
 20
-0.1105
 30
0.0
 11
288.7
 21
-0.1105
 31
0.0
  0
LINE
  5
42
330
1E
100
AcDbEntity
  8
0
100
AcDbLine
 10
237.6
 20
-0.1105
 30
0.0
 11
246.0
 21
-0.1105
 31
0.0
  0
LINE
  5
43
330
1E
100
AcDbEntity
  8
0
100
AcDbLine
 10
230.3
 20
-0.1105
 30
0.0
 11
237.6
 21
-0.1105
 31
0.0
  0
LINE
  5
44
330
1E
100
AcDbEntity
  8
0
100
AcDbLine
 10
290.0
 20
-0.1105
 30
0.0
 11
290.0
 21
9.3895
 31
0.0
  0
LINE
  5
45
330
1E
100
AcDbEntity
  8
0
100
AcDbLine
 10
288.7
 20
-0.1105
 30
0.0
 11
290.0
 21
-0.1105
 31
0.0
  0
LINE
  5
46
330
1E
100
AcDbEntity
  8
0
100
AcDbLine
 10
224.7
 20
-0.1105
 30
0.0
 11
230.3
 21
-0.1105
 31
0.0
  0
LINE
  5
47
330
1E
100
AcDbEntity
  8
0
100
AcDbLine
 10
221.3
 20
-0.1105
 30
0.0
 11
224.7
 21
-0.1105
 31
0.0
  0
LINE
  5
48
330
1E
100
AcDbEntity
  8
0
100
AcDbLine
 10
220.0
 20
-0.1105
 30
0.0
 11
221.3
 21
-0.1105
 31
0.0
  0
LINE
  5
49
330
1E
100
AcDbEntity
  8
0
100
AcDbLine
 10
220.0
 20
-0.1105
 30
0.0
 11
220.0
 21
9.3895
 31
0.0
  0
LINE
  5
4A
330
1E
100
AcDbEntity
  8
0
100
AcDbLine
 10
220.0
 20
-0.1105
 30
0.0
 11
221.3
 21
-0.1105
 31
0.0
  0
LINE
  5
4B
330
1E
100
AcDbEntity
  8
0
100
AcDbLine
 10
70.0
 20
-0.1105
 30
0.0
 11
70.0
 21
9.3895
 31
0.0
  0
LINE
  5
4C
330
1E
100
AcDbEntity
  8
0
100
AcDbLine
 10
0.0
 20
-0.1105
 30
0.0
 11
1.3
 21
-0.1105
 31
0.0
  0
LINE
  5
4D
330
1E
100
AcDbEntity
  8
0
100
AcDbLine
 10
0.0
 20
-0.1105
 30
0.0
 11
1.3
 21
-0.1105
 31
0.0
  0
LINE
  5
4E
330
1E
100
AcDbEntity
  8
0
100
AcDbLine
 10
0.0
 20
-0.1105
 30
0.0
 11
0.0
 21
9.3895
 31
0.0
  0
LINE
  5
54
330
1E
100
AcDbEntity
  8
0
100
AcDbLine
 10
178.7
 20
-0.1105
 30
0.0
 11
180.0
 21
-0.1105
 31
0.0
  0
LINE
  5
55
330
1E
100
AcDbEntity
  8
0
100
AcDbLine
 10
111.3
 20
-0.1105
 30
0.0
 11
114.7
 21
-0.1105
 31
0.0
  0
LINE
  5
56
330
1E
100
AcDbEntity
  8
0
100
AcDbLine
 10
221.3
 20
-0.1105
 30
0.0
 11
224.7
 21
-0.1105
 31
0.0
  0
LINE
  5
57
330
1E
100
AcDbEntity
  8
0
100
AcDbLine
 10
288.7
 20
-0.1105
 30
0.0
 11
290.0
 21
-0.1105
 31
0.0
  0
LINE
  5
58
330
1E
100
AcDbEntity
  8
0
100
AcDbLine
 10
68.7
 20
-0.1105
 30
0.0
 11
70.0
 21
-0.1105
 31
0.0
  0
LINE
  5
59
330
1E
100
AcDbEntity
  8
0
100
AcDbLine
 10
4.7
 20
9.3895
 30
0.0
 11
10.3
 21
9.3895
 31
0.0
  0
LINE
  5
5A
330
1E
100
AcDbEntity
  8
0
100
AcDbLine
 10
1.3
 20
9.3895
 30
0.0
 11
4.7
 21
9.3895
 31
0.0
  0
LINE
  5
5B
330
1E
100
AcDbEntity
  8
0
100
AcDbLine
 10
0.0
 20
9.3895
 30
0.0
 11
0.0
 21
-0.1105
 31
0.0
  0
LINE
  5
5C
330
1E
100
AcDbEntity
  8
0
100
AcDbLine
 10
0.0
 20
9.3895
 30
0.0
 11
1.3
 21
9.3895
 31
0.0
  0
LINE
  5
5D
330
1E
100
AcDbEntity
  8
0
100
AcDbLine
 10
0.0
 20
9.3895
 30
0.0
 11
0.5
 21
9.8895
 31
0.0
  0
LINE
  5
5E
330
1E
100
AcDbEntity
  8
0
100
AcDbLine
 10
59.7
 20
-0.1105
 30
0.0
 11
65.3
 21
-0.1105
 31
0.0
  0
LINE
  5
5F
330
1E
100
AcDbEntity
  8
0
100
AcDbLine
 10
175.3
 20
-0.1105
 30
0.0
 11
178.7
 21
-0.1105
 31
0.0
  0
LINE
  5
60
330
1E
100
AcDbEntity
  8
0
100
AcDbLine
 10
114.7
 20
-0.1105
 30
0.0
 11
120.3
 21
-0.1105
 31
0.0
  0
LINE
  5
61
330
1E
100
AcDbEntity
  8
0
100
AcDbLine
 10
224.7
 20
-0.1105
 30
0.0
 11
230.3
 21
-0.1105
 31
0.0
  0
LINE
  5
62
330
1E
100
AcDbEntity
  8
0
100
AcDbLine
 10
169.7
 20
-0.1105
 30
0.0
 11
175.3
 21
-0.1105
 31
0.0
  0
LINE
  5
63
330
1E
100
AcDbEntity
  8
0
100
AcDbLine
 10
120.3
 20
-0.1105
 30
0.0
 11
127.6
 21
-0.1105
 31
0.0
  0
LINE
  5
64
330
1E
100
AcDbEntity
  8
0
100
AcDbLine
 10
230.3
 20
-0.1105
 30
0.0
 11
237.6
 21
-0.1105
 31
0.0
  0
LINE
  5
65
330
1E
100
AcDbEntity
  8
0
100
AcDbLine
 10
279.7
 20
-0.1105
 30
0.0
 11
285.3
 21
-0.1105
 31
0.0
  0
LINE
  5
66
330
1E
100
AcDbEntity
  8
0
100
AcDbLine
 10
285.3
 20
-0.1105
 30
0.0
 11
288.7
 21
-0.1105
 31
0.0
  0
LINE
  5
67
330
1E
100
AcDbEntity
  8
0
100
AcDbLine
 10
65.3
 20
-0.1105
 30
0.0
 11
68.7
 21
-0.1105
 31
0.0
  0
LINE
  5
68
330
1E
100
AcDbEntity
  8
0
100
AcDbLine
 10
17.6
 20
9.3895
 30
0.0
 11
26.0
 21
9.3895
 31
0.0
  0
LINE
  5
69
330
1E
100
AcDbEntity
  8
0
100
AcDbLine
 10
10.3
 20
9.3895
 30
0.0
 11
17.6
 21
9.3895
 31
0.0
  0
LINE
  5
6A
330
1E
100
AcDbEntity
  8
0
100
AcDbLine
 10
44.0
 20
-0.1105
 30
0.0
 11
52.4
 21
-0.1105
 31
0.0
  0
LINE
  5
6B
330
1E
100
AcDbEntity
  8
0
100
AcDbLine
 10
162.4
 20
-0.1105
 30
0.0
 11
169.7
 21
-0.1105
 31
0.0
  0
LINE
  5
6C
330
1E
100
AcDbEntity
  8
0
100
AcDbLine
 10
127.6
 20
-0.1105
 30
0.0
 11
136.0
 21
-0.1105
 31
0.0
  0
LINE
  5
6D
330
1E
100
AcDbEntity
  8
0
100
AcDbLine
 10
237.6
 20
-0.1105
 30
0.0
 11
246.0
 21
-0.1105
 31
0.0
  0
LINE
  5
6E
330
1E
100
AcDbEntity
  8
0
100
AcDbLine
 10
154.0
 20
-0.1105
 30
0.0
 11
162.4
 21
-0.1105
 31
0.0
  0
LINE
  5
6F
330
1E
100
AcDbEntity
  8
0
100
AcDbLine
 10
136.0
 20
-0.1105
 30
0.0
 11
145.0
 21
-0.1105
 31
0.0
  0
LINE
  5
70
330
1E
100
AcDbEntity
  8
0
100
AcDbLine
 10
246.0
 20
-0.1105
 30
0.0
 11
255.0
 21
-0.1105
 31
0.0
  0
LINE
  5
71
330
1E
100
AcDbEntity
  8
0
100
AcDbLine
 10
264.0
 20
-0.1105
 30
0.0
 11
272.4
 21
-0.1105
 31
0.0
  0
LINE
  5
72
330
1E
100
AcDbEntity
  8
0
100
AcDbLine
 10
272.4
 20
-0.1105
 30
0.0
 11
279.7
 21
-0.1105
 31
0.0
  0
LINE
  5
73
330
1E
100
AcDbEntity
  8
0
100
AcDbLine
 10
52.4
 20
-0.1105
 30
0.0
 11
59.7
 21
-0.1105
 31
0.0
  0
LINE
  5
74
330
1E
100
AcDbEntity
  8
0
100
AcDbLine
 10
145.0
 20
-0.1105
 30
0.0
 11
154.0
 21
-0.1105
 31
0.0
  0
LINE
  5
75
330
1E
100
AcDbEntity
  8
0
100
AcDbLine
 10
255.0
 20
-0.1105
 30
0.0
 11
264.0
 21
-0.1105
 31
0.0
  0
LINE
  5
76
330
1E
100
AcDbEntity
  8
0
100
AcDbLine
 10
35.0
 20
9.3895
 30
0.0
 11
44.0
 21
9.3895
 31
0.0
  0
LINE
  5
77
330
1E
100
AcDbEntity
  8
0
100
AcDbLine
 10
44.0
 20
9.3895
 30
0.0
 11
52.4
 21
9.3895
 31
0.0
  0
LINE
  5
78
330
1E
100
AcDbEntity
  8
0
100
AcDbLine
 10
52.4
 20
9.3895
 30
0.0
 11
59.7
 21
9.3895
 31
0.0
  0
LINE
  5
79
330
1E
100
AcDbEntity
  8
0
100
AcDbLine
 10
59.7
 20
9.3895
 30
0.0
 11
65.3
 21
9.3895
 31
0.0
  0
LINE
  5
7A
330
1E
100
AcDbEntity
  8
0
100
AcDbLine
 10
65.3
 20
9.3895
 30
0.0
 11
68.7
 21
9.3895
 31
0.0
  0
LINE
  5
7B
330
1E
100
AcDbEntity
  8
0
100
AcDbLine
 10
180.0
 20
9.3895
 30
0.0
 11
180.0
 21
-0.1105
 31
0.0
  0
LINE
  5
7C
330
1E
100
AcDbEntity
  8
0
100
AcDbLine
 10
110.0
 20
9.3895
 30
0.0
 11
110.0
 21
-0.1105
 31
0.0
  0
LINE
  5
7D
330
1E
100
AcDbEntity
  8
0
100
AcDbLine
 10
110.0
 20
9.3895
 30
0.0
 11
111.3
 21
9.3895
 31
0.0
  0
LINE
  5
7E
330
1E
100
AcDbEntity
  8
0
100
AcDbLine
 10
110.0
 20
9.3895
 30
0.0
 11
110.5
 21
9.8895
 31
0.0
  0
LINE
  5
7F
330
1E
100
AcDbEntity
  8
0
100
AcDbLine
 10
220.0
 20
9.3895
 30
0.0
 11
220.5
 21
9.8895
 31
0.0
  0
LINE
  5
80
330
1E
100
AcDbEntity
  8
0
100
AcDbLine
 10
220.0
 20
9.3895
 30
0.0
 11
220.0
 21
-0.1105
 31
0.0
  0
LINE
  5
81
330
1E
100
AcDbEntity
  8
0
100
AcDbLine
 10
220.0
 20
9.3895
 30
0.0
 11
221.3
 21
9.3895
 31
0.0
  0
LINE
  5
82
330
1E
100
AcDbEntity
  8
0
100
AcDbLine
 10
290.0
 20
9.3895
 30
0.0
 11
290.0
 21
-0.1105
 31
0.0
  0
LINE
  5
83
330
1E
100
AcDbEntity
  8
0
100
AcDbLine
 10
175.3
 20
9.3895
 30
0.0
 11
178.7
 21
9.3895
 31
0.0
  0
LINE
  5
84
330
1E
100
AcDbEntity
  8
0
100
AcDbLine
 10
178.7
 20
9.3895
 30
0.0
 11
180.0
 21
9.3895
 31
0.0
  0
LINE
  5
85
330
1E
100
AcDbEntity
  8
0
100
AcDbLine
 10
114.7
 20
9.3895
 30
0.0
 11
120.3
 21
9.3895
 31
0.0
  0
LINE
  5
86
330
1E
100
AcDbEntity
  8
0
100
AcDbLine
 10
111.3
 20
9.3895
 30
0.0
 11
114.7
 21
9.3895
 31
0.0
  0
LINE
  5
87
330
1E
100
AcDbEntity
  8
0
100
AcDbLine
 10
224.7
 20
9.3895
 30
0.0
 11
230.3
 21
9.3895
 31
0.0
  0
LINE
  5
88
330
1E
100
AcDbEntity
  8
0
100
AcDbLine
 10
145.0
 20
9.3895
 30
0.0
 11
154.0
 21
9.3895
 31
0.0
  0
LINE
  5
89
330
1E
100
AcDbEntity
  8
0
100
AcDbLine
 10
154.0
 20
9.3895
 30
0.0
 11
162.4
 21
9.3895
 31
0.0
  0
LINE
  5
8A
330
1E
100
AcDbEntity
  8
0
100
AcDbLine
 10
162.4
 20
9.3895
 30
0.0
 11
169.7
 21
9.3895
 31
0.0
  0
LINE
  5
8B
330
1E
100
AcDbEntity
  8
0
100
AcDbLine
 10
169.7
 20
9.3895
 30
0.0
 11
175.3
 21
9.3895
 31
0.0
  0
LINE
  5
8C
330
1E
100
AcDbEntity
  8
0
100
AcDbLine
 10
136.0
 20
9.3895
 30
0.0
 11
145.0
 21
9.3895
 31
0.0
  0
LINE
  5
8D
330
1E
100
AcDbEntity
  8
0
100
AcDbLine
 10
127.6
 20
9.3895
 30
0.0
 11
136.0
 21
9.3895
 31
0.0
  0
LINE
  5
8E
330
1E
100
AcDbEntity
  8
0
100
AcDbLine
 10
120.3
 20
9.3895
 30
0.0
 11
127.6
 21
9.3895
 31
0.0
  0
LINE
  5
8F
330
1E
100
AcDbEntity
  8
0
100
AcDbLine
 10
221.3
 20
9.3895
 30
0.0
 11
224.7
 21
9.3895
 31
0.0
  0
LINE
  5
90
330
1E
100
AcDbEntity
  8
0
100
AcDbLine
 10
285.3
 20
9.3895
 30
0.0
 11
288.7
 21
9.3895
 31
0.0
  0
LINE
  5
91
330
1E
100
AcDbEntity
  8
0
100
AcDbLine
 10
246.0
 20
9.3895
 30
0.0
 11
255.0
 21
9.3895
 31
0.0
  0
LINE
  5
92
330
1E
100
AcDbEntity
  8
0
100
AcDbLine
 10
237.6
 20
9.3895
 30
0.0
 11
246.0
 21
9.3895
 31
0.0
  0
LINE
  5
93
330
1E
100
AcDbEntity
  8
0
100
AcDbLine
 10
230.3
 20
9.3895
 30
0.0
 11
237.6
 21
9.3895
 31
0.0
  0
LINE
  5
94
330
1E
100
AcDbEntity
  8
0
100
AcDbLine
 10
255.0
 20
9.3895
 30
0.0
 11
264.0
 21
9.3895
 31
0.0
  0
LINE
  5
95
330
1E
100
AcDbEntity
  8
0
100
AcDbLine
 10
264.0
 20
9.3895
 30
0.0
 11
272.4
 21
9.3895
 31
0.0
  0
LINE
  5
96
330
1E
100
AcDbEntity
  8
0
100
AcDbLine
 10
272.4
 20
9.3895
 30
0.0
 11
279.7
 21
9.3895
 31
0.0
  0
LINE
  5
97
330
1E
100
AcDbEntity
  8
0
100
AcDbLine
 10
279.7
 20
9.3895
 30
0.0
 11
285.3
 21
9.3895
 31
0.0
  0
LINE
  5
98
330
1E
100
AcDbEntity
  8
0
100
AcDbLine
 10
288.7
 20
9.3895
 30
0.0
 11
290.0
 21
9.3895
 31
0.0
  0
LINE
  5
99
330
1E
100
AcDbEntity
  8
0
100
AcDbLine
 10
70.0
 20
9.3895
 30
0.0
 11
70.0
 21
-0.1105
 31
0.0
  0
LINE
  5
9A
330
1E
100
AcDbEntity
  8
0
100
AcDbLine
 10
68.7
 20
9.3895
 30
0.0
 11
70.0
 21
9.3895
 31
0.0
  0
LINE
  5
9B
330
1E
100
AcDbEntity
  8
0
100
AcDbLine
 10
35.0
 20
-0.1105
 30
0.0
 11
44.0
 21
-0.1105
 31
0.0
  0
LINE
  5
9C
330
1E
100
AcDbEntity
  8
0
100
AcDbLine
 10
26.0
 20
9.3895
 30
0.0
 11
35.0
 21
9.3895
 31
0.0
  0
LINE
  5
9D
330
1E
100
AcDbEntity
  8
0
100
AcDbLine
 10
26.0
 20
-0.1105
 30
0.0
 11
35.0
 21
-0.1105
 31
0.0
  0
LINE
  5
9E
330
1E
100
AcDbEntity
  8
0
100
AcDbLine
 10
17.6
 20
-0.1105
 30
0.0
 11
26.0
 21
-0.1105
 31
0.0
  0
LINE
  5
9F
330
1E
100
AcDbEntity
  8
0
100
AcDbLine
 10
10.3
 20
-0.1105
 30
0.0
 11
17.6
 21
-0.1105
 31
0.0
  0
LINE
  5
A0
330
1E
100
AcDbEntity
  8
0
100
AcDbLine
 10
4.7
 20
-0.1105
 30
0.0
 11
10.3
 21
-0.1105
 31
0.0
  0
LINE
  5
A1
330
1E
100
AcDbEntity
  8
0
100
AcDbLine
 10
1.3
 20
-0.1105
 30
0.0
 11
4.7
 21
-0.1105
 31
0.0
  0
LINE
  5
A9
330
1E
100
AcDbEntity
  8
0
100
AcDbLine
 10
0.5
 20
79.8895
 30
0.0
 11
30.0
 21
79.8895
 31
0.0
  0
LINE
  5
AA
330
1E
100
AcDbEntity
  8
0
100
AcDbLine
 10
17.0
 20
9.8895
 30
0.0
 11
17.0
 21
44.3895
 31
0.0
  0
LINE
  5
AB
330
1E
100
AcDbEntity
  8
0
100
AcDbLine
 10
53.0
 20
9.8895
 30
0.0
 11
53.0
 21
44.3895
 31
0.0
  0
LINE
  5
AC
330
1E
100
AcDbEntity
  8
0
100
AcDbLine
 10
69.5
 20
9.8895
 30
0.0
 11
70.0
 21
9.3895
 31
0.0
  0
LINE
  5
AD
330
1E
100
AcDbEntity
  8
0
100
AcDbLine
 10
68.3
 20
9.8895
 30
0.0
 11
69.5
 21
9.8895
 31
0.0
  0
LINE
  5
AE
330
1E
100
AcDbEntity
  8
0
100
AcDbLine
 10
1.7
 20
9.8895
 30
0.0
 11
5.1
 21
9.8895
 31
0.0
  0
LINE
  5
AF
330
1E
100
AcDbEntity
  8
0
100
AcDbLine
 10
52.1
 20
9.8895
 30
0.0
 11
59.4
 21
9.8895
 31
0.0
  0
LINE
  5
B0
330
1E
100
AcDbEntity
  8
0
100
AcDbLine
 10
59.4
 20
9.8895
 30
0.0
 11
64.9
 21
9.8895
 31
0.0
  0
LINE
  5
B1
330
1E
100
AcDbEntity
  8
0
100
AcDbLine
 10
64.9
 20
9.8895
 30
0.0
 11
68.3
 21
9.8895
 31
0.0
  0
LINE
  5
B2
330
1E
100
AcDbEntity
  8
0
100
AcDbLine
 10
17.9
 20
9.8895
 30
0.0
 11
26.1
 21
9.8895
 31
0.0
  0
LINE
  5
B3
330
1E
100
AcDbEntity
  8
0
100
AcDbLine
 10
26.1
 20
44.3895
 30
0.0
 11
30.4
 21
44.3895
 31
0.0
  0
LINE
  5
B4
330
1E
100
AcDbEntity
  8
0
100
AcDbLine
 10
22.3
 20
44.3895
 30
0.0
 11
26.1
 21
44.3895
 31
0.0
  0
LINE
  5
B5
330
1E
100
AcDbEntity
  8
0
100
AcDbLine
 10
19.4
 20
44.3895
 30
0.0
 11
22.3
 21
44.3895
 31
0.0
  0
LINE
  5
B6
330
1E
100
AcDbEntity
  8
0
100
AcDbLine
 10
17.7
 20
44.3895
 30
0.0
 11
19.4
 21
44.3895
 31
0.0
  0
LINE
  5
B7
330
1E
100
AcDbEntity
  8
0
100
AcDbLine
 10
22.6
 20
44.8895
 30
0.0
 11
26.3
 21
44.8895
 31
0.0
  0
LINE
  5
B8
330
1E
100
AcDbEntity
  8
0
100
AcDbLine
 10
19.8
 20
44.8895
 30
0.0
 11
22.6
 21
44.8895
 31
0.0
  0
LINE
  5
B9
330
1E
100
AcDbEntity
  8
0
100
AcDbLine
 10
18.1
 20
44.8895
 30
0.0
 11
19.8
 21
44.8895
 31
0.0
  0
LINE
  5
BA
330
1E
100
AcDbEntity
  8
0
100
AcDbLine
 10
17.5
 20
44.8895
 30
0.0
 11
18.1
 21
44.8895
 31
0.0
  0
LINE
  5
BB
330
1E
100
AcDbEntity
  8
0
100
AcDbLine
 10
17.0
 20
44.3895
 30
0.0
 11
17.0
 21
9.8895
 31
0.0
  0
LINE
  5
BC
330
1E
100
AcDbEntity
  8
0
100
AcDbLine
 10
17.0
 20
44.3895
 30
0.0
 11
17.7
 21
44.3895
 31
0.0
  0
LINE
  5
BD
330
1E
100
AcDbEntity
  8
0
100
AcDbLine
 10
17.0
 20
44.3895
 30
0.0
 11
17.5
 21
44.8895
 31
0.0
  0
LINE
  5
BE
330
1E
100
AcDbEntity
  8
0
100
AcDbLine
 10
35.0
 20
44.3895
 30
0.0
 11
39.6
 21
44.3895
 31
0.0
  0
LINE
  5
BF
330
1E
100
AcDbEntity
  8
0
100
AcDbLine
 10
39.6
 20
44.3895
 30
0.0
 11
43.9
 21
44.3895
 31
0.0
  0
LINE
  5
C0
330
1E
100
AcDbEntity
  8
0
100
AcDbLine
 10
43.9
 20
44.3895
 30
0.0
 11
47.7
 21
44.3895
 31
0.0
  0
LINE
  5
C1
330
1E
100
AcDbEntity
  8
0
100
AcDbLine
 10
35.0
 20
9.8895
 30
0.0
 11
43.9
 21
9.8895
 31
0.0
  0
LINE
  5
C2
330
1E
100
AcDbEntity
  8
0
100
AcDbLine
 10
47.7
 20
44.3895
 30
0.0
 11
50.6
 21
44.3895
 31
0.0
  0
LINE
  5
C3
330
1E
100
AcDbEntity
  8
0
100
AcDbLine
 10
53.0
 20
44.3895
 30
0.0
 11
53.0
 21
9.8895
 31
0.0
  0
LINE
  5
C4
330
1E
100
AcDbEntity
  8
0
100
AcDbLine
 10
50.6
 20
44.3895
 30
0.0
 11
52.3
 21
44.3895
 31
0.0
  0
LINE
  5
C5
330
1E
100
AcDbEntity
  8
0
100
AcDbLine
 10
52.3
 20
44.3895
 30
0.0
 11
53.0
 21
44.3895
 31
0.0
  0
LINE
  5
C6
330
1E
100
AcDbEntity
  8
0
100
AcDbLine
 10
43.9
 20
9.8895
 30
0.0
 11
52.1
 21
9.8895
 31
0.0
  0
LINE
  5
C7
330
1E
100
AcDbEntity
  8
0
100
AcDbLine
 10
35.0
 20
44.8895
 30
0.0
 11
39.5
 21
44.8895
 31
0.0
  0
LINE
  5
C8
330
1E
100
AcDbEntity
  8
0
100
AcDbLine
 10
39.5
 20
44.8895
 30
0.0
 11
43.7
 21
44.8895
 31
0.0
  0
LINE
  5
C9
330
1E
100
AcDbEntity
  8
0
100
AcDbLine
 10
30.0
 20
44.8895
 30
0.0
 11
30.0
 21
79.8895
 31
0.0
  0
LINE
  5
CA
330
1E
100
AcDbEntity
  8
0
100
AcDbLine
 10
43.7
 20
44.8895
 30
0.0
 11
47.4
 21
44.8895
 31
0.0
  0
LINE
  5
CB
330
1E
100
AcDbEntity
  8
0
100
AcDbLine
 10
47.4
 20
44.8895
 30
0.0
 11
50.2
 21
44.8895
 31
0.0
  0
LINE
  5
CC
330
1E
100
AcDbEntity
  8
0
100
AcDbLine
 10
50.2
 20
44.8895
 30
0.0
 11
51.9
 21
44.8895
 31
0.0
  0
LINE
  5
CD
330
1E
100
AcDbEntity
  8
0
100
AcDbLine
 10
51.9
 20
44.8895
 30
0.0
 11
52.5
 21
44.8895
 31
0.0
  0
LINE
  5
CE
330
1E
100
AcDbEntity
  8
0
100
AcDbLine
 10
52.5
 20
44.8895
 30
0.0
 11
53.0
 21
44.3895
 31
0.0
  0
LINE
  5
CF
330
1E
100
AcDbEntity
  8
0
100
AcDbLine
 10
40.0
 20
44.8895
 30
0.0
 11
40.0
 21
79.8895
 31
0.0
  0
LINE
  5
D0
330
1E
100
AcDbEntity
  8
0
100
AcDbLine
 10
39.8
 20
79.8895
 30
0.0
 11
40.0
 21
79.8895
 31
0.0
  0
LINE
  5
D1
330
1E
100
AcDbEntity
  8
0
100
AcDbLine
 10
30.2
 20
79.8895
 30
0.0
 11
30.7
 21
79.8895
 31
0.0
  0
LINE
  5
D2
330
1E
100
AcDbEntity
  8
0
100
AcDbLine
 10
30.0
 20
79.8895
 30
0.0
 11
30.0
 21
44.8895
 31
0.0
  0
LINE
  5
D3
330
1E
100
AcDbEntity
  8
0
100
AcDbLine
 10
30.0
 20
79.8895
 30
0.0
 11
30.2
 21
79.8895
 31
0.0
  0
LINE
  5
D4
330
1E
100
AcDbEntity
  8
0
100
AcDbLine
 10
30.5
 20
44.8895
 30
0.0
 11
35.0
 21
44.8895
 31
0.0
  0
LINE
  5
D5
330
1E
100
AcDbEntity
  8
0
100
AcDbLine
 10
26.3
 20
44.8895
 30
0.0
 11
30.5
 21
44.8895
 31
0.0
  0
LINE
  5
D6
330
1E
100
AcDbEntity
  8
0
100
AcDbLine
 10
30.4
 20
44.3895
 30
0.0
 11
35.0
 21
44.3895
 31
0.0
  0
LINE
  5
D7
330
1E
100
AcDbEntity
  8
0
100
AcDbLine
 10
26.1
 20
9.8895
 30
0.0
 11
35.0
 21
9.8895
 31
0.0
  0
LINE
  5
D8
330
1E
100
AcDbEntity
  8
0
100
AcDbLine
 10
10.6
 20
9.8895
 30
0.0
 11
17.9
 21
9.8895
 31
0.0
  0
LINE
  5
D9
330
1E
100
AcDbEntity
  8
0
100
AcDbLine
 10
5.1
 20
9.8895
 30
0.0
 11
10.6
 21
9.8895
 31
0.0
  0
LINE
  5
DA
330
1E
100
AcDbEntity
  8
0
100
AcDbLine
 10
1.7
 20
9.8895
 30
0.0
 11
5.1
 21
9.8895
 31
0.0
  0
LINE
  5
DB
330
1E
100
AcDbEntity
  8
0
100
AcDbLine
 10
0.5
 20
9.8895
 30
0.0
 11
1.7
 21
9.8895
 31
0.0
  0
LINE
  5
DC
330
1E
100
AcDbEntity
  8
0
100
AcDbLine
 10
40.0
 20
79.8895
 30
0.0
 11
69.5
 21
79.8895
 31
0.0
  0
LINE
  5
DD
330
1E
100
AcDbEntity
  8
0
100
AcDbLine
 10
40.0
 20
79.8895
 30
0.0
 11
40.0
 21
44.8895
 31
0.0
  0
LINE
  5
DE
330
1E
100
AcDbEntity
  8
0
100
AcDbLine
 10
120.0
 20
9.8895
 30
0.0
 11
120.0
 21
64.3895
 31
0.0
  0
LINE
  5
DF
330
1E
100
AcDbEntity
  8
0
100
AcDbLine
 10
111.7
 20
9.8895
 30
0.0
 11
115.1
 21
9.8895
 31
0.0
  0
LINE
  5
E0
330
1E
100
AcDbEntity
  8
0
100
AcDbLine
 10
127.9
 20
9.8895
 30
0.0
 11
136.1
 21
9.8895
 31
0.0
  0
LINE
  5
E2
330
1E
100
AcDbEntity
  8
0
100
AcDbLine
 10
123.3
 20
64.3895
 30
0.0
 11
166.7
 21
64.3895
 31
0.0
  0
LINE
  5
E3
330
1E
100
AcDbEntity
  8
0
100
AcDbLine
 10
127.7
 20
64.8895
 30
0.0
 11
132.8
 21
64.8895
 31
0.0
  0
LINE
  5
E4
330
1E
100
AcDbEntity
  8
0
100
AcDbLine
 10
123.8
 20
64.8895
 30
0.0
 11
127.7
 21
64.8895
 31
0.0
  0
LINE
  5
E5
330
1E
100
AcDbEntity
  8
0
100
AcDbLine
 10
121.4
 20
64.8895
 30
0.0
 11
123.8
 21
64.8895
 31
0.0
  0
LINE
  5
E6
330
1E
100
AcDbEntity
  8
0
100
AcDbLine
 10
120.5
 20
64.8895
 30
0.0
 11
121.4
 21
64.8895
 31
0.0
  0
LINE
  5
E7
330
1E
100
AcDbEntity
  8
0
100
AcDbLine
 10
120.9
 20
64.3895
 30
0.0
 11
123.3
 21
64.3895
 31
0.0
  0
LINE
  5
E8
330
1E
100
AcDbEntity
  8
0
100
AcDbLine
 10
120.0
 20
64.3895
 30
0.0
 11
120.0
 21
9.8895
 31
0.0
  0
LINE
  5
E9
330
1E
100
AcDbEntity
  8
0
100
AcDbLine
 10
120.0
 20
64.3895
 30
0.0
 11
120.9
 21
64.3895
 31
0.0
  0
LINE
  5
EA
330
1E
100
AcDbEntity
  8
0
100
AcDbLine
 10
120.0
 20
64.3895
 30
0.0
 11
120.5
 21
64.8895
 31
0.0
  0
LINE
  5
EB
330
1E
100
AcDbEntity
  8
0
100
AcDbLine
 10
120.6
 20
9.8895
 30
0.0
 11
127.9
 21
9.8895
 31
0.0
  0
LINE
  5
EC
330
1E
100
AcDbEntity
  8
0
100
AcDbLine
 10
115.1
 20
9.8895
 30
0.0
 11
120.6
 21
9.8895
 31
0.0
  0
LINE
  5
ED
330
1E
100
AcDbEntity
  8
0
100
AcDbLine
 10
110.5
 20
9.8895
 30
0.0
 11
111.7
 21
9.8895
 31
0.0
  0
LINE
  5
EE
330
1E
100
AcDbEntity
  8
0
100
AcDbLine
 10
178.3
 20
9.8895
 30
0.0
 11
179.5
 21
9.8895
 31
0.0
  0
LINE
  5
EF
330
1E
100
AcDbEntity
  8
0
100
AcDbLine
 10
179.5
 20
9.8895
 30
0.0
 11
180.0
 21
9.3895
 31
0.0
  0
LINE
  5
F0
330
1E
100
AcDbEntity
  8
0
100
AcDbLine
 10
170.0
 20
9.8895
 30
0.0
 11
170.0
 21
64.3895
 31
0.0
  0
LINE
  5
F1
330
1E
100
AcDbEntity
  8
0
100
AcDbLine
 10
221.7
 20
9.8895
 30
0.0
 11
225.1
 21
9.8895
 31
0.0
  0
LINE
  5
F2
330
1E
100
AcDbEntity
  8
0
100
AcDbLine
 10
220.5
 20
9.8895
 30
0.0
 11
221.7
 21
9.8895
 31
0.0
  0
LINE
  5
F3
330
1E
100
AcDbEntity
  8
0
100
AcDbLine
 10
162.1
 20
9.8895
 30
0.0
 11
169.4
 21
9.8895
 31
0.0
  0
LINE
  5
F4
330
1E
100
AcDbEntity
  8
0
100
AcDbLine
 10
145.0
 20
9.8895
 30
0.0
 11
153.9
 21
9.8895
 31
0.0
  0
LINE
  5
F5
330
1E
100
AcDbEntity
  8
0
100
AcDbLine
 10
153.9
 20
9.8895
 30
0.0
 11
162.1
 21
9.8895
 31
0.0
  0
LINE
  5
F6
330
1E
100
AcDbEntity
  8
0
100
AcDbLine
 10
169.4
 20
9.8895
 30
0.0
 11
174.9
 21
9.8895
 31
0.0
  0
LINE
  5
F7
330
1E
100
AcDbEntity
  8
0
100
AcDbLine
 10
174.9
 20
9.8895
 30
0.0
 11
178.3
 21
9.8895
 31
0.0
  0
LINE
  5
F8
330
1E
100
AcDbEntity
  8
0
100
AcDbLine
 10
136.1
 20
9.8895
 30
0.0
 11
145.0
 21
9.8895
 31
0.0
  0
LINE
  5
F9
330
1E
100
AcDbEntity
  8
0
100
AcDbLine
 10
237.9
 20
9.8895
 30
0.0
 11
246.1
 21
9.8895
 31
0.0
  0
LINE
  5
FA
330
1E
100
AcDbEntity
  8
0
100
AcDbLine
 10
230.6
 20
9.8895
 30
0.0
 11
237.9
 21
9.8895
 31
0.0
  0
LINE
  5
FB
330
1E
100
AcDbEntity
  8
0
100
AcDbLine
 10
225.1
 20
9.8895
 30
0.0
 11
230.6
 21
9.8895
 31
0.0
  0
LINE
  5
FC
330
1E
100
AcDbEntity
  8
0
100
AcDbLine
 10
237.0
 20
9.8895
 30
0.0
 11
237.0
 21
44.3895
 31
0.0
  0
LINE
  5
FD
330
1E
100
AcDbEntity
  8
0
100
AcDbLine
 10
246.1
 20
9.8895
 30
0.0
 11
255.0
 21
9.8895
 31
0.0
  0
LINE
  5
FE
330
1E
100
AcDbEntity
  8
0
100
AcDbLine
 10
255.0
 20
9.8895
 30
0.0
 11
263.9
 21
9.8895
 31
0.0
  0
LINE
  5
FF
330
1E
100
AcDbEntity
  8
0
100
AcDbLine
 10
255.0
 20
44.3895
 30
0.0
 11
259.6
 21
44.3895
 31
0.0
  0
LINE
  5
100
330
1E
100
AcDbEntity
  8
0
100
AcDbLine
 10
259.6
 20
44.3895
 30
0.0
 11
263.9
 21
44.3895
 31
0.0
  0
LINE
  5
101
330
1E
100
AcDbEntity
  8
0
100
AcDbLine
 10
250.4
 20
44.3895
 30
0.0
 11
255.0
 21
44.3895
 31
0.0
  0
LINE
  5
102
330
1E
100
AcDbEntity
  8
0
100
AcDbLine
 10
246.1
 20
44.3895
 30
0.0
 11
250.4
 21
44.3895
 31
0.0
  0
LINE
  5
103
330
1E
100
AcDbEntity
  8
0
100
AcDbLine
 10
242.3
 20
44.3895
 30
0.0
 11
246.1
 21
44.3895
 31
0.0
  0
LINE
  5
104
330
1E
100
AcDbEntity
  8
0
100
AcDbLine
 10
239.4
 20
44.3895
 30
0.0
 11
242.3
 21
44.3895
 31
0.0
  0
LINE
  5
105
330
1E
100
AcDbEntity
  8
0
100
AcDbLine
 10
237.7
 20
44.3895
 30
0.0
 11
239.4
 21
44.3895
 31
0.0
  0
LINE
  5
106
330
1E
100
AcDbEntity
  8
0
100
AcDbLine
 10
237.0
 20
44.3895
 30
0.0
 11
237.5
 21
44.8895
 31
0.0
  0
LINE
  5
107
330
1E
100
AcDbEntity
  8
0
100
AcDbLine
 10
237.0
 20
44.3895
 30
0.0
 11
237.0
 21
9.8895
 31
0.0
  0
LINE
  5
108
330
1E
100
AcDbEntity
  8
0
100
AcDbLine
 10
237.0
 20
44.3895
 30
0.0
 11
237.7
 21
44.3895
 31
0.0
  0
LINE
  5
109
330
1E
100
AcDbEntity
  8
0
100
AcDbLine
 10
273.0
 20
9.8895
 30
0.0
 11
273.0
 21
44.3895
 31
0.0
  0
LINE
  5
10A
330
1E
100
AcDbEntity
  8
0
100
AcDbLine
 10
288.3
 20
9.8895
 30
0.0
 11
289.5
 21
9.8895
 31
0.0
  0
LINE
  5
10B
330
1E
100
AcDbEntity
  8
0
100
AcDbLine
 10
272.1
 20
9.8895
 30
0.0
 11
279.4
 21
9.8895
 31
0.0
  0
LINE
  5
10C
330
1E
100
AcDbEntity
  8
0
100
AcDbLine
 10
263.9
 20
44.3895
 30
0.0
 11
267.7
 21
44.3895
 31
0.0
  0
LINE
  5
10D
330
1E
100
AcDbEntity
  8
0
100
AcDbLine
 10
267.7
 20
44.3895
 30
0.0
 11
270.6
 21
44.3895
 31
0.0
  0
LINE
  5
10E
330
1E
100
AcDbEntity
  8
0
100
AcDbLine
 10
270.6
 20
44.3895
 30
0.0
 11
272.3
 21
44.3895
 31
0.0
  0
LINE
  5
10F
330
1E
100
AcDbEntity
  8
0
100
AcDbLine
 10
272.3
 20
44.3895
 30
0.0
 11
273.0
 21
44.3895
 31
0.0
  0
LINE
  5
110
330
1E
100
AcDbEntity
  8
0
100
AcDbLine
 10
263.9
 20
9.8895
 30
0.0
 11
272.1
 21
9.8895
 31
0.0
  0
LINE
  5
111
330
1E
100
AcDbEntity
  8
0
100
AcDbLine
 10
279.4
 20
9.8895
 30
0.0
 11
284.9
 21
9.8895
 31
0.0
  0
LINE
  5
112
330
1E
100
AcDbEntity
  8
0
100
AcDbLine
 10
284.9
 20
9.8895
 30
0.0
 11
288.3
 21
9.8895
 31
0.0
  0
LINE
  5
113
330
1E
100
AcDbEntity
  8
0
100
AcDbLine
 10
289.5
 20
9.8895
 30
0.0
 11
290.0
 21
9.3895
 31
0.0
  0
LINE
  5
114
330
1E
100
AcDbEntity
  8
0
100
AcDbLine
 10
255.0
 20
44.8895
 30
0.0
 11
259.5
 21
44.8895
 31
0.0
  0
LINE
  5
115
330
1E
100
AcDbEntity
  8
0
100
AcDbLine
 10
259.5
 20
44.8895
 30
0.0
 11
263.7
 21
44.8895
 31
0.0
  0
LINE
  5
116
330
1E
100
AcDbEntity
  8
0
100
AcDbLine
 10
250.5
 20
44.8895
 30
0.0
 11
255.0
 21
44.8895
 31
0.0
  0
LINE
  5
117
330
1E
100
AcDbEntity
  8
0
100
AcDbLine
 10
246.3
 20
44.8895
 30
0.0
 11
250.5
 21
44.8895
 31
0.0
  0
LINE
  5
118
330
1E
100
AcDbEntity
  8
0
100
AcDbLine
 10
242.6
 20
44.8895
 30
0.0
 11
246.3
 21
44.8895
 31
0.0
  0
LINE
  5
119
330
1E
100
AcDbEntity
  8
0
100
AcDbLine
 10
239.8
 20
44.8895
 30
0.0
 11
242.6
 21
44.8895
 31
0.0
  0
LINE
  5
11A
330
1E
100
AcDbEntity
  8
0
100
AcDbLine
 10
238.1
 20
44.8895
 30
0.0
 11
239.8
 21
44.8895
 31
0.0
  0
LINE
  5
11B
330
1E
100
AcDbEntity
  8
0
100
AcDbLine
 10
237.5
 20
44.8895
 30
0.0
 11
238.1
 21
44.8895
 31
0.0
  0
LINE
  5
11C
330
1E
100
AcDbEntity
  8
0
100
AcDbLine
 10
263.7
 20
44.8895
 30
0.0
 11
267.4
 21
44.8895
 31
0.0
  0
LINE
  5
11D
330
1E
100
AcDbEntity
  8
0
100
AcDbLine
 10
267.4
 20
44.8895
 30
0.0
 11
270.2
 21
44.8895
 31
0.0
  0
LINE
  5
11E
330
1E
100
AcDbEntity
  8
0
100
AcDbLine
 10
270.2
 20
44.8895
 30
0.0
 11
271.9
 21
44.8895
 31
0.0
  0
LINE
  5
11F
330
1E
100
AcDbEntity
  8
0
100
AcDbLine
 10
271.9
 20
44.8895
 30
0.0
 11
272.5
 21
44.8895
 31
0.0
  0
LINE
  5
120
330
1E
100
AcDbEntity
  8
0
100
AcDbLine
 10
260.0
 20
44.8895
 30
0.0
 11
260.0
 21
79.8895
 31
0.0
  0
LINE
  5
121
330
1E
100
AcDbEntity
  8
0
100
AcDbLine
 10
132.8
 20
64.8895
 30
0.0
 11
138.7
 21
64.8895
 31
0.0
  0
LINE
  5
124
330
1E
100
AcDbEntity
  8
0
100
AcDbLine
 10
145.0
 20
64.8895
 30
0.0
 11
151.3
 21
64.8895
 31
0.0
  0
LINE
  5
125
330
1E
100
AcDbEntity
  8
0
100
AcDbLine
 10
158.5
 20
64.8895
 30
0.0
 11
158.5
 21
116.3895
 31
0.0
  0
LINE
  5
126
330
1E
100
AcDbEntity
  8
0
100
AcDbLine
 10
159.0
 20
64.8895
 30
0.0
 11
159.0
 21
116.8895
 31
0.0
  0
LINE
  5
128
330
1E
100
AcDbEntity
  8
0
100
AcDbLine
 10
151.3
 20
64.8895
 30
0.0
 11
157.2
 21
64.8895
 31
0.0
  0
LINE
  5
129
330
1E
100
AcDbEntity
  8
0
100
AcDbLine
 10
157.2
 20
64.8895
 30
0.0
 11
162.3
 21
64.8895
 31
0.0
  0
LINE
  5
12B
330
1E
100
AcDbEntity
  8
0
100
AcDbLine
 10
162.3
 20
64.8895
 30
0.0
 11
166.2
 21
64.8895
 31
0.0
  0
LINE
  5
12C
330
1E
100
AcDbEntity
  8
0
100
AcDbLine
 10
166.2
 20
64.8895
 30
0.0
 11
168.6
 21
64.8895
 31
0.0
  0
LINE
  5
12D
330
1E
100
AcDbEntity
  8
0
100
AcDbLine
 10
168.6
 20
64.8895
 30
0.0
 11
169.5
 21
64.8895
 31
0.0
  0
LINE
  5
12E
330
1E
100
AcDbEntity
  8
0
100
AcDbLine
 10
166.7
 20
64.3895
 30
0.0
 11
169.1
 21
64.3895
 31
0.0
  0
LINE
  5
12F
330
1E
100
AcDbEntity
  8
0
100
AcDbLine
 10
170.0
 20
64.3895
 30
0.0
 11
170.0
 21
9.8895
 31
0.0
  0
LINE
  5
130
330
1E
100
AcDbEntity
  8
0
100
AcDbLine
 10
169.5
 20
64.8895
 30
0.0
 11
170.0
 21
64.3895
 31
0.0
  0
LINE
  5
131
330
1E
100
AcDbEntity
  8
0
100
AcDbLine
 10
169.1
 20
64.3895
 30
0.0
 11
170.0
 21
64.3895
 31
0.0
  0
LINE
  5
132
330
1E
100
AcDbEntity
  8
0
100
AcDbLine
 10
138.7
 20
64.8895
 30
0.0
 11
145.0
 21
64.8895
 31
0.0
  0
LINE
  5
135
330
1E
100
AcDbEntity
  8
0
100
AcDbLine
 10
250.0
 20
44.8895
 30
0.0
 11
250.0
 21
79.8895
 31
0.0
  0
LINE
  5
136
330
1E
100
AcDbEntity
  8
0
100
AcDbLine
 10
272.5
 20
44.8895
 30
0.0
 11
273.0
 21
44.3895
 31
0.0
  0
LINE
  5
137
330
1E
100
AcDbEntity
  8
0
100
AcDbLine
 10
273.0
 20
44.3895
 30
0.0
 11
273.0
 21
9.8895
 31
0.0
  0
LINE
  5
138
330
1E
100
AcDbEntity
  8
0
100
AcDbLine
 10
131.5
 20
64.8895
 30
0.0
 11
131.5
 21
116.3895
 31
0.0
  0
LINE
  5
139
330
1E
100
AcDbEntity
  8
0
100
AcDbLine
 10
220.5
 20
79.8895
 30
0.0
 11
250.0
 21
79.8895
 31
0.0
  0
LINE
  5
13A
330
1E
100
AcDbEntity
  8
0
100
AcDbLine
 10
250.2
 20
79.8895
 30
0.0
 11
250.7
 21
79.8895
 31
0.0
  0
LINE
  5
13B
330
1E
100
AcDbEntity
  8
0
100
AcDbLine
 10
250.0
 20
79.8895
 30
0.0
 11
250.2
 21
79.8895
 31
0.0
  0
LINE
  5
13C
330
1E
100
AcDbEntity
  8
0
100
AcDbLine
 10
250.0
 20
79.8895
 30
0.0
 11
250.0
 21
44.8895
 31
0.0
  0
LINE
  5
13D
330
1E
100
AcDbEntity
  8
0
100
AcDbLine
 10
259.8
 20
79.8895
 30
0.0
 11
260.0
 21
79.8895
 31
0.0
  0
LINE
  5
13E
330
1E
100
AcDbEntity
  8
0
100
AcDbLine
 10
289.5
 20
79.8895
 30
0.0
 11
290.0
 21
80.3895
 31
0.0
  0
LINE
  5
13F
330
1E
100
AcDbEntity
  8
0
100
AcDbLine
 10
260.0
 20
79.8895
 30
0.0
 11
260.0
 21
44.8895
 31
0.0
  0
LINE
  5
140
330
1E
100
AcDbEntity
  8
0
100
AcDbLine
 10
260.0
 20
79.8895
 30
0.0
 11
289.5
 21
79.8895
 31
0.0
  0
LINE
  5
141
330
1E
100
AcDbEntity
  8
0
100
AcDbLine
 10
131.0
 20
64.8895
 30
0.0
 11
131.0
 21
123.8895
 31
0.0
  0
LINE
  5
142
330
1E
100
AcDbEntity
  8
0
100
AcDbLine
 10
131.0
 20
64.8895
 30
0.0
 11
131.0
 21
123.8895
 31
0.0
  0
LINE
  5
143
330
1E
100
AcDbEntity
  8
0
100
AcDbLine
 10
69.5
 20
79.8895
 30
0.0
 11
70.0
 21
80.3895
 31
0.0
  0
LINE
  5
144
330
1E
100
AcDbEntity
  8
0
100
AcDbLine
 10
30.7
 20
79.8895
 30
0.0
 11
31.5
 21
79.8895
 31
0.0
  0
LINE
  5
145
330
1E
100
AcDbEntity
  8
0
100
AcDbLine
 10
36.3
 20
79.8895
 30
0.0
 11
37.5
 21
79.8895
 31
0.0
  0
LINE
  5
146
330
1E
100
AcDbEntity
  8
0
100
AcDbLine
 10
37.5
 20
79.8895
 30
0.0
 11
38.5
 21
79.8895
 31
0.0
  0
LINE
  5
147
330
1E
100
AcDbEntity
  8
0
100
AcDbLine
 10
33.7
 20
79.8895
 30
0.0
 11
35.0
 21
79.8895
 31
0.0
  0
LINE
  5
148
330
1E
100
AcDbEntity
  8
0
100
AcDbLine
 10
32.5
 20
79.8895
 30
0.0
 11
33.7
 21
79.8895
 31
0.0
  0
LINE
  5
149
330
1E
100
AcDbEntity
  8
0
100
AcDbLine
 10
220.5
 20
79.8895
 30
0.0
 11
251.2
 21
79.8895
 31
0.0
  0
LINE
  5
14A
330
1E
100
AcDbEntity
  8
0
100
AcDbLine
 10
253.7
 20
79.8895
 30
0.0
 11
255.0
 21
79.8895
 31
0.0
  0
LINE
  5
14B
330
1E
100
AcDbEntity
  8
0
100
AcDbLine
 10
252.5
 20
79.8895
 30
0.0
 11
253.7
 21
79.8895
 31
0.0
  0
LINE
  5
14C
330
1E
100
AcDbEntity
  8
0
100
AcDbLine
 10
251.5
 20
79.8895
 30
0.0
 11
252.5
 21
79.8895
 31
0.0
  0
LINE
  5
14D
330
1E
100
AcDbEntity
  8
0
100
AcDbLine
 10
251.5
 20
79.8895
 30
0.0
 11
255.0
 21
79.8895
 31
0.0
  0
LINE
  5
14E
330
1E
100
AcDbEntity
  8
0
100
AcDbLine
 10
250.7
 20
79.8895
 30
0.0
 11
251.5
 21
79.8895
 31
0.0
  0
LINE
  5
14F
330
1E
100
AcDbEntity
  8
0
100
AcDbLine
 10
255.0
 20
79.8895
 30
0.0
 11
256.3
 21
79.8895
 31
0.0
  0
LINE
  5
150
330
1E
100
AcDbEntity
  8
0
100
AcDbLine
 10
255.0
 20
79.8895
 30
0.0
 11
258.5
 21
79.8895
 31
0.0
  0
LINE
  5
151
330
1E
100
AcDbEntity
  8
0
100
AcDbLine
 10
256.3
 20
79.8895
 30
0.0
 11
257.5
 21
79.8895
 31
0.0
  0
LINE
  5
152
330
1E
100
AcDbEntity
  8
0
100
AcDbLine
 10
257.5
 20
79.8895
 30
0.0
 11
258.5
 21
79.8895
 31
0.0
  0
LINE
  5
153
330
1E
100
AcDbEntity
  8
0
100
AcDbLine
 10
289.5
 20
79.8895
 30
0.0
 11
290.0
 21
80.3895
 31
0.0
  0
LINE
  5
154
330
1E
100
AcDbEntity
  8
0
100
AcDbLine
 10
258.8
 20
79.8895
 30
0.0
 11
289.5
 21
79.8895
 31
0.0
  0
LINE
  5
155
330
1E
100
AcDbEntity
  8
0
100
AcDbLine
 10
258.8
 20
79.8895
 30
0.0
 11
259.4
 21
80.3895
 31
0.0
  0
LINE
  5
156
330
1E
100
AcDbEntity
  8
0
100
AcDbLine
 10
258.5
 20
79.8895
 30
0.0
 11
259.3
 21
79.8895
 31
0.0
  0
LINE
  5
157
330
1E
100
AcDbEntity
  8
0
100
AcDbLine
 10
258.5
 20
79.8895
 30
0.0
 11
259.0
 21
80.3895
 31
0.0
  0
LINE
  5
158
330
1E
100
AcDbEntity
  8
0
100
AcDbLine
 10
259.3
 20
79.8895
 30
0.0
 11
259.8
 21
79.8895
 31
0.0
  0
LINE
  5
159
330
1E
100
AcDbEntity
  8
0
100
AcDbLine
 10
39.3
 20
79.8895
 30
0.0
 11
39.8
 21
79.8895
 31
0.0
  0
LINE
  5
15A
330
1E
100
AcDbEntity
  8
0
100
AcDbLine
 10
69.5
 20
79.8895
 30
0.0
 11
70.0
 21
80.3895
 31
0.0
  0
LINE
  5
15B
330
1E
100
AcDbEntity
  8
0
100
AcDbLine
 10
38.7
 20
79.8895
 30
0.0
 11
38.8
 21
79.8895
 31
0.0
  0
LINE
  5
15C
330
1E
100
AcDbEntity
  8
0
100
AcDbLine
 10
38.8
 20
79.8895
 30
0.0
 11
69.5
 21
79.8895
 31
0.0
  0
LINE
  5
15D
330
1E
100
AcDbEntity
  8
0
100
AcDbLine
 10
38.8
 20
79.8895
 30
0.0
 11
39.4
 21
80.3895
 31
0.0
  0
LINE
  5
15E
330
1E
100
AcDbEntity
  8
0
100
AcDbLine
 10
38.5
 20
79.8895
 30
0.0
 11
38.7
 21
79.8895
 31
0.0
  0
LINE
  5
15F
330
1E
100
AcDbEntity
  8
0
100
AcDbLine
 10
38.5
 20
79.8895
 30
0.0
 11
39.0
 21
80.3895
 31
0.0
  0
LINE
  5
160
330
1E
100
AcDbEntity
  8
0
100
AcDbLine
 10
38.5
 20
79.8895
 30
0.0
 11
39.3
 21
79.8895
 31
0.0
  0
LINE
  5
161
330
1E
100
AcDbEntity
  8
0
100
AcDbLine
 10
35.0
 20
79.8895
 30
0.0
 11
38.5
 21
79.8895
 31
0.0
  0
LINE
  5
162
330
1E
100
AcDbEntity
  8
0
100
AcDbLine
 10
35.0
 20
79.8895
 30
0.0
 11
36.3
 21
79.8895
 31
0.0
  0
LINE
  5
163
330
1E
100
AcDbEntity
  8
0
100
AcDbLine
 10
31.5
 20
79.8895
 30
0.0
 11
35.0
 21
79.8895
 31
0.0
  0
LINE
  5
164
330
1E
100
AcDbEntity
  8
0
100
AcDbLine
 10
31.5
 20
79.8895
 30
0.0
 11
32.5
 21
79.8895
 31
0.0
  0
LINE
  5
165
330
1E
100
AcDbEntity
  8
0
100
AcDbLine
 10
0.5
 20
79.8895
 30
0.0
 11
30.0
 21
79.8895
 31
0.0
  0
LINE
  5
166
330
1E
100
AcDbEntity
  8
0
100
AcDbLine
 10
0.5
 20
79.8895
 30
0.0
 11
31.2
 21
79.8895
 31
0.0
  0
LINE
  5
167
330
1E
100
AcDbEntity
  8
0
100
AcDbLine
 10
0.0
 20
95.3895
 30
0.0
 11
30.6
 21
95.3895
 31
0.0
  0
LINE
  5
168
330
1E
100
AcDbEntity
  8
0
100
AcDbLine
 10
0.0
 20
95.3895
 30
0.0
 11
0.0
 21
80.3895
 31
0.0
  0
LINE
  5
169
330
1E
100
AcDbEntity
  8
0
100
AcDbLine
 10
0.0
 20
95.3895
 30
0.0
 11
0.5
 21
95.8895
 31
0.0
  0
LINE
  5
16A
330
1E
100
AcDbEntity
  8
0
100
AcDbLine
 10
0.0
 20
95.3895
 30
0.0
 11
30.6
 21
95.3895
 31
0.0
  0
LINE
  5
16B
330
1E
100
AcDbEntity
  8
0
100
AcDbLine
 10
0.0
 20
80.3895
 30
0.0
 11
30.6
 21
80.3895
 31
0.0
  0
LINE
  5
16C
330
1E
100
AcDbEntity
  8
0
100
AcDbLine
 10
30.8
 20
80.3895
 30
0.0
 11
31.0
 21
80.3895
 31
0.0
  0
LINE
  5
16D
330
1E
100
AcDbEntity
  8
0
100
AcDbLine
 10
250.6
 20
80.3895
 30
0.0
 11
251.2
 21
79.8895
 31
0.0
  0
LINE
  5
16E
330
1E
100
AcDbEntity
  8
0
100
AcDbLine
 10
250.6
 20
80.3895
 30
0.0
 11
250.8
 21
80.3895
 31
0.0
  0
LINE
  5
16F
330
1E
100
AcDbEntity
  8
0
100
AcDbLine
 10
250.6
 20
80.3895
 30
0.0
 11
250.6
 21
95.3895
 31
0.0
  0
LINE
  5
170
330
1E
100
AcDbEntity
  8
0
100
AcDbLine
 10
220.0
 20
80.3895
 30
0.0
 11
220.5
 21
79.8895
 31
0.0
  0
LINE
  5
171
330
1E
100
AcDbEntity
  8
0
100
AcDbLine
 10
220.0
 20
80.3895
 30
0.0
 11
250.6
 21
80.3895
 31
0.0
  0
LINE
  5
172
330
1E
100
AcDbEntity
  8
0
100
AcDbLine
 10
220.0
 20
80.3895
 30
0.0
 11
220.0
 21
95.3895
 31
0.0
  0
LINE
  5
173
330
1E
100
AcDbEntity
  8
0
100
AcDbLine
 10
220.0
 20
80.3895
 30
0.0
 11
220.5
 21
79.8895
 31
0.0
  0
LINE
  5
174
330
1E
100
AcDbEntity
  8
0
100
AcDbLine
 10
250.8
 20
80.3895
 30
0.0
 11
251.0
 21
80.3895
 31
0.0
  0
LINE
  5
175
330
1E
100
AcDbEntity
  8
0
100
AcDbLine
 10
251.0
 20
80.3895
 30
0.0
 11
251.5
 21
79.8895
 31
0.0
  0
LINE
  5
176
330
1E
100
AcDbEntity
  8
0
100
AcDbLine
 10
251.0
 20
80.3895
 30
0.0
 11
255.0
 21
80.3895
 31
0.0
  0
LINE
  5
177
330
1E
100
AcDbEntity
  8
0
100
AcDbLine
 10
251.0
 20
80.3895
 30
0.0
 11
251.0
 21
95.3895
 31
0.0
  0
LINE
  5
178
330
1E
100
AcDbEntity
  8
0
100
AcDbLine
 10
259.0
 20
80.3895
 30
0.0
 11
259.2
 21
80.3895
 31
0.0
  0
LINE
  5
179
330
1E
100
AcDbEntity
  8
0
100
AcDbLine
 10
259.0
 20
80.3895
 30
0.0
 11
259.0
 21
95.3895
 31
0.0
  0
LINE
  5
17A
330
1E
100
AcDbEntity
  8
0
100
AcDbLine
 10
255.0
 20
80.3895
 30
0.0
 11
259.0
 21
80.3895
 31
0.0
  0
LINE
  5
17B
330
1E
100
AcDbEntity
  8
0
100
AcDbLine
 10
259.2
 20
80.3895
 30
0.0
 11
259.4
 21
80.3895
 31
0.0
  0
LINE
  5
17C
330
1E
100
AcDbEntity
  8
0
100
AcDbLine
 10
290.0
 20
80.3895
 30
0.0
 11
290.0
 21
95.3895
 31
0.0
  0
LINE
  5
17D
330
1E
100
AcDbEntity
  8
0
100
AcDbLine
 10
259.4
 20
80.3895
 30
0.0
 11
290.0
 21
80.3895
 31
0.0
  0
LINE
  5
17E
330
1E
100
AcDbEntity
  8
0
100
AcDbLine
 10
259.4
 20
80.3895
 30
0.0
 11
259.4
 21
95.3895
 31
0.0
  0
LINE
  5
17F
330
1E
100
AcDbEntity
  8
0
100
AcDbLine
 10
70.0
 20
80.3895
 30
0.0
 11
70.0
 21
95.3895
 31
0.0
  0
LINE
  5
180
330
1E
100
AcDbEntity
  8
0
100
AcDbLine
 10
39.2
 20
80.3895
 30
0.0
 11
39.4
 21
80.3895
 31
0.0
  0
LINE
  5
181
330
1E
100
AcDbEntity
  8
0
100
AcDbLine
 10
39.4
 20
80.3895
 30
0.0
 11
70.0
 21
80.3895
 31
0.0
  0
LINE
  5
182
330
1E
100
AcDbEntity
  8
0
100
AcDbLine
 10
39.4
 20
80.3895
 30
0.0
 11
39.4
 21
95.3895
 31
0.0
  0
LINE
  5
183
330
1E
100
AcDbEntity
  8
0
100
AcDbLine
 10
39.0
 20
80.3895
 30
0.0
 11
39.2
 21
80.3895
 31
0.0
  0
LINE
  5
184
330
1E
100
AcDbEntity
  8
0
100
AcDbLine
 10
39.0
 20
80.3895
 30
0.0
 11
39.0
 21
95.3895
 31
0.0
  0
LINE
  5
185
330
1E
100
AcDbEntity
  8
0
100
AcDbLine
 10
35.0
 20
80.3895
 30
0.0
 11
39.0
 21
80.3895
 31
0.0
  0
LINE
  5
186
330
1E
100
AcDbEntity
  8
0
100
AcDbLine
 10
31.0
 20
80.3895
 30
0.0
 11
31.5
 21
79.8895
 31
0.0
  0
LINE
  5
187
330
1E
100
AcDbEntity
  8
0
100
AcDbLine
 10
31.0
 20
80.3895
 30
0.0
 11
35.0
 21
80.3895
 31
0.0
  0
LINE
  5
188
330
1E
100
AcDbEntity
  8
0
100
AcDbLine
 10
31.0
 20
80.3895
 30
0.0
 11
31.0
 21
95.3895
 31
0.0
  0
LINE
  5
189
330
1E
100
AcDbEntity
  8
0
100
AcDbLine
 10
0.5
 20
95.8895
 30
0.0
 11
31.2
 21
95.8895
 31
0.0
  0
LINE
  5
18A
330
1E
100
AcDbEntity
  8
0
100
AcDbLine
 10
0.5
 20
95.8895
 30
0.0
 11
31.2
 21
95.8895
 31
0.0
  0
LINE
  5
18B
330
1E
100
AcDbEntity
  8
0
100
AcDbLine
 10
30.8
 20
95.3895
 30
0.0
 11
31.0
 21
95.3895
 31
0.0
  0
LINE
  5
18C
330
1E
100
AcDbEntity
  8
0
100
AcDbLine
 10
39.2
 20
95.3895
 30
0.0
 11
39.4
 21
95.3895
 31
0.0
  0
LINE
  5
18D
330
1E
100
AcDbEntity
  8
0
100
AcDbLine
 10
250.6
 20
95.3895
 30
0.0
 11
250.6
 21
80.3895
 31
0.0
  0
LINE
  5
18E
330
1E
100
AcDbEntity
  8
0
100
AcDbLine
 10
250.6
 20
95.3895
 30
0.0
 11
250.8
 21
95.3895
 31
0.0
  0
LINE
  5
18F
330
1E
100
AcDbEntity
  8
0
100
AcDbLine
 10
250.6
 20
95.3895
 30
0.0
 11
251.2
 21
95.8895
 31
0.0
  0
LINE
  5
190
330
1E
100
AcDbEntity
  8
0
100
AcDbLine
 10
220.0
 20
95.3895
 30
0.0
 11
220.0
 21
80.3895
 31
0.0
  0
LINE
  5
191
330
1E
100
AcDbEntity
  8
0
100
AcDbLine
 10
220.0
 20
95.3895
 30
0.0
 11
250.6
 21
95.3895
 31
0.0
  0
LINE
  5
192
330
1E
100
AcDbEntity
  8
0
100
AcDbLine
 10
220.0
 20
95.3895
 30
0.0
 11
220.5
 21
95.8895
 31
0.0
  0
LINE
  5
193
330
1E
100
AcDbEntity
  8
0
100
AcDbLine
 10
250.8
 20
95.3895
 30
0.0
 11
251.0
 21
95.3895
 31
0.0
  0
LINE
  5
194
330
1E
100
AcDbEntity
  8
0
100
AcDbLine
 10
251.0
 20
95.3895
 30
0.0
 11
251.0
 21
80.3895
 31
0.0
  0
LINE
  5
195
330
1E
100
AcDbEntity
  8
0
100
AcDbLine
 10
251.0
 20
95.3895
 30
0.0
 11
255.0
 21
95.3895
 31
0.0
  0
LINE
  5
196
330
1E
100
AcDbEntity
  8
0
100
AcDbLine
 10
251.0
 20
95.3895
 30
0.0
 11
251.5
 21
95.8895
 31
0.0
  0
LINE
  5
197
330
1E
100
AcDbEntity
  8
0
100
AcDbLine
 10
259.0
 20
95.3895
 30
0.0
 11
259.0
 21
80.3895
 31
0.0
  0
LINE
  5
198
330
1E
100
AcDbEntity
  8
0
100
AcDbLine
 10
259.0
 20
95.3895
 30
0.0
 11
259.2
 21
95.3895
 31
0.0
  0
LINE
  5
199
330
1E
100
AcDbEntity
  8
0
100
AcDbLine
 10
255.0
 20
95.3895
 30
0.0
 11
259.0
 21
95.3895
 31
0.0
  0
LINE
  5
19A
330
1E
100
AcDbEntity
  8
0
100
AcDbLine
 10
259.2
 20
95.3895
 30
0.0
 11
259.4
 21
95.3895
 31
0.0
  0
LINE
  5
19B
330
1E
100
AcDbEntity
  8
0
100
AcDbLine
 10
259.4
 20
95.3895
 30
0.0
 11
259.4
 21
80.3895
 31
0.0
  0
LINE
  5
19C
330
1E
100
AcDbEntity
  8
0
100
AcDbLine
 10
259.4
 20
95.3895
 30
0.0
 11
290.0
 21
95.3895
 31
0.0
  0
LINE
  5
19D
330
1E
100
AcDbEntity
  8
0
100
AcDbLine
 10
290.0
 20
95.3895
 30
0.0
 11
290.0
 21
80.3895
 31
0.0
  0
LINE
  5
19E
330
1E
100
AcDbEntity
  8
0
100
AcDbLine
 10
39.4
 20
95.3895
 30
0.0
 11
39.4
 21
80.3895
 31
0.0
  0
LINE
  5
19F
330
1E
100
AcDbEntity
  8
0
100
AcDbLine
 10
39.4
 20
95.3895
 30
0.0
 11
70.0
 21
95.3895
 31
0.0
  0
LINE
  5
1A0
330
1E
100
AcDbEntity
  8
0
100
AcDbLine
 10
70.0
 20
95.3895
 30
0.0
 11
70.0
 21
80.3895
 31
0.0
  0
LINE
  5
1A1
330
1E
100
AcDbEntity
  8
0
100
AcDbLine
 10
39.0
 20
95.3895
 30
0.0
 11
39.0
 21
80.3895
 31
0.0
  0
LINE
  5
1A2
330
1E
100
AcDbEntity
  8
0
100
AcDbLine
 10
39.0
 20
95.3895
 30
0.0
 11
39.2
 21
95.3895
 31
0.0
  0
LINE
  5
1A3
330
1E
100
AcDbEntity
  8
0
100
AcDbLine
 10
38.7
 20
95.8895
 30
0.0
 11
38.8
 21
95.8895
 31
0.0
  0
LINE
  5
1A4
330
1E
100
AcDbEntity
  8
0
100
AcDbLine
 10
38.8
 20
95.8895
 30
0.0
 11
39.4
 21
95.3895
 31
0.0
  0
LINE
  5
1A5
330
1E
100
AcDbEntity
  8
0
100
AcDbLine
 10
38.8
 20
95.8895
 30
0.0
 11
69.5
 21
95.8895
 31
0.0
  0
LINE
  5
1A6
330
1E
100
AcDbEntity
  8
0
100
AcDbLine
 10
251.2
 20
95.8895
 30
0.0
 11
251.3
 21
95.8895
 31
0.0
  0
LINE
  5
1A7
330
1E
100
AcDbEntity
  8
0
100
AcDbLine
 10
220.5
 20
95.8895
 30
0.0
 11
251.2
 21
95.8895
 31
0.0
  0
LINE
  5
1A8
330
1E
100
AcDbEntity
  8
0
100
AcDbLine
 10
251.3
 20
95.8895
 30
0.0
 11
251.5
 21
95.8895
 31
0.0
  0
LINE
  5
1A9
330
1E
100
AcDbEntity
  8
0
100
AcDbLine
 10
251.5
 20
95.8895
 30
0.0
 11
255.0
 21
95.8895
 31
0.0
  0
LINE
  5
1AA
330
1E
100
AcDbEntity
  8
0
100
AcDbLine
 10
258.5
 20
95.8895
 30
0.0
 11
259.0
 21
95.3895
 31
0.0
  0
LINE
  5
1AB
330
1E
100
AcDbEntity
  8
0
100
AcDbLine
 10
258.5
 20
95.8895
 30
0.0
 11
258.7
 21
95.8895
 31
0.0
  0
LINE
  5
1AC
330
1E
100
AcDbEntity
  8
0
100
AcDbLine
 10
255.0
 20
95.8895
 30
0.0
 11
258.5
 21
95.8895
 31
0.0
  0
LINE
  5
1AD
330
1E
100
AcDbEntity
  8
0
100
AcDbLine
 10
258.7
 20
95.8895
 30
0.0
 11
258.8
 21
95.8895
 31
0.0
  0
LINE
  5
1AE
330
1E
100
AcDbEntity
  8
0
100
AcDbLine
 10
258.8
 20
95.8895
 30
0.0
 11
259.4
 21
95.3895
 31
0.0
  0
LINE
  5
1AF
330
1E
100
AcDbEntity
  8
0
100
AcDbLine
 10
258.8
 20
95.8895
 30
0.0
 11
289.5
 21
95.8895
 31
0.0
  0
LINE
  5
1B0
330
1E
100
AcDbEntity
  8
0
100
AcDbLine
 10
289.5
 20
95.8895
 30
0.0
 11
290.0
 21
95.3895
 31
0.0
  0
LINE
  5
1B1
330
1E
100
AcDbEntity
  8
0
100
AcDbLine
 10
69.5
 20
95.8895
 30
0.0
 11
70.0
 21
95.3895
 31
0.0
  0
LINE
  5
1B2
330
1E
100
AcDbEntity
  8
0
100
AcDbLine
 10
38.5
 20
95.8895
 30
0.0
 11
39.0
 21
95.3895
 31
0.0
  0
LINE
  5
1B3
330
1E
100
AcDbEntity
  8
0
100
AcDbLine
 10
38.5
 20
95.8895
 30
0.0
 11
38.7
 21
95.8895
 31
0.0
  0
LINE
  5
1B4
330
1E
100
AcDbEntity
  8
0
100
AcDbLine
 10
35.0
 20
95.8895
 30
0.0
 11
38.5
 21
95.8895
 31
0.0
  0
LINE
  5
1B5
330
1E
100
AcDbEntity
  8
0
100
AcDbLine
 10
35.0
 20
95.3895
 30
0.0
 11
39.0
 21
95.3895
 31
0.0
  0
LINE
  5
1B6
330
1E
100
AcDbEntity
  8
0
100
AcDbLine
 10
31.3
 20
95.8895
 30
0.0
 11
31.5
 21
95.8895
 31
0.0
  0
LINE
  5
1B7
330
1E
100
AcDbEntity
  8
0
100
AcDbLine
 10
31.5
 20
95.8895
 30
0.0
 11
35.0
 21
95.8895
 31
0.0
  0
LINE
  5
1B8
330
1E
100
AcDbEntity
  8
0
100
AcDbLine
 10
31.0
 20
95.3895
 30
0.0
 11
31.0
 21
80.3895
 31
0.0
  0
LINE
  5
1B9
330
1E
100
AcDbEntity
  8
0
100
AcDbLine
 10
31.0
 20
95.3895
 30
0.0
 11
35.0
 21
95.3895
 31
0.0
  0
LINE
  5
1BA
330
1E
100
AcDbEntity
  8
0
100
AcDbLine
 10
31.0
 20
95.3895
 30
0.0
 11
31.5
 21
95.8895
 31
0.0
  0
LINE
  5
1BB
330
1E
100
AcDbEntity
  8
0
100
AcDbLine
 10
132.6933
 20
111.4895
 30
0.0
 11
133.95
 21
111.4895
 31
0.0
  0
LINE
  5
1BC
330
1E
100
AcDbEntity
  8
0
100
AcDbLine
 10
133.95
 20
111.4895
 30
0.0
 11
135.9867
 21
111.4895
 31
0.0
  0
LINE
  5
1BD
330
1E
100
AcDbEntity
  8
0
100
AcDbLine
 10
135.9867
 20
111.4895
 30
0.0
 11
138.63
 21
111.4895
 31
0.0
  0
LINE
  5
1BE
330
1E
100
AcDbEntity
  8
0
100
AcDbLine
 10
138.63
 20
111.4895
 30
0.0
 11
141.7067
 21
111.4895
 31
0.0
  0
LINE
  5
1BF
330
1E
100
AcDbEntity
  8
0
100
AcDbLine
 10
141.7067
 20
111.4895
 30
0.0
 11
145.0
 21
111.4895
 31
0.0
  0
LINE
  5
1C0
330
1E
100
AcDbEntity
  8
0
100
AcDbLine
 10
156.05
 20
111.4895
 30
0.0
 11
157.307
 21
111.4895
 31
0.0
  0
LINE
  5
1C1
330
1E
100
AcDbEntity
  8
0
100
AcDbLine
 10
154.013
 20
111.4895
 30
0.0
 11
156.05
 21
111.4895
 31
0.0
  0
LINE
  5
1C2
330
1E
100
AcDbEntity
  8
0
100
AcDbLine
 10
151.37
 20
111.4895
 30
0.0
 11
154.013
 21
111.4895
 31
0.0
  0
LINE
  5
1C3
330
1E
100
AcDbEntity
  8
0
100
AcDbLine
 10
148.293
 20
111.4895
 30
0.0
 11
151.37
 21
111.4895
 31
0.0
  0
LINE
  5
1C4
330
1E
100
AcDbEntity
  8
0
100
AcDbLine
 10
145.0
 20
111.4895
 30
0.0
 11
148.293
 21
111.4895
 31
0.0
  0
LINE
  5
1C5
330
1E
100
AcDbEntity
  8
0
100
AcDbLine
 10
145.0
 20
111.3895
 30
0.0
 11
157.783
 21
111.4895
 31
0.0
  0
LINE
  5
1C6
330
1E
100
AcDbEntity
  8
0
100
AcDbLine
 10
157.783
 20
111.4895
 30
0.0
 11
158.0
 21
111.7395
 31
0.0
  0
LINE
  5
1C7
330
1E
100
AcDbEntity
  8
0
100
AcDbLine
 10
157.307
 20
111.4895
 30
0.0
 11
157.783
 21
111.4895
 31
0.0
  0
LINE
  5
1C8
330
1E
100
AcDbEntity
  8
0
100
AcDbLine
 10
132.4767
 20
111.7395
 30
0.0
 11
133.7333
 21
111.7395
 31
0.0
  0
LINE
  5
1C9
330
1E
100
AcDbEntity
  8
0
100
AcDbLine
 10
133.7333
 20
111.7395
 30
0.0
 11
135.8133
 21
111.7395
 31
0.0
  0
LINE
  5
1CA
330
1E
100
AcDbEntity
  8
0
100
AcDbLine
 10
135.8133
 20
111.7395
 30
0.0
 11
138.5433
 21
111.7395
 31
0.0
  0
LINE
  5
1CB
330
1E
100
AcDbEntity
  8
0
100
AcDbLine
 10
138.5433
 20
111.7395
 30
0.0
 11
141.6633
 21
111.7395
 31
0.0
  0
LINE
  5
1CC
330
1E
100
AcDbEntity
  8
0
100
AcDbLine
 10
141.6633
 20
111.7395
 30
0.0
 11
145.0
 21
111.7395
 31
0.0
  0
LINE
  5
1CD
330
1E
100
AcDbEntity
  8
0
100
AcDbLine
 10
157.523
 20
111.7395
 30
0.0
 11
158.0
 21
111.7395
 31
0.0
  0
LINE
  5
1CE
330
1E
100
AcDbEntity
  8
0
100
AcDbLine
 10
158.0
 20
111.7395
 30
0.0
 11
158.0
 21
116.3895
 31
0.0
  0
LINE
  5
1CF
330
1E
100
AcDbEntity
  8
0
100
AcDbLine
 10
156.267
 20
111.7395
 30
0.0
 11
157.523
 21
111.7395
 31
0.0
  0
LINE
  5
1D0
330
1E
100
AcDbEntity
  8
0
100
AcDbLine
 10
154.187
 20
111.7395
 30
0.0
 11
156.267
 21
111.7395
 31
0.0
  0
LINE
  5
1D1
330
1E
100
AcDbEntity
  8
0
100
AcDbLine
 10
151.457
 20
111.7395
 30
0.0
 11
154.187
 21
111.7395
 31
0.0
  0
LINE
  5
1D2
330
1E
100
AcDbEntity
  8
0
100
AcDbLine
 10
148.337
 20
111.7395
 30
0.0
 11
151.457
 21
111.7395
 31
0.0
  0
LINE
  5
1D3
330
1E
100
AcDbEntity
  8
0
100
AcDbLine
 10
145.0
 20
111.7395
 30
0.0
 11
148.337
 21
111.7395
 31
0.0
  0
LINE
  5
1D4
330
1E
100
AcDbEntity
  8
0
100
AcDbLine
 10
132.2167
 20
111.4895
 30
0.0
 11
132.6933
 21
111.4895
 31
0.0
  0
LINE
  5
1D5
330
1E
100
AcDbEntity
  8
0
100
AcDbLine
 10
132.2167
 20
111.4895
 30
0.0
 11
145.0
 21
111.3895
 31
0.0
  0
LINE
  5
1D6
330
1E
100
AcDbEntity
  8
0
100
AcDbLine
 10
132.0
 20
111.7395
 30
0.0
 11
132.0
 21
116.3895
 31
0.0
  0
LINE
  5
1D7
330
1E
100
AcDbEntity
  8
0
100
AcDbLine
 10
132.0
 20
111.7395
 30
0.0
 11
132.2167
 21
111.4895
 31
0.0
  0
LINE
  5
1D8
330
1E
100
AcDbEntity
  8
0
100
AcDbLine
 10
132.0
 20
111.7395
 30
0.0
 11
132.4767
 21
111.7395
 31
0.0
  0
LINE
  5
1D9
330
1E
100
AcDbEntity
  8
0
100
AcDbLine
 10
31.2
 20
95.8895
 30
0.0
 11
31.3
 21
95.8895
 31
0.0
  0
LINE
  5
1DA
330
1E
100
AcDbEntity
  8
0
100
AcDbLine
 10
30.6
 20
95.3895
 30
0.0
 11
30.6
 21
80.3895
 31
0.0
  0
LINE
  5
1DB
330
1E
100
AcDbEntity
  8
0
100
AcDbLine
 10
30.6
 20
95.3895
 30
0.0
 11
30.8
 21
95.3895
 31
0.0
  0
LINE
  5
1DC
330
1E
100
AcDbEntity
  8
0
100
AcDbLine
 10
30.6
 20
95.3895
 30
0.0
 11
31.2
 21
95.8895
 31
0.0
  0
LINE
  5
1DD
330
1E
100
AcDbEntity
  8
0
100
AcDbLine
 10
30.6
 20
80.3895
 30
0.0
 11
31.2
 21
79.8895
 31
0.0
  0
LINE
  5
1DE
330
1E
100
AcDbEntity
  8
0
100
AcDbLine
 10
30.6
 20
80.3895
 30
0.0
 11
30.8
 21
80.3895
 31
0.0
  0
LINE
  5
1DF
330
1E
100
AcDbEntity
  8
0
100
AcDbLine
 10
30.6
 20
80.3895
 30
0.0
 11
30.6
 21
95.3895
 31
0.0
  0
LINE
  5
1E0
330
1E
100
AcDbEntity
  8
0
100
AcDbLine
 10
0.0
 20
80.3895
 30
0.0
 11
0.5
 21
79.8895
 31
0.0
  0
LINE
  5
1E1
330
1E
100
AcDbEntity
  8
0
100
AcDbLine
 10
0.0
 20
80.3895
 30
0.0
 11
0.0
 21
95.3895
 31
0.0
  0
LINE
  5
1E2
330
1E
100
AcDbEntity
  8
0
100
AcDbLine
 10
0.0
 20
80.3895
 30
0.0
 11
30.6
 21
80.3895
 31
0.0
  0
LINE
  5
1E3
330
1E
100
AcDbEntity
  8
0
100
AcDbLine
 10
0.0
 20
80.3895
 30
0.0
 11
0.5
 21
79.8895
 31
0.0
  0
LINE
  5
1E4
330
1E
100
AcDbEntity
  8
0
100
AcDbLine
 10
0.5
 20
79.8895
 30
0.0
 11
31.2
 21
79.8895
 31
0.0
  0
LINE
  5
23D
330
1E
100
AcDbEntity
  8
0
100
AcDbLine
 10
132.0
 20
116.3895
 30
0.0
 11
132.4767
 21
116.3895
 31
0.0
  0
LINE
  5
23E
330
1E
100
AcDbEntity
  8
0
100
AcDbLine
 10
132.0
 20
116.3895
 30
0.0
 11
132.0
 21
111.7395
 31
0.0
  0
LINE
  5
23F
330
1E
100
AcDbEntity
  8
0
100
AcDbLine
 10
132.4767
 20
116.3895
 30
0.0
 11
133.7333
 21
116.3895
 31
0.0
  0
LINE
  5
240
330
1E
100
AcDbEntity
  8
0
100
AcDbLine
 10
133.7333
 20
116.3895
 30
0.0
 11
135.8133
 21
116.3895
 31
0.0
  0
LINE
  5
241
330
1E
100
AcDbEntity
  8
0
100
AcDbLine
 10
135.8133
 20
116.3895
 30
0.0
 11
138.5433
 21
116.3895
 31
0.0
  0
LINE
  5
242
330
1E
100
AcDbEntity
  8
0
100
AcDbLine
 10
138.5433
 20
116.3895
 30
0.0
 11
141.6633
 21
116.3895
 31
0.0
  0
LINE
  5
243
330
1E
100
AcDbEntity
  8
0
100
AcDbLine
 10
141.6633
 20
116.3895
 30
0.0
 11
145.0
 21
116.3895
 31
0.0
  0
LINE
  5
244
330
1E
100
AcDbEntity
  8
0
100
AcDbLine
 10
157.523
 20
116.3895
 30
0.0
 11
158.0
 21
116.3895
 31
0.0
  0
LINE
  5
245
330
1E
100
AcDbEntity
  8
0
100
AcDbLine
 10
156.267
 20
116.3895
 30
0.0
 11
157.523
 21
116.3895
 31
0.0
  0
LINE
  5
246
330
1E
100
AcDbEntity
  8
0
100
AcDbLine
 10
154.187
 20
116.3895
 30
0.0
 11
156.267
 21
116.3895
 31
0.0
  0
LINE
  5
247
330
1E
100
AcDbEntity
  8
0
100
AcDbLine
 10
151.457
 20
116.3895
 30
0.0
 11
154.187
 21
116.3895
 31
0.0
  0
LINE
  5
248
330
1E
100
AcDbEntity
  8
0
100
AcDbLine
 10
148.337
 20
116.3895
 30
0.0
 11
151.457
 21
116.3895
 31
0.0
  0
LINE
  5
249
330
1E
100
AcDbEntity
  8
0
100
AcDbLine
 10
145.0
 20
116.3895
 30
0.0
 11
148.337
 21
116.3895
 31
0.0
  0
LINE
  5
24A
330
1E
100
AcDbEntity
  8
0
100
AcDbLine
 10
145.0
 20
116.3895
 30
0.0
 11
158.5
 21
116.3895
 31
0.0
  0
LINE
  5
24B
330
1E
100
AcDbEntity
  8
0
100
AcDbLine
 10
158.5
 20
116.3895
 30
0.0
 11
158.5
 21
64.8895
 31
0.0
  0
LINE
  5
24C
330
1E
100
AcDbEntity
  8
0
100
AcDbLine
 10
158.5
 20
116.3895
 30
0.0
 11
159.0
 21
116.8895
 31
0.0
  0
LINE
  5
24D
330
1E
100
AcDbEntity
  8
0
100
AcDbLine
 10
158.5
 20
116.3895
 30
0.0
 11
158.5
 21
116.8895
 31
0.0
  0
LINE
  5
24E
330
1E
100
AcDbEntity
  8
0
100
AcDbLine
 10
158.0
 20
116.3895
 30
0.0
 11
158.0
 21
111.7395
 31
0.0
  0
LINE
  5
24F
330
1E
100
AcDbEntity
  8
0
100
AcDbLine
 10
158.0
 20
116.3895
 30
0.0
 11
158.5
 21
116.3895
 31
0.0
  0
LINE
  5
250
330
1E
100
AcDbEntity
  8
0
100
AcDbLine
 10
131.5
 20
116.3895
 30
0.0
 11
131.5
 21
64.8895
 31
0.0
  0
LINE
  5
251
330
1E
100
AcDbEntity
  8
0
100
AcDbLine
 10
131.5
 20
116.3895
 30
0.0
 11
132.0
 21
116.3895
 31
0.0
  0
LINE
  5
252
330
1E
100
AcDbEntity
  8
0
100
AcDbLine
 10
131.5
 20
116.3895
 30
0.0
 11
131.5
 21
116.8895
 31
0.0
  0
LINE
  5
253
330
1E
100
AcDbEntity
  8
0
100
AcDbLine
 10
131.5
 20
116.3895
 30
0.0
 11
145.0
 21
116.3895
 31
0.0
  0
LINE
  5
25D
330
1E
100
AcDbEntity
  8
0
100
AcDbLine
 10
158.5
 20
116.8895
 30
0.0
 11
158.5
 21
123.8895
 31
0.0
  0
LINE
  5
25E
330
1E
100
AcDbEntity
  8
0
100
AcDbLine
 10
158.5
 20
116.8895
 30
0.0
 11
159.0
 21
116.8895
 31
0.0
  0
LINE
  5
25F
330
1E
100
AcDbEntity
  8
0
100
AcDbLine
 10
158.5
 20
116.8895
 30
0.0
 11
158.5
 21
116.3895
 31
0.0
  0
LINE
  5
260
330
1E
100
AcDbEntity
  8
0
100
AcDbLine
 10
145.0
 20
116.8895
 30
0.0
 11
158.5
 21
116.8895
 31
0.0
  0
LINE
  5
261
330
1E
100
AcDbEntity
  8
0
100
AcDbLine
 10
159.0
 20
116.8895
 30
0.0
 11
159.0
 21
64.8895
 31
0.0
  0
LINE
  5
262
330
1E
100
AcDbEntity
  8
0
100
AcDbLine
 10
159.0
 20
116.8895
 30
0.0
 11
159.0
 21
123.8895
 31
0.0
  0
LINE
  5
263
330
1E
100
AcDbEntity
  8
0
100
AcDbLine
 10
131.5
 20
116.8895
 30
0.0
 11
131.5
 21
116.3895
 31
0.0
  0
LINE
  5
264
330
1E
100
AcDbEntity
  8
0
100
AcDbLine
 10
131.5
 20
116.8895
 30
0.0
 11
145.0
 21
116.8895
 31
0.0
  0
LINE
  5
265
330
1E
100
AcDbEntity
  8
0
100
AcDbLine
 10
131.5
 20
116.8895
 30
0.0
 11
131.5
 21
123.8895
 31
0.0
  0
LINE
  5
266
330
1E
100
AcDbEntity
  8
0
100
AcDbLine
 10
131.0
 20
116.8895
 30
0.0
 11
131.5
 21
116.3895
 31
0.0
  0
LINE
  5
267
330
1E
100
AcDbEntity
  8
0
100
AcDbLine
 10
131.0
 20
116.8895
 30
0.0
 11
131.5
 21
116.8895
 31
0.0
  0
LINE
  5
268
330
1E
100
AcDbEntity
  8
0
100
AcDbLine
 10
131.0
 20
116.8895
 30
0.0
 11
131.0
 21
123.8895
 31
0.0
  0
LINE
  5
269
330
1E
100
AcDbEntity
  8
0
100
AcDbLine
 10
159.0
 20
123.8895
 30
0.0
 11
159.0
 21
116.8895
 31
0.0
  0
LINE
  5
26A
330
1E
100
AcDbEntity
  8
0
100
AcDbLine
 10
159.0
 20
123.8895
 30
0.0
 11
159.0
 21
135.6895
 31
0.0
  0
LINE
  5
26B
330
1E
100
AcDbEntity
  8
0
100
AcDbLine
 10
158.5
 20
123.8895
 30
0.0
 11
158.5
 21
116.8895
 31
0.0
  0
LINE
  5
26C
330
1E
100
AcDbEntity
  8
0
100
AcDbLine
 10
158.5
 20
123.8895
 30
0.0
 11
158.5
 21
135.7895
 31
0.0
  0
LINE
  5
26D
330
1E
100
AcDbEntity
  8
0
100
AcDbLine
 10
131.5
 20
123.8895
 30
0.0
 11
131.5
 21
135.7895
 31
0.0
  0
LINE
  5
26E
330
1E
100
AcDbEntity
  8
0
100
AcDbLine
 10
131.5
 20
123.8895
 30
0.0
 11
131.5
 21
116.8895
 31
0.0
  0
LINE
  5
26F
330
1E
100
AcDbEntity
  8
0
100
AcDbLine
 10
131.0
 20
123.8895
 30
0.0
 11
131.0
 21
64.8895
 31
0.0
  0
LINE
  5
270
330
1E
100
AcDbEntity
  8
0
100
AcDbLine
 10
131.0
 20
123.8895
 30
0.0
 11
131.0
 21
128.6895
 31
0.0
  0
LINE
  5
271
330
1E
100
AcDbEntity
  8
0
100
AcDbLine
 10
131.0
 20
123.8895
 30
0.0
 11
131.0
 21
135.6895
 31
0.0
  0
LINE
  5
272
330
1E
100
AcDbEntity
  8
0
100
AcDbLine
 10
131.0
 20
123.8895
 30
0.0
 11
131.0
 21
116.8895
 31
0.0
  0
LINE
  5
273
330
1E
100
AcDbEntity
  8
0
100
AcDbLine
 10
131.0
 20
123.8895
 30
0.0
 11
131.0
 21
64.8895
 31
0.0
  0
LINE
  5
274
330
1E
100
AcDbEntity
  8
0
100
AcDbLine
 10
131.0
 20
123.8895
 30
0.0
 11
131.0
 21
135.5895
 31
0.0
  0
LINE
  5
33D
330
1E
100
AcDbEntity
  8
0
100
AcDbLine
 10
131.0
 20
128.6895
 30
0.0
 11
131.0
 21
123.8895
 31
0.0
  0
LINE
  5
33E
330
1E
100
AcDbEntity
  8
0
100
AcDbLine
 10
131.0
 20
128.6895
 30
0.0
 11
131.0
 21
133.0895
 31
0.0
  0
LINE
  5
33F
330
1E
100
AcDbEntity
  8
0
100
AcDbLine
 10
131.0
 20
128.6895
 30
0.0
 11
131.0
 21
133.0895
 31
0.0
  0
LINE
  5
390
330
1E
100
AcDbEntity
  8
0
100
AcDbLine
 10
131.0
 20
133.0895
 30
0.0
 11
131.0
 21
136.9895
 31
0.0
  0
LINE
  5
391
330
1E
100
AcDbEntity
  8
0
100
AcDbLine
 10
131.0
 20
133.0895
 30
0.0
 11
131.0
 21
128.6895
 31
0.0
  0
LINE
  5
392
330
1E
100
AcDbEntity
  8
0
100
AcDbLine
 10
131.0
 20
133.0895
 30
0.0
 11
131.0
 21
128.6895
 31
0.0
  0
LINE
  5
393
330
1E
100
AcDbEntity
  8
0
100
AcDbLine
 10
131.0
 20
133.0895
 30
0.0
 11
131.0
 21
136.9895
 31
0.0
  0
LINE
  5
396
330
1E
100
AcDbEntity
  8
0
100
AcDbLine
 10
131.0
 20
135.6895
 30
0.0
 11
131.0
 21
146.5895
 31
0.0
  0
LINE
  5
397
330
1E
100
AcDbEntity
  8
0
100
AcDbLine
 10
131.0
 20
135.6895
 30
0.0
 11
131.0
 21
123.8895
 31
0.0
  0
LINE
  5
398
330
1E
100
AcDbEntity
  8
0
100
AcDbLine
 10
131.0
 20
139.9895
 30
0.0
 11
131.0
 21
141.7895
 31
0.0
  0
LINE
  5
399
330
1E
100
AcDbEntity
  8
0
100
AcDbLine
 10
131.0
 20
139.9895
 30
0.0
 11
131.0
 21
136.9895
 31
0.0
  0
LINE
  5
39A
330
1E
100
AcDbEntity
  8
0
100
AcDbLine
 10
131.0
 20
146.5895
 30
0.0
 11
131.0
 21
155.9895
 31
0.0
  0
LINE
  5
39B
330
1E
100
AcDbEntity
  8
0
100
AcDbLine
 10
131.0
 20
146.5895
 30
0.0
 11
131.0
 21
135.6895
 31
0.0
  0
LINE
  5
39C
330
1E
100
AcDbEntity
  8
0
100
AcDbLine
 10
131.0
 20
142.3895
 30
0.0
 11
131.0
 21
141.7895
 31
0.0
  0
LINE
  5
39D
330
1E
100
AcDbEntity
  8
0
100
AcDbLine
 10
131.0
 20
141.7895
 30
0.0
 11
131.0
 21
139.8895
 31
0.0
  0
LINE
  5
39E
330
1E
100
AcDbEntity
  8
0
100
AcDbLine
 10
131.0
 20
141.7895
 30
0.0
 11
131.0
 21
142.3895
 31
0.0
  0
LINE
  5
39F
330
1E
100
AcDbEntity
  8
0
100
AcDbLine
 10
131.0
 20
141.7895
 30
0.0
 11
131.0
 21
139.9895
 31
0.0
  0
LINE
  5
3A0
330
1E
100
AcDbEntity
  8
0
100
AcDbLine
 10
131.0
 20
139.8895
 30
0.0
 11
131.0
 21
136.9895
 31
0.0
  0
LINE
  5
3A1
330
1E
100
AcDbEntity
  8
0
100
AcDbLine
 10
131.0
 20
139.8895
 30
0.0
 11
131.0
 21
141.7895
 31
0.0
  0
LINE
  5
3A2
330
1E
100
AcDbEntity
  8
0
100
AcDbLine
 10
131.0
 20
136.9895
 30
0.0
 11
131.0
 21
133.0895
 31
0.0
  0
LINE
  5
3A3
330
1E
100
AcDbEntity
  8
0
100
AcDbLine
 10
131.0
 20
136.9895
 30
0.0
 11
131.0
 21
139.8895
 31
0.0
  0
LINE
  5
3A4
330
1E
100
AcDbEntity
  8
0
100
AcDbLine
 10
131.0
 20
136.9895
 30
0.0
 11
131.0
 21
139.9895
 31
0.0
  0
LINE
  5
3A5
330
1E
100
AcDbEntity
  8
0
100
AcDbLine
 10
131.0
 20
136.9895
 30
0.0
 11
131.0
 21
133.0895
 31
0.0
  0
LINE
  5
3A6
330
1E
100
AcDbEntity
  8
0
100
AcDbLine
 10
131.0
 20
155.9895
 30
0.0
 11
131.0
 21
163.2895
 31
0.0
  0
LINE
  5
3A7
330
1E
100
AcDbEntity
  8
0
100
AcDbLine
 10
131.0
 20
155.9895
 30
0.0
 11
131.0
 21
146.5895
 31
0.0
  0
LINE
  5
3A8
330
1E
100
AcDbEntity
  8
0
100
AcDbLine
 10
131.0
 20
163.2895
 30
0.0
 11
131.0
 21
167.7895
 31
0.0
  0
LINE
  5
3A9
330
1E
100
AcDbEntity
  8
0
100
AcDbLine
 10
131.0
 20
163.2895
 30
0.0
 11
131.0
 21
155.9895
 31
0.0
  0
LINE
  5
3AA
330
1E
100
AcDbEntity
  8
0
100
AcDbLine
 10
131.0
 20
167.7895
 30
0.0
 11
131.0
 21
169.3895
 31
0.0
  0
LINE
  5
3AB
330
1E
100
AcDbEntity
  8
0
100
AcDbLine
 10
131.0
 20
167.7895
 30
0.0
 11
131.0
 21
163.2895
 31
0.0
  0
LINE
  5
3AC
330
1E
100
AcDbEntity
  8
0
100
AcDbLine
 10
131.0
 20
169.3895
 30
0.0
 11
131.0
 21
167.6895
 31
0.0
  0
LINE
  5
3AD
330
1E
100
AcDbEntity
  8
0
100
AcDbLine
 10
131.0
 20
169.3895
 30
0.0
 11
131.5
 21
169.8895
 31
0.0
  0
LINE
  5
3AE
330
1E
100
AcDbEntity
  8
0
100
AcDbLine
 10
131.0
 20
169.3895
 30
0.0
 11
131.0
 21
167.7895
 31
0.0
  0
LINE
  5
3AF
330
1E
100
AcDbEntity
  8
0
100
AcDbLine
 10
131.0
 20
167.6895
 30
0.0
 11
131.0
 21
163.2895
 31
0.0
  0
LINE
  5
3B0
330
1E
100
AcDbEntity
  8
0
100
AcDbLine
 10
131.0
 20
167.6895
 30
0.0
 11
131.0
 21
169.3895
 31
0.0
  0
LINE
  5
3B1
330
1E
100
AcDbEntity
  8
0
100
AcDbLine
 10
131.0
 20
163.2895
 30
0.0
 11
131.0
 21
155.9895
 31
0.0
  0
LINE
  5
3B2
330
1E
100
AcDbEntity
  8
0
100
AcDbLine
 10
131.0
 20
163.2895
 30
0.0
 11
131.0
 21
167.6895
 31
0.0
  0
LINE
  5
3B3
330
1E
100
AcDbEntity
  8
0
100
AcDbLine
 10
131.0
 20
155.9895
 30
0.0
 11
131.0
 21
146.4895
 31
0.0
  0
LINE
  5
3B4
330
1E
100
AcDbEntity
  8
0
100
AcDbLine
 10
131.0
 20
155.9895
 30
0.0
 11
131.0
 21
163.2895
 31
0.0
  0
LINE
  5
3B5
330
1E
100
AcDbEntity
  8
0
100
AcDbLine
 10
131.5
 20
135.7895
 30
0.0
 11
131.5
 21
146.7895
 31
0.0
  0
LINE
  5
3B6
330
1E
100
AcDbEntity
  8
0
100
AcDbLine
 10
131.5
 20
135.7895
 30
0.0
 11
131.5
 21
123.8895
 31
0.0
  0
LINE
  5
3B7
330
1E
100
AcDbEntity
  8
0
100
AcDbLine
 10
131.5
 20
146.7895
 30
0.0
 11
131.5
 21
156.3895
 31
0.0
  0
LINE
  5
3B8
330
1E
100
AcDbEntity
  8
0
100
AcDbLine
 10
131.5
 20
146.7895
 30
0.0
 11
131.5
 21
135.7895
 31
0.0
  0
LINE
  5
3B9
330
1E
100
AcDbEntity
  8
0
100
AcDbLine
 10
131.5
 20
156.3895
 30
0.0
 11
131.5
 21
163.6895
 31
0.0
  0
LINE
  5
3BA
330
1E
100
AcDbEntity
  8
0
100
AcDbLine
 10
131.5
 20
156.3895
 30
0.0
 11
131.5
 21
146.7895
 31
0.0
  0
LINE
  5
3BB
330
1E
100
AcDbEntity
  8
0
100
AcDbLine
 10
131.5
 20
163.6895
 30
0.0
 11
131.5
 21
168.1895
 31
0.0
  0
LINE
  5
3BC
330
1E
100
AcDbEntity
  8
0
100
AcDbLine
 10
131.5
 20
163.6895
 30
0.0
 11
131.5
 21
156.3895
 31
0.0
  0
LINE
  5
3BD
330
1E
100
AcDbEntity
  8
0
100
AcDbLine
 10
158.5
 20
135.7895
 30
0.0
 11
158.5
 21
123.8895
 31
0.0
  0
LINE
  5
3BE
330
1E
100
AcDbEntity
  8
0
100
AcDbLine
 10
158.5
 20
135.7895
 30
0.0
 11
158.5
 21
146.7895
 31
0.0
  0
LINE
  5
3BF
330
1E
100
AcDbEntity
  8
0
100
AcDbLine
 10
158.5
 20
146.7895
 30
0.0
 11
158.5
 21
135.7895
 31
0.0
  0
LINE
  5
3C0
330
1E
100
AcDbEntity
  8
0
100
AcDbLine
 10
158.5
 20
146.7895
 30
0.0
 11
158.5
 21
156.3895
 31
0.0
  0
LINE
  5
3C1
330
1E
100
AcDbEntity
  8
0
100
AcDbLine
 10
158.5
 20
156.3895
 30
0.0
 11
158.5
 21
146.7895
 31
0.0
  0
LINE
  5
3C2
330
1E
100
AcDbEntity
  8
0
100
AcDbLine
 10
158.5
 20
156.3895
 30
0.0
 11
158.5
 21
163.6895
 31
0.0
  0
LINE
  5
3C3
330
1E
100
AcDbEntity
  8
0
100
AcDbLine
 10
158.5
 20
163.6895
 30
0.0
 11
158.5
 21
156.3895
 31
0.0
  0
LINE
  5
3C4
330
1E
100
AcDbEntity
  8
0
100
AcDbLine
 10
158.5
 20
163.6895
 30
0.0
 11
158.5
 21
168.1895
 31
0.0
  0
LINE
  5
3C5
330
1E
100
AcDbEntity
  8
0
100
AcDbLine
 10
158.5
 20
168.1895
 30
0.0
 11
158.5
 21
163.6895
 31
0.0
  0
LINE
  5
3C6
330
1E
100
AcDbEntity
  8
0
100
AcDbLine
 10
158.5
 20
168.1895
 30
0.0
 11
158.5
 21
169.8895
 31
0.0
  0
LINE
  5
3C7
330
1E
100
AcDbEntity
  8
0
100
AcDbLine
 10
159.0
 20
135.6895
 30
0.0
 11
159.0
 21
123.8895
 31
0.0
  0
LINE
  5
3C8
330
1E
100
AcDbEntity
  8
0
100
AcDbLine
 10
159.0
 20
135.6895
 30
0.0
 11
159.0
 21
146.5895
 31
0.0
  0
LINE
  5
3C9
330
1E
100
AcDbEntity
  8
0
100
AcDbLine
 10
159.0
 20
146.5895
 30
0.0
 11
159.0
 21
135.6895
 31
0.0
  0
LINE
  5
3CA
330
1E
100
AcDbEntity
  8
0
100
AcDbLine
 10
159.0
 20
146.5895
 30
0.0
 11
159.0
 21
155.9895
 31
0.0
  0
LINE
  5
3CB
330
1E
100
AcDbEntity
  8
0
100
AcDbLine
 10
159.0
 20
155.9895
 30
0.0
 11
159.0
 21
146.5895
 31
0.0
  0
LINE
  5
3CC
330
1E
100
AcDbEntity
  8
0
100
AcDbLine
 10
159.0
 20
155.9895
 30
0.0
 11
159.0
 21
163.2895
 31
0.0
  0
LINE
  5
3CD
330
1E
100
AcDbEntity
  8
0
100
AcDbLine
 10
159.0
 20
163.2895
 30
0.0
 11
159.0
 21
155.9895
 31
0.0
  0
LINE
  5
3CE
330
1E
100
AcDbEntity
  8
0
100
AcDbLine
 10
159.0
 20
163.2895
 30
0.0
 11
159.0
 21
167.7895
 31
0.0
  0
LINE
  5
3CF
330
1E
100
AcDbEntity
  8
0
100
AcDbLine
 10
159.0
 20
167.7895
 30
0.0
 11
159.0
 21
163.2895
 31
0.0
  0
LINE
  5
3D0
330
1E
100
AcDbEntity
  8
0
100
AcDbLine
 10
159.0
 20
167.7895
 30
0.0
 11
159.0
 21
169.3895
 31
0.0
  0
LINE
  5
3D1
330
1E
100
AcDbEntity
  8
0
100
AcDbLine
 10
159.0
 20
169.3895
 30
0.0
 11
159.0
 21
167.7895
 31
0.0
  0
LINE
  5
3D2
330
1E
100
AcDbEntity
  8
0
100
AcDbLine
 10
158.5
 20
169.8895
 30
0.0
 11
158.5
 21
168.1895
 31
0.0
  0
LINE
  5
3D3
330
1E
100
AcDbEntity
  8
0
100
AcDbLine
 10
158.5
 20
169.8895
 30
0.0
 11
159.0
 21
169.3895
 31
0.0
  0
LINE
  5
3D4
330
1E
100
AcDbEntity
  8
0
100
AcDbLine
 10
145.0
 20
169.8895
 30
0.0
 11
158.5
 21
169.8895
 31
0.0
  0
LINE
  5
3D5
330
1E
100
AcDbEntity
  8
0
100
AcDbLine
 10
131.5
 20
168.1895
 30
0.0
 11
131.5
 21
169.8895
 31
0.0
  0
LINE
  5
3D6
330
1E
100
AcDbEntity
  8
0
100
AcDbLine
 10
131.5
 20
168.1895
 30
0.0
 11
131.5
 21
163.6895
 31
0.0
  0
LINE
  5
3D7
330
1E
100
AcDbEntity
  8
0
100
AcDbLine
 10
131.5
 20
169.8895
 30
0.0
 11
145.0
 21
169.8895
 31
0.0
  0
LINE
  5
3D8
330
1E
100
AcDbEntity
  8
0
100
AcDbLine
 10
131.5
 20
169.8895
 30
0.0
 11
131.5
 21
168.1895
 31
0.0
  0
LINE
  5
3D9
330
1E
100
AcDbEntity
  8
0
100
AcDbLine
 10
131.0
 20
146.4895
 30
0.0
 11
131.0
 21
135.5895
 31
0.0
  0
LINE
  5
3DA
330
1E
100
AcDbEntity
  8
0
100
AcDbLine
 10
131.0
 20
146.4895
 30
0.0
 11
131.0
 21
155.9895
 31
0.0
  0
LINE
  5
3DB
330
1E
100
AcDbEntity
  8
0
100
AcDbLine
 10
131.0
 20
135.5895
 30
0.0
 11
131.0
 21
123.8895
 31
0.0
  0
LINE
  5
3DC
330
1E
100
AcDbEntity
  8
0
100
AcDbLine
 10
131.0
 20
135.5895
 30
0.0
 11
131.0
 21
146.4895
 31
0.0
  0
LINE
  5
1536
330
1E
100
AcDbEntity
  8
0
100
AcDbLine
 10
330.006362770654
 20
0.0
 30
0.0
 11
399.919362770654
 21
0.1442015
 31
0.0
  0
LINE
  5
1537
330
1E
100
AcDbEntity
  8
0
100
AcDbLine
 10
330.006362770654
 20
0.0
 30
0.0
 11
399.919362770654
 21
0.1442015
 31
0.0
  0
LINE
  5
1538
330
1E
100
AcDbEntity
  8
0
100
AcDbLine
 10
330.006362770654
 20
0.0
 30
0.0
 11
330.361359322576
 21
7.1056855
 31
0.0
  0
LINE
  5
1539
330
1E
100
AcDbEntity
  8
0
100
AcDbLine
 10
330.361362770654
 20
7.1056955
 30
0.0
 11
330.721362770654
 21
8.1497555
 31
0.0
  0
LINE
  5
153A
330
1E
100
AcDbEntity
  8
0
100
AcDbLine
 10
330.721362770654
 20
8.1497555
 30
0.0
 11
331.507362770654
 21
8.8287455
 31
0.0
  0
LINE
  5
153B
330
1E
100
AcDbEntity
  8
0
100
AcDbLine
 10
332.245362770654
 20
8.9982855
 30
0.0
 11
336.566362770654
 21
9.2229155
 31
0.0
  0
LINE
  5
153C
330
1E
100
AcDbEntity
  8
0
100
AcDbLine
 10
331.507362770654
 20
8.8287455
 30
0.0
 11
332.245362770654
 21
8.9982855
 31
0.0
  0
LINE
  5
153D
330
1E
100
AcDbEntity
  8
0
100
AcDbLine
 10
336.833362770654
 20
9.2229155
 30
0.0
 11
337.393362770654
 21
9.2229155
 31
0.0
  0
LINE
  5
153E
330
1E
100
AcDbEntity
  8
0
100
AcDbLine
 10
336.684362770654
 20
9.2229155
 30
0.0
 11
336.833362770654
 21
9.2229155
 31
0.0
  0
LINE
  5
153F
330
1E
100
AcDbEntity
  8
0
100
AcDbLine
 10
337.393362770654
 20
9.2229155
 30
0.0
 11
338.355362770654
 21
9.2229155
 31
0.0
  0
LINE
  5
1540
330
1E
100
AcDbEntity
  8
0
100
AcDbLine
 10
336.566362770654
 20
9.2229155
 30
0.0
 11
336.862362770654
 21
9.2229155
 31
0.0
  0
LINE
  5
1541
330
1E
100
AcDbEntity
  8
0
100
AcDbLine
 10
336.862362770654
 20
9.2229155
 30
0.0
 11
337.449362770654
 21
9.2229155
 31
0.0
  0
LINE
  5
1542
330
1E
100
AcDbEntity
  8
0
100
AcDbLine
 10
337.449362770654
 20
9.2229155
 30
0.0
 11
338.323362770654
 21
9.2229155
 31
0.0
  0
LINE
  5
1543
330
1E
100
AcDbEntity
  8
0
100
AcDbLine
 10
338.323362770654
 20
9.2229155
 30
0.0
 11
339.473362770654
 21
9.2229155
 31
0.0
  0
LINE
  5
1544
330
1E
100
AcDbEntity
  8
0
100
AcDbLine
 10
338.355362770654
 20
9.2229155
 30
0.0
 11
339.705362770654
 21
9.2229155
 31
0.0
  0
LINE
  5
1545
330
1E
100
AcDbEntity
  8
0
100
AcDbLine
 10
339.705362770654
 20
9.2229155
 30
0.0
 11
341.424362770654
 21
9.2229155
 31
0.0
  0
LINE
  5
1546
330
1E
100
AcDbEntity
  8
0
100
AcDbLine
 10
341.424362770654
 20
9.2229155
 30
0.0
 11
343.487362770654
 21
9.2229155
 31
0.0
  0
LINE
  5
1547
330
1E
100
AcDbEntity
  8
0
100
AcDbLine
 10
339.473362770654
 20
9.2229155
 30
0.0
 11
340.889362770654
 21
9.2229155
 31
0.0
  0
LINE
  5
1548
330
1E
100
AcDbEntity
  8
0
100
AcDbLine
 10
340.889362770654
 20
9.2229155
 30
0.0
 11
342.554362770654
 21
9.2229155
 31
0.0
  0
LINE
  5
1549
330
1E
100
AcDbEntity
  8
0
100
AcDbLine
 10
343.494362770654
 20
9.2229155
 30
0.0
 11
344.992362770654
 21
9.4411955
 31
0.0
  0
LINE
  5
154A
330
1E
100
AcDbEntity
  8
0
100
AcDbLine
 10
342.554362770654
 20
9.2229155
 30
0.0
 11
385.506362770654
 21
9.2229155
 31
0.0
  0
LINE
  5
154B
330
1E
100
AcDbEntity
  8
0
100
AcDbLine
 10
344.992362770654
 20
9.4411955
 30
0.0
 11
347.234470605008
 21
10.714307768645
 31
0.0
  0
LINE
  5
154C
330
1E
100
AcDbEntity
  8
0
100
AcDbLine
 10
399.55928442006
 20
7.1056955
 30
0.0
 11
399.919362770654
 21
0.1442015
 31
0.0
  0
LINE
  5
154D
330
1E
100
AcDbEntity
  8
0
100
AcDbLine
 10
385.506362770654
 20
9.2229155
 30
0.0
 11
387.405362770654
 21
9.2229155
 31
0.0
  0
LINE
  5
154E
330
1E
100
AcDbEntity
  8
0
100
AcDbLine
 10
385.847362770654
 20
9.2229155
 30
0.0
 11
387.999362770654
 21
9.2229155
 31
0.0
  0
LINE
  5
154F
330
1E
100
AcDbEntity
  8
0
100
AcDbLine
 10
387.405362770654
 20
9.2229155
 30
0.0
 11
389.071362770654
 21
9.2229155
 31
0.0
  0
LINE
  5
1550
330
1E
100
AcDbEntity
  8
0
100
AcDbLine
 10
387.999362770654
 20
9.2229155
 30
0.0
 11
389.816362770654
 21
9.2229155
 31
0.0
  0
LINE
  5
1551
330
1E
100
AcDbEntity
  8
0
100
AcDbLine
 10
389.071362770654
 20
9.2229155
 30
0.0
 11
390.486362770654
 21
9.2229155
 31
0.0
  0
LINE
  5
1552
330
1E
100
AcDbEntity
  8
0
100
AcDbLine
 10
385.149362770654
 20
9.3498355
 30
0.0
 11
386.480362770654
 21
9.2229155
 31
0.0
  0
LINE
  5
1553
330
1E
100
AcDbEntity
  8
0
100
AcDbLine
 10
398.452362770654
 20
8.8287555
 30
0.0
 11
399.277362770654
 21
8.1491755
 31
0.0
  0
LINE
  5
1554
330
1E
100
AcDbEntity
  8
0
100
AcDbLine
 10
399.277362770654
 20
8.1491755
 30
0.0
 11
399.55928442006
 21
7.1056955
 31
0.0
  0
LINE
  5
1555
330
1E
100
AcDbEntity
  8
0
100
AcDbLine
 10
397.714362770654
 20
8.9982855
 30
0.0
 11
398.452362770654
 21
8.8287555
 31
0.0
  0
LINE
  5
1556
330
1E
100
AcDbEntity
  8
0
100
AcDbLine
 10
391.270362770654
 20
9.2229155
 30
0.0
 11
392.341362770654
 21
9.2229155
 31
0.0
  0
LINE
  5
1557
330
1E
100
AcDbEntity
  8
0
100
AcDbLine
 10
389.816362770654
 20
9.2229155
 30
0.0
 11
391.270362770654
 21
9.2229155
 31
0.0
  0
LINE
  5
1558
330
1E
100
AcDbEntity
  8
0
100
AcDbLine
 10
390.486362770654
 20
9.2229155
 30
0.0
 11
391.636362770654
 21
9.2229155
 31
0.0
  0
LINE
  5
1559
330
1E
100
AcDbEntity
  8
0
100
AcDbLine
 10
393.012362770654
 20
9.2229155
 30
0.0
 11
393.276362770654
 21
9.2229155
 31
0.0
  0
LINE
  5
155A
330
1E
100
AcDbEntity
  8
0
100
AcDbLine
 10
392.341362770654
 20
9.2229155
 30
0.0
 11
393.012362770654
 21
9.2229155
 31
0.0
  0
LINE
  5
155B
330
1E
100
AcDbEntity
  8
0
100
AcDbLine
 10
391.636362770654
 20
9.2229155
 30
0.0
 11
392.510362770654
 21
9.2229155
 31
0.0
  0
LINE
  5
155C
330
1E
100
AcDbEntity
  8
0
100
AcDbLine
 10
392.510362770654
 20
9.2229155
 30
0.0
 11
393.097362770654
 21
9.2229155
 31
0.0
  0
LINE
  5
155D
330
1E
100
AcDbEntity
  8
0
100
AcDbLine
 10
393.393362770654
 20
9.2229155
 30
0.0
 11
397.714362770654
 21
8.9982855
 31
0.0
  0
LINE
  5
155E
330
1E
100
AcDbEntity
  8
0
100
AcDbLine
 10
393.097362770654
 20
9.2229155
 30
0.0
 11
393.393362770654
 21
9.2229155
 31
0.0
  0
LINE
  5
155F
330
1E
100
AcDbEntity
  8
0
100
AcDbLine
 10
383.027362770654
 20
10.3132155
 30
0.0
 11
385.149362770654
 21
9.3498355
 31
0.0
  0
LINE
  5
1560
330
1E
100
AcDbEntity
  8
0
100
AcDbLine
 10
347.234470605008
 20
10.714307768644
 30
0.0
 11
348.349362770654
 21
11.9400155
 31
0.0
  0
LINE
  5
1561
330
1E
100
AcDbEntity
  8
0
100
AcDbLine
 10
381.713538453373
 20
11.740491011561
 30
0.0
 11
383.027362770654
 21
10.3132155
 31
0.0
  0
LINE
  5
1562
330
1E
100
AcDbEntity
  8
0
100
AcDbLine
 10
348.349362770654
 20
11.9400155
 30
0.0
 11
348.924362770654
 21
13.4534155
 31
0.0
  0
LINE
  5
1563
330
1E
100
AcDbEntity
  8
0
100
AcDbLine
 10
381.359548907792
 20
12.481567434747
 30
0.0
 11
381.713538453373
 21
11.740491011561
 31
0.0
  0
LINE
  5
1564
330
1E
100
AcDbEntity
  8
0
100
AcDbLine
 10
348.924362770654
 20
13.4534155
 30
0.0
 11
348.980362770654
 21
14.2229155
 31
0.0
  0
LINE
  5
1565
330
1E
100
AcDbEntity
  8
0
100
AcDbLine
 10
348.924362770654
 20
13.4533155
 30
0.0
 11
348.980362770654
 21
14.2229155
 31
0.0
  0
LINE
  5
1566
330
1E
100
AcDbEntity
  8
0
100
AcDbLine
 10
348.980362770654
 20
14.2229155
 30
0.0
 11
348.980362770654
 21
44.959764106811
 31
0.0
  0
LINE
  5
1567
330
1E
100
AcDbEntity
  8
0
100
AcDbLine
 10
380.980362770654
 20
14.2229155
 30
0.0
 11
380.997714625137
 21
13.933646738196
 31
0.0
  0
LINE
  5
1568
330
1E
100
AcDbEntity
  8
0
100
AcDbLine
 10
350.723362770654
 20
40.3238155
 30
0.0
 11
352.035362770654
 21
38.9478155
 31
0.0
  0
LINE
  5
1569
330
1E
100
AcDbEntity
  8
0
100
AcDbLine
 10
348.971362770654
 20
45.0016155
 30
0.0
 11
348.989706769165
 21
45.568894294785
 31
0.0
  0
LINE
  5
156A
330
1E
100
AcDbEntity
  8
0
100
AcDbLine
 10
348.971362770654
 20
45.0016155
 30
0.0
 11
349.294362770654
 21
43.4996155
 31
0.0
  0
LINE
  5
156B
330
1E
100
AcDbEntity
  8
0
100
AcDbLine
 10
349.294362770654
 20
43.4996155
 30
0.0
 11
349.946362770654
 21
42.0484155
 31
0.0
  0
LINE
  5
156C
330
1E
100
AcDbEntity
  8
0
100
AcDbLine
 10
349.946362770654
 20
42.0484155
 30
0.0
 11
350.918362770654
 21
40.6634155
 31
0.0
  0
LINE
  5
156D
330
1E
100
AcDbEntity
  8
0
100
AcDbLine
 10
349.763362770654
 20
41.8150155
 30
0.0
 11
350.723362770654
 21
40.3238155
 31
0.0
  0
LINE
  5
156E
330
1E
100
AcDbEntity
  8
0
100
AcDbLine
 10
349.177362770654
 20
43.3843155
 30
0.0
 11
349.763362770654
 21
41.8150155
 31
0.0
  0
LINE
  5
156F
330
1E
100
AcDbEntity
  8
0
100
AcDbLine
 10
348.989874518539
 20
44.915533006738
 30
0.0
 11
349.177362770654
 21
43.3843155
 31
0.0
  0
LINE
  5
1570
330
1E
100
AcDbEntity
  8
0
100
AcDbLine
 10
348.980362770654
 20
44.959764106811
 30
0.0
 11
348.980362770654
 21
14.2229155
 31
0.0
  0
LINE
  5
1571
330
1E
100
AcDbEntity
  8
0
100
AcDbLine
 10
350.918362770654
 20
40.6634155
 30
0.0
 11
353.733362770654
 21
38.2445155
 31
0.0
  0
LINE
  5
1572
330
1E
100
AcDbEntity
  8
0
100
AcDbLine
 10
360.036362770654
 20
35.2119155
 30
0.0
 11
362.477362770654
 21
34.8349155
 31
0.0
  0
LINE
  5
1573
330
1E
100
AcDbEntity
  8
0
100
AcDbLine
 10
362.477362770654
 20
34.8349155
 30
0.0
 11
364.980362770654
 21
34.7084155
 31
0.0
  0
LINE
  5
1574
330
1E
100
AcDbEntity
  8
0
100
AcDbLine
 10
353.666362770654
 20
37.7206155
 30
0.0
 11
355.575362770654
 21
36.6726155
 31
0.0
  0
LINE
  5
1575
330
1E
100
AcDbEntity
  8
0
100
AcDbLine
 10
363.552362770654
 20
35.3293155
 30
0.0
 11
367.475362770654
 21
35.4347155
 31
0.0
  0
LINE
  5
1576
330
1E
100
AcDbEntity
  8
0
100
AcDbLine
 10
355.131362770654
 20
37.5169155
 30
0.0
 11
356.377362770654
 21
36.9343155
 31
0.0
  0
LINE
  5
1577
330
1E
100
AcDbEntity
  8
0
100
AcDbLine
 10
356.657613669368
 20
36.828562433254
 30
0.0
 11
359.720362770654
 21
35.8798155
 31
0.0
  0
LINE
  5
1578
330
1E
100
AcDbEntity
  8
0
100
AcDbLine
 10
359.720362770654
 20
35.8798155
 30
0.0
 11
363.552362770654
 21
35.3293155
 31
0.0
  0
LINE
  5
1579
330
1E
100
AcDbEntity
  8
0
100
AcDbLine
 10
356.377362770654
 20
36.9342155
 30
0.0
 11
356.658351623332
 21
36.828205108177
 31
0.0
  0
LINE
  5
157A
330
1E
100
AcDbEntity
  8
0
100
AcDbLine
 10
356.377362770654
 20
36.9343155
 30
0.0
 11
356.657613669368
 21
36.828562433254
 31
0.0
  0
LINE
  5
157B
330
1E
100
AcDbEntity
  8
0
100
AcDbLine
 10
355.575362770654
 20
36.6726155
 30
0.0
 11
357.716362770654
 21
35.8292155
 31
0.0
  0
LINE
  5
157C
330
1E
100
AcDbEntity
  8
0
100
AcDbLine
 10
357.716362770654
 20
35.8292155
 30
0.0
 11
360.036362770654
 21
35.2119155
 31
0.0
  0
LINE
  5
157D
330
1E
100
AcDbEntity
  8
0
100
AcDbLine
 10
364.980362770654
 20
34.7086155
 30
0.0
 11
368.726362770654
 21
34.9618155
 31
0.0
  0
LINE
  5
157E
330
1E
100
AcDbEntity
  8
0
100
AcDbLine
 10
367.475362770654
 20
35.4347155
 30
0.0
 11
371.259362770654
 21
36.1107155
 31
0.0
  0
LINE
  5
157F
330
1E
100
AcDbEntity
  8
0
100
AcDbLine
 10
352.035362770654
 20
38.9478155
 30
0.0
 11
353.666362770654
 21
37.7206155
 31
0.0
  0
LINE
  5
1580
330
1E
100
AcDbEntity
  8
0
100
AcDbLine
 10
353.209362770654
 20
52.9463155
 30
0.0
 11
354.943362770654
 21
51.9215155
 31
0.0
  0
LINE
  5
1581
330
1E
100
AcDbEntity
  8
0
100
AcDbLine
 10
361.606362770654
 20
49.8496155
 30
0.0
 11
364.549362770654
 21
49.6227155
 31
0.0
  0
LINE
  5
1582
330
1E
100
AcDbEntity
  8
0
100
AcDbLine
 10
358.263362770654
 20
50.5827155
 30
0.0
 11
361.606362770654
 21
49.8496155
 31
0.0
  0
LINE
  5
1583
330
1E
100
AcDbEntity
  8
0
100
AcDbLine
 10
364.549362770654
 20
49.6227155
 30
0.0
 11
366.698362770654
 21
49.6830155
 31
0.0
  0
LINE
  5
1584
330
1E
100
AcDbEntity
  8
0
100
AcDbLine
 10
366.698362770654
 20
49.6830155
 30
0.0
 11
370.160362770654
 21
50.1388155
 31
0.0
  0
LINE
  5
1585
330
1E
100
AcDbEntity
  8
0
100
AcDbLine
 10
354.943362770654
 20
51.9215155
 30
0.0
 11
356.212362770654
 21
51.3278155
 31
0.0
  0
LINE
  5
1586
330
1E
100
AcDbEntity
  8
0
100
AcDbLine
 10
356.212362770654
 20
51.3278155
 30
0.0
 11
358.263362770654
 21
50.5827155
 31
0.0
  0
LINE
  5
1587
330
1E
100
AcDbEntity
  8
0
100
AcDbLine
 10
359.054362770654
 20
54.5084155
 30
0.0
 11
361.934362770654
 21
53.7543155
 31
0.0
  0
LINE
  5
1588
330
1E
100
AcDbEntity
  8
0
100
AcDbLine
 10
361.934362770654
 20
53.7543155
 30
0.0
 11
365.006362770654
 21
53.3998155
 31
0.0
  0
LINE
  5
1589
330
1E
100
AcDbEntity
  8
0
100
AcDbLine
 10
365.006362770654
 20
53.3998155
 30
0.0
 11
368.078362770654
 21
53.7543155
 31
0.0
  0
LINE
  5
158A
330
1E
100
AcDbEntity
  8
0
100
AcDbLine
 10
372.244362770654
 20
35.8294155
 30
0.0
 11
375.400362770654
 21
37.1470155
 31
0.0
  0
LINE
  5
158B
330
1E
100
AcDbEntity
  8
0
100
AcDbLine
 10
371.259362770654
 20
36.1107155
 30
0.0
 11
374.640362770654
 21
37.3918155
 31
0.0
  0
LINE
  5
158C
330
1E
100
AcDbEntity
  8
0
100
AcDbLine
 10
368.726362770654
 20
34.9618155
 30
0.0
 11
372.244362770654
 21
35.8294155
 31
0.0
  0
LINE
  5
158D
330
1E
100
AcDbEntity
  8
0
100
AcDbLine
 10
370.160362770654
 20
50.1388155
 30
0.0
 11
373.357362770654
 21
51.1350155
 31
0.0
  0
LINE
  5
158E
330
1E
100
AcDbEntity
  8
0
100
AcDbLine
 10
373.357362770654
 20
51.1350155
 30
0.0
 11
375.845362770654
 21
52.3645155
 31
0.0
  0
LINE
  5
158F
330
1E
100
AcDbEntity
  8
0
100
AcDbLine
 10
368.078362770654
 20
53.7543155
 30
0.0
 11
370.958362770654
 21
54.5084155
 31
0.0
  0
LINE
  5
1590
330
1E
100
AcDbEntity
  8
0
100
AcDbLine
 10
350.904362770654
 20
54.9862155
 30
0.0
 11
353.209362770654
 21
52.9463155
 31
0.0
  0
LINE
  5
1591
330
1E
100
AcDbEntity
  8
0
100
AcDbLine
 10
356.558362770654
 20
55.7501155
 30
0.0
 11
359.054362770654
 21
54.5084155
 31
0.0
  0
LINE
  5
1592
330
1E
100
AcDbEntity
  8
0
100
AcDbLine
 10
356.558362770654
 20
55.7501155
 30
0.0
 11
357.230362770654
 21
55.4063155
 31
0.0
  0
LINE
  5
1593
330
1E
100
AcDbEntity
  8
0
100
AcDbLine
 10
372.782362770654
 20
55.4063155
 30
0.0
 11
373.454362770654
 21
55.7501155
 31
0.0
  0
LINE
  5
1594
330
1E
100
AcDbEntity
  8
0
100
AcDbLine
 10
370.958362770654
 20
54.5084155
 30
0.0
 11
373.454362770654
 21
55.7501155
 31
0.0
  0
LINE
  5
1595
330
1E
100
AcDbEntity
  8
0
100
AcDbLine
 10
375.400362770654
 20
37.1470155
 30
0.0
 11
378.666362770654
 21
39.6050155
 31
0.0
  0
LINE
  5
1596
330
1E
100
AcDbEntity
  8
0
100
AcDbLine
 10
374.640362770654
 20
37.3918155
 30
0.0
 11
377.481362770654
 21
39.1345155
 31
0.0
  0
LINE
  5
1597
330
1E
100
AcDbEntity
  8
0
100
AcDbLine
 10
376.182362770654
 20
38.3056155
 30
0.0
 11
376.476797552769
 21
38.518304375323
 31
0.0
  0
LINE
  5
1598
330
1E
100
AcDbEntity
  8
0
100
AcDbLine
 10
376.182362770654
 20
38.3055155
 30
0.0
 11
376.479103380822
 21
38.519718795086
 31
0.0
  0
LINE
  5
1599
330
1E
100
AcDbEntity
  8
0
100
AcDbLine
 10
377.481362770654
 20
39.1345155
 30
0.0
 11
379.866362770654
 21
41.7463155
 31
0.0
  0
LINE
  5
159A
330
1E
100
AcDbEntity
  8
0
100
AcDbLine
 10
378.666362770654
 20
39.6050155
 30
0.0
 11
380.588362770654
 21
42.5901155
 31
0.0
  0
LINE
  5
159B
330
1E
100
AcDbEntity
  8
0
100
AcDbLine
 10
375.845362770654
 20
52.3645155
 30
0.0
 11
378.623362770654
 21
54.4877155
 31
0.0
  0
LINE
  5
159C
330
1E
100
AcDbEntity
  8
0
100
AcDbLine
 10
378.623362770654
 20
54.4877155
 30
0.0
 11
380.004362770654
 21
56.3104155
 31
0.0
  0
LINE
  5
159D
330
1E
100
AcDbEntity
  8
0
100
AcDbLine
 10
379.866362770654
 20
41.7463155
 30
0.0
 11
380.967362770654
 21
44.6898155
 31
0.0
  0
LINE
  5
159E
330
1E
100
AcDbEntity
  8
0
100
AcDbLine
 10
380.588362770654
 20
42.5901155
 30
0.0
 11
380.902696053599
 21
44.516930412214
 31
0.0
  0
LINE
  5
159F
330
1E
100
AcDbEntity
  8
0
100
AcDbLine
 10
380.967362770654
 20
44.6898155
 30
0.0
 11
380.985999827843
 21
59.23623481571
 31
0.0
  0
LINE
  5
15A0
330
1E
100
AcDbEntity
  8
0
100
AcDbLine
 10
380.004362770654
 20
56.3104155
 30
0.0
 11
380.605362770654
 21
57.5209155
 31
0.0
  0
LINE
  5
15A1
330
1E
100
AcDbEntity
  8
0
100
AcDbLine
 10
373.454362770654
 20
55.7501155
 30
0.0
 11
375.374362770654
 21
57.3031155
 31
0.0
  0
LINE
  5
15A2
330
1E
100
AcDbEntity
  8
0
100
AcDbLine
 10
349.712362770654
 20
56.8557155
 30
0.0
 11
350.902362770654
 21
54.9893155
 31
0.0
  0
LINE
  5
15A3
330
1E
100
AcDbEntity
  8
0
100
AcDbLine
 10
354.638362770654
 20
57.3031155
 30
0.0
 11
356.558362770654
 21
55.7501155
 31
0.0
  0
LINE
  5
15A4
330
1E
100
AcDbEntity
  8
0
100
AcDbLine
 10
348.973362770654
 20
60.3424155
 30
0.0
 11
349.250362770654
 21
61.8294155
 31
0.0
  0
LINE
  5
15A5
330
1E
100
AcDbEntity
  8
0
100
AcDbLine
 10
348.973362770654
 20
60.3424155
 30
0.0
 11
349.156362770654
 21
58.3273155
 31
0.0
  0
LINE
  5
15A6
330
1E
100
AcDbEntity
  8
0
100
AcDbLine
 10
349.156362770654
 20
58.3273155
 30
0.0
 11
349.712362770654
 21
56.8557155
 31
0.0
  0
LINE
  5
15A7
330
1E
100
AcDbEntity
  8
0
100
AcDbLine
 10
349.250362770654
 20
61.8294155
 30
0.0
 11
349.496362770654
 21
62.5886155
 31
0.0
  0
LINE
  5
15A8
330
1E
100
AcDbEntity
  8
0
100
AcDbLine
 10
349.187963412031
 20
61.494441325731
 30
0.0
 11
349.210362770654
 21
61.8531155
 31
0.0
  0
LINE
  5
15A9
330
1E
100
AcDbEntity
  8
0
100
AcDbLine
 10
349.406956520125
 20
62.204630184629
 30
0.0
 11
349.496362770654
 21
62.5886155
 31
0.0
  0
LINE
  5
15AA
330
1E
100
AcDbEntity
  8
0
100
AcDbLine
 10
349.496362770654
 20
62.5886155
 30
0.0
 11
349.713679020264
 21
62.93956875368
 31
0.0
  0
LINE
  5
15AB
330
1E
100
AcDbEntity
  8
0
100
AcDbLine
 10
349.496362770654
 20
62.5886155
 30
0.0
 11
350.225362770654
 21
64.1656155
 31
0.0
  0
LINE
  5
15AC
330
1E
100
AcDbEntity
  8
0
100
AcDbLine
 10
349.210362770654
 20
61.8531155
 30
0.0
 11
349.339956784688
 21
62.105918652255
 31
0.0
  0
LINE
  5
15AD
330
1E
100
AcDbEntity
  8
0
100
AcDbLine
 10
353.390362770654
 20
59.2106155
 30
0.0
 11
354.638362770654
 21
57.3031155
 31
0.0
  0
LINE
  5
15AE
330
1E
100
AcDbEntity
  8
0
100
AcDbLine
 10
353.006362770654
 20
61.2064155
 30
0.0
 11
353.006362770654
 21
133.2409155
 31
0.0
  0
LINE
  5
15AF
330
1E
100
AcDbEntity
  8
0
100
AcDbLine
 10
353.006362770654
 20
61.2064155
 30
0.0
 11
353.390362770654
 21
59.2106155
 31
0.0
  0
LINE
  5
15B0
330
1E
100
AcDbEntity
  8
0
100
AcDbLine
 10
375.374362770654
 20
57.3031155
 30
0.0
 11
376.622362770654
 21
59.2106155
 31
0.0
  0
LINE
  5
15B1
330
1E
100
AcDbEntity
  8
0
100
AcDbLine
 10
380.605362770654
 20
57.5209155
 30
0.0
 11
380.993362770654
 21
59.2694155
 31
0.0
  0
LINE
  5
15B2
330
1E
100
AcDbEntity
  8
0
100
AcDbLine
 10
380.764362770654
 20
61.7882155
 30
0.0
 11
380.993362770654
 21
59.2694155
 31
0.0
  0
LINE
  5
15B3
330
1E
100
AcDbEntity
  8
0
100
AcDbLine
 10
380.776778109392
 20
61.601205480986
 30
0.0
 11
380.804362770654
 21
61.5330155
 31
0.0
  0
LINE
  5
15B4
330
1E
100
AcDbEntity
  8
0
100
AcDbLine
 10
377.006362770654
 20
61.2064155
 30
0.0
 11
377.006362770654
 21
133.2409155
 31
0.0
  0
LINE
  5
15B5
330
1E
100
AcDbEntity
  8
0
100
AcDbLine
 10
376.622362770654
 20
59.2106155
 30
0.0
 11
377.006362770654
 21
61.2064155
 31
0.0
  0
LINE
  5
15B6
330
1E
100
AcDbEntity
  8
0
100
AcDbLine
 10
350.225362770654
 20
64.1656155
 30
0.0
 11
350.941362770654
 21
65.3167155
 31
0.0
  0
LINE
  5
15B7
330
1E
100
AcDbEntity
  8
0
100
AcDbLine
 10
377.006362770654
 20
67.199456262463
 30
0.0
 11
378.828362770654
 21
65.5738155
 31
0.0
  0
LINE
  5
15B8
330
1E
100
AcDbEntity
  8
0
100
AcDbLine
 10
351.891362770654
 20
66.0351155
 30
0.0
 11
353.006362770654
 21
67.018954871981
 31
0.0
  0
LINE
  5
15B9
330
1E
100
AcDbEntity
  8
0
100
AcDbLine
 10
350.941362770654
 20
65.3167155
 30
0.0
 11
353.006362770654
 21
67.186931812057
 31
0.0
  0
LINE
  5
15BA
330
1E
100
AcDbEntity
  8
0
100
AcDbLine
 10
378.828362770654
 20
65.5738155
 30
0.0
 11
379.638362770654
 21
64.3384155
 31
0.0
  0
LINE
  5
15BB
330
1E
100
AcDbEntity
  8
0
100
AcDbLine
 10
379.638362770654
 20
64.3384155
 30
0.0
 11
380.187362770654
 21
63.2659155
 31
0.0
  0
LINE
  5
15BC
330
1E
100
AcDbEntity
  8
0
100
AcDbLine
 10
380.187362770654
 20
63.2659155
 30
0.0
 11
380.764362770654
 21
61.7882155
 31
0.0
  0
LINE
  5
15BD
330
1E
100
AcDbEntity
  8
0
100
AcDbLine
 10
330.336362770654
 20
147.5429155
 30
0.0
 11
330.336362770654
 21
148.1599155
 31
0.0
  0
LINE
  5
15BE
330
1E
100
AcDbEntity
  8
0
100
AcDbLine
 10
328.876362770654
 20
147.5429155
 30
0.0
 11
328.876362770654
 21
148.439149996683
 31
0.0
  0
LINE
  5
15BF
330
1E
100
AcDbEntity
  8
0
100
AcDbLine
 10
328.876362770654
 20
147.5429155
 30
0.0
 11
328.876362770654
 21
148.1599155
 31
0.0
  0
LINE
  5
15C0
330
1E
100
AcDbEntity
  8
0
100
AcDbLine
 10
328.876362770654
 20
147.5429155
 30
0.0
 11
330.336362770654
 21
147.5429155
 31
0.0
  0
LINE
  5
15C1
330
1E
100
AcDbEntity
  8
0
100
AcDbLine
 10
330.336362770654
 20
148.1599155
 30
0.0
 11
330.336362770654
 21
148.961093144711
 31
0.0
  0
LINE
  5
15C2
330
1E
100
AcDbEntity
  8
0
100
AcDbLine
 10
330.336362770654
 20
148.1599155
 30
0.0
 11
330.336362770654
 21
147.5429155
 31
0.0
  0
LINE
  5
15C3
330
1E
100
AcDbEntity
  8
0
100
AcDbLine
 10
328.876362770654
 20
148.439149996683
 30
0.0
 11
328.876362770654
 21
147.5429155
 31
0.0
  0
LINE
  5
15C4
330
1E
100
AcDbEntity
  8
0
100
AcDbLine
 10
330.336362770654
 20
148.961093144711
 30
0.0
 11
330.336362770654
 21
148.1599155
 31
0.0
  0
LINE
  5
15C5
330
1E
100
AcDbEntity
  8
0
100
AcDbLine
 10
328.876362770654
 20
148.611127621212
 30
0.0
 11
328.876362770654
 21
148.1599155
 31
0.0
  0
LINE
  5
15C6
330
1E
100
AcDbEntity
  8
0
100
AcDbLine
 10
328.876362770654
 20
148.1599155
 30
0.0
 11
328.876362770654
 21
147.5429155
 31
0.0
  0
LINE
  5
15C7
330
1E
100
AcDbEntity
  8
0
100
AcDbLine
 10
328.876362770654
 20
148.1599155
 30
0.0
 11
328.876362770654
 21
148.611127621212
 31
0.0
  0
LINE
  5
15C8
330
1E
100
AcDbEntity
  8
0
100
AcDbLine
 10
328.876362770654
 20
148.1599155
 30
0.0
 11
330.336362770654
 21
148.1599155
 31
0.0
  0
LINE
  5
15C9
330
1E
100
AcDbEntity
  8
0
100
AcDbLine
 10
327.707362770654
 20
148.3309155
 30
0.0
 11
328.876362770654
 21
147.775161401639
 31
0.0
  0
LINE
  5
15CA
330
1E
100
AcDbEntity
  8
0
100
AcDbLine
 10
329.364880012033
 20
147.5429155
 30
0.0
 11
331.794362770654
 21
146.3879155
 31
0.0
  0
LINE
  5
15CB
330
1E
100
AcDbEntity
  8
0
100
AcDbLine
 10
325.955362770654
 20
147.7759155
 30
0.0
 11
330.188362770654
 21
145.7089155
 31
0.0
  0
LINE
  5
15CC
330
1E
100
AcDbEntity
  8
0
100
AcDbLine
 10
324.090362770654
 20
150.9749155
 30
0.0
 11
324.090362770654
 21
151.5919155
 31
0.0
  0
LINE
  5
15CD
330
1E
100
AcDbEntity
  8
0
100
AcDbLine
 10
324.090362770654
 20
150.9749155
 30
0.0
 11
325.550362770654
 21
150.9749155
 31
0.0
  0
LINE
  5
15CE
330
1E
100
AcDbEntity
  8
0
100
AcDbLine
 10
324.090362770654
 20
152.780891304253
 30
0.0
 11
324.090362770654
 21
151.5919155
 31
0.0
  0
LINE
  5
15CF
330
1E
100
AcDbEntity
  8
0
100
AcDbLine
 10
325.550362770654
 20
151.5919155
 30
0.0
 11
325.550362770654
 21
152.74894882879
 31
0.0
  0
LINE
  5
15D0
330
1E
100
AcDbEntity
  8
0
100
AcDbLine
 10
325.550362770654
 20
151.5919155
 30
0.0
 11
325.550362770654
 21
150.9749155
 31
0.0
  0
LINE
  5
15D1
330
1E
100
AcDbEntity
  8
0
100
AcDbLine
 10
325.550362770654
 20
150.9749155
 30
0.0
 11
325.550362770654
 21
151.5919155
 31
0.0
  0
LINE
  5
15D2
330
1E
100
AcDbEntity
  8
0
100
AcDbLine
 10
325.550362770654
 20
152.74894882879
 30
0.0
 11
325.550362770654
 21
151.5919155
 31
0.0
  0
LINE
  5
15D3
330
1E
100
AcDbEntity
  8
0
100
AcDbLine
 10
324.090362770654
 20
151.5919155
 30
0.0
 11
324.090362770654
 21
150.9749155
 31
0.0
  0
LINE
  5
15D4
330
1E
100
AcDbEntity
  8
0
100
AcDbLine
 10
324.090362770654
 20
151.5919155
 30
0.0
 11
324.090362770654
 21
152.780891304253
 31
0.0
  0
LINE
  5
15D5
330
1E
100
AcDbEntity
  8
0
100
AcDbLine
 10
324.090362770654
 20
151.5919155
 30
0.0
 11
325.550362770654
 21
151.5919155
 31
0.0
  0
LINE
  5
15D6
330
1E
100
AcDbEntity
  8
0
100
AcDbLine
 10
324.203362770654
 20
150.5209155
 30
0.0
 11
327.707362770654
 21
148.3309155
 31
0.0
  0
LINE
  5
15D7
330
1E
100
AcDbEntity
  8
0
100
AcDbLine
 10
321.575362770654
 20
152.8359155
 30
0.0
 11
324.203362770654
 21
150.5209155
 31
0.0
  0
LINE
  5
15D8
330
1E
100
AcDbEntity
  8
0
100
AcDbLine
 10
322.305362770654
 20
150.0589155
 30
0.0
 11
325.955362770654
 21
147.7759155
 31
0.0
  0
LINE
  5
15D9
330
1E
100
AcDbEntity
  8
0
100
AcDbLine
 10
319.605362770654
 20
152.4659155
 30
0.0
 11
322.305362770654
 21
150.0589155
 31
0.0
  0
LINE
  5
15DA
330
1E
100
AcDbEntity
  8
0
100
AcDbLine
 10
331.146362770654
 20
154.6729155
 30
0.0
 11
331.146362770654
 21
155.2899155
 31
0.0
  0
LINE
  5
15DB
330
1E
100
AcDbEntity
  8
0
100
AcDbLine
 10
329.686362770654
 20
154.6729155
 30
0.0
 11
329.686362770654
 21
155.835826632739
 31
0.0
  0
LINE
  5
15DC
330
1E
100
AcDbEntity
  8
0
100
AcDbLine
 10
329.686362770654
 20
154.6729155
 30
0.0
 11
329.686362770654
 21
155.2899155
 31
0.0
  0
LINE
  5
15DD
330
1E
100
AcDbEntity
  8
0
100
AcDbLine
 10
329.686362770654
 20
154.6729155
 30
0.0
 11
331.146362770654
 21
154.6729155
 31
0.0
  0
LINE
  5
15DE
330
1E
100
AcDbEntity
  8
0
100
AcDbLine
 10
322.224362770654
 20
155.0579155
 30
0.0
 11
322.224362770654
 21
155.6749155
 31
0.0
  0
LINE
  5
15DF
330
1E
100
AcDbEntity
  8
0
100
AcDbLine
 10
320.765362770654
 20
155.636795562888
 30
0.0
 11
320.765362770654
 21
155.0579155
 31
0.0
  0
LINE
  5
15E0
330
1E
100
AcDbEntity
  8
0
100
AcDbLine
 10
331.146362770654
 20
155.2899155
 30
0.0
 11
331.146362770654
 21
155.86839981534
 31
0.0
  0
LINE
  5
15E1
330
1E
100
AcDbEntity
  8
0
100
AcDbLine
 10
331.146362770654
 20
155.2899155
 30
0.0
 11
331.146362770654
 21
154.6729155
 31
0.0
  0
LINE
  5
15E2
330
1E
100
AcDbEntity
  8
0
100
AcDbLine
 10
329.686362770654
 20
155.2899155
 30
0.0
 11
329.686362770654
 21
154.6729155
 31
0.0
  0
LINE
  5
15E3
330
1E
100
AcDbEntity
  8
0
100
AcDbLine
 10
329.686362770654
 20
155.2899155
 30
0.0
 11
329.686362770654
 21
155.835826632739
 31
0.0
  0
LINE
  5
15E4
330
1E
100
AcDbEntity
  8
0
100
AcDbLine
 10
329.686362770654
 20
155.2899155
 30
0.0
 11
331.146362770654
 21
155.2899155
 31
0.0
  0
LINE
  5
15E5
330
1E
100
AcDbEntity
  8
0
100
AcDbLine
 10
331.146362770654
 20
155.86839981534
 30
0.0
 11
331.146362770654
 21
155.2899155
 31
0.0
  0
LINE
  5
15E6
330
1E
100
AcDbEntity
  8
0
100
AcDbLine
 10
329.686362770654
 20
155.835826632739
 30
0.0
 11
329.686362770654
 21
155.2899155
 31
0.0
  0
LINE
  5
15E7
330
1E
100
AcDbEntity
  8
0
100
AcDbLine
 10
329.686362770654
 20
155.835826632739
 30
0.0
 11
329.686362770654
 21
154.6729155
 31
0.0
  0
LINE
  5
15E8
330
1E
100
AcDbEntity
  8
0
100
AcDbLine
 10
322.224362770654
 20
155.6749155
 30
0.0
 11
322.224362770654
 21
155.0579155
 31
0.0
  0
LINE
  5
15E9
330
1E
100
AcDbEntity
  8
0
100
AcDbLine
 10
320.765362770654
 20
155.6749155
 30
0.0
 11
320.765362770654
 21
155.0579155
 31
0.0
  0
LINE
  5
15EA
330
1E
100
AcDbEntity
  8
0
100
AcDbLine
 10
320.765362770654
 20
155.6749155
 30
0.0
 11
322.224362770654
 21
155.6749155
 31
0.0
  0
LINE
  5
15EB
330
1E
100
AcDbEntity
  8
0
100
AcDbLine
 10
320.765362770654
 20
155.0579155
 30
0.0
 11
320.765362770654
 21
155.636795562888
 31
0.0
  0
LINE
  5
15EC
330
1E
100
AcDbEntity
  8
0
100
AcDbLine
 10
320.765362770654
 20
155.0579155
 30
0.0
 11
320.765362770654
 21
155.6749155
 31
0.0
  0
LINE
  5
15ED
330
1E
100
AcDbEntity
  8
0
100
AcDbLine
 10
320.765362770654
 20
155.0579155
 30
0.0
 11
322.224362770654
 21
155.0579155
 31
0.0
  0
LINE
  5
15EE
330
1E
100
AcDbEntity
  8
0
100
AcDbLine
 10
319.605362770654
 20
155.6109155
 30
0.0
 11
321.575362770654
 21
152.8359155
 31
0.0
  0
LINE
  5
15EF
330
1E
100
AcDbEntity
  8
0
100
AcDbLine
 10
318.875362770654
 20
153.2479155
 30
0.0
 11
319.605362770654
 21
152.4659155
 31
0.0
  0
LINE
  5
15F0
330
1E
100
AcDbEntity
  8
0
100
AcDbLine
 10
317.488362770654
 20
155.1799155
 30
0.0
 11
319.605362770654
 21
152.4659155
 31
0.0
  0
LINE
  5
15F1
330
1E
100
AcDbEntity
  8
0
100
AcDbLine
 10
319.386362770654
 20
160.14418389036
 30
0.0
 11
319.386362770654
 21
159.2099155
 31
0.0
  0
LINE
  5
15F2
330
1E
100
AcDbEntity
  8
0
100
AcDbLine
 10
319.386362770654
 20
160.517672262453
 30
0.0
 11
319.386362770654
 21
159.8269155
 31
0.0
  0
LINE
  5
15F3
330
1E
100
AcDbEntity
  8
0
100
AcDbLine
 10
319.386362770654
 20
159.8269155
 30
0.0
 11
319.386362770654
 21
159.2099155
 31
0.0
  0
LINE
  5
15F4
330
1E
100
AcDbEntity
  8
0
100
AcDbLine
 10
319.386362770654
 20
159.8269155
 30
0.0
 11
319.386362770654
 21
160.517672262453
 31
0.0
  0
LINE
  5
15F5
330
1E
100
AcDbEntity
  8
0
100
AcDbLine
 10
319.386362770654
 20
159.8269155
 30
0.0
 11
320.845362770654
 21
159.8269155
 31
0.0
  0
LINE
  5
15F6
330
1E
100
AcDbEntity
  8
0
100
AcDbLine
 10
320.845362770654
 20
159.8269155
 30
0.0
 11
320.845362770654
 21
160.611364807946
 31
0.0
  0
LINE
  5
15F7
330
1E
100
AcDbEntity
  8
0
100
AcDbLine
 10
320.845362770654
 20
159.8269155
 30
0.0
 11
320.845362770654
 21
159.2099155
 31
0.0
  0
LINE
  5
15F8
330
1E
100
AcDbEntity
  8
0
100
AcDbLine
 10
329.605362770654
 20
158.7559155
 30
0.0
 11
329.605362770654
 21
159.3729155
 31
0.0
  0
LINE
  5
15F9
330
1E
100
AcDbEntity
  8
0
100
AcDbLine
 10
328.145362770654
 20
159.756305606721
 30
0.0
 11
328.145362770654
 21
159.3729155
 31
0.0
  0
LINE
  5
15FA
330
1E
100
AcDbEntity
  8
0
100
AcDbLine
 10
328.145362770654
 20
159.756305606721
 30
0.0
 11
328.145362770654
 21
158.7559155
 31
0.0
  0
LINE
  5
15FB
330
1E
100
AcDbEntity
  8
0
100
AcDbLine
 10
329.605362770654
 20
159.3729155
 30
0.0
 11
329.605362770654
 21
159.66092343193
 31
0.0
  0
LINE
  5
15FC
330
1E
100
AcDbEntity
  8
0
100
AcDbLine
 10
329.605362770654
 20
159.3729155
 30
0.0
 11
329.605362770654
 21
158.7559155
 31
0.0
  0
LINE
  5
15FD
330
1E
100
AcDbEntity
  8
0
100
AcDbLine
 10
329.605362770654
 20
159.66092343193
 30
0.0
 11
329.605362770654
 21
159.3729155
 31
0.0
  0
LINE
  5
15FE
330
1E
100
AcDbEntity
  8
0
100
AcDbLine
 10
328.145362770654
 20
159.3729155
 30
0.0
 11
328.145362770654
 21
158.7559155
 31
0.0
  0
LINE
  5
15FF
330
1E
100
AcDbEntity
  8
0
100
AcDbLine
 10
328.145362770654
 20
159.3729155
 30
0.0
 11
328.145362770654
 21
159.756305606721
 31
0.0
  0
LINE
  5
1600
330
1E
100
AcDbEntity
  8
0
100
AcDbLine
 10
328.145362770654
 20
159.3729155
 30
0.0
 11
329.605362770654
 21
159.3729155
 31
0.0
  0
LINE
  5
1601
330
1E
100
AcDbEntity
  8
0
100
AcDbLine
 10
328.145362770654
 20
158.7559155
 30
0.0
 11
328.145362770654
 21
159.756305606721
 31
0.0
  0
LINE
  5
1602
330
1E
100
AcDbEntity
  8
0
100
AcDbLine
 10
328.145362770654
 20
158.7559155
 30
0.0
 11
328.145362770654
 21
159.3729155
 31
0.0
  0
LINE
  5
1603
330
1E
100
AcDbEntity
  8
0
100
AcDbLine
 10
328.145362770654
 20
158.7559155
 30
0.0
 11
329.605362770654
 21
158.7559155
 31
0.0
  0
LINE
  5
1604
330
1E
100
AcDbEntity
  8
0
100
AcDbLine
 10
320.845362770654
 20
159.2099155
 30
0.0
 11
320.845362770654
 21
159.8269155
 31
0.0
  0
LINE
  5
1605
330
1E
100
AcDbEntity
  8
0
100
AcDbLine
 10
320.845362770654
 20
160.611364807946
 30
0.0
 11
320.845362770654
 21
159.8269155
 31
0.0
  0
LINE
  5
1606
330
1E
100
AcDbEntity
  8
0
100
AcDbLine
 10
319.386362770654
 20
159.2099155
 30
0.0
 11
319.386362770654
 21
160.14418389036
 31
0.0
  0
LINE
  5
1607
330
1E
100
AcDbEntity
  8
0
100
AcDbLine
 10
319.386362770654
 20
159.2099155
 30
0.0
 11
319.386362770654
 21
159.8269155
 31
0.0
  0
LINE
  5
1608
330
1E
100
AcDbEntity
  8
0
100
AcDbLine
 10
319.386362770654
 20
159.2099155
 30
0.0
 11
320.845362770654
 21
159.2099155
 31
0.0
  0
LINE
  5
1609
330
1E
100
AcDbEntity
  8
0
100
AcDbLine
 10
318.364362770654
 20
157.8009155
 30
0.0
 11
319.605362770654
 21
155.6109155
 31
0.0
  0
LINE
  5
160A
330
1E
100
AcDbEntity
  8
0
100
AcDbLine
 10
317.926362770654
 20
160.4239155
 30
0.0
 11
318.364362770654
 21
157.8009155
 31
0.0
  0
LINE
  5
160B
330
1E
100
AcDbEntity
  8
0
100
AcDbLine
 10
317.926362770654
 20
160.4239155
 30
0.0
 11
318.364362770654
 21
163.0459155
 31
0.0
  0
LINE
  5
160C
330
1E
100
AcDbEntity
  8
0
100
AcDbLine
 10
316.247362770654
 20
157.7399155
 30
0.0
 11
317.488362770654
 21
155.1799155
 31
0.0
  0
LINE
  5
160D
330
1E
100
AcDbEntity
  8
0
100
AcDbLine
 10
315.736362770654
 20
160.4239155
 30
0.0
 11
316.247362770654
 21
157.7399155
 31
0.0
  0
LINE
  5
160E
330
1E
100
AcDbEntity
  8
0
100
AcDbLine
 10
315.736362770654
 20
160.4239155
 30
0.0
 11
316.247362770654
 21
163.1079155
 31
0.0
  0
LINE
  5
160F
330
1E
100
AcDbEntity
  8
0
100
AcDbLine
 10
316.831362770654
 20
155.8699155
 30
0.0
 11
318.875362770654
 21
153.2479155
 31
0.0
  0
LINE
  5
1610
330
1E
100
AcDbEntity
  8
0
100
AcDbLine
 10
315.517362770654
 20
158.6159155
 30
0.0
 11
316.831362770654
 21
155.8699155
 31
0.0
  0
LINE
  5
1611
330
1E
100
AcDbEntity
  8
0
100
AcDbLine
 10
315.006362770654
 20
161.3309155
 30
0.0
 11
315.517362770654
 21
158.6159155
 31
0.0
  0
LINE
  5
1612
330
1E
100
AcDbEntity
  8
0
100
AcDbLine
 10
315.006362770654
 20
161.3309155
 30
0.0
 11
315.006362770654
 21
180.3629155
 31
0.0
  0
LINE
  5
1613
330
1E
100
AcDbEntity
  8
0
100
AcDbLine
 10
315.006362770654
 20
161.3309155
 30
0.0
 11
315.517362770654
 21
164.0449155
 31
0.0
  0
LINE
  5
1614
330
1E
100
AcDbEntity
  8
0
100
AcDbLine
 10
334.147362770654
 20
150.830339154137
 30
0.0
 11
334.147362770654
 21
150.5909155
 31
0.0
  0
LINE
  5
1615
330
1E
100
AcDbEntity
  8
0
100
AcDbLine
 10
334.147362770654
 20
152.167240309034
 30
0.0
 11
334.147362770654
 21
151.2079155
 31
0.0
  0
LINE
  5
1616
330
1E
100
AcDbEntity
  8
0
100
AcDbLine
 10
334.147362770654
 20
151.2079155
 30
0.0
 11
334.147362770654
 21
150.5909155
 31
0.0
  0
LINE
  5
1617
330
1E
100
AcDbEntity
  8
0
100
AcDbLine
 10
334.147362770654
 20
151.2079155
 30
0.0
 11
334.147362770654
 21
152.167240309034
 31
0.0
  0
LINE
  5
1618
330
1E
100
AcDbEntity
  8
0
100
AcDbLine
 10
334.147362770654
 20
151.2079155
 30
0.0
 11
335.607362770654
 21
151.2079155
 31
0.0
  0
LINE
  5
1619
330
1E
100
AcDbEntity
  8
0
100
AcDbLine
 10
334.147362770654
 20
150.5909155
 30
0.0
 11
334.147362770654
 21
150.830339154137
 31
0.0
  0
LINE
  5
161A
330
1E
100
AcDbEntity
  8
0
100
AcDbLine
 10
334.147362770654
 20
150.5909155
 30
0.0
 11
334.147362770654
 21
151.2079155
 31
0.0
  0
LINE
  5
161B
330
1E
100
AcDbEntity
  8
0
100
AcDbLine
 10
334.147362770654
 20
150.5909155
 30
0.0
 11
335.607362770654
 21
150.5909155
 31
0.0
  0
LINE
  5
161C
330
1E
100
AcDbEntity
  8
0
100
AcDbLine
 10
331.794362770654
 20
146.3879155
 30
0.0
 11
335.284362770654
 21
145.077363206023
 31
0.0
  0
LINE
  5
161D
330
1E
100
AcDbEntity
  8
0
100
AcDbLine
 10
330.188362770654
 20
145.7089155
 30
0.0
 11
335.079362770654
 21
143.9199155
 31
0.0
  0
LINE
  5
161E
330
1E
100
AcDbEntity
  8
0
100
AcDbLine
 10
341.564362770654
 20
143.183059266885
 30
0.0
 11
341.564362770654
 21
142.9749155
 31
0.0
  0
LINE
  5
161F
330
1E
100
AcDbEntity
  8
0
100
AcDbLine
 10
341.564362770654
 20
142.9749155
 30
0.0
 11
342.828362770654
 21
142.6659155
 31
0.0
  0
LINE
  5
1620
330
1E
100
AcDbEntity
  8
0
100
AcDbLine
 10
341.564362770654
 20
142.9749155
 30
0.0
 11
341.564362770654
 21
143.183059266885
 31
0.0
  0
LINE
  5
1621
330
1E
100
AcDbEntity
  8
0
100
AcDbLine
 10
341.564362770654
 20
142.9749155
 30
0.0
 11
342.294362770654
 21
143.5089155
 31
0.0
  0
LINE
  5
1622
330
1E
100
AcDbEntity
  8
0
100
AcDbLine
 10
335.284362770654
 20
145.077363206023
 30
0.0
 11
335.284362770654
 21
144.6959155
 31
0.0
  0
LINE
  5
1623
330
1E
100
AcDbEntity
  8
0
100
AcDbLine
 10
335.284362770654
 20
145.3129155
 30
0.0
 11
335.284362770654
 21
144.6959155
 31
0.0
  0
LINE
  5
1624
330
1E
100
AcDbEntity
  8
0
100
AcDbLine
 10
335.284362770654
 20
145.3129155
 30
0.0
 11
336.744362770654
 21
145.3129155
 31
0.0
  0
LINE
  5
1625
330
1E
100
AcDbEntity
  8
0
100
AcDbLine
 10
335.284362770654
 20
144.6959155
 30
0.0
 11
335.284362770654
 21
145.077363206023
 31
0.0
  0
LINE
  5
1626
330
1E
100
AcDbEntity
  8
0
100
AcDbLine
 10
335.284362770654
 20
144.6959155
 30
0.0
 11
335.284362770654
 21
145.3129155
 31
0.0
  0
LINE
  5
1627
330
1E
100
AcDbEntity
  8
0
100
AcDbLine
 10
335.284362770654
 20
144.6959155
 30
0.0
 11
336.744362770654
 21
144.6959155
 31
0.0
  0
LINE
  5
1628
330
1E
100
AcDbEntity
  8
0
100
AcDbLine
 10
335.607362770654
 20
151.2079155
 30
0.0
 11
335.607362770654
 21
150.5909155
 31
0.0
  0
LINE
  5
1629
330
1E
100
AcDbEntity
  8
0
100
AcDbLine
 10
335.607362770654
 20
150.5909155
 30
0.0
 11
335.607362770654
 21
151.2079155
 31
0.0
  0
LINE
  5
162A
330
1E
100
AcDbEntity
  8
0
100
AcDbLine
 10
336.744362770654
 20
145.3129155
 30
0.0
 11
336.744362770654
 21
144.6959155
 31
0.0
  0
LINE
  5
162B
330
1E
100
AcDbEntity
  8
0
100
AcDbLine
 10
336.744362770654
 20
144.6959155
 30
0.0
 11
336.744362770654
 21
145.3129155
 31
0.0
  0
LINE
  5
162C
330
1E
100
AcDbEntity
  8
0
100
AcDbLine
 10
339.501362770654
 20
148.930650291944
 30
0.0
 11
339.501362770654
 21
148.3939155
 31
0.0
  0
LINE
  5
162D
330
1E
100
AcDbEntity
  8
0
100
AcDbLine
 10
339.501362770654
 20
148.930650291944
 30
0.0
 11
339.501362770654
 21
147.7769155
 31
0.0
  0
LINE
  5
162E
330
1E
100
AcDbEntity
  8
0
100
AcDbLine
 10
339.501362770654
 20
148.3939155
 30
0.0
 11
339.501362770654
 21
147.7769155
 31
0.0
  0
LINE
  5
162F
330
1E
100
AcDbEntity
  8
0
100
AcDbLine
 10
339.501362770654
 20
148.3939155
 30
0.0
 11
339.501362770654
 21
148.930650291944
 31
0.0
  0
LINE
  5
1630
330
1E
100
AcDbEntity
  8
0
100
AcDbLine
 10
339.501362770654
 20
148.3939155
 30
0.0
 11
340.961362770654
 21
148.3939155
 31
0.0
  0
LINE
  5
1631
330
1E
100
AcDbEntity
  8
0
100
AcDbLine
 10
339.501362770654
 20
147.7769155
 30
0.0
 11
339.501362770654
 21
148.930650291944
 31
0.0
  0
LINE
  5
1632
330
1E
100
AcDbEntity
  8
0
100
AcDbLine
 10
339.501362770654
 20
147.7769155
 30
0.0
 11
339.501362770654
 21
148.3939155
 31
0.0
  0
LINE
  5
1633
330
1E
100
AcDbEntity
  8
0
100
AcDbLine
 10
339.501362770654
 20
147.7769155
 30
0.0
 11
340.961362770654
 21
147.7769155
 31
0.0
  0
LINE
  5
1634
330
1E
100
AcDbEntity
  8
0
100
AcDbLine
 10
340.961362770654
 20
148.3939155
 30
0.0
 11
340.961362770654
 21
149.41234132558
 31
0.0
  0
LINE
  5
1635
330
1E
100
AcDbEntity
  8
0
100
AcDbLine
 10
340.961362770654
 20
148.3939155
 30
0.0
 11
340.961362770654
 21
147.7769155
 31
0.0
  0
LINE
  5
1636
330
1E
100
AcDbEntity
  8
0
100
AcDbLine
 10
340.961362770654
 20
147.7769155
 30
0.0
 11
340.961362770654
 21
148.3939155
 31
0.0
  0
LINE
  5
1637
330
1E
100
AcDbEntity
  8
0
100
AcDbLine
 10
340.961362770654
 20
149.41234132558
 30
0.0
 11
340.961362770654
 21
148.3939155
 31
0.0
  0
LINE
  5
1638
330
1E
100
AcDbEntity
  8
0
100
AcDbLine
 10
340.554362770654
 20
154.5289155
 30
0.0
 11
340.554362770654
 21
155.1449155
 31
0.0
  0
LINE
  5
1639
330
1E
100
AcDbEntity
  8
0
100
AcDbLine
 10
339.094362770654
 20
154.750789871859
 30
0.0
 11
339.094362770654
 21
154.5289155
 31
0.0
  0
LINE
  5
163A
330
1E
100
AcDbEntity
  8
0
100
AcDbLine
 10
339.094362770654
 20
156.100804914548
 30
0.0
 11
339.094362770654
 21
155.1449155
 31
0.0
  0
LINE
  5
163B
330
1E
100
AcDbEntity
  8
0
100
AcDbLine
 10
340.554362770654
 20
155.1449155
 30
0.0
 11
340.554362770654
 21
156.146492870392
 31
0.0
  0
LINE
  5
163C
330
1E
100
AcDbEntity
  8
0
100
AcDbLine
 10
340.554362770654
 20
155.1449155
 30
0.0
 11
340.554362770654
 21
154.5289155
 31
0.0
  0
LINE
  5
163D
330
1E
100
AcDbEntity
  8
0
100
AcDbLine
 10
340.554362770654
 20
156.146492870392
 30
0.0
 11
340.554362770654
 21
155.1449155
 31
0.0
  0
LINE
  5
163E
330
1E
100
AcDbEntity
  8
0
100
AcDbLine
 10
339.094362770654
 20
155.1449155
 30
0.0
 11
339.094362770654
 21
154.5289155
 31
0.0
  0
LINE
  5
163F
330
1E
100
AcDbEntity
  8
0
100
AcDbLine
 10
339.094362770654
 20
155.1449155
 30
0.0
 11
339.094362770654
 21
156.100804914548
 31
0.0
  0
LINE
  5
1640
330
1E
100
AcDbEntity
  8
0
100
AcDbLine
 10
339.094362770654
 20
155.1449155
 30
0.0
 11
340.554362770654
 21
155.1449155
 31
0.0
  0
LINE
  5
1641
330
1E
100
AcDbEntity
  8
0
100
AcDbLine
 10
339.094362770654
 20
154.5289155
 30
0.0
 11
339.094362770654
 21
154.750789871859
 31
0.0
  0
LINE
  5
1642
330
1E
100
AcDbEntity
  8
0
100
AcDbLine
 10
339.094362770654
 20
154.5289155
 30
0.0
 11
339.094362770654
 21
155.1449155
 31
0.0
  0
LINE
  5
1643
330
1E
100
AcDbEntity
  8
0
100
AcDbLine
 10
339.094362770654
 20
154.5289155
 30
0.0
 11
340.554362770654
 21
154.5289155
 31
0.0
  0
LINE
  5
1644
330
1E
100
AcDbEntity
  8
0
100
AcDbLine
 10
338.364362770654
 20
158.3029155
 30
0.0
 11
338.364362770654
 21
158.9199155
 31
0.0
  0
LINE
  5
1645
330
1E
100
AcDbEntity
  8
0
100
AcDbLine
 10
336.904362770654
 20
159.116741772833
 30
0.0
 11
336.904362770654
 21
158.3029155
 31
0.0
  0
LINE
  5
1646
330
1E
100
AcDbEntity
  8
0
100
AcDbLine
 10
336.904362770654
 20
159.469010039448
 30
0.0
 11
336.904362770654
 21
158.9199155
 31
0.0
  0
LINE
  5
1647
330
1E
100
AcDbEntity
  8
0
100
AcDbLine
 10
338.364362770654
 20
158.9199155
 30
0.0
 11
338.364362770654
 21
159.455037050719
 31
0.0
  0
LINE
  5
1648
330
1E
100
AcDbEntity
  8
0
100
AcDbLine
 10
338.364362770654
 20
158.9199155
 30
0.0
 11
338.364362770654
 21
158.3029155
 31
0.0
  0
LINE
  5
1649
330
1E
100
AcDbEntity
  8
0
100
AcDbLine
 10
338.364362770654
 20
159.455037050719
 30
0.0
 11
338.364362770654
 21
158.9199155
 31
0.0
  0
LINE
  5
164A
330
1E
100
AcDbEntity
  8
0
100
AcDbLine
 10
336.904362770654
 20
158.9199155
 30
0.0
 11
336.904362770654
 21
158.3029155
 31
0.0
  0
LINE
  5
164B
330
1E
100
AcDbEntity
  8
0
100
AcDbLine
 10
336.904362770654
 20
158.9199155
 30
0.0
 11
336.904362770654
 21
159.469010039448
 31
0.0
  0
LINE
  5
164C
330
1E
100
AcDbEntity
  8
0
100
AcDbLine
 10
336.904362770654
 20
158.9199155
 30
0.0
 11
338.364362770654
 21
158.9199155
 31
0.0
  0
LINE
  5
164D
330
1E
100
AcDbEntity
  8
0
100
AcDbLine
 10
336.904362770654
 20
158.3029155
 30
0.0
 11
336.904362770654
 21
159.116741772833
 31
0.0
  0
LINE
  5
164E
330
1E
100
AcDbEntity
  8
0
100
AcDbLine
 10
336.904362770654
 20
158.3029155
 30
0.0
 11
336.904362770654
 21
158.9199155
 31
0.0
  0
LINE
  5
164F
330
1E
100
AcDbEntity
  8
0
100
AcDbLine
 10
336.904362770654
 20
158.3029155
 30
0.0
 11
338.364362770654
 21
158.3029155
 31
0.0
  0
LINE
  5
1650
330
1E
100
AcDbEntity
  8
0
100
AcDbLine
 10
336.30015779092
 20
144.6959155
 30
0.0
 11
336.393362770654
 21
144.6609155
 31
0.0
  0
LINE
  5
1651
330
1E
100
AcDbEntity
  8
0
100
AcDbLine
 10
336.393362770654
 20
144.6609155
 30
0.0
 11
341.564362770654
 21
143.183059266885
 31
0.0
  0
LINE
  5
1652
330
1E
100
AcDbEntity
  8
0
100
AcDbLine
 10
335.079362770654
 20
143.9199155
 30
0.0
 11
340.480362770654
 21
142.3779155
 31
0.0
  0
LINE
  5
1653
330
1E
100
AcDbEntity
  8
0
100
AcDbLine
 10
340.480362770654
 20
142.3779155
 30
0.0
 11
346.174362770654
 21
141.2359155
 31
0.0
  0
LINE
  5
1654
330
1E
100
AcDbEntity
  8
0
100
AcDbLine
 10
354.638362770654
 20
127.2399155
 30
0.0
 11
356.558362770654
 21
124.6799155
 31
0.0
  0
LINE
  5
1655
330
1E
100
AcDbEntity
  8
0
100
AcDbLine
 10
353.390362770654
 20
130.1519155
 30
0.0
 11
354.638362770654
 21
127.2399155
 31
0.0
  0
LINE
  5
1656
330
1E
100
AcDbEntity
  8
0
100
AcDbLine
 10
353.006362770654
 20
133.2409155
 30
0.0
 11
353.390362770654
 21
136.4189155
 31
0.0
  0
LINE
  5
1657
330
1E
100
AcDbEntity
  8
0
100
AcDbLine
 10
353.006362770654
 20
133.2409155
 30
0.0
 11
353.006362770654
 21
61.2064155
 31
0.0
  0
LINE
  5
1658
330
1E
100
AcDbEntity
  8
0
100
AcDbLine
 10
353.006362770654
 20
133.2409155
 30
0.0
 11
353.390362770654
 21
130.1519155
 31
0.0
  0
LINE
  5
1659
330
1E
100
AcDbEntity
  8
0
100
AcDbLine
 10
353.390362770654
 20
136.4189155
 30
0.0
 11
354.638362770654
 21
139.3309155
 31
0.0
  0
LINE
  5
165A
330
1E
100
AcDbEntity
  8
0
100
AcDbLine
 10
354.638362770654
 20
139.3309155
 30
0.0
 11
355.226106687269
 21
140.114574055487
 31
0.0
  0
LINE
  5
165B
330
1E
100
AcDbEntity
  8
0
100
AcDbLine
 10
356.366362770654
 20
140.015961382159
 30
0.0
 11
356.366362770654
 21
133.2409155
 31
0.0
  0
LINE
  5
165C
330
1E
100
AcDbEntity
  8
0
100
AcDbLine
 10
356.558362770654
 20
124.6799155
 30
0.0
 11
359.054362770654
 21
122.7389155
 31
0.0
  0
LINE
  5
165D
330
1E
100
AcDbEntity
  8
0
100
AcDbLine
 10
357.518362770654
 20
128.9169155
 30
0.0
 11
358.862362770654
 21
127.0629155
 31
0.0
  0
LINE
  5
165E
330
1E
100
AcDbEntity
  8
0
100
AcDbLine
 10
358.535362770654
 20
140.3069155
 30
0.0
 11
359.799362770654
 21
140.6159155
 31
0.0
  0
LINE
  5
165F
330
1E
100
AcDbEntity
  8
0
100
AcDbLine
 10
356.654362770654
 20
131.0349155
 30
0.0
 11
357.518362770654
 21
128.9169155
 31
0.0
  0
LINE
  5
1660
330
1E
100
AcDbEntity
  8
0
100
AcDbLine
 10
356.366362770654
 20
133.2409155
 30
0.0
 11
356.654362770654
 21
131.0349155
 31
0.0
  0
LINE
  5
1661
330
1E
100
AcDbEntity
  8
0
100
AcDbLine
 10
356.366362770654
 20
133.2409155
 30
0.0
 11
356.366362770654
 21
140.015961382159
 31
0.0
  0
LINE
  5
1662
330
1E
100
AcDbEntity
  8
0
100
AcDbLine
 10
342.828362770654
 20
142.6659155
 30
0.0
 11
343.558362770654
 21
143.2009155
 31
0.0
  0
LINE
  5
1663
330
1E
100
AcDbEntity
  8
0
100
AcDbLine
 10
343.558362770654
 20
143.2009155
 30
0.0
 11
343.558362770654
 21
143.804754549394
 31
0.0
  0
LINE
  5
1664
330
1E
100
AcDbEntity
  8
0
100
AcDbLine
 10
342.294362770654
 20
143.5089155
 30
0.0
 11
343.558362770654
 21
143.2009155
 31
0.0
  0
LINE
  5
1665
330
1E
100
AcDbEntity
  8
0
100
AcDbLine
 10
342.294362770654
 20
143.5089155
 30
0.0
 11
342.294362770654
 21
143.618210020548
 31
0.0
  0
LINE
  5
1666
330
1E
100
AcDbEntity
  8
0
100
AcDbLine
 10
343.558362770654
 20
143.804754549394
 30
0.0
 11
343.558362770654
 21
143.2009155
 31
0.0
  0
LINE
  5
1667
330
1E
100
AcDbEntity
  8
0
100
AcDbLine
 10
342.294362770654
 20
143.618210020548
 30
0.0
 11
342.294362770654
 21
143.5089155
 31
0.0
  0
LINE
  5
1668
330
1E
100
AcDbEntity
  8
0
100
AcDbLine
 10
344.366362770654
 20
150.7209155
 30
0.0
 11
344.366362770654
 21
151.3379155
 31
0.0
  0
LINE
  5
1669
330
1E
100
AcDbEntity
  8
0
100
AcDbLine
 10
344.366362770654
 20
150.7209155
 30
0.0
 11
345.826362770654
 21
150.7209155
 31
0.0
  0
LINE
  5
166A
330
1E
100
AcDbEntity
  8
0
100
AcDbLine
 10
344.366362770654
 20
152.220673598224
 30
0.0
 11
344.366362770654
 21
151.3379155
 31
0.0
  0
LINE
  5
166B
330
1E
100
AcDbEntity
  8
0
100
AcDbLine
 10
344.366362770654
 20
151.3379155
 30
0.0
 11
344.366362770654
 21
150.7209155
 31
0.0
  0
LINE
  5
166C
330
1E
100
AcDbEntity
  8
0
100
AcDbLine
 10
344.366362770654
 20
151.3379155
 30
0.0
 11
344.366362770654
 21
152.220673598224
 31
0.0
  0
LINE
  5
166D
330
1E
100
AcDbEntity
  8
0
100
AcDbLine
 10
344.366362770654
 20
151.3379155
 30
0.0
 11
345.826362770654
 21
151.3379155
 31
0.0
  0
LINE
  5
166E
330
1E
100
AcDbEntity
  8
0
100
AcDbLine
 10
345.663362770654
 20
158.429093890983
 30
0.0
 11
345.663362770654
 21
157.8499155
 31
0.0
  0
LINE
  5
166F
330
1E
100
AcDbEntity
  8
0
100
AcDbLine
 10
345.663362770654
 20
159.385181677614
 30
0.0
 11
345.663362770654
 21
158.4659155
 31
0.0
  0
LINE
  5
1670
330
1E
100
AcDbEntity
  8
0
100
AcDbLine
 10
345.663362770654
 20
158.4659155
 30
0.0
 11
345.663362770654
 21
157.8499155
 31
0.0
  0
LINE
  5
1671
330
1E
100
AcDbEntity
  8
0
100
AcDbLine
 10
345.663362770654
 20
158.4659155
 30
0.0
 11
345.663362770654
 21
159.385181677614
 31
0.0
  0
LINE
  5
1672
330
1E
100
AcDbEntity
  8
0
100
AcDbLine
 10
345.663362770654
 20
158.4659155
 30
0.0
 11
347.123362770654
 21
158.4659155
 31
0.0
  0
LINE
  5
1673
330
1E
100
AcDbEntity
  8
0
100
AcDbLine
 10
345.826362770654
 20
151.3379155
 30
0.0
 11
345.826362770654
 21
150.7209155
 31
0.0
  0
LINE
  5
1674
330
1E
100
AcDbEntity
  8
0
100
AcDbLine
 10
345.826362770654
 20
150.7209155
 30
0.0
 11
345.826362770654
 21
151.3379155
 31
0.0
  0
LINE
  5
1675
330
1E
100
AcDbEntity
  8
0
100
AcDbLine
 10
345.943362770654
 20
146.803401385088
 30
0.0
 11
345.943362770654
 21
145.7279155
 31
0.0
  0
LINE
  5
1676
330
1E
100
AcDbEntity
  8
0
100
AcDbLine
 10
345.943362770654
 20
145.7279155
 30
0.0
 11
347.208362770654
 21
145.4189155
 31
0.0
  0
LINE
  5
1677
330
1E
100
AcDbEntity
  8
0
100
AcDbLine
 10
345.943362770654
 20
145.7279155
 30
0.0
 11
345.943362770654
 21
146.803401385088
 31
0.0
  0
LINE
  5
1678
330
1E
100
AcDbEntity
  8
0
100
AcDbLine
 10
345.943362770654
 20
145.7279155
 30
0.0
 11
346.673362770654
 21
146.2619155
 31
0.0
  0
LINE
  5
1679
330
1E
100
AcDbEntity
  8
0
100
AcDbLine
 10
345.663362770654
 20
157.8499155
 30
0.0
 11
345.663362770654
 21
158.429093890983
 31
0.0
  0
LINE
  5
167A
330
1E
100
AcDbEntity
  8
0
100
AcDbLine
 10
345.663362770654
 20
157.8499155
 30
0.0
 11
345.663362770654
 21
158.4659155
 31
0.0
  0
LINE
  5
167B
330
1E
100
AcDbEntity
  8
0
100
AcDbLine
 10
345.663362770654
 20
157.8499155
 30
0.0
 11
347.123362770654
 21
157.8499155
 31
0.0
  0
LINE
  5
167C
330
1E
100
AcDbEntity
  8
0
100
AcDbLine
 10
343.105920494866
 20
142.869331092402
 30
0.0
 11
347.050362770654
 21
142.0689155
 31
0.0
  0
LINE
  5
167D
330
1E
100
AcDbEntity
  8
0
100
AcDbLine
 10
349.495362770654
 20
141.2289155
 30
0.0
 11
350.759362770654
 21
141.5369155
 31
0.0
  0
LINE
  5
167E
330
1E
100
AcDbEntity
  8
0
100
AcDbLine
 10
357.805362770654
 20
140.8419155
 30
0.0
 11
359.069362770654
 21
141.1499155
 31
0.0
  0
LINE
  5
167F
330
1E
100
AcDbEntity
  8
0
100
AcDbLine
 10
357.805362770654
 20
140.8419155
 30
0.0
 11
358.535362770654
 21
140.3069155
 31
0.0
  0
LINE
  5
1680
330
1E
100
AcDbEntity
  8
0
100
AcDbLine
 10
348.765362770654
 20
141.7629155
 30
0.0
 11
350.029362770654
 21
142.0719155
 31
0.0
  0
LINE
  5
1681
330
1E
100
AcDbEntity
  8
0
100
AcDbLine
 10
348.765362770654
 20
141.7629155
 30
0.0
 11
349.495362770654
 21
141.2289155
 31
0.0
  0
LINE
  5
1682
330
1E
100
AcDbEntity
  8
0
100
AcDbLine
 10
348.765362770654
 20
141.7629155
 30
0.0
 11
348.765362770654
 21
142.780523932455
 31
0.0
  0
LINE
  5
1683
330
1E
100
AcDbEntity
  8
0
100
AcDbLine
 10
350.759362770654
 20
141.5369155
 30
0.0
 11
350.759362770654
 21
141.598585617217
 31
0.0
  0
LINE
  5
1684
330
1E
100
AcDbEntity
  8
0
100
AcDbLine
 10
348.765362770654
 20
142.780523932455
 30
0.0
 11
348.765362770654
 21
141.7629155
 31
0.0
  0
LINE
  5
1685
330
1E
100
AcDbEntity
  8
0
100
AcDbLine
 10
346.673362770654
 20
146.2619155
 30
0.0
 11
347.937362770654
 21
145.9539155
 31
0.0
  0
LINE
  5
1686
330
1E
100
AcDbEntity
  8
0
100
AcDbLine
 10
346.673362770654
 20
146.2619155
 30
0.0
 11
346.673362770654
 21
146.967172557456
 31
0.0
  0
LINE
  5
1687
330
1E
100
AcDbEntity
  8
0
100
AcDbLine
 10
347.937362770654
 20
145.9539155
 30
0.0
 11
347.937362770654
 21
147.058120979452
 31
0.0
  0
LINE
  5
1688
330
1E
100
AcDbEntity
  8
0
100
AcDbLine
 10
347.208362770654
 20
145.4189155
 30
0.0
 11
347.937362770654
 21
145.9539155
 31
0.0
  0
LINE
  5
1689
330
1E
100
AcDbEntity
  8
0
100
AcDbLine
 10
347.937362770654
 20
147.058120979452
 30
0.0
 11
347.937362770654
 21
145.9539155
 31
0.0
  0
LINE
  5
168A
330
1E
100
AcDbEntity
  8
0
100
AcDbLine
 10
346.673362770654
 20
146.967172557456
 30
0.0
 11
346.673362770654
 21
146.2619155
 31
0.0
  0
LINE
  5
168B
330
1E
100
AcDbEntity
  8
0
100
AcDbLine
 10
348.826362770654
 20
154.424777102106
 30
0.0
 11
348.826362770654
 21
153.8349155
 31
0.0
  0
LINE
  5
168C
330
1E
100
AcDbEntity
  8
0
100
AcDbLine
 10
347.123362770654
 20
158.4659155
 30
0.0
 11
347.123362770654
 21
159.371208688885
 31
0.0
  0
LINE
  5
168D
330
1E
100
AcDbEntity
  8
0
100
AcDbLine
 10
347.123362770654
 20
158.4659155
 30
0.0
 11
347.123362770654
 21
157.8499155
 31
0.0
  0
LINE
  5
168E
330
1E
100
AcDbEntity
  8
0
100
AcDbLine
 10
347.123362770654
 20
157.8499155
 30
0.0
 11
347.123362770654
 21
158.4659155
 31
0.0
  0
LINE
  5
168F
330
1E
100
AcDbEntity
  8
0
100
AcDbLine
 10
347.123362770654
 20
159.371208688885
 30
0.0
 11
347.123362770654
 21
158.4659155
 31
0.0
  0
LINE
  5
1690
330
1E
100
AcDbEntity
  8
0
100
AcDbLine
 10
348.826362770654
 20
154.94469063587
 30
0.0
 11
348.826362770654
 21
154.4519155
 31
0.0
  0
LINE
  5
1691
330
1E
100
AcDbEntity
  8
0
100
AcDbLine
 10
348.826362770654
 20
154.4519155
 30
0.0
 11
348.826362770654
 21
153.8349155
 31
0.0
  0
LINE
  5
1692
330
1E
100
AcDbEntity
  8
0
100
AcDbLine
 10
348.826362770654
 20
154.4519155
 30
0.0
 11
348.826362770654
 21
154.94469063587
 31
0.0
  0
LINE
  5
1693
330
1E
100
AcDbEntity
  8
0
100
AcDbLine
 10
348.826362770654
 20
154.4519155
 30
0.0
 11
350.286362770654
 21
154.4519155
 31
0.0
  0
LINE
  5
1694
330
1E
100
AcDbEntity
  8
0
100
AcDbLine
 10
348.826362770654
 20
153.8349155
 30
0.0
 11
348.826362770654
 21
154.424777102106
 31
0.0
  0
LINE
  5
1695
330
1E
100
AcDbEntity
  8
0
100
AcDbLine
 10
348.826362770654
 20
153.8349155
 30
0.0
 11
348.826362770654
 21
154.4519155
 31
0.0
  0
LINE
  5
1696
330
1E
100
AcDbEntity
  8
0
100
AcDbLine
 10
348.826362770654
 20
153.8349155
 30
0.0
 11
350.286362770654
 21
153.8349155
 31
0.0
  0
LINE
  5
1697
330
1E
100
AcDbEntity
  8
0
100
AcDbLine
 10
350.029362770654
 20
143.304998019116
 30
0.0
 11
350.029362770654
 21
142.0719155
 31
0.0
  0
LINE
  5
1698
330
1E
100
AcDbEntity
  8
0
100
AcDbLine
 10
350.286362770654
 20
154.4519155
 30
0.0
 11
350.286362770654
 21
155.22670603442
 31
0.0
  0
LINE
  5
1699
330
1E
100
AcDbEntity
  8
0
100
AcDbLine
 10
350.286362770654
 20
154.4519155
 30
0.0
 11
350.286362770654
 21
153.8349155
 31
0.0
  0
LINE
  5
169A
330
1E
100
AcDbEntity
  8
0
100
AcDbLine
 10
350.323362770654
 20
148.573432576035
 30
0.0
 11
350.323362770654
 21
148.4799155
 31
0.0
  0
LINE
  5
169B
330
1E
100
AcDbEntity
  8
0
100
AcDbLine
 10
350.323362770654
 20
148.4799155
 30
0.0
 11
351.587362770654
 21
148.1709155
 31
0.0
  0
LINE
  5
169C
330
1E
100
AcDbEntity
  8
0
100
AcDbLine
 10
350.323362770654
 20
148.4799155
 30
0.0
 11
350.323362770654
 21
148.573432576035
 31
0.0
  0
LINE
  5
169D
330
1E
100
AcDbEntity
  8
0
100
AcDbLine
 10
350.323362770654
 20
148.4799155
 30
0.0
 11
351.053362770654
 21
149.0149155
 31
0.0
  0
LINE
  5
169E
330
1E
100
AcDbEntity
  8
0
100
AcDbLine
 10
350.286362770654
 20
153.8349155
 30
0.0
 11
350.286362770654
 21
154.4519155
 31
0.0
  0
LINE
  5
169F
330
1E
100
AcDbEntity
  8
0
100
AcDbLine
 10
350.286362770654
 20
155.22670603442
 30
0.0
 11
350.286362770654
 21
154.4519155
 31
0.0
  0
LINE
  5
16A0
330
1E
100
AcDbEntity
  8
0
100
AcDbLine
 10
350.029362770654
 20
142.0719155
 30
0.0
 11
350.759362770654
 21
141.5369155
 31
0.0
  0
LINE
  5
16A1
330
1E
100
AcDbEntity
  8
0
100
AcDbLine
 10
350.029362770654
 20
142.0719155
 30
0.0
 11
350.029362770654
 21
143.304998019116
 31
0.0
  0
LINE
  5
16A2
330
1E
100
AcDbEntity
  8
0
100
AcDbLine
 10
347.050362770654
 20
142.0689155
 30
0.0
 11
348.765362770654
 21
141.851440237403
 31
0.0
  0
LINE
  5
16A3
330
1E
100
AcDbEntity
  8
0
100
AcDbLine
 10
353.898362770654
 20
144.910370045455
 30
0.0
 11
353.898362770654
 21
144.6199155
 31
0.0
  0
LINE
  5
16A4
330
1E
100
AcDbEntity
  8
0
100
AcDbLine
 10
353.898362770654
 20
144.6199155
 30
0.0
 11
355.163362770654
 21
144.9289155
 31
0.0
  0
LINE
  5
16A5
330
1E
100
AcDbEntity
  8
0
100
AcDbLine
 10
353.898362770654
 20
144.6199155
 30
0.0
 11
354.628362770654
 21
144.0859155
 31
0.0
  0
LINE
  5
16A6
330
1E
100
AcDbEntity
  8
0
100
AcDbLine
 10
353.898362770654
 20
144.6199155
 30
0.0
 11
353.898362770654
 21
144.910370045455
 31
0.0
  0
LINE
  5
16A7
330
1E
100
AcDbEntity
  8
0
100
AcDbLine
 10
351.053362770654
 20
149.0149155
 30
0.0
 11
352.317362770654
 21
148.7059155
 31
0.0
  0
LINE
  5
16A8
330
1E
100
AcDbEntity
  8
0
100
AcDbLine
 10
352.317362770654
 20
148.7059155
 30
0.0
 11
352.317362770654
 21
149.450101662014
 31
0.0
  0
LINE
  5
16A9
330
1E
100
AcDbEntity
  8
0
100
AcDbLine
 10
351.587362770654
 20
148.1709155
 30
0.0
 11
352.317362770654
 21
148.7059155
 31
0.0
  0
LINE
  5
16AA
330
1E
100
AcDbEntity
  8
0
100
AcDbLine
 10
352.317362770654
 20
149.450101662014
 30
0.0
 11
352.317362770654
 21
148.7059155
 31
0.0
  0
LINE
  5
16AB
330
1E
100
AcDbEntity
  8
0
100
AcDbLine
 10
354.013362770654
 20
155.9959155
 30
0.0
 11
354.405362770654
 21
156.2169155
 31
0.0
  0
LINE
  5
16AC
330
1E
100
AcDbEntity
  8
0
100
AcDbLine
 10
353.782362770654
 20
155.7329155
 30
0.0
 11
354.013362770654
 21
155.9959155
 31
0.0
  0
LINE
  5
16AD
330
1E
100
AcDbEntity
  8
0
100
AcDbLine
 10
353.670362770654
 20
155.4559155
 30
0.0
 11
353.749362770654
 21
155.1819155
 31
0.0
  0
LINE
  5
16AE
330
1E
100
AcDbEntity
  8
0
100
AcDbLine
 10
353.670362770654
 20
155.4559155
 30
0.0
 11
353.782362770654
 21
155.7329155
 31
0.0
  0
LINE
  5
16AF
330
1E
100
AcDbEntity
  8
0
100
AcDbLine
 10
353.378238696937
 20
155.87848683836
 30
0.0
 11
353.749362770654
 21
155.1819155
 31
0.0
  0
LINE
  5
16B0
330
1E
100
AcDbEntity
  8
0
100
AcDbLine
 10
353.749362770654
 20
155.1819155
 30
0.0
 11
354.013362770654
 21
154.9139155
 31
0.0
  0
LINE
  5
16B1
330
1E
100
AcDbEntity
  8
0
100
AcDbLine
 10
354.405362770654
 20
156.2169155
 30
0.0
 11
354.950362770654
 21
156.3919155
 31
0.0
  0
LINE
  5
16B2
330
1E
100
AcDbEntity
  8
0
100
AcDbLine
 10
354.429362770654
 20
154.6839155
 30
0.0
 11
354.950362770654
 21
154.5179155
 31
0.0
  0
LINE
  5
16B3
330
1E
100
AcDbEntity
  8
0
100
AcDbLine
 10
354.013362770654
 20
154.9139155
 30
0.0
 11
354.429362770654
 21
154.6839155
 31
0.0
  0
LINE
  5
16B4
330
1E
100
AcDbEntity
  8
0
100
AcDbLine
 10
354.702362770654
 20
152.351035119295
 30
0.0
 11
354.702362770654
 21
151.2329155
 31
0.0
  0
LINE
  5
16B5
330
1E
100
AcDbEntity
  8
0
100
AcDbLine
 10
354.950362770654
 20
156.3919155
 30
0.0
 11
355.583362770654
 21
156.5039155
 31
0.0
  0
LINE
  5
16B6
330
1E
100
AcDbEntity
  8
0
100
AcDbLine
 10
354.950362770654
 20
154.5179155
 30
0.0
 11
355.574362770654
 21
154.4209155
 31
0.0
  0
LINE
  5
16B7
330
1E
100
AcDbEntity
  8
0
100
AcDbLine
 10
354.702362770654
 20
151.2329155
 30
0.0
 11
355.967362770654
 21
150.9239155
 31
0.0
  0
LINE
  5
16B8
330
1E
100
AcDbEntity
  8
0
100
AcDbLine
 10
354.702362770654
 20
151.2329155
 30
0.0
 11
354.702362770654
 21
152.351035119295
 31
0.0
  0
LINE
  5
16B9
330
1E
100
AcDbEntity
  8
0
100
AcDbLine
 10
354.702362770654
 20
151.2329155
 30
0.0
 11
355.432362770654
 21
151.7669155
 31
0.0
  0
LINE
  5
16BA
330
1E
100
AcDbEntity
  8
0
100
AcDbLine
 10
355.163362770654
 20
145.435259064146
 30
0.0
 11
355.163362770654
 21
144.9289155
 31
0.0
  0
LINE
  5
16BB
330
1E
100
AcDbEntity
  8
0
100
AcDbLine
 10
355.432362770654
 20
151.7669155
 30
0.0
 11
356.696362770654
 21
151.4579155
 31
0.0
  0
LINE
  5
16BC
330
1E
100
AcDbEntity
  8
0
100
AcDbLine
 10
355.432362770654
 20
151.7669155
 30
0.0
 11
355.432362770654
 21
152.641056029238
 31
0.0
  0
LINE
  5
16BD
330
1E
100
AcDbEntity
  8
0
100
AcDbLine
 10
355.583362770654
 20
156.5039155
 30
0.0
 11
356.230362770654
 21
156.5369155
 31
0.0
  0
LINE
  5
16BE
330
1E
100
AcDbEntity
  8
0
100
AcDbLine
 10
355.574362770654
 20
154.4209155
 30
0.0
 11
356.229362770654
 21
154.3739155
 31
0.0
  0
LINE
  5
16BF
330
1E
100
AcDbEntity
  8
0
100
AcDbLine
 10
355.432362770654
 20
152.641056029238
 30
0.0
 11
355.432362770654
 21
151.7669155
 31
0.0
  0
LINE
  5
16C0
330
1E
100
AcDbEntity
  8
0
100
AcDbLine
 10
355.163362770654
 20
144.9289155
 30
0.0
 11
355.893362770654
 21
144.3939155
 31
0.0
  0
LINE
  5
16C1
330
1E
100
AcDbEntity
  8
0
100
AcDbLine
 10
355.163362770654
 20
144.9289155
 30
0.0
 11
355.163362770654
 21
145.435259064146
 31
0.0
  0
LINE
  5
16C2
330
1E
100
AcDbEntity
  8
0
100
AcDbLine
 10
355.893362770654
 20
144.3939155
 30
0.0
 11
355.893362770654
 21
145.021921822445
 31
0.0
  0
LINE
  5
16C3
330
1E
100
AcDbEntity
  8
0
100
AcDbLine
 10
356.696362770654
 20
151.4579155
 30
0.0
 11
356.696362770654
 21
151.80571717837
 31
0.0
  0
LINE
  5
16C4
330
1E
100
AcDbEntity
  8
0
100
AcDbLine
 10
355.967362770654
 20
150.9239155
 30
0.0
 11
356.696362770654
 21
151.4579155
 31
0.0
  0
LINE
  5
16C5
330
1E
100
AcDbEntity
  8
0
100
AcDbLine
 10
356.696362770654
 20
151.80571717837
 30
0.0
 11
356.696362770654
 21
151.4579155
 31
0.0
  0
LINE
  5
16C6
330
1E
100
AcDbEntity
  8
0
100
AcDbLine
 10
356.877362770654
 20
154.4069155
 30
0.0
 11
357.510362770654
 21
154.5179155
 31
0.0
  0
LINE
  5
16C7
330
1E
100
AcDbEntity
  8
0
100
AcDbLine
 10
356.229362770654
 20
154.3739155
 30
0.0
 11
356.877362770654
 21
154.4069155
 31
0.0
  0
LINE
  5
16C8
330
1E
100
AcDbEntity
  8
0
100
AcDbLine
 10
356.230362770654
 20
156.5369155
 30
0.0
 11
356.885362770654
 21
156.4889155
 31
0.0
  0
LINE
  5
16C9
330
1E
100
AcDbEntity
  8
0
100
AcDbLine
 10
356.885362770654
 20
156.4889155
 30
0.0
 11
357.509362770654
 21
156.3919155
 31
0.0
  0
LINE
  5
16CA
330
1E
100
AcDbEntity
  8
0
100
AcDbLine
 10
357.509362770654
 20
156.3919155
 30
0.0
 11
358.030362770654
 21
156.2269155
 31
0.0
  0
LINE
  5
16CB
330
1E
100
AcDbEntity
  8
0
100
AcDbLine
 10
358.030362770654
 20
156.2269155
 30
0.0
 11
358.447362770654
 21
155.9969155
 31
0.0
  0
LINE
  5
16CC
330
1E
100
AcDbEntity
  8
0
100
AcDbLine
 10
357.510362770654
 20
154.5179155
 30
0.0
 11
358.055362770654
 21
154.6939155
 31
0.0
  0
LINE
  5
16CD
330
1E
100
AcDbEntity
  8
0
100
AcDbLine
 10
358.055362770654
 20
154.6939155
 30
0.0
 11
358.446362770654
 21
154.9149155
 31
0.0
  0
LINE
  5
16CE
330
1E
100
AcDbEntity
  8
0
100
AcDbLine
 10
358.446362770654
 20
154.9149155
 30
0.0
 11
358.678362770654
 21
155.1779155
 31
0.0
  0
LINE
  5
16CF
330
1E
100
AcDbEntity
  8
0
100
AcDbLine
 10
358.447362770654
 20
155.9969155
 30
0.0
 11
358.710362770654
 21
155.7289155
 31
0.0
  0
LINE
  5
16D0
330
1E
100
AcDbEntity
  8
0
100
AcDbLine
 10
358.426362770654
 20
148.061040117403
 30
0.0
 11
358.426362770654
 21
147.6469155
 31
0.0
  0
LINE
  5
16D1
330
1E
100
AcDbEntity
  8
0
100
AcDbLine
 10
358.426362770654
 20
147.6469155
 30
0.0
 11
359.690362770654
 21
147.9549155
 31
0.0
  0
LINE
  5
16D2
330
1E
100
AcDbEntity
  8
0
100
AcDbLine
 10
358.426362770654
 20
147.6469155
 30
0.0
 11
359.156362770654
 21
147.1119155
 31
0.0
  0
LINE
  5
16D3
330
1E
100
AcDbEntity
  8
0
100
AcDbLine
 10
358.426362770654
 20
147.6469155
 30
0.0
 11
358.426362770654
 21
148.061040117403
 31
0.0
  0
LINE
  5
16D4
330
1E
100
AcDbEntity
  8
0
100
AcDbLine
 10
355.893362770654
 20
145.021921822445
 30
0.0
 11
355.893362770654
 21
144.3939155
 31
0.0
  0
LINE
  5
16D5
330
1E
100
AcDbEntity
  8
0
100
AcDbLine
 10
354.628362770654
 20
144.0859155
 30
0.0
 11
355.893362770654
 21
144.3939155
 31
0.0
  0
LINE
  5
16D6
330
1E
100
AcDbEntity
  8
0
100
AcDbLine
 10
350.759362770654
 20
141.598585617217
 30
0.0
 11
353.619362770654
 21
141.2359155
 31
0.0
  0
LINE
  5
16D7
330
1E
100
AcDbEntity
  8
0
100
AcDbLine
 10
350.759362770654
 20
141.598585617217
 30
0.0
 11
350.759362770654
 21
141.5369155
 31
0.0
  0
LINE
  5
16D8
330
1E
100
AcDbEntity
  8
0
100
AcDbLine
 10
353.619362770654
 20
141.2359155
 30
0.0
 11
357.851587232404
 21
140.808038668444
 31
0.0
  0
LINE
  5
16D9
330
1E
100
AcDbEntity
  8
0
100
AcDbLine
 10
346.174362770654
 20
141.2359155
 30
0.0
 11
352.597362770654
 21
140.3419155
 31
0.0
  0
LINE
  5
16DA
330
1E
100
AcDbEntity
  8
0
100
AcDbLine
 10
352.597362770654
 20
140.3419155
 30
0.0
 11
358.656362770654
 21
139.8179155
 31
0.0
  0
LINE
  5
16DB
330
1E
100
AcDbEntity
  8
0
100
AcDbLine
 10
331.146362770654
 20
162.8389155
 30
0.0
 11
331.146362770654
 21
163.4559155
 31
0.0
  0
LINE
  5
16DC
330
1E
100
AcDbEntity
  8
0
100
AcDbLine
 10
329.686362770654
 20
162.8389155
 30
0.0
 11
329.686362770654
 21
163.4559155
 31
0.0
  0
LINE
  5
16DD
330
1E
100
AcDbEntity
  8
0
100
AcDbLine
 10
329.686362770654
 20
162.8389155
 30
0.0
 11
329.686362770654
 21
163.644178657895
 31
0.0
  0
LINE
  5
16DE
330
1E
100
AcDbEntity
  8
0
100
AcDbLine
 10
329.686362770654
 20
162.8389155
 30
0.0
 11
331.146362770654
 21
162.8389155
 31
0.0
  0
LINE
  5
16DF
330
1E
100
AcDbEntity
  8
0
100
AcDbLine
 10
320.765362770654
 20
163.9769155
 30
0.0
 11
320.765362770654
 21
165.052757605263
 31
0.0
  0
LINE
  5
16E0
330
1E
100
AcDbEntity
  8
0
100
AcDbLine
 10
320.765362770654
 20
163.9769155
 30
0.0
 11
320.765362770654
 21
163.3599155
 31
0.0
  0
LINE
  5
16E1
330
1E
100
AcDbEntity
  8
0
100
AcDbLine
 10
320.765362770654
 20
163.9769155
 30
0.0
 11
322.224362770654
 21
163.9769155
 31
0.0
  0
LINE
  5
16E2
330
1E
100
AcDbEntity
  8
0
100
AcDbLine
 10
331.146362770654
 20
163.4559155
 30
0.0
 11
331.146362770654
 21
162.8389155
 31
0.0
  0
LINE
  5
16E3
330
1E
100
AcDbEntity
  8
0
100
AcDbLine
 10
329.686362770654
 20
163.4559155
 30
0.0
 11
329.686362770654
 21
163.644178657895
 31
0.0
  0
LINE
  5
16E4
330
1E
100
AcDbEntity
  8
0
100
AcDbLine
 10
329.686362770654
 20
163.4559155
 30
0.0
 11
329.686362770654
 21
162.8389155
 31
0.0
  0
LINE
  5
16E5
330
1E
100
AcDbEntity
  8
0
100
AcDbLine
 10
329.686362770654
 20
163.4559155
 30
0.0
 11
331.146362770654
 21
163.4559155
 31
0.0
  0
LINE
  5
16E6
330
1E
100
AcDbEntity
  8
0
100
AcDbLine
 10
329.686362770654
 20
163.644178657895
 30
0.0
 11
329.686362770654
 21
162.8389155
 31
0.0
  0
LINE
  5
16E7
330
1E
100
AcDbEntity
  8
0
100
AcDbLine
 10
329.686362770654
 20
163.644178657895
 30
0.0
 11
329.686362770654
 21
163.4559155
 31
0.0
  0
LINE
  5
16E8
330
1E
100
AcDbEntity
  8
0
100
AcDbLine
 10
322.224362770654
 20
163.3599155
 30
0.0
 11
322.224362770654
 21
163.9769155
 31
0.0
  0
LINE
  5
16E9
330
1E
100
AcDbEntity
  8
0
100
AcDbLine
 10
322.224362770654
 20
163.9769155
 30
0.0
 11
322.224362770654
 21
163.3599155
 31
0.0
  0
LINE
  5
16EA
330
1E
100
AcDbEntity
  8
0
100
AcDbLine
 10
322.224362770654
 20
163.9769155
 30
0.0
 11
322.224362770654
 21
164.822389184211
 31
0.0
  0
LINE
  5
16EB
330
1E
100
AcDbEntity
  8
0
100
AcDbLine
 10
320.765362770654
 20
163.3599155
 30
0.0
 11
320.765362770654
 21
163.9769155
 31
0.0
  0
LINE
  5
16EC
330
1E
100
AcDbEntity
  8
0
100
AcDbLine
 10
320.765362770654
 20
163.3599155
 30
0.0
 11
322.224362770654
 21
163.3599155
 31
0.0
  0
LINE
  5
16ED
330
1E
100
AcDbEntity
  8
0
100
AcDbLine
 10
318.364362770654
 20
163.0459155
 30
0.0
 11
319.605362770654
 21
165.2359155
 31
0.0
  0
LINE
  5
16EE
330
1E
100
AcDbEntity
  8
0
100
AcDbLine
 10
316.247362770654
 20
163.1079155
 30
0.0
 11
317.488362770654
 21
165.6679155
 31
0.0
  0
LINE
  5
16EF
330
1E
100
AcDbEntity
  8
0
100
AcDbLine
 10
315.517362770654
 20
164.0449155
 30
0.0
 11
316.831362770654
 21
166.7899155
 31
0.0
  0
LINE
  5
16F0
330
1E
100
AcDbEntity
  8
0
100
AcDbLine
 10
350.286362770654
 20
161.8639155
 30
0.0
 11
350.286362770654
 21
162.4809155
 31
0.0
  0
LINE
  5
16F1
330
1E
100
AcDbEntity
  8
0
100
AcDbLine
 10
339.094362770654
 20
162.386856954761
 30
0.0
 11
339.094362770654
 21
162.0769155
 31
0.0
  0
LINE
  5
16F2
330
1E
100
AcDbEntity
  8
0
100
AcDbLine
 10
340.554362770654
 20
162.0769155
 30
0.0
 11
340.554362770654
 21
162.6939155
 31
0.0
  0
LINE
  5
16F3
330
1E
100
AcDbEntity
  8
0
100
AcDbLine
 10
339.094362770654
 20
162.0769155
 30
0.0
 11
339.094362770654
 21
162.6939155
 31
0.0
  0
LINE
  5
16F4
330
1E
100
AcDbEntity
  8
0
100
AcDbLine
 10
339.094362770654
 20
162.0769155
 30
0.0
 11
339.094362770654
 21
162.386856954761
 31
0.0
  0
LINE
  5
16F5
330
1E
100
AcDbEntity
  8
0
100
AcDbLine
 10
339.094362770654
 20
162.0769155
 30
0.0
 11
340.554362770654
 21
162.0769155
 31
0.0
  0
LINE
  5
16F6
330
1E
100
AcDbEntity
  8
0
100
AcDbLine
 10
339.094362770654
 20
163.828992992727
 30
0.0
 11
339.094362770654
 21
162.6939155
 31
0.0
  0
LINE
  5
16F7
330
1E
100
AcDbEntity
  8
0
100
AcDbLine
 10
340.554362770654
 20
163.50409375972
 30
0.0
 11
340.554362770654
 21
162.6939155
 31
0.0
  0
LINE
  5
16F8
330
1E
100
AcDbEntity
  8
0
100
AcDbLine
 10
340.554362770654
 20
162.6939155
 30
0.0
 11
340.554362770654
 21
162.0769155
 31
0.0
  0
LINE
  5
16F9
330
1E
100
AcDbEntity
  8
0
100
AcDbLine
 10
340.554362770654
 20
162.6939155
 30
0.0
 11
340.554362770654
 21
163.50409375972
 31
0.0
  0
LINE
  5
16FA
330
1E
100
AcDbEntity
  8
0
100
AcDbLine
 10
339.094362770654
 20
162.6939155
 30
0.0
 11
339.094362770654
 21
163.828992992727
 31
0.0
  0
LINE
  5
16FB
330
1E
100
AcDbEntity
  8
0
100
AcDbLine
 10
339.094362770654
 20
162.6939155
 30
0.0
 11
339.094362770654
 21
162.0769155
 31
0.0
  0
LINE
  5
16FC
330
1E
100
AcDbEntity
  8
0
100
AcDbLine
 10
339.094362770654
 20
162.6939155
 30
0.0
 11
340.554362770654
 21
162.6939155
 31
0.0
  0
LINE
  5
16FD
330
1E
100
AcDbEntity
  8
0
100
AcDbLine
 10
348.826362770654
 20
163.384795906168
 30
0.0
 11
348.826362770654
 21
162.4809155
 31
0.0
  0
LINE
  5
16FE
330
1E
100
AcDbEntity
  8
0
100
AcDbLine
 10
348.826362770654
 20
162.4809155
 30
0.0
 11
348.826362770654
 21
163.384795906168
 31
0.0
  0
LINE
  5
16FF
330
1E
100
AcDbEntity
  8
0
100
AcDbLine
 10
348.826362770654
 20
162.4809155
 30
0.0
 11
348.826362770654
 21
161.8639155
 31
0.0
  0
LINE
  5
1700
330
1E
100
AcDbEntity
  8
0
100
AcDbLine
 10
348.826362770654
 20
162.4809155
 30
0.0
 11
350.286362770654
 21
162.4809155
 31
0.0
  0
LINE
  5
1701
330
1E
100
AcDbEntity
  8
0
100
AcDbLine
 10
355.432362770654
 20
164.5489155
 30
0.0
 11
356.696362770654
 21
164.8579155
 31
0.0
  0
LINE
  5
1702
330
1E
100
AcDbEntity
  8
0
100
AcDbLine
 10
350.286362770654
 20
163.02091367332
 30
0.0
 11
350.286362770654
 21
162.4809155
 31
0.0
  0
LINE
  5
1703
330
1E
100
AcDbEntity
  8
0
100
AcDbLine
 10
350.286362770654
 20
162.4809155
 30
0.0
 11
350.286362770654
 21
161.8639155
 31
0.0
  0
LINE
  5
1704
330
1E
100
AcDbEntity
  8
0
100
AcDbLine
 10
350.286362770654
 20
162.4809155
 30
0.0
 11
350.286362770654
 21
163.02091367332
 31
0.0
  0
LINE
  5
1705
330
1E
100
AcDbEntity
  8
0
100
AcDbLine
 10
348.826362770654
 20
162.799055275815
 30
0.0
 11
348.826362770654
 21
161.8639155
 31
0.0
  0
LINE
  5
1706
330
1E
100
AcDbEntity
  8
0
100
AcDbLine
 10
348.826362770654
 20
161.8639155
 30
0.0
 11
348.826362770654
 21
162.4809155
 31
0.0
  0
LINE
  5
1707
330
1E
100
AcDbEntity
  8
0
100
AcDbLine
 10
348.826362770654
 20
161.8639155
 30
0.0
 11
348.826362770654
 21
162.799055275815
 31
0.0
  0
LINE
  5
1708
330
1E
100
AcDbEntity
  8
0
100
AcDbLine
 10
348.826362770654
 20
161.8639155
 30
0.0
 11
350.286362770654
 21
161.8639155
 31
0.0
  0
LINE
  5
1709
330
1E
100
AcDbEntity
  8
0
100
AcDbLine
 10
359.054362770654
 20
122.7389155
 30
0.0
 11
361.934362770654
 21
121.5029155
 31
0.0
  0
LINE
  5
170A
330
1E
100
AcDbEntity
  8
0
100
AcDbLine
 10
361.934362770654
 20
121.5029155
 30
0.0
 11
365.006362770654
 21
121.0619155
 31
0.0
  0
LINE
  5
170B
330
1E
100
AcDbEntity
  8
0
100
AcDbLine
 10
362.798362770654
 20
124.8569155
 30
0.0
 11
365.006362770654
 21
124.5039155
 31
0.0
  0
LINE
  5
170C
330
1E
100
AcDbEntity
  8
0
100
AcDbLine
 10
364.006362770654
 20
135.9479155
 30
0.0
 11
364.006362770654
 21
135.2169155
 31
0.0
  0
LINE
  5
170D
330
1E
100
AcDbEntity
  8
0
100
AcDbLine
 10
364.006362770654
 20
135.9479155
 30
0.0
 11
364.006362770654
 21
136.9389155
 31
0.0
  0
LINE
  5
170E
330
1E
100
AcDbEntity
  8
0
100
AcDbLine
 10
364.006362770654
 20
135.2169155
 30
0.0
 11
364.006362770654
 21
134.9749155
 31
0.0
  0
LINE
  5
170F
330
1E
100
AcDbEntity
  8
0
100
AcDbLine
 10
364.006362770654
 20
135.2169155
 30
0.0
 11
364.006362770654
 21
135.9479155
 31
0.0
  0
LINE
  5
1710
330
1E
100
AcDbEntity
  8
0
100
AcDbLine
 10
364.006362770654
 20
134.9749155
 30
0.0
 11
364.006362770654
 21
135.3069155
 31
0.0
  0
LINE
  5
1711
330
1E
100
AcDbEntity
  8
0
100
AcDbLine
 10
364.006362770654
 20
134.9749155
 30
0.0
 11
364.006362770654
 21
135.2169155
 31
0.0
  0
LINE
  5
1712
330
1E
100
AcDbEntity
  8
0
100
AcDbLine
 10
364.006362770654
 20
134.9749155
 30
0.0
 11
366.006362770654
 21
134.9749155
 31
0.0
  0
LINE
  5
1713
330
1E
100
AcDbEntity
  8
0
100
AcDbLine
 10
364.006362770654
 20
135.3069155
 30
0.0
 11
364.006362770654
 21
135.9589155
 31
0.0
  0
LINE
  5
1714
330
1E
100
AcDbEntity
  8
0
100
AcDbLine
 10
364.006362770654
 20
135.3069155
 30
0.0
 11
364.006362770654
 21
134.9749155
 31
0.0
  0
LINE
  5
1715
330
1E
100
AcDbEntity
  8
0
100
AcDbLine
 10
364.006362770654
 20
136.9389155
 30
0.0
 11
364.006362770654
 21
135.9479155
 31
0.0
  0
LINE
  5
1716
330
1E
100
AcDbEntity
  8
0
100
AcDbLine
 10
364.006362770654
 20
135.9589155
 30
0.0
 11
364.006362770654
 21
137.8849155
 31
0.0
  0
LINE
  5
1717
330
1E
100
AcDbEntity
  8
0
100
AcDbLine
 10
364.006362770654
 20
135.9589155
 30
0.0
 11
364.006362770654
 21
135.3069155
 31
0.0
  0
LINE
  5
1718
330
1E
100
AcDbEntity
  8
0
100
AcDbLine
 10
364.006362770654
 20
137.8849155
 30
0.0
 11
364.006362770654
 21
143.761731955696
 31
0.0
  0
LINE
  5
1719
330
1E
100
AcDbEntity
  8
0
100
AcDbLine
 10
364.006362770654
 20
137.8849155
 30
0.0
 11
364.006362770654
 21
135.9589155
 31
0.0
  0
LINE
  5
171A
330
1E
100
AcDbEntity
  8
0
100
AcDbLine
 10
360.686362770654
 20
125.6509155
 30
0.0
 11
362.798362770654
 21
124.8569155
 31
0.0
  0
LINE
  5
171B
330
1E
100
AcDbEntity
  8
0
100
AcDbLine
 10
358.862362770654
 20
127.0629155
 30
0.0
 11
360.686362770654
 21
125.6509155
 31
0.0
  0
LINE
  5
171C
330
1E
100
AcDbEntity
  8
0
100
AcDbLine
 10
365.006362770654
 20
121.0619155
 30
0.0
 11
368.078362770654
 21
121.5029155
 31
0.0
  0
LINE
  5
171D
330
1E
100
AcDbEntity
  8
0
100
AcDbLine
 10
365.006362770654
 20
124.5039155
 30
0.0
 11
367.214362770654
 21
124.8569155
 31
0.0
  0
LINE
  5
171E
330
1E
100
AcDbEntity
  8
0
100
AcDbLine
 10
359.069362770654
 20
141.404961361887
 30
0.0
 11
359.069362770654
 21
141.1499155
 31
0.0
  0
LINE
  5
171F
330
1E
100
AcDbEntity
  8
0
100
AcDbLine
 10
359.069362770654
 20
141.1499155
 30
0.0
 11
359.799362770654
 21
140.6159155
 31
0.0
  0
LINE
  5
1720
330
1E
100
AcDbEntity
  8
0
100
AcDbLine
 10
359.069362770654
 20
141.1499155
 30
0.0
 11
359.069362770654
 21
141.404961361887
 31
0.0
  0
LINE
  5
1721
330
1E
100
AcDbEntity
  8
0
100
AcDbLine
 10
359.799362770654
 20
140.6159155
 30
0.0
 11
359.799362770654
 21
141.478467724371
 31
0.0
  0
LINE
  5
1722
330
1E
100
AcDbEntity
  8
0
100
AcDbLine
 10
358.678362770654
 20
155.1779155
 30
0.0
 11
359.205509998493
 21
156.159803832086
 31
0.0
  0
LINE
  5
1723
330
1E
100
AcDbEntity
  8
0
100
AcDbLine
 10
358.678362770654
 20
155.1779155
 30
0.0
 11
358.789362770654
 21
155.4549155
 31
0.0
  0
LINE
  5
1724
330
1E
100
AcDbEntity
  8
0
100
AcDbLine
 10
358.710362770654
 20
155.7289155
 30
0.0
 11
358.789362770654
 21
155.4549155
 31
0.0
  0
LINE
  5
1725
330
1E
100
AcDbEntity
  8
0
100
AcDbLine
 10
359.006362770654
 20
158.6119155
 30
0.0
 11
359.006362770654
 21
158.0529155
 31
0.0
  0
LINE
  5
1726
330
1E
100
AcDbEntity
  8
0
100
AcDbLine
 10
359.006362770654
 20
158.0529155
 30
0.0
 11
359.222362770654
 21
158.7019155
 31
0.0
  0
LINE
  5
1727
330
1E
100
AcDbEntity
  8
0
100
AcDbLine
 10
359.006362770654
 20
158.0529155
 30
0.0
 11
359.222362770654
 21
157.4029155
 31
0.0
  0
LINE
  5
1728
330
1E
100
AcDbEntity
  8
0
100
AcDbLine
 10
359.006362770654
 20
158.0529155
 30
0.0
 11
359.006362770654
 21
158.6119155
 31
0.0
  0
LINE
  5
1729
330
1E
100
AcDbEntity
  8
0
100
AcDbLine
 10
359.222362770654
 20
157.4029155
 30
0.0
 11
359.798362770654
 21
156.7949155
 31
0.0
  0
LINE
  5
172A
330
1E
100
AcDbEntity
  8
0
100
AcDbLine
 10
359.798362770654
 20
156.7949155
 30
0.0
 11
360.758362770654
 21
156.2569155
 31
0.0
  0
LINE
  5
172B
330
1E
100
AcDbEntity
  8
0
100
AcDbLine
 10
359.798362770654
 20
159.3099155
 30
0.0
 11
360.758362770654
 21
159.8479155
 31
0.0
  0
LINE
  5
172C
330
1E
100
AcDbEntity
  8
0
100
AcDbLine
 10
359.222362770654
 20
158.7019155
 30
0.0
 11
359.798362770654
 21
159.3099155
 31
0.0
  0
LINE
  5
172D
330
1E
100
AcDbEntity
  8
0
100
AcDbLine
 10
359.690362770654
 20
147.9549155
 30
0.0
 11
360.420362770654
 21
147.4199155
 31
0.0
  0
LINE
  5
172E
330
1E
100
AcDbEntity
  8
0
100
AcDbLine
 10
359.156362770654
 20
147.1119155
 30
0.0
 11
360.420362770654
 21
147.4199155
 31
0.0
  0
LINE
  5
172F
330
1E
100
AcDbEntity
  8
0
100
AcDbLine
 10
359.799362770654
 20
141.478467724371
 30
0.0
 11
359.799362770654
 21
140.6159155
 31
0.0
  0
LINE
  5
1730
330
1E
100
AcDbEntity
  8
0
100
AcDbLine
 10
364.006362770654
 20
140.415261956693
 30
0.0
 11
364.006362770654
 21
136.9389155
 31
0.0
  0
LINE
  5
1731
330
1E
100
AcDbEntity
  8
0
100
AcDbLine
 10
364.006362770654
 20
143.761731955696
 30
0.0
 11
364.006362770654
 21
137.8849155
 31
0.0
  0
LINE
  5
1732
330
1E
100
AcDbEntity
  8
0
100
AcDbLine
 10
362.340362770654
 20
144.0669155
 30
0.0
 11
363.605362770654
 21
144.3759155
 31
0.0
  0
LINE
  5
1733
330
1E
100
AcDbEntity
  8
0
100
AcDbLine
 10
362.340362770654
 20
144.0669155
 30
0.0
 11
363.070362770654
 21
143.5329155
 31
0.0
  0
LINE
  5
1734
330
1E
100
AcDbEntity
  8
0
100
AcDbLine
 10
360.758362770654
 20
156.2569155
 30
0.0
 11
362.030362770654
 21
155.8519155
 31
0.0
  0
LINE
  5
1735
330
1E
100
AcDbEntity
  8
0
100
AcDbLine
 10
363.470362770654
 20
155.6079155
 30
0.0
 11
365.006362770654
 21
155.5169155
 31
0.0
  0
LINE
  5
1736
330
1E
100
AcDbEntity
  8
0
100
AcDbLine
 10
362.030362770654
 20
155.8519155
 30
0.0
 11
363.470362770654
 21
155.6079155
 31
0.0
  0
LINE
  5
1737
330
1E
100
AcDbEntity
  8
0
100
AcDbLine
 10
362.529362770654
 20
162.1699155
 30
0.0
 11
362.785362770654
 21
162.4239155
 31
0.0
  0
LINE
  5
1738
330
1E
100
AcDbEntity
  8
0
100
AcDbLine
 10
362.785362770654
 20
162.4239155
 30
0.0
 11
363.209362770654
 21
162.6399155
 31
0.0
  0
LINE
  5
1739
330
1E
100
AcDbEntity
  8
0
100
AcDbLine
 10
362.441362770654
 20
161.8829155
 30
0.0
 11
362.529362770654
 21
161.5959155
 31
0.0
  0
LINE
  5
173A
330
1E
100
AcDbEntity
  8
0
100
AcDbLine
 10
362.441362770654
 20
161.8829155
 30
0.0
 11
362.529362770654
 21
162.1699155
 31
0.0
  0
LINE
  5
173B
330
1E
100
AcDbEntity
  8
0
100
AcDbLine
 10
362.529362770654
 20
161.5959155
 30
0.0
 11
362.785362770654
 21
161.3419155
 31
0.0
  0
LINE
  5
173C
330
1E
100
AcDbEntity
  8
0
100
AcDbLine
 10
363.209362770654
 20
162.6399155
 30
0.0
 11
363.721362770654
 21
162.8189155
 31
0.0
  0
LINE
  5
173D
330
1E
100
AcDbEntity
  8
0
100
AcDbLine
 10
362.785362770654
 20
161.3419155
 30
0.0
 11
363.209362770654
 21
161.1259155
 31
0.0
  0
LINE
  5
173E
330
1E
100
AcDbEntity
  8
0
100
AcDbLine
 10
363.209362770654
 20
161.1259155
 30
0.0
 11
363.721362770654
 21
160.9459155
 31
0.0
  0
LINE
  5
173F
330
1E
100
AcDbEntity
  8
0
100
AcDbLine
 10
363.470362770654
 20
160.4969155
 30
0.0
 11
365.006362770654
 21
160.5879155
 31
0.0
  0
LINE
  5
1740
330
1E
100
AcDbEntity
  8
0
100
AcDbLine
 10
362.030362770654
 20
160.2539155
 30
0.0
 11
363.470362770654
 21
160.4969155
 31
0.0
  0
LINE
  5
1741
330
1E
100
AcDbEntity
  8
0
100
AcDbLine
 10
360.758362770654
 20
159.8479155
 30
0.0
 11
362.030362770654
 21
160.2539155
 31
0.0
  0
LINE
  5
1742
330
1E
100
AcDbEntity
  8
0
100
AcDbLine
 10
363.508362770654
 20
150.6099155
 30
0.0
 11
364.772362770654
 21
150.9179155
 31
0.0
  0
LINE
  5
1743
330
1E
100
AcDbEntity
  8
0
100
AcDbLine
 10
363.508362770654
 20
150.6099155
 30
0.0
 11
364.238362770654
 21
150.0749155
 31
0.0
  0
LINE
  5
1744
330
1E
100
AcDbEntity
  8
0
100
AcDbLine
 10
363.721362770654
 20
162.8189155
 30
0.0
 11
364.321362770654
 21
162.9279155
 31
0.0
  0
LINE
  5
1745
330
1E
100
AcDbEntity
  8
0
100
AcDbLine
 10
364.321362770654
 20
162.9279155
 30
0.0
 11
365.001362770654
 21
162.9649155
 31
0.0
  0
LINE
  5
1746
330
1E
100
AcDbEntity
  8
0
100
AcDbLine
 10
363.721362770654
 20
160.9459155
 30
0.0
 11
364.321362770654
 21
160.8379155
 31
0.0
  0
LINE
  5
1747
330
1E
100
AcDbEntity
  8
0
100
AcDbLine
 10
364.321362770654
 20
160.8379155
 30
0.0
 11
365.001362770654
 21
160.8009155
 31
0.0
  0
LINE
  5
1748
330
1E
100
AcDbEntity
  8
0
100
AcDbLine
 10
364.238362770654
 20
150.0749155
 30
0.0
 11
365.502362770654
 21
150.3829155
 31
0.0
  0
LINE
  5
1749
330
1E
100
AcDbEntity
  8
0
100
AcDbLine
 10
363.605362770654
 20
144.3759155
 30
0.0
 11
364.334362770654
 21
143.8419155
 31
0.0
  0
LINE
  5
174A
330
1E
100
AcDbEntity
  8
0
100
AcDbLine
 10
364.334362770654
 20
143.8419155
 30
0.0
 11
364.334362770654
 21
144.96524238588
 31
0.0
  0
LINE
  5
174B
330
1E
100
AcDbEntity
  8
0
100
AcDbLine
 10
365.001362770654
 20
160.8009155
 30
0.0
 11
365.681362770654
 21
160.8379155
 31
0.0
  0
LINE
  5
174C
330
1E
100
AcDbEntity
  8
0
100
AcDbLine
 10
365.001362770654
 20
162.9649155
 30
0.0
 11
365.681362770654
 21
162.9279155
 31
0.0
  0
LINE
  5
174D
330
1E
100
AcDbEntity
  8
0
100
AcDbLine
 10
365.006362770654
 20
155.5169155
 30
0.0
 11
366.542362770654
 21
155.6079155
 31
0.0
  0
LINE
  5
174E
330
1E
100
AcDbEntity
  8
0
100
AcDbLine
 10
365.006362770654
 20
160.5879155
 30
0.0
 11
366.542362770654
 21
160.4969155
 31
0.0
  0
LINE
  5
174F
330
1E
100
AcDbEntity
  8
0
100
AcDbLine
 10
364.772362770654
 20
150.9179155
 30
0.0
 11
365.502362770654
 21
150.3829155
 31
0.0
  0
LINE
  5
1750
330
1E
100
AcDbEntity
  8
0
100
AcDbLine
 10
364.334362770654
 20
144.96524238588
 30
0.0
 11
364.334362770654
 21
143.8419155
 31
0.0
  0
LINE
  5
1751
330
1E
100
AcDbEntity
  8
0
100
AcDbLine
 10
363.070362770654
 20
143.5329155
 30
0.0
 11
364.334362770654
 21
143.8419155
 31
0.0
  0
LINE
  5
1752
330
1E
100
AcDbEntity
  8
0
100
AcDbLine
 10
359.799362770654
 20
140.682185487105
 30
0.0
 11
364.006362770654
 21
140.556734971309
 31
0.0
  0
LINE
  5
1753
330
1E
100
AcDbEntity
  8
0
100
AcDbLine
 10
358.656362770654
 20
139.8179155
 30
0.0
 11
364.006362770654
 21
139.635931248032
 31
0.0
  0
LINE
  5
1754
330
1E
100
AcDbEntity
  8
0
100
AcDbLine
 10
320.765362770654
 20
165.052757605263
 30
0.0
 11
320.765362770654
 21
163.9769155
 31
0.0
  0
LINE
  5
1755
330
1E
100
AcDbEntity
  8
0
100
AcDbLine
 10
356.696362770654
 20
164.8579155
 30
0.0
 11
356.696362770654
 21
165.946910790289
 31
0.0
  0
LINE
  5
1756
330
1E
100
AcDbEntity
  8
0
100
AcDbLine
 10
354.702362770654
 20
165.0839155
 30
0.0
 11
355.967362770654
 21
165.3919155
 31
0.0
  0
LINE
  5
1757
330
1E
100
AcDbEntity
  8
0
100
AcDbLine
 10
354.702362770654
 20
165.0839155
 30
0.0
 11
355.432362770654
 21
164.5489155
 31
0.0
  0
LINE
  5
1758
330
1E
100
AcDbEntity
  8
0
100
AcDbLine
 10
354.702362770654
 20
165.0839155
 30
0.0
 11
354.702362770654
 21
165.387675396171
 31
0.0
  0
LINE
  5
1759
330
1E
100
AcDbEntity
  8
0
100
AcDbLine
 10
322.224362770654
 20
164.822389184211
 30
0.0
 11
322.224362770654
 21
163.9769155
 31
0.0
  0
LINE
  5
175A
330
1E
100
AcDbEntity
  8
0
100
AcDbLine
 10
344.366362770654
 20
166.5019155
 30
0.0
 11
344.366362770654
 21
165.8849155
 31
0.0
  0
LINE
  5
175B
330
1E
100
AcDbEntity
  8
0
100
AcDbLine
 10
344.366362770654
 20
166.5019155
 30
0.0
 11
345.826362770654
 21
166.5019155
 31
0.0
  0
LINE
  5
175C
330
1E
100
AcDbEntity
  8
0
100
AcDbLine
 10
344.366362770654
 20
166.221547858063
 30
0.0
 11
344.366362770654
 21
165.8849155
 31
0.0
  0
LINE
  5
175D
330
1E
100
AcDbEntity
  8
0
100
AcDbLine
 10
355.967362770654
 20
166.452241754496
 30
0.0
 11
355.967362770654
 21
165.3919155
 31
0.0
  0
LINE
  5
175E
330
1E
100
AcDbEntity
  8
0
100
AcDbLine
 10
363.508362770654
 20
165.7059155
 30
0.0
 11
364.772362770654
 21
165.3979155
 31
0.0
  0
LINE
  5
175F
330
1E
100
AcDbEntity
  8
0
100
AcDbLine
 10
363.508362770654
 20
165.7059155
 30
0.0
 11
364.238362770654
 21
166.2419155
 31
0.0
  0
LINE
  5
1760
330
1E
100
AcDbEntity
  8
0
100
AcDbLine
 10
364.772362770654
 20
165.3979155
 30
0.0
 11
365.502362770654
 21
165.9329155
 31
0.0
  0
LINE
  5
1761
330
1E
100
AcDbEntity
  8
0
100
AcDbLine
 10
364.238362770654
 20
166.2419155
 30
0.0
 11
365.502362770654
 21
165.9329155
 31
0.0
  0
LINE
  5
1762
330
1E
100
AcDbEntity
  8
0
100
AcDbLine
 10
356.696362770654
 20
165.946910790289
 30
0.0
 11
356.696362770654
 21
164.8579155
 31
0.0
  0
LINE
  5
1763
330
1E
100
AcDbEntity
  8
0
100
AcDbLine
 10
355.967362770654
 20
165.3919155
 30
0.0
 11
355.967362770654
 21
166.452241754496
 31
0.0
  0
LINE
  5
1764
330
1E
100
AcDbEntity
  8
0
100
AcDbLine
 10
355.967362770654
 20
165.3919155
 30
0.0
 11
356.696362770654
 21
164.8579155
 31
0.0
  0
LINE
  5
1765
330
1E
100
AcDbEntity
  8
0
100
AcDbLine
 10
354.702362770654
 20
165.387675396171
 30
0.0
 11
354.702362770654
 21
165.0839155
 31
0.0
  0
LINE
  5
1766
330
1E
100
AcDbEntity
  8
0
100
AcDbLine
 10
345.826362770654
 20
165.8849155
 30
0.0
 11
345.826362770654
 21
166.5019155
 31
0.0
  0
LINE
  5
1767
330
1E
100
AcDbEntity
  8
0
100
AcDbLine
 10
345.826362770654
 20
166.5019155
 30
0.0
 11
345.826362770654
 21
165.8849155
 31
0.0
  0
LINE
  5
1768
330
1E
100
AcDbEntity
  8
0
100
AcDbLine
 10
345.826362770654
 20
166.5019155
 30
0.0
 11
345.826362770654
 21
167.355312996523
 31
0.0
  0
LINE
  5
1769
330
1E
100
AcDbEntity
  8
0
100
AcDbLine
 10
344.366362770654
 20
165.8849155
 30
0.0
 11
344.366362770654
 21
166.5019155
 31
0.0
  0
LINE
  5
176A
330
1E
100
AcDbEntity
  8
0
100
AcDbLine
 10
344.366362770654
 20
165.8849155
 30
0.0
 11
344.366362770654
 21
166.221547858063
 31
0.0
  0
LINE
  5
176B
330
1E
100
AcDbEntity
  8
0
100
AcDbLine
 10
344.366362770654
 20
165.8849155
 30
0.0
 11
345.826362770654
 21
165.8849155
 31
0.0
  0
LINE
  5
176C
330
1E
100
AcDbEntity
  8
0
100
AcDbLine
 10
319.605362770654
 20
165.2359155
 30
0.0
 11
321.575362770654
 21
168.0129155
 31
0.0
  0
LINE
  5
176D
330
1E
100
AcDbEntity
  8
0
100
AcDbLine
 10
317.488362770654
 20
165.6679155
 30
0.0
 11
319.605362770654
 21
168.3829155
 31
0.0
  0
LINE
  5
176E
330
1E
100
AcDbEntity
  8
0
100
AcDbLine
 10
324.090362770654
 20
168.0609155
 30
0.0
 11
324.090362770654
 21
167.4439155
 31
0.0
  0
LINE
  5
176F
330
1E
100
AcDbEntity
  8
0
100
AcDbLine
 10
324.090362770654
 20
168.0609155
 30
0.0
 11
325.550362770654
 21
168.0609155
 31
0.0
  0
LINE
  5
1770
330
1E
100
AcDbEntity
  8
0
100
AcDbLine
 10
324.090362770654
 20
167.756992994547
 30
0.0
 11
324.090362770654
 21
167.4439155
 31
0.0
  0
LINE
  5
1771
330
1E
100
AcDbEntity
  8
0
100
AcDbLine
 10
335.607362770654
 20
166.9209155
 30
0.0
 11
335.607362770654
 21
167.5379155
 31
0.0
  0
LINE
  5
1772
330
1E
100
AcDbEntity
  8
0
100
AcDbLine
 10
334.147362770654
 20
167.5379155
 30
0.0
 11
334.147362770654
 21
168.776743532493
 31
0.0
  0
LINE
  5
1773
330
1E
100
AcDbEntity
  8
0
100
AcDbLine
 10
334.147362770654
 20
167.5379155
 30
0.0
 11
334.147362770654
 21
166.9209155
 31
0.0
  0
LINE
  5
1774
330
1E
100
AcDbEntity
  8
0
100
AcDbLine
 10
334.147362770654
 20
167.5379155
 30
0.0
 11
335.607362770654
 21
167.5379155
 31
0.0
  0
LINE
  5
1775
330
1E
100
AcDbEntity
  8
0
100
AcDbLine
 10
345.826362770654
 20
167.355312996523
 30
0.0
 11
345.826362770654
 21
166.5019155
 31
0.0
  0
LINE
  5
1776
330
1E
100
AcDbEntity
  8
0
100
AcDbLine
 10
335.607362770654
 20
167.5379155
 30
0.0
 11
335.607362770654
 21
166.9209155
 31
0.0
  0
LINE
  5
1777
330
1E
100
AcDbEntity
  8
0
100
AcDbLine
 10
335.607362770654
 20
167.5379155
 30
0.0
 11
335.607362770654
 21
168.549290689316
 31
0.0
  0
LINE
  5
1778
330
1E
100
AcDbEntity
  8
0
100
AcDbLine
 10
334.147362770654
 20
167.183532238625
 30
0.0
 11
334.147362770654
 21
166.9209155
 31
0.0
  0
LINE
  5
1779
330
1E
100
AcDbEntity
  8
0
100
AcDbLine
 10
334.147362770654
 20
166.9209155
 30
0.0
 11
334.147362770654
 21
167.5379155
 31
0.0
  0
LINE
  5
177A
330
1E
100
AcDbEntity
  8
0
100
AcDbLine
 10
334.147362770654
 20
166.9209155
 30
0.0
 11
334.147362770654
 21
167.183532238625
 31
0.0
  0
LINE
  5
177B
330
1E
100
AcDbEntity
  8
0
100
AcDbLine
 10
334.147362770654
 20
166.9209155
 30
0.0
 11
335.607362770654
 21
166.9209155
 31
0.0
  0
LINE
  5
177C
330
1E
100
AcDbEntity
  8
0
100
AcDbLine
 10
325.550362770654
 20
167.4439155
 30
0.0
 11
325.550362770654
 21
168.0609155
 31
0.0
  0
LINE
  5
177D
330
1E
100
AcDbEntity
  8
0
100
AcDbLine
 10
334.147362770654
 20
168.776743532493
 30
0.0
 11
334.147362770654
 21
167.5379155
 31
0.0
  0
LINE
  5
177E
330
1E
100
AcDbEntity
  8
0
100
AcDbLine
 10
335.607362770654
 20
168.549290689316
 30
0.0
 11
335.607362770654
 21
167.5379155
 31
0.0
  0
LINE
  5
177F
330
1E
100
AcDbEntity
  8
0
100
AcDbLine
 10
352.317362770654
 20
168.5169155
 30
0.0
 11
352.317362770654
 21
168.982362494348
 31
0.0
  0
LINE
  5
1780
330
1E
100
AcDbEntity
  8
0
100
AcDbLine
 10
351.053362770654
 20
168.2089155
 30
0.0
 11
352.317362770654
 21
168.5169155
 31
0.0
  0
LINE
  5
1781
330
1E
100
AcDbEntity
  8
0
100
AcDbLine
 10
351.587362770654
 20
169.488386642319
 30
0.0
 11
351.587362770654
 21
169.0509155
 31
0.0
  0
LINE
  5
1782
330
1E
100
AcDbEntity
  8
0
100
AcDbLine
 10
358.426362770654
 20
169.5769155
 30
0.0
 11
359.690362770654
 21
169.2689155
 31
0.0
  0
LINE
  5
1783
330
1E
100
AcDbEntity
  8
0
100
AcDbLine
 10
358.426362770654
 20
169.5769155
 30
0.0
 11
359.156362770654
 21
170.1109155
 31
0.0
  0
LINE
  5
1784
330
1E
100
AcDbEntity
  8
0
100
AcDbLine
 10
358.426362770654
 20
169.5769155
 30
0.0
 11
358.426362770654
 21
170.456152054438
 31
0.0
  0
LINE
  5
1785
330
1E
100
AcDbEntity
  8
0
100
AcDbLine
 10
359.690362770654
 20
169.2689155
 30
0.0
 11
360.420362770654
 21
169.8029155
 31
0.0
  0
LINE
  5
1786
330
1E
100
AcDbEntity
  8
0
100
AcDbLine
 10
352.317362770654
 20
168.982362494348
 30
0.0
 11
352.317362770654
 21
168.5169155
 31
0.0
  0
LINE
  5
1787
330
1E
100
AcDbEntity
  8
0
100
AcDbLine
 10
351.587362770654
 20
169.0509155
 30
0.0
 11
351.587362770654
 21
169.488386642319
 31
0.0
  0
LINE
  5
1788
330
1E
100
AcDbEntity
  8
0
100
AcDbLine
 10
351.587362770654
 20
169.0509155
 30
0.0
 11
352.317362770654
 21
168.5169155
 31
0.0
  0
LINE
  5
1789
330
1E
100
AcDbEntity
  8
0
100
AcDbLine
 10
350.323362770654
 20
168.7429155
 30
0.0
 11
351.587362770654
 21
169.0509155
 31
0.0
  0
LINE
  5
178A
330
1E
100
AcDbEntity
  8
0
100
AcDbLine
 10
350.323362770654
 20
168.7429155
 30
0.0
 11
351.053362770654
 21
168.2089155
 31
0.0
  0
LINE
  5
178B
330
1E
100
AcDbEntity
  8
0
100
AcDbLine
 10
350.323362770654
 20
168.7429155
 30
0.0
 11
350.323362770654
 21
170.126794450974
 31
0.0
  0
LINE
  5
178C
330
1E
100
AcDbEntity
  8
0
100
AcDbLine
 10
359.156362770654
 20
170.1109155
 30
0.0
 11
360.420362770654
 21
169.8029155
 31
0.0
  0
LINE
  5
178D
330
1E
100
AcDbEntity
  8
0
100
AcDbLine
 10
350.323362770654
 20
170.126794450974
 30
0.0
 11
350.323362770654
 21
168.7429155
 31
0.0
  0
LINE
  5
178E
330
1E
100
AcDbEntity
  8
0
100
AcDbLine
 10
340.961362770654
 20
169.7349155
 30
0.0
 11
340.961362770654
 21
170.3519155
 31
0.0
  0
LINE
  5
178F
330
1E
100
AcDbEntity
  8
0
100
AcDbLine
 10
339.501362770654
 20
169.7349155
 30
0.0
 11
339.501362770654
 21
170.3519155
 31
0.0
  0
LINE
  5
1790
330
1E
100
AcDbEntity
  8
0
100
AcDbLine
 10
339.501362770654
 20
169.7349155
 30
0.0
 11
339.501362770654
 21
170.488403998109
 31
0.0
  0
LINE
  5
1791
330
1E
100
AcDbEntity
  8
0
100
AcDbLine
 10
339.501362770654
 20
169.7349155
 30
0.0
 11
340.961362770654
 21
169.7349155
 31
0.0
  0
LINE
  5
1792
330
1E
100
AcDbEntity
  8
0
100
AcDbLine
 10
325.550362770654
 20
168.0609155
 30
0.0
 11
325.550362770654
 21
167.4439155
 31
0.0
  0
LINE
  5
1793
330
1E
100
AcDbEntity
  8
0
100
AcDbLine
 10
324.090362770654
 20
167.4439155
 30
0.0
 11
324.090362770654
 21
168.0609155
 31
0.0
  0
LINE
  5
1794
330
1E
100
AcDbEntity
  8
0
100
AcDbLine
 10
324.090362770654
 20
167.4439155
 30
0.0
 11
324.090362770654
 21
167.756992994547
 31
0.0
  0
LINE
  5
1795
330
1E
100
AcDbEntity
  8
0
100
AcDbLine
 10
324.090362770654
 20
167.4439155
 30
0.0
 11
325.550362770654
 21
167.4439155
 31
0.0
  0
LINE
  5
1796
330
1E
100
AcDbEntity
  8
0
100
AcDbLine
 10
339.501362770654
 20
170.3519155
 30
0.0
 11
339.501362770654
 21
170.488403998109
 31
0.0
  0
LINE
  5
1797
330
1E
100
AcDbEntity
  8
0
100
AcDbLine
 10
339.501362770654
 20
170.3519155
 30
0.0
 11
339.501362770654
 21
169.7349155
 31
0.0
  0
LINE
  5
1798
330
1E
100
AcDbEntity
  8
0
100
AcDbLine
 10
339.501362770654
 20
170.3519155
 30
0.0
 11
340.961362770654
 21
170.3519155
 31
0.0
  0
LINE
  5
1799
330
1E
100
AcDbEntity
  8
0
100
AcDbLine
 10
358.426362770654
 20
170.456152054438
 30
0.0
 11
358.426362770654
 21
169.5769155
 31
0.0
  0
LINE
  5
179A
330
1E
100
AcDbEntity
  8
0
100
AcDbLine
 10
340.961362770654
 20
170.3519155
 30
0.0
 11
340.961362770654
 21
169.7349155
 31
0.0
  0
LINE
  5
179B
330
1E
100
AcDbEntity
  8
0
100
AcDbLine
 10
339.501362770654
 20
170.488403998109
 30
0.0
 11
339.501362770654
 21
169.7349155
 31
0.0
  0
LINE
  5
179C
330
1E
100
AcDbEntity
  8
0
100
AcDbLine
 10
339.501362770654
 20
170.488403998109
 30
0.0
 11
339.501362770654
 21
170.3519155
 31
0.0
  0
LINE
  5
179D
330
1E
100
AcDbEntity
  8
0
100
AcDbLine
 10
324.203362770654
 20
170.3259155
 30
0.0
 11
327.707362770654
 21
172.5159155
 31
0.0
  0
LINE
  5
179E
330
1E
100
AcDbEntity
  8
0
100
AcDbLine
 10
321.575362770654
 20
168.0129155
 30
0.0
 11
324.203362770654
 21
170.3259155
 31
0.0
  0
LINE
  5
179F
330
1E
100
AcDbEntity
  8
0
100
AcDbLine
 10
328.876362770654
 20
171.4919155
 30
0.0
 11
328.876362770654
 21
172.254938863138
 31
0.0
  0
LINE
  5
17A0
330
1E
100
AcDbEntity
  8
0
100
AcDbLine
 10
328.876362770654
 20
171.4919155
 30
0.0
 11
328.876362770654
 21
170.8749155
 31
0.0
  0
LINE
  5
17A1
330
1E
100
AcDbEntity
  8
0
100
AcDbLine
 10
328.876362770654
 20
171.4919155
 30
0.0
 11
330.336362770654
 21
171.4919155
 31
0.0
  0
LINE
  5
17A2
330
1E
100
AcDbEntity
  8
0
100
AcDbLine
 10
330.336362770654
 20
170.8749155
 30
0.0
 11
330.336362770654
 21
171.4919155
 31
0.0
  0
LINE
  5
17A3
330
1E
100
AcDbEntity
  8
0
100
AcDbLine
 10
330.336362770654
 20
171.4919155
 30
0.0
 11
330.336362770654
 21
170.8749155
 31
0.0
  0
LINE
  5
17A4
330
1E
100
AcDbEntity
  8
0
100
AcDbLine
 10
330.336362770654
 20
171.4919155
 30
0.0
 11
330.336362770654
 21
171.928997126767
 31
0.0
  0
LINE
  5
17A5
330
1E
100
AcDbEntity
  8
0
100
AcDbLine
 10
328.876362770654
 20
170.8749155
 30
0.0
 11
328.876362770654
 21
171.4919155
 31
0.0
  0
LINE
  5
17A6
330
1E
100
AcDbEntity
  8
0
100
AcDbLine
 10
328.876362770654
 20
170.8749155
 30
0.0
 11
328.876362770654
 21
172.043627621212
 31
0.0
  0
LINE
  5
17A7
330
1E
100
AcDbEntity
  8
0
100
AcDbLine
 10
328.876362770654
 20
170.8749155
 30
0.0
 11
330.336362770654
 21
170.8749155
 31
0.0
  0
LINE
  5
17A8
330
1E
100
AcDbEntity
  8
0
100
AcDbLine
 10
322.305362770654
 20
170.7889155
 30
0.0
 11
325.955362770654
 21
173.0719155
 31
0.0
  0
LINE
  5
17A9
330
1E
100
AcDbEntity
  8
0
100
AcDbLine
 10
319.605362770654
 20
168.3829155
 30
0.0
 11
322.305362770654
 21
170.7889155
 31
0.0
  0
LINE
  5
17AA
330
1E
100
AcDbEntity
  8
0
100
AcDbLine
 10
346.673362770654
 20
171.8669155
 30
0.0
 11
347.937362770654
 21
172.1749155
 31
0.0
  0
LINE
  5
17AB
330
1E
100
AcDbEntity
  8
0
100
AcDbLine
 10
330.336362770654
 20
171.928997126767
 30
0.0
 11
330.336362770654
 21
171.4919155
 31
0.0
  0
LINE
  5
17AC
330
1E
100
AcDbEntity
  8
0
100
AcDbLine
 10
345.943362770654
 20
172.606854888907
 30
0.0
 11
345.943362770654
 21
172.4019155
 31
0.0
  0
LINE
  5
17AD
330
1E
100
AcDbEntity
  8
0
100
AcDbLine
 10
347.208362770654
 20
172.7089155
 30
0.0
 11
347.937362770654
 21
172.1749155
 31
0.0
  0
LINE
  5
17AE
330
1E
100
AcDbEntity
  8
0
100
AcDbLine
 10
345.943362770654
 20
172.4019155
 30
0.0
 11
347.208362770654
 21
172.7089155
 31
0.0
  0
LINE
  5
17AF
330
1E
100
AcDbEntity
  8
0
100
AcDbLine
 10
345.943362770654
 20
172.4019155
 30
0.0
 11
346.673362770654
 21
171.8669155
 31
0.0
  0
LINE
  5
17B0
330
1E
100
AcDbEntity
  8
0
100
AcDbLine
 10
345.943362770654
 20
172.4019155
 30
0.0
 11
345.943362770654
 21
172.606854888907
 31
0.0
  0
LINE
  5
17B1
330
1E
100
AcDbEntity
  8
0
100
AcDbLine
 10
328.876362770654
 20
172.254938863138
 30
0.0
 11
328.876362770654
 21
171.4919155
 31
0.0
  0
LINE
  5
17B2
330
1E
100
AcDbEntity
  8
0
100
AcDbLine
 10
328.876362770654
 20
172.043627621212
 30
0.0
 11
328.876362770654
 21
170.8749155
 31
0.0
  0
LINE
  5
17B3
330
1E
100
AcDbEntity
  8
0
100
AcDbLine
 10
327.707362770654
 20
172.5159155
 30
0.0
 11
331.794362770654
 21
174.4589155
 31
0.0
  0
LINE
  5
17B4
330
1E
100
AcDbEntity
  8
0
100
AcDbLine
 10
331.794362770654
 20
174.4589155
 30
0.0
 11
336.393362770654
 21
176.1869155
 31
0.0
  0
LINE
  5
17B5
330
1E
100
AcDbEntity
  8
0
100
AcDbLine
 10
330.188362770654
 20
175.1379155
 30
0.0
 11
335.079362770654
 21
176.9279155
 31
0.0
  0
LINE
  5
17B6
330
1E
100
AcDbEntity
  8
0
100
AcDbLine
 10
329.678362770654
 20
176.2609155
 30
0.0
 11
334.641362770654
 21
178.0809155
 31
0.0
  0
LINE
  5
17B7
330
1E
100
AcDbEntity
  8
0
100
AcDbLine
 10
335.284362770654
 20
175.770226654599
 30
0.0
 11
335.284362770654
 21
174.3389155
 31
0.0
  0
LINE
  5
17B8
330
1E
100
AcDbEntity
  8
0
100
AcDbLine
 10
335.284362770654
 20
174.3389155
 30
0.0
 11
335.284362770654
 21
175.770226654599
 31
0.0
  0
LINE
  5
17B9
330
1E
100
AcDbEntity
  8
0
100
AcDbLine
 10
335.284362770654
 20
174.3389155
 30
0.0
 11
335.284362770654
 21
173.7219155
 31
0.0
  0
LINE
  5
17BA
330
1E
100
AcDbEntity
  8
0
100
AcDbLine
 10
335.284362770654
 20
174.3389155
 30
0.0
 11
336.744362770654
 21
174.3389155
 31
0.0
  0
LINE
  5
17BB
330
1E
100
AcDbEntity
  8
0
100
AcDbLine
 10
335.284362770654
 20
173.7219155
 30
0.0
 11
335.284362770654
 21
174.3389155
 31
0.0
  0
LINE
  5
17BC
330
1E
100
AcDbEntity
  8
0
100
AcDbLine
 10
335.284362770654
 20
173.7219155
 30
0.0
 11
336.744362770654
 21
173.7219155
 31
0.0
  0
LINE
  5
17BD
330
1E
100
AcDbEntity
  8
0
100
AcDbLine
 10
336.744362770654
 20
173.7219155
 30
0.0
 11
336.744362770654
 21
174.3389155
 31
0.0
  0
LINE
  5
17BE
330
1E
100
AcDbEntity
  8
0
100
AcDbLine
 10
336.744362770654
 20
174.3389155
 30
0.0
 11
336.744362770654
 21
173.7219155
 31
0.0
  0
LINE
  5
17BF
330
1E
100
AcDbEntity
  8
0
100
AcDbLine
 10
343.558362770654
 20
175.8339155
 30
0.0
 11
343.558362770654
 21
176.708017829916
 31
0.0
  0
LINE
  5
17C0
330
1E
100
AcDbEntity
  8
0
100
AcDbLine
 10
342.294362770654
 20
175.5259155
 30
0.0
 11
343.558362770654
 21
175.8339155
 31
0.0
  0
LINE
  5
17C1
330
1E
100
AcDbEntity
  8
0
100
AcDbLine
 10
342.828362770654
 20
177.061384092731
 30
0.0
 11
342.828362770654
 21
176.3689155
 31
0.0
  0
LINE
  5
17C2
330
1E
100
AcDbEntity
  8
0
100
AcDbLine
 10
343.558362770654
 20
176.708017829916
 30
0.0
 11
343.558362770654
 21
175.8339155
 31
0.0
  0
LINE
  5
17C3
330
1E
100
AcDbEntity
  8
0
100
AcDbLine
 10
342.828362770654
 20
176.3689155
 30
0.0
 11
342.828362770654
 21
177.061384092731
 31
0.0
  0
LINE
  5
17C4
330
1E
100
AcDbEntity
  8
0
100
AcDbLine
 10
342.828362770654
 20
176.3689155
 30
0.0
 11
343.558362770654
 21
175.8339155
 31
0.0
  0
LINE
  5
17C5
330
1E
100
AcDbEntity
  8
0
100
AcDbLine
 10
341.564362770654
 20
177.664771733115
 30
0.0
 11
341.564362770654
 21
176.0599155
 31
0.0
  0
LINE
  5
17C6
330
1E
100
AcDbEntity
  8
0
100
AcDbLine
 10
341.564362770654
 20
176.0599155
 30
0.0
 11
342.828362770654
 21
176.3689155
 31
0.0
  0
LINE
  5
17C7
330
1E
100
AcDbEntity
  8
0
100
AcDbLine
 10
341.564362770654
 20
176.0599155
 30
0.0
 11
342.294362770654
 21
175.5259155
 31
0.0
  0
LINE
  5
17C8
330
1E
100
AcDbEntity
  8
0
100
AcDbLine
 10
341.564362770654
 20
176.0599155
 30
0.0
 11
341.564362770654
 21
177.664771733115
 31
0.0
  0
LINE
  5
17C9
330
1E
100
AcDbEntity
  8
0
100
AcDbLine
 10
336.393362770654
 20
176.1869155
 30
0.0
 11
341.575362770654
 21
177.6679155
 31
0.0
  0
LINE
  5
17CA
330
1E
100
AcDbEntity
  8
0
100
AcDbLine
 10
341.575362770654
 20
177.6679155
 30
0.0
 11
347.050362770654
 21
178.7789155
 31
0.0
  0
LINE
  5
17CB
330
1E
100
AcDbEntity
  8
0
100
AcDbLine
 10
335.079362770654
 20
176.9279155
 30
0.0
 11
340.480362770654
 21
178.4699155
 31
0.0
  0
LINE
  5
17CC
330
1E
100
AcDbEntity
  8
0
100
AcDbLine
 10
340.480362770654
 20
178.4699155
 30
0.0
 11
346.174362770654
 21
179.6109155
 31
0.0
  0
LINE
  5
17CD
330
1E
100
AcDbEntity
  8
0
100
AcDbLine
 10
334.641362770654
 20
178.0809155
 30
0.0
 11
340.115362770654
 21
179.6229155
 31
0.0
  0
LINE
  5
17CE
330
1E
100
AcDbEntity
  8
0
100
AcDbLine
 10
340.115362770654
 20
179.6229155
 30
0.0
 11
345.882362770654
 21
180.8259155
 31
0.0
  0
LINE
  5
17CF
330
1E
100
AcDbEntity
  8
0
100
AcDbLine
 10
348.765362770654
 20
177.737093070094
 30
0.0
 11
348.765362770654
 21
177.2719155
 31
0.0
  0
LINE
  5
17D0
330
1E
100
AcDbEntity
  8
0
100
AcDbLine
 10
348.765362770654
 20
177.2719155
 30
0.0
 11
350.029362770654
 21
176.9639155
 31
0.0
  0
LINE
  5
17D1
330
1E
100
AcDbEntity
  8
0
100
AcDbLine
 10
348.765362770654
 20
177.2719155
 30
0.0
 11
349.495362770654
 21
177.8059155
 31
0.0
  0
LINE
  5
17D2
330
1E
100
AcDbEntity
  8
0
100
AcDbLine
 10
348.765362770654
 20
177.2719155
 30
0.0
 11
348.765362770654
 21
177.737093070094
 31
0.0
  0
LINE
  5
17D3
330
1E
100
AcDbEntity
  8
0
100
AcDbLine
 10
350.029362770654
 20
176.9639155
 30
0.0
 11
350.759362770654
 21
177.4979155
 31
0.0
  0
LINE
  5
17D4
330
1E
100
AcDbEntity
  8
0
100
AcDbLine
 10
349.495362770654
 20
179.08858820513
 30
0.0
 11
349.495362770654
 21
177.8059155
 31
0.0
  0
LINE
  5
17D5
330
1E
100
AcDbEntity
  8
0
100
AcDbLine
 10
349.495362770654
 20
177.8059155
 30
0.0
 11
350.759362770654
 21
177.4979155
 31
0.0
  0
LINE
  5
17D6
330
1E
100
AcDbEntity
  8
0
100
AcDbLine
 10
349.495362770654
 20
177.8059155
 30
0.0
 11
349.495362770654
 21
179.08858820513
 31
0.0
  0
LINE
  5
17D7
330
1E
100
AcDbEntity
  8
0
100
AcDbLine
 10
347.050362770654
 20
178.7789155
 30
0.0
 11
353.619362770654
 21
179.6109155
 31
0.0
  0
LINE
  5
17D8
330
1E
100
AcDbEntity
  8
0
100
AcDbLine
 10
346.174362770654
 20
179.6109155
 30
0.0
 11
352.597362770654
 21
180.5059155
 31
0.0
  0
LINE
  5
17D9
330
1E
100
AcDbEntity
  8
0
100
AcDbLine
 10
353.898362770654
 20
173.5089155
 30
0.0
 11
355.163362770654
 21
173.2009155
 31
0.0
  0
LINE
  5
17DA
330
1E
100
AcDbEntity
  8
0
100
AcDbLine
 10
353.898362770654
 20
173.5089155
 30
0.0
 11
354.628362770654
 21
174.0429155
 31
0.0
  0
LINE
  5
17DB
330
1E
100
AcDbEntity
  8
0
100
AcDbLine
 10
353.898362770654
 20
173.5089155
 30
0.0
 11
353.898362770654
 21
174.6189155
 31
0.0
  0
LINE
  5
17DC
330
1E
100
AcDbEntity
  8
0
100
AcDbLine
 10
355.893362770654
 20
173.7349155
 30
0.0
 11
355.893362770654
 21
174.377600431507
 31
0.0
  0
LINE
  5
17DD
330
1E
100
AcDbEntity
  8
0
100
AcDbLine
 10
355.163362770654
 20
173.2009155
 30
0.0
 11
355.893362770654
 21
173.7349155
 31
0.0
  0
LINE
  5
17DE
330
1E
100
AcDbEntity
  8
0
100
AcDbLine
 10
354.628362770654
 20
174.0429155
 30
0.0
 11
355.893362770654
 21
173.7349155
 31
0.0
  0
LINE
  5
17DF
330
1E
100
AcDbEntity
  8
0
100
AcDbLine
 10
354.628362770654
 20
174.0429155
 30
0.0
 11
354.628362770654
 21
174.175457556075
 31
0.0
  0
LINE
  5
17E0
330
1E
100
AcDbEntity
  8
0
100
AcDbLine
 10
354.628362770654
 20
174.175457556075
 30
0.0
 11
354.628362770654
 21
174.0429155
 31
0.0
  0
LINE
  5
17E1
330
1E
100
AcDbEntity
  8
0
100
AcDbLine
 10
355.893362770654
 20
174.377600431507
 30
0.0
 11
355.893362770654
 21
173.7349155
 31
0.0
  0
LINE
  5
17E2
330
1E
100
AcDbEntity
  8
0
100
AcDbLine
 10
362.340362770654
 20
174.0619155
 30
0.0
 11
363.605362770654
 21
173.7529155
 31
0.0
  0
LINE
  5
17E3
330
1E
100
AcDbEntity
  8
0
100
AcDbLine
 10
362.340362770654
 20
174.0619155
 30
0.0
 11
363.070362770654
 21
174.5959155
 31
0.0
  0
LINE
  5
17E4
330
1E
100
AcDbEntity
  8
0
100
AcDbLine
 10
363.605362770654
 20
173.7529155
 30
0.0
 11
364.334362770654
 21
174.2879155
 31
0.0
  0
LINE
  5
17E5
330
1E
100
AcDbEntity
  8
0
100
AcDbLine
 10
353.898362770654
 20
174.6189155
 30
0.0
 11
353.898362770654
 21
173.5089155
 31
0.0
  0
LINE
  5
17E6
330
1E
100
AcDbEntity
  8
0
100
AcDbLine
 10
357.805362770654
 20
178.1929155
 30
0.0
 11
359.069362770654
 21
177.8849155
 31
0.0
  0
LINE
  5
17E7
330
1E
100
AcDbEntity
  8
0
100
AcDbLine
 10
357.805362770654
 20
178.1929155
 30
0.0
 11
358.535362770654
 21
178.7279155
 31
0.0
  0
LINE
  5
17E8
330
1E
100
AcDbEntity
  8
0
100
AcDbLine
 10
359.799362770654
 20
178.4189155
 30
0.0
 11
359.799362770654
 21
179.078009149258
 31
0.0
  0
LINE
  5
17E9
330
1E
100
AcDbEntity
  8
0
100
AcDbLine
 10
359.069362770654
 20
177.8849155
 30
0.0
 11
359.799362770654
 21
178.4189155
 31
0.0
  0
LINE
  5
17EA
330
1E
100
AcDbEntity
  8
0
100
AcDbLine
 10
358.535362770654
 20
180.108870352402
 30
0.0
 11
358.535362770654
 21
178.7279155
 31
0.0
  0
LINE
  5
17EB
330
1E
100
AcDbEntity
  8
0
100
AcDbLine
 10
359.799362770654
 20
179.078009149258
 30
0.0
 11
359.799362770654
 21
178.4189155
 31
0.0
  0
LINE
  5
17EC
330
1E
100
AcDbEntity
  8
0
100
AcDbLine
 10
358.535362770654
 20
178.7279155
 30
0.0
 11
359.799362770654
 21
178.4189155
 31
0.0
  0
LINE
  5
17ED
330
1E
100
AcDbEntity
  8
0
100
AcDbLine
 10
358.535362770654
 20
178.7279155
 30
0.0
 11
358.535362770654
 21
180.108870352402
 31
0.0
  0
LINE
  5
17EE
330
1E
100
AcDbEntity
  8
0
100
AcDbLine
 10
363.070362770654
 20
175.607185003546
 30
0.0
 11
363.070362770654
 21
174.5959155
 31
0.0
  0
LINE
  5
17EF
330
1E
100
AcDbEntity
  8
0
100
AcDbLine
 10
363.070362770654
 20
174.5959155
 30
0.0
 11
364.334362770654
 21
174.2879155
 31
0.0
  0
LINE
  5
17F0
330
1E
100
AcDbEntity
  8
0
100
AcDbLine
 10
363.070362770654
 20
174.5959155
 30
0.0
 11
363.070362770654
 21
175.607185003546
 31
0.0
  0
LINE
  5
17F1
330
1E
100
AcDbEntity
  8
0
100
AcDbLine
 10
353.619362770654
 20
179.6109155
 30
0.0
 11
358.802362770654
 21
180.1359155
 31
0.0
  0
LINE
  5
17F2
330
1E
100
AcDbEntity
  8
0
100
AcDbLine
 10
358.802362770654
 20
180.1359155
 30
0.0
 11
365.006362770654
 21
180.3209155
 31
0.0
  0
LINE
  5
17F3
330
1E
100
AcDbEntity
  8
0
100
AcDbLine
 10
352.597362770654
 20
180.5059155
 30
0.0
 11
358.656362770654
 21
181.0299155
 31
0.0
  0
LINE
  5
17F4
330
1E
100
AcDbEntity
  8
0
100
AcDbLine
 10
358.656362770654
 20
181.0299155
 30
0.0
 11
365.006362770654
 21
181.2469155
 31
0.0
  0
LINE
  5
17F5
330
1E
100
AcDbEntity
  8
0
100
AcDbLine
 10
345.882362770654
 20
180.8259155
 30
0.0
 11
352.086362770654
 21
181.6899155
 31
0.0
  0
LINE
  5
17F6
330
1E
100
AcDbEntity
  8
0
100
AcDbLine
 10
325.955362770654
 20
173.0719155
 30
0.0
 11
330.188362770654
 21
175.1379155
 31
0.0
  0
LINE
  5
17F7
330
1E
100
AcDbEntity
  8
0
100
AcDbLine
 10
325.371362770654
 20
174.1629155
 30
0.0
 11
329.678362770654
 21
176.2609155
 31
0.0
  0
LINE
  5
17F8
330
1E
100
AcDbEntity
  8
0
100
AcDbLine
 10
321.721362770654
 20
171.8499155
 30
0.0
 11
325.371362770654
 21
174.1629155
 31
0.0
  0
LINE
  5
17F9
330
1E
100
AcDbEntity
  8
0
100
AcDbLine
 10
318.875362770654
 20
169.4129155
 30
0.0
 11
321.721362770654
 21
171.8499155
 31
0.0
  0
LINE
  5
17FA
330
1E
100
AcDbEntity
  8
0
100
AcDbLine
 10
316.831362770654
 20
166.7899155
 30
0.0
 11
318.875362770654
 21
169.4129155
 31
0.0
  0
LINE
  5
17FB
330
1E
100
AcDbEntity
  8
0
100
AcDbLine
 10
315.006362770654
 20
180.3629155
 30
0.0
 11
315.517362770654
 21
183.0779155
 31
0.0
  0
LINE
  5
17FC
330
1E
100
AcDbEntity
  8
0
100
AcDbLine
 10
315.006362770654
 20
180.3629155
 30
0.0
 11
315.006362770654
 21
161.3309155
 31
0.0
  0
LINE
  5
17FD
330
1E
100
AcDbEntity
  8
0
100
AcDbLine
 10
365.006362770654
 20
180.3209155
 30
0.0
 11
371.210362770654
 21
180.1359155
 31
0.0
  0
LINE
  5
17FE
330
1E
100
AcDbEntity
  8
0
100
AcDbLine
 10
318.875362770654
 20
188.4449155
 30
0.0
 11
319.605362770654
 21
189.2279155
 31
0.0
  0
LINE
  5
17FF
330
1E
100
AcDbEntity
  8
0
100
AcDbLine
 10
318.875362770654
 20
188.4449155
 30
0.0
 11
321.721362770654
 21
190.8809155
 31
0.0
  0
LINE
  5
1800
330
1E
100
AcDbEntity
  8
0
100
AcDbLine
 10
316.831362770654
 20
185.8229155
 30
0.0
 11
318.875362770654
 21
188.4449155
 31
0.0
  0
LINE
  5
1801
330
1E
100
AcDbEntity
  8
0
100
AcDbLine
 10
315.517362770654
 20
183.0779155
 30
0.0
 11
316.831362770654
 21
185.8229155
 31
0.0
  0
LINE
  5
1802
330
1E
100
AcDbEntity
  8
0
100
AcDbLine
 10
352.086362770654
 20
181.6899155
 30
0.0
 11
358.583362770654
 21
182.2449155
 31
0.0
  0
LINE
  5
1803
330
1E
100
AcDbEntity
  8
0
100
AcDbLine
 10
358.583362770654
 20
182.2449155
 30
0.0
 11
365.006362770654
 21
182.4619155
 31
0.0
  0
LINE
  5
1804
330
1E
100
AcDbEntity
  8
0
100
AcDbLine
 10
321.721362770654
 20
190.8809155
 30
0.0
 11
325.371362770654
 21
193.1959155
 31
0.0
  0
LINE
  5
1805
330
1E
100
AcDbEntity
  8
0
100
AcDbLine
 10
325.371362770654
 20
193.1959155
 30
0.0
 11
329.678362770654
 21
195.2929155
 31
0.0
  0
LINE
  5
1806
330
1E
100
AcDbEntity
  8
0
100
AcDbLine
 10
329.678362770654
 20
195.2929155
 30
0.0
 11
334.641362770654
 21
197.1139155
 31
0.0
  0
LINE
  5
1807
330
1E
100
AcDbEntity
  8
0
100
AcDbLine
 10
334.641362770654
 20
197.1139155
 30
0.0
 11
340.115362770654
 21
198.6559155
 31
0.0
  0
LINE
  5
1808
330
1E
100
AcDbEntity
  8
0
100
AcDbLine
 10
330.188362770654
 20
195.9839155
 30
0.0
 11
335.079362770654
 21
197.7729155
 31
0.0
  0
LINE
  5
1809
330
1E
100
AcDbEntity
  8
0
100
AcDbLine
 10
340.115362770654
 20
198.6559155
 30
0.0
 11
345.882362770654
 21
199.8589155
 31
0.0
  0
LINE
  5
180A
330
1E
100
AcDbEntity
  8
0
100
AcDbLine
 10
335.079362770654
 20
197.7729155
 30
0.0
 11
340.480362770654
 21
199.3159155
 31
0.0
  0
LINE
  5
180B
330
1E
100
AcDbEntity
  8
0
100
AcDbLine
 10
345.882362770654
 20
199.8589155
 30
0.0
 11
352.086362770654
 21
200.7229155
 31
0.0
  0
LINE
  5
180C
330
1E
100
AcDbEntity
  8
0
100
AcDbLine
 10
340.480362770654
 20
199.3159155
 30
0.0
 11
346.174362770654
 21
200.4569155
 31
0.0
  0
LINE
  5
180D
330
1E
100
AcDbEntity
  8
0
100
AcDbLine
 10
352.086362770654
 20
200.7229155
 30
0.0
 11
358.583362770654
 21
201.2779155
 31
0.0
  0
LINE
  5
180E
330
1E
100
AcDbEntity
  8
0
100
AcDbLine
 10
358.583362770654
 20
201.2779155
 30
0.0
 11
365.006362770654
 21
201.4939155
 31
0.0
  0
LINE
  5
180F
330
1E
100
AcDbEntity
  8
0
100
AcDbLine
 10
346.174362770654
 20
200.4569155
 30
0.0
 11
352.597362770654
 21
201.3509155
 31
0.0
  0
LINE
  5
1810
330
1E
100
AcDbEntity
  8
0
100
AcDbLine
 10
352.597362770654
 20
201.3509155
 30
0.0
 11
358.656362770654
 21
201.8759155
 31
0.0
  0
LINE
  5
1811
330
1E
100
AcDbEntity
  8
0
100
AcDbLine
 10
325.955362770654
 20
193.9169155
 30
0.0
 11
330.188362770654
 21
195.9839155
 31
0.0
  0
LINE
  5
1812
330
1E
100
AcDbEntity
  8
0
100
AcDbLine
 10
322.305362770654
 20
191.6339155
 30
0.0
 11
325.955362770654
 21
193.9169155
 31
0.0
  0
LINE
  5
1813
330
1E
100
AcDbEntity
  8
0
100
AcDbLine
 10
319.605362770654
 20
189.2279155
 30
0.0
 11
322.305362770654
 21
191.6339155
 31
0.0
  0
LINE
  5
1814
330
1E
100
AcDbEntity
  8
0
100
AcDbLine
 10
365.006362770654
 20
181.2469155
 30
0.0
 11
371.356362770654
 21
181.0299155
 31
0.0
  0
LINE
  5
1815
330
1E
100
AcDbEntity
  8
0
100
AcDbLine
 10
365.006362770654
 20
182.4619155
 30
0.0
 11
371.429362770654
 21
182.2449155
 31
0.0
  0
LINE
  5
1816
330
1E
100
AcDbEntity
  8
0
100
AcDbLine
 10
358.656362770654
 20
201.8759155
 30
0.0
 11
365.006362770654
 21
202.0909155
 31
0.0
  0
LINE
  5
1817
330
1E
100
AcDbEntity
  8
0
100
AcDbLine
 10
365.006362770654
 20
201.4939155
 30
0.0
 11
371.429362770654
 21
201.2779155
 31
0.0
  0
LINE
  5
1818
330
1E
100
AcDbEntity
  8
0
100
AcDbLine
 10
368.078362770654
 20
121.5029155
 30
0.0
 11
370.958362770654
 21
122.7389155
 31
0.0
  0
LINE
  5
1819
330
1E
100
AcDbEntity
  8
0
100
AcDbLine
 10
370.958362770654
 20
122.7389155
 30
0.0
 11
373.454362770654
 21
124.6799155
 31
0.0
  0
LINE
  5
181A
330
1E
100
AcDbEntity
  8
0
100
AcDbLine
 10
367.214362770654
 20
124.8569155
 30
0.0
 11
369.326362770654
 21
125.6509155
 31
0.0
  0
LINE
  5
181B
330
1E
100
AcDbEntity
  8
0
100
AcDbLine
 10
366.006362770654
 20
134.9749155
 30
0.0
 11
366.006362770654
 21
135.3069155
 31
0.0
  0
LINE
  5
181C
330
1E
100
AcDbEntity
  8
0
100
AcDbLine
 10
366.006362770654
 20
135.3069155
 30
0.0
 11
366.006362770654
 21
134.9749155
 31
0.0
  0
LINE
  5
181D
330
1E
100
AcDbEntity
  8
0
100
AcDbLine
 10
366.006362770654
 20
135.3069155
 30
0.0
 11
366.006362770654
 21
135.9589155
 31
0.0
  0
LINE
  5
181E
330
1E
100
AcDbEntity
  8
0
100
AcDbLine
 10
366.006362770654
 20
135.9589155
 30
0.0
 11
366.006362770654
 21
135.3069155
 31
0.0
  0
LINE
  5
181F
330
1E
100
AcDbEntity
  8
0
100
AcDbLine
 10
366.006362770654
 20
135.9589155
 30
0.0
 11
366.006362770654
 21
137.9389155
 31
0.0
  0
LINE
  5
1820
330
1E
100
AcDbEntity
  8
0
100
AcDbLine
 10
366.006362770654
 20
137.9389155
 30
0.0
 11
366.006362770654
 21
135.9589155
 31
0.0
  0
LINE
  5
1821
330
1E
100
AcDbEntity
  8
0
100
AcDbLine
 10
366.006362770654
 20
137.9389155
 30
0.0
 11
366.006362770654
 21
144.0219155
 31
0.0
  0
LINE
  5
1822
330
1E
100
AcDbEntity
  8
0
100
AcDbLine
 10
369.326362770654
 20
125.6509155
 30
0.0
 11
371.150362770654
 21
127.0629155
 31
0.0
  0
LINE
  5
1823
330
1E
100
AcDbEntity
  8
0
100
AcDbLine
 10
371.150362770654
 20
127.0629155
 30
0.0
 11
372.494362770654
 21
128.9169155
 31
0.0
  0
LINE
  5
1824
330
1E
100
AcDbEntity
  8
0
100
AcDbLine
 10
367.958362770654
 20
140.2709155
 30
0.0
 11
369.222362770654
 21
140.5799155
 31
0.0
  0
LINE
  5
1825
330
1E
100
AcDbEntity
  8
0
100
AcDbLine
 10
367.228362770654
 20
140.8049155
 30
0.0
 11
368.492362770654
 21
141.1139155
 31
0.0
  0
LINE
  5
1826
330
1E
100
AcDbEntity
  8
0
100
AcDbLine
 10
367.228362770654
 20
140.8049155
 30
0.0
 11
367.958362770654
 21
140.2709155
 31
0.0
  0
LINE
  5
1827
330
1E
100
AcDbEntity
  8
0
100
AcDbLine
 10
365.681362770654
 20
160.8379155
 30
0.0
 11
366.281362770654
 21
160.9459155
 31
0.0
  0
LINE
  5
1828
330
1E
100
AcDbEntity
  8
0
100
AcDbLine
 10
365.681362770654
 20
162.9279155
 30
0.0
 11
366.281362770654
 21
162.8189155
 31
0.0
  0
LINE
  5
1829
330
1E
100
AcDbEntity
  8
0
100
AcDbLine
 10
366.542362770654
 20
155.6079155
 30
0.0
 11
367.982362770654
 21
155.8519155
 31
0.0
  0
LINE
  5
182A
330
1E
100
AcDbEntity
  8
0
100
AcDbLine
 10
367.982362770654
 20
155.8519155
 30
0.0
 11
369.254362770654
 21
156.2569155
 31
0.0
  0
LINE
  5
182B
330
1E
100
AcDbEntity
  8
0
100
AcDbLine
 10
366.281362770654
 20
160.9459155
 30
0.0
 11
366.793362770654
 21
161.1259155
 31
0.0
  0
LINE
  5
182C
330
1E
100
AcDbEntity
  8
0
100
AcDbLine
 10
366.281362770654
 20
162.8189155
 30
0.0
 11
366.793362770654
 21
162.6399155
 31
0.0
  0
LINE
  5
182D
330
1E
100
AcDbEntity
  8
0
100
AcDbLine
 10
367.217362770654
 20
161.3419155
 30
0.0
 11
367.473362770654
 21
161.5959155
 31
0.0
  0
LINE
  5
182E
330
1E
100
AcDbEntity
  8
0
100
AcDbLine
 10
366.793362770654
 20
161.1259155
 30
0.0
 11
367.217362770654
 21
161.3419155
 31
0.0
  0
LINE
  5
182F
330
1E
100
AcDbEntity
  8
0
100
AcDbLine
 10
367.473362770654
 20
161.5959155
 30
0.0
 11
367.561362770654
 21
161.8829155
 31
0.0
  0
LINE
  5
1830
330
1E
100
AcDbEntity
  8
0
100
AcDbLine
 10
367.473362770654
 20
162.1699155
 30
0.0
 11
367.561362770654
 21
161.8829155
 31
0.0
  0
LINE
  5
1831
330
1E
100
AcDbEntity
  8
0
100
AcDbLine
 10
367.217362770654
 20
162.4239155
 30
0.0
 11
367.473362770654
 21
162.1699155
 31
0.0
  0
LINE
  5
1832
330
1E
100
AcDbEntity
  8
0
100
AcDbLine
 10
366.793362770654
 20
162.6399155
 30
0.0
 11
367.217362770654
 21
162.4239155
 31
0.0
  0
LINE
  5
1833
330
1E
100
AcDbEntity
  8
0
100
AcDbLine
 10
366.542362770654
 20
160.4969155
 30
0.0
 11
367.982362770654
 21
160.2539155
 31
0.0
  0
LINE
  5
1834
330
1E
100
AcDbEntity
  8
0
100
AcDbLine
 10
367.982362770654
 20
160.2539155
 30
0.0
 11
369.254362770654
 21
159.8479155
 31
0.0
  0
LINE
  5
1835
330
1E
100
AcDbEntity
  8
0
100
AcDbLine
 10
366.006362770654
 20
144.0219155
 30
0.0
 11
366.006362770654
 21
137.9389155
 31
0.0
  0
LINE
  5
1836
330
1E
100
AcDbEntity
  8
0
100
AcDbLine
 10
367.228362770654
 20
178.2299155
 30
0.0
 11
368.492362770654
 21
177.9209155
 31
0.0
  0
LINE
  5
1837
330
1E
100
AcDbEntity
  8
0
100
AcDbLine
 10
367.228362770654
 20
178.2299155
 30
0.0
 11
367.958362770654
 21
178.7639155
 31
0.0
  0
LINE
  5
1838
330
1E
100
AcDbEntity
  8
0
100
AcDbLine
 10
368.866362770654
 20
169.6019155
 30
0.0
 11
370.131362770654
 21
169.2939155
 31
0.0
  0
LINE
  5
1839
330
1E
100
AcDbEntity
  8
0
100
AcDbLine
 10
368.866362770654
 20
169.6019155
 30
0.0
 11
369.596362770654
 21
170.1369155
 31
0.0
  0
LINE
  5
183A
330
1E
100
AcDbEntity
  8
0
100
AcDbLine
 10
368.492362770654
 20
177.9209155
 30
0.0
 11
369.222362770654
 21
178.4549155
 31
0.0
  0
LINE
  5
183B
330
1E
100
AcDbEntity
  8
0
100
AcDbLine
 10
367.958362770654
 20
180.232888420696
 30
0.0
 11
367.958362770654
 21
178.7639155
 31
0.0
  0
LINE
  5
183C
330
1E
100
AcDbEntity
  8
0
100
AcDbLine
 10
367.958362770654
 20
178.7639155
 30
0.0
 11
369.222362770654
 21
178.4549155
 31
0.0
  0
LINE
  5
183D
330
1E
100
AcDbEntity
  8
0
100
AcDbLine
 10
367.958362770654
 20
178.7639155
 30
0.0
 11
367.958362770654
 21
180.232888420696
 31
0.0
  0
LINE
  5
183E
330
1E
100
AcDbEntity
  8
0
100
AcDbLine
 10
368.866362770654
 20
147.6199155
 30
0.0
 11
370.131362770654
 21
147.9289155
 31
0.0
  0
LINE
  5
183F
330
1E
100
AcDbEntity
  8
0
100
AcDbLine
 10
368.866362770654
 20
147.6199155
 30
0.0
 11
369.596362770654
 21
147.0859155
 31
0.0
  0
LINE
  5
1840
330
1E
100
AcDbEntity
  8
0
100
AcDbLine
 10
368.492362770654
 20
141.1139155
 30
0.0
 11
369.222362770654
 21
140.5799155
 31
0.0
  0
LINE
  5
1841
330
1E
100
AcDbEntity
  8
0
100
AcDbLine
 10
369.222362770654
 20
140.5799155
 30
0.0
 11
369.222362770654
 21
140.652634391038
 31
0.0
  0
LINE
  5
1842
330
1E
100
AcDbEntity
  8
0
100
AcDbLine
 10
366.006362770654
 20
140.556734971309
 30
0.0
 11
367.506484160938
 21
140.601467798066
 31
0.0
  0
LINE
  5
1843
330
1E
100
AcDbEntity
  8
0
100
AcDbLine
 10
369.254362770654
 20
156.2569155
 30
0.0
 11
370.214362770654
 21
156.7949155
 31
0.0
  0
LINE
  5
1844
330
1E
100
AcDbEntity
  8
0
100
AcDbLine
 10
369.254362770654
 20
159.8479155
 30
0.0
 11
370.214362770654
 21
159.3099155
 31
0.0
  0
LINE
  5
1845
330
1E
100
AcDbEntity
  8
0
100
AcDbLine
 10
369.596362770654
 20
170.1369155
 30
0.0
 11
370.860362770654
 21
169.8279155
 31
0.0
  0
LINE
  5
1846
330
1E
100
AcDbEntity
  8
0
100
AcDbLine
 10
370.816999251263
 20
156.155668104706
 30
0.0
 11
371.340362770654
 21
155.1819155
 31
0.0
  0
LINE
  5
1847
330
1E
100
AcDbEntity
  8
0
100
AcDbLine
 10
370.214362770654
 20
156.7949155
 30
0.0
 11
370.790362770654
 21
157.4029155
 31
0.0
  0
LINE
  5
1848
330
1E
100
AcDbEntity
  8
0
100
AcDbLine
 10
371.006362770654
 20
158.6119155
 30
0.0
 11
371.006362770654
 21
158.0529155
 31
0.0
  0
LINE
  5
1849
330
1E
100
AcDbEntity
  8
0
100
AcDbLine
 10
370.790362770654
 20
157.4029155
 30
0.0
 11
371.006362770654
 21
158.0529155
 31
0.0
  0
LINE
  5
184A
330
1E
100
AcDbEntity
  8
0
100
AcDbLine
 10
371.006362770654
 20
158.0529155
 30
0.0
 11
371.006362770654
 21
158.6119155
 31
0.0
  0
LINE
  5
184B
330
1E
100
AcDbEntity
  8
0
100
AcDbLine
 10
370.214362770654
 20
159.3099155
 30
0.0
 11
370.790362770654
 21
158.7019155
 31
0.0
  0
LINE
  5
184C
330
1E
100
AcDbEntity
  8
0
100
AcDbLine
 10
370.790362770654
 20
158.7019155
 30
0.0
 11
371.006362770654
 21
158.0529155
 31
0.0
  0
LINE
  5
184D
330
1E
100
AcDbEntity
  8
0
100
AcDbLine
 10
370.131362770654
 20
169.2939155
 30
0.0
 11
370.860362770654
 21
169.8279155
 31
0.0
  0
LINE
  5
184E
330
1E
100
AcDbEntity
  8
0
100
AcDbLine
 10
370.131362770654
 20
147.9289155
 30
0.0
 11
370.860362770654
 21
147.3949155
 31
0.0
  0
LINE
  5
184F
330
1E
100
AcDbEntity
  8
0
100
AcDbLine
 10
369.596362770654
 20
147.0859155
 30
0.0
 11
370.860362770654
 21
147.3949155
 31
0.0
  0
LINE
  5
1850
330
1E
100
AcDbEntity
  8
0
100
AcDbLine
 10
371.210362770654
 20
140.7119155
 30
0.0
 11
376.393362770654
 21
141.2359155
 31
0.0
  0
LINE
  5
1851
330
1E
100
AcDbEntity
  8
0
100
AcDbLine
 10
369.222362770654
 20
140.652634391038
 30
0.0
 11
371.210362770654
 21
140.7119155
 31
0.0
  0
LINE
  5
1852
330
1E
100
AcDbEntity
  8
0
100
AcDbLine
 10
369.222362770654
 20
140.652634391038
 30
0.0
 11
369.222362770654
 21
140.5799155
 31
0.0
  0
LINE
  5
1853
330
1E
100
AcDbEntity
  8
0
100
AcDbLine
 10
366.006362770654
 20
139.635931248032
 30
0.0
 11
371.356362770654
 21
139.8179155
 31
0.0
  0
LINE
  5
1854
330
1E
100
AcDbEntity
  8
0
100
AcDbLine
 10
371.228362770654
 20
155.4589155
 30
0.0
 11
371.307362770654
 21
155.7319155
 31
0.0
  0
LINE
  5
1855
330
1E
100
AcDbEntity
  8
0
100
AcDbLine
 10
371.228362770654
 20
155.4589155
 30
0.0
 11
371.340362770654
 21
155.1819155
 31
0.0
  0
LINE
  5
1856
330
1E
100
AcDbEntity
  8
0
100
AcDbLine
 10
371.340362770654
 20
155.1819155
 30
0.0
 11
371.571362770654
 21
154.9179155
 31
0.0
  0
LINE
  5
1857
330
1E
100
AcDbEntity
  8
0
100
AcDbLine
 10
371.307362770654
 20
155.7319155
 30
0.0
 11
371.570362770654
 21
155.9999155
 31
0.0
  0
LINE
  5
1858
330
1E
100
AcDbEntity
  8
0
100
AcDbLine
 10
371.356362770654
 20
139.8179155
 30
0.0
 11
377.415362770654
 21
140.3419155
 31
0.0
  0
LINE
  5
1859
330
1E
100
AcDbEntity
  8
0
100
AcDbLine
 10
371.210362770654
 20
180.1359155
 30
0.0
 11
376.393362770654
 21
179.6109155
 31
0.0
  0
LINE
  5
185A
330
1E
100
AcDbEntity
  8
0
100
AcDbLine
 10
371.356362770654
 20
181.0299155
 30
0.0
 11
377.415362770654
 21
180.5059155
 31
0.0
  0
LINE
  5
185B
330
1E
100
AcDbEntity
  8
0
100
AcDbLine
 10
372.494362770654
 20
128.9169155
 30
0.0
 11
373.358362770654
 21
131.0349155
 31
0.0
  0
LINE
  5
185C
330
1E
100
AcDbEntity
  8
0
100
AcDbLine
 10
373.454362770654
 20
124.6799155
 30
0.0
 11
375.374362770654
 21
127.2399155
 31
0.0
  0
LINE
  5
185D
330
1E
100
AcDbEntity
  8
0
100
AcDbLine
 10
375.374362770654
 20
127.2399155
 30
0.0
 11
376.622362770654
 21
130.1519155
 31
0.0
  0
LINE
  5
185E
330
1E
100
AcDbEntity
  8
0
100
AcDbLine
 10
375.374362770654
 20
139.3309155
 30
0.0
 11
376.622362770654
 21
136.4189155
 31
0.0
  0
LINE
  5
185F
330
1E
100
AcDbEntity
  8
0
100
AcDbLine
 10
373.646362770654
 20
133.2409155
 30
0.0
 11
373.646362770654
 21
140.015961382159
 31
0.0
  0
LINE
  5
1860
330
1E
100
AcDbEntity
  8
0
100
AcDbLine
 10
373.358362770654
 20
131.0349155
 30
0.0
 11
373.646362770654
 21
133.2409155
 31
0.0
  0
LINE
  5
1861
330
1E
100
AcDbEntity
  8
0
100
AcDbLine
 10
372.937362770654
 20
144.4759155
 30
0.0
 11
374.202362770654
 21
144.7849155
 31
0.0
  0
LINE
  5
1862
330
1E
100
AcDbEntity
  8
0
100
AcDbLine
 10
372.937362770654
 20
144.4759155
 30
0.0
 11
373.667362770654
 21
143.9419155
 31
0.0
  0
LINE
  5
1863
330
1E
100
AcDbEntity
  8
0
100
AcDbLine
 10
374.202362770654
 20
145.703720087935
 30
0.0
 11
374.202362770654
 21
144.7849155
 31
0.0
  0
LINE
  5
1864
330
1E
100
AcDbEntity
  8
0
100
AcDbLine
 10
374.202362770654
 20
144.7849155
 30
0.0
 11
374.932362770654
 21
144.2499155
 31
0.0
  0
LINE
  5
1865
330
1E
100
AcDbEntity
  8
0
100
AcDbLine
 10
374.202362770654
 20
144.7849155
 30
0.0
 11
374.202362770654
 21
145.703720087935
 31
0.0
  0
LINE
  5
1866
330
1E
100
AcDbEntity
  8
0
100
AcDbLine
 10
373.667362770654
 20
143.9419155
 30
0.0
 11
374.932362770654
 21
144.2499155
 31
0.0
  0
LINE
  5
1867
330
1E
100
AcDbEntity
  8
0
100
AcDbLine
 10
373.316362770654
 20
151.80571717837
 30
0.0
 11
373.316362770654
 21
151.4579155
 31
0.0
  0
LINE
  5
1868
330
1E
100
AcDbEntity
  8
0
100
AcDbLine
 10
373.316362770654
 20
151.4579155
 30
0.0
 11
374.580362770654
 21
151.7669155
 31
0.0
  0
LINE
  5
1869
330
1E
100
AcDbEntity
  8
0
100
AcDbLine
 10
373.316362770654
 20
151.4579155
 30
0.0
 11
374.045362770654
 21
150.9239155
 31
0.0
  0
LINE
  5
186A
330
1E
100
AcDbEntity
  8
0
100
AcDbLine
 10
373.316362770654
 20
151.4579155
 30
0.0
 11
373.316362770654
 21
151.80571717837
 31
0.0
  0
LINE
  5
186B
330
1E
100
AcDbEntity
  8
0
100
AcDbLine
 10
371.962362770654
 20
154.6989155
 30
0.0
 11
372.507362770654
 21
154.5219155
 31
0.0
  0
LINE
  5
186C
330
1E
100
AcDbEntity
  8
0
100
AcDbLine
 10
371.571362770654
 20
154.9179155
 30
0.0
 11
371.962362770654
 21
154.6989155
 31
0.0
  0
LINE
  5
186D
330
1E
100
AcDbEntity
  8
0
100
AcDbLine
 10
372.507362770654
 20
154.5219155
 30
0.0
 11
373.140362770654
 21
154.4109155
 31
0.0
  0
LINE
  5
186E
330
1E
100
AcDbEntity
  8
0
100
AcDbLine
 10
373.140362770654
 20
154.4109155
 30
0.0
 11
373.788362770654
 21
154.3769155
 31
0.0
  0
LINE
  5
186F
330
1E
100
AcDbEntity
  8
0
100
AcDbLine
 10
373.132362770654
 20
156.4939155
 30
0.0
 11
373.787362770654
 21
156.5399155
 31
0.0
  0
LINE
  5
1870
330
1E
100
AcDbEntity
  8
0
100
AcDbLine
 10
372.508362770654
 20
156.3959155
 30
0.0
 11
373.132362770654
 21
156.4939155
 31
0.0
  0
LINE
  5
1871
330
1E
100
AcDbEntity
  8
0
100
AcDbLine
 10
371.987362770654
 20
156.2299155
 30
0.0
 11
372.508362770654
 21
156.3959155
 31
0.0
  0
LINE
  5
1872
330
1E
100
AcDbEntity
  8
0
100
AcDbLine
 10
371.570362770654
 20
155.9999155
 30
0.0
 11
371.987362770654
 21
156.2299155
 31
0.0
  0
LINE
  5
1873
330
1E
100
AcDbEntity
  8
0
100
AcDbLine
 10
373.788362770654
 20
154.3769155
 30
0.0
 11
374.443362770654
 21
154.4249155
 31
0.0
  0
LINE
  5
1874
330
1E
100
AcDbEntity
  8
0
100
AcDbLine
 10
374.443362770654
 20
154.4249155
 30
0.0
 11
375.067362770654
 21
154.5229155
 31
0.0
  0
LINE
  5
1875
330
1E
100
AcDbEntity
  8
0
100
AcDbLine
 10
374.434362770654
 20
156.5069155
 30
0.0
 11
375.067362770654
 21
156.3959155
 31
0.0
  0
LINE
  5
1876
330
1E
100
AcDbEntity
  8
0
100
AcDbLine
 10
373.787362770654
 20
156.5399155
 30
0.0
 11
374.434362770654
 21
156.5069155
 31
0.0
  0
LINE
  5
1877
330
1E
100
AcDbEntity
  8
0
100
AcDbLine
 10
374.580362770654
 20
152.641056029238
 30
0.0
 11
374.580362770654
 21
151.7669155
 31
0.0
  0
LINE
  5
1878
330
1E
100
AcDbEntity
  8
0
100
AcDbLine
 10
374.580362770654
 20
151.7669155
 30
0.0
 11
375.310362770654
 21
151.2329155
 31
0.0
  0
LINE
  5
1879
330
1E
100
AcDbEntity
  8
0
100
AcDbLine
 10
374.580362770654
 20
151.7669155
 30
0.0
 11
374.580362770654
 21
152.641056029238
 31
0.0
  0
LINE
  5
187A
330
1E
100
AcDbEntity
  8
0
100
AcDbLine
 10
374.045362770654
 20
150.9239155
 30
0.0
 11
375.310362770654
 21
151.2329155
 31
0.0
  0
LINE
  5
187B
330
1E
100
AcDbEntity
  8
0
100
AcDbLine
 10
374.932362770654
 20
144.2499155
 30
0.0
 11
374.932362770654
 21
145.400819705608
 31
0.0
  0
LINE
  5
187C
330
1E
100
AcDbEntity
  8
0
100
AcDbLine
 10
374.932362770654
 20
145.400819705608
 30
0.0
 11
374.932362770654
 21
144.2499155
 31
0.0
  0
LINE
  5
187D
330
1E
100
AcDbEntity
  8
0
100
AcDbLine
 10
375.310362770654
 20
151.2329155
 30
0.0
 11
375.310362770654
 21
152.351035119295
 31
0.0
  0
LINE
  5
187E
330
1E
100
AcDbEntity
  8
0
100
AcDbLine
 10
375.067362770654
 20
154.5229155
 30
0.0
 11
375.588362770654
 21
154.6869155
 31
0.0
  0
LINE
  5
187F
330
1E
100
AcDbEntity
  8
0
100
AcDbLine
 10
375.588362770654
 20
154.6869155
 30
0.0
 11
376.005362770654
 21
154.9179155
 31
0.0
  0
LINE
  5
1880
330
1E
100
AcDbEntity
  8
0
100
AcDbLine
 10
375.067362770654
 20
156.3959155
 30
0.0
 11
375.612362770654
 21
156.2199155
 31
0.0
  0
LINE
  5
1881
330
1E
100
AcDbEntity
  8
0
100
AcDbLine
 10
375.612362770654
 20
156.2199155
 30
0.0
 11
376.004362770654
 21
155.9989155
 31
0.0
  0
LINE
  5
1882
330
1E
100
AcDbEntity
  8
0
100
AcDbLine
 10
376.004362770654
 20
155.9989155
 30
0.0
 11
376.235362770654
 21
155.7369155
 31
0.0
  0
LINE
  5
1883
330
1E
100
AcDbEntity
  8
0
100
AcDbLine
 10
376.235362770654
 20
155.7369155
 30
0.0
 11
376.347362770654
 21
155.4589155
 31
0.0
  0
LINE
  5
1884
330
1E
100
AcDbEntity
  8
0
100
AcDbLine
 10
376.268362770654
 20
155.1849155
 30
0.0
 11
376.637731451134
 21
155.878192100286
 31
0.0
  0
LINE
  5
1885
330
1E
100
AcDbEntity
  8
0
100
AcDbLine
 10
376.268362770654
 20
155.1849155
 30
0.0
 11
376.347362770654
 21
155.4589155
 31
0.0
  0
LINE
  5
1886
330
1E
100
AcDbEntity
  8
0
100
AcDbLine
 10
376.005362770654
 20
154.9179155
 30
0.0
 11
376.268362770654
 21
155.1849155
 31
0.0
  0
LINE
  5
1887
330
1E
100
AcDbEntity
  8
0
100
AcDbLine
 10
375.310362770654
 20
152.351035119295
 30
0.0
 11
375.310362770654
 21
151.2329155
 31
0.0
  0
LINE
  5
1888
330
1E
100
AcDbEntity
  8
0
100
AcDbLine
 10
374.786618854039
 20
140.114574055487
 30
0.0
 11
375.374362770654
 21
139.3309155
 31
0.0
  0
LINE
  5
1889
330
1E
100
AcDbEntity
  8
0
100
AcDbLine
 10
373.646362770654
 20
140.015961382159
 30
0.0
 11
373.646362770654
 21
133.2409155
 31
0.0
  0
LINE
  5
188A
330
1E
100
AcDbEntity
  8
0
100
AcDbLine
 10
376.393362770654
 20
141.2359155
 30
0.0
 11
377.588612475141
 21
141.387482405745
 31
0.0
  0
LINE
  5
188B
330
1E
100
AcDbEntity
  8
0
100
AcDbLine
 10
372.937362770654
 20
173.6529155
 30
0.0
 11
374.202362770654
 21
173.3439155
 31
0.0
  0
LINE
  5
188C
330
1E
100
AcDbEntity
  8
0
100
AcDbLine
 10
372.937362770654
 20
173.6529155
 30
0.0
 11
373.667362770654
 21
174.1869155
 31
0.0
  0
LINE
  5
188D
330
1E
100
AcDbEntity
  8
0
100
AcDbLine
 10
373.667362770654
 20
174.1869155
 30
0.0
 11
374.932362770654
 21
173.8779155
 31
0.0
  0
LINE
  5
188E
330
1E
100
AcDbEntity
  8
0
100
AcDbLine
 10
374.045362770654
 20
166.452241754496
 30
0.0
 11
374.045362770654
 21
165.3919155
 31
0.0
  0
LINE
  5
188F
330
1E
100
AcDbEntity
  8
0
100
AcDbLine
 10
373.316362770654
 20
165.946910790289
 30
0.0
 11
373.316362770654
 21
164.8579155
 31
0.0
  0
LINE
  5
1890
330
1E
100
AcDbEntity
  8
0
100
AcDbLine
 10
373.316362770654
 20
164.8579155
 30
0.0
 11
374.580362770654
 21
164.5489155
 31
0.0
  0
LINE
  5
1891
330
1E
100
AcDbEntity
  8
0
100
AcDbLine
 10
373.316362770654
 20
164.8579155
 30
0.0
 11
374.045362770654
 21
165.3919155
 31
0.0
  0
LINE
  5
1892
330
1E
100
AcDbEntity
  8
0
100
AcDbLine
 10
373.316362770654
 20
164.8579155
 30
0.0
 11
373.316362770654
 21
165.946910790289
 31
0.0
  0
LINE
  5
1893
330
1E
100
AcDbEntity
  8
0
100
AcDbLine
 10
375.310362770654
 20
165.0839155
 30
0.0
 11
375.310362770654
 21
165.387675396171
 31
0.0
  0
LINE
  5
1894
330
1E
100
AcDbEntity
  8
0
100
AcDbLine
 10
374.580362770654
 20
164.5489155
 30
0.0
 11
375.310362770654
 21
165.0839155
 31
0.0
  0
LINE
  5
1895
330
1E
100
AcDbEntity
  8
0
100
AcDbLine
 10
375.310362770654
 20
165.387675396171
 30
0.0
 11
375.310362770654
 21
165.0839155
 31
0.0
  0
LINE
  5
1896
330
1E
100
AcDbEntity
  8
0
100
AcDbLine
 10
374.202362770654
 20
173.3439155
 30
0.0
 11
374.932362770654
 21
173.8779155
 31
0.0
  0
LINE
  5
1897
330
1E
100
AcDbEntity
  8
0
100
AcDbLine
 10
374.045362770654
 20
165.3919155
 30
0.0
 11
375.310362770654
 21
165.0839155
 31
0.0
  0
LINE
  5
1898
330
1E
100
AcDbEntity
  8
0
100
AcDbLine
 10
374.045362770654
 20
165.3919155
 30
0.0
 11
374.045362770654
 21
166.452241754496
 31
0.0
  0
LINE
  5
1899
330
1E
100
AcDbEntity
  8
0
100
AcDbLine
 10
376.622362770654
 20
130.1519155
 30
0.0
 11
377.006362770654
 21
133.2409155
 31
0.0
  0
LINE
  5
189A
330
1E
100
AcDbEntity
  8
0
100
AcDbLine
 10
377.006362770654
 20
133.2409155
 30
0.0
 11
377.006362770654
 21
61.2064155
 31
0.0
  0
LINE
  5
189B
330
1E
100
AcDbEntity
  8
0
100
AcDbLine
 10
376.622362770654
 20
136.4189155
 30
0.0
 11
377.006362770654
 21
133.2409155
 31
0.0
  0
LINE
  5
189C
330
1E
100
AcDbEntity
  8
0
100
AcDbLine
 10
377.257362770654
 20
177.4059155
 30
0.0
 11
378.522362770654
 21
177.0969155
 31
0.0
  0
LINE
  5
189D
330
1E
100
AcDbEntity
  8
0
100
AcDbLine
 10
377.257362770654
 20
177.4059155
 30
0.0
 11
377.988362770654
 21
177.9399155
 31
0.0
  0
LINE
  5
189E
330
1E
100
AcDbEntity
  8
0
100
AcDbLine
 10
377.257362770654
 20
141.6299155
 30
0.0
 11
378.522362770654
 21
141.9379155
 31
0.0
  0
LINE
  5
189F
330
1E
100
AcDbEntity
  8
0
100
AcDbLine
 10
377.257362770654
 20
141.6299155
 30
0.0
 11
377.988362770654
 21
141.0949155
 31
0.0
  0
LINE
  5
18A0
330
1E
100
AcDbEntity
  8
0
100
AcDbLine
 10
377.415362770654
 20
140.3419155
 30
0.0
 11
383.838362770654
 21
141.2359155
 31
0.0
  0
LINE
  5
18A1
330
1E
100
AcDbEntity
  8
0
100
AcDbLine
 10
376.393362770654
 20
179.6109155
 30
0.0
 11
382.962362770654
 21
178.7789155
 31
0.0
  0
LINE
  5
18A2
330
1E
100
AcDbEntity
  8
0
100
AcDbLine
 10
377.415362770654
 20
180.5059155
 30
0.0
 11
383.838362770654
 21
179.6109155
 31
0.0
  0
LINE
  5
18A3
330
1E
100
AcDbEntity
  8
0
100
AcDbLine
 10
371.429362770654
 20
182.2449155
 30
0.0
 11
377.926362770654
 21
181.6899155
 31
0.0
  0
LINE
  5
18A4
330
1E
100
AcDbEntity
  8
0
100
AcDbLine
 10
371.429362770654
 20
201.2779155
 30
0.0
 11
377.926362770654
 21
200.7229155
 31
0.0
  0
LINE
  5
18A5
330
1E
100
AcDbEntity
  8
0
100
AcDbLine
 10
377.695362770654
 20
168.982362494348
 30
0.0
 11
377.695362770654
 21
168.5169155
 31
0.0
  0
LINE
  5
18A6
330
1E
100
AcDbEntity
  8
0
100
AcDbLine
 10
377.695362770654
 20
168.5169155
 30
0.0
 11
378.959362770654
 21
168.2089155
 31
0.0
  0
LINE
  5
18A7
330
1E
100
AcDbEntity
  8
0
100
AcDbLine
 10
377.695362770654
 20
168.5169155
 30
0.0
 11
378.425362770654
 21
169.0509155
 31
0.0
  0
LINE
  5
18A8
330
1E
100
AcDbEntity
  8
0
100
AcDbLine
 10
377.695362770654
 20
168.5169155
 30
0.0
 11
377.695362770654
 21
168.982362494348
 31
0.0
  0
LINE
  5
18A9
330
1E
100
AcDbEntity
  8
0
100
AcDbLine
 10
377.695362770654
 20
149.450101662014
 30
0.0
 11
377.695362770654
 21
148.7059155
 31
0.0
  0
LINE
  5
18AA
330
1E
100
AcDbEntity
  8
0
100
AcDbLine
 10
377.695362770654
 20
148.7059155
 30
0.0
 11
378.959362770654
 21
149.0149155
 31
0.0
  0
LINE
  5
18AB
330
1E
100
AcDbEntity
  8
0
100
AcDbLine
 10
377.695362770654
 20
148.7059155
 30
0.0
 11
378.425362770654
 21
148.1709155
 31
0.0
  0
LINE
  5
18AC
330
1E
100
AcDbEntity
  8
0
100
AcDbLine
 10
377.695362770654
 20
148.7059155
 30
0.0
 11
377.695362770654
 21
149.450101662014
 31
0.0
  0
LINE
  5
18AD
330
1E
100
AcDbEntity
  8
0
100
AcDbLine
 10
379.252362770654
 20
141.4039155
 30
0.0
 11
379.252362770654
 21
141.598458809484
 31
0.0
  0
LINE
  5
18AE
330
1E
100
AcDbEntity
  8
0
100
AcDbLine
 10
377.988362770654
 20
141.0949155
 30
0.0
 11
379.252362770654
 21
141.4039155
 31
0.0
  0
LINE
  5
18AF
330
1E
100
AcDbEntity
  8
0
100
AcDbLine
 10
377.988362770654
 20
177.9399155
 30
0.0
 11
379.252362770654
 21
177.6309155
 31
0.0
  0
LINE
  5
18B0
330
1E
100
AcDbEntity
  8
0
100
AcDbLine
 10
377.988362770654
 20
177.9399155
 30
0.0
 11
377.988362770654
 21
179.408899972523
 31
0.0
  0
LINE
  5
18B1
330
1E
100
AcDbEntity
  8
0
100
AcDbLine
 10
378.425362770654
 20
169.488386642319
 30
0.0
 11
378.425362770654
 21
169.0509155
 31
0.0
  0
LINE
  5
18B2
330
1E
100
AcDbEntity
  8
0
100
AcDbLine
 10
378.425362770654
 20
169.0509155
 30
0.0
 11
379.689362770654
 21
168.7429155
 31
0.0
  0
LINE
  5
18B3
330
1E
100
AcDbEntity
  8
0
100
AcDbLine
 10
378.425362770654
 20
169.0509155
 30
0.0
 11
378.425362770654
 21
169.488386642319
 31
0.0
  0
LINE
  5
18B4
330
1E
100
AcDbEntity
  8
0
100
AcDbLine
 10
378.522362770654
 20
141.9379155
 30
0.0
 11
379.252362770654
 21
141.4039155
 31
0.0
  0
LINE
  5
18B5
330
1E
100
AcDbEntity
  8
0
100
AcDbLine
 10
379.689362770654
 20
148.4799155
 30
0.0
 11
379.689362770654
 21
148.573432576035
 31
0.0
  0
LINE
  5
18B6
330
1E
100
AcDbEntity
  8
0
100
AcDbLine
 10
378.522362770654
 20
177.0969155
 30
0.0
 11
379.252362770654
 21
177.6309155
 31
0.0
  0
LINE
  5
18B7
330
1E
100
AcDbEntity
  8
0
100
AcDbLine
 10
378.959362770654
 20
168.2089155
 30
0.0
 11
379.689362770654
 21
168.7429155
 31
0.0
  0
LINE
  5
18B8
330
1E
100
AcDbEntity
  8
0
100
AcDbLine
 10
379.726362770654
 20
153.8349155
 30
0.0
 11
379.726362770654
 21
154.4519155
 31
0.0
  0
LINE
  5
18B9
330
1E
100
AcDbEntity
  8
0
100
AcDbLine
 10
379.726362770654
 20
153.8349155
 30
0.0
 11
381.186362770654
 21
153.8349155
 31
0.0
  0
LINE
  5
18BA
330
1E
100
AcDbEntity
  8
0
100
AcDbLine
 10
379.726362770654
 20
153.8349155
 30
0.0
 11
379.726362770654
 21
154.646447977301
 31
0.0
  0
LINE
  5
18BB
330
1E
100
AcDbEntity
  8
0
100
AcDbLine
 10
379.726362770654
 20
154.646447977301
 30
0.0
 11
379.726362770654
 21
153.8349155
 31
0.0
  0
LINE
  5
18BC
330
1E
100
AcDbEntity
  8
0
100
AcDbLine
 10
379.726362770654
 20
155.22670603442
 30
0.0
 11
379.726362770654
 21
154.4519155
 31
0.0
  0
LINE
  5
18BD
330
1E
100
AcDbEntity
  8
0
100
AcDbLine
 10
379.726362770654
 20
154.4519155
 30
0.0
 11
381.186362770654
 21
154.4519155
 31
0.0
  0
LINE
  5
18BE
330
1E
100
AcDbEntity
  8
0
100
AcDbLine
 10
379.726362770654
 20
154.4519155
 30
0.0
 11
379.726362770654
 21
155.22670603442
 31
0.0
  0
LINE
  5
18BF
330
1E
100
AcDbEntity
  8
0
100
AcDbLine
 10
379.726362770654
 20
154.4519155
 30
0.0
 11
379.726362770654
 21
153.8349155
 31
0.0
  0
LINE
  5
18C0
330
1E
100
AcDbEntity
  8
0
100
AcDbLine
 10
381.186362770654
 20
153.8349155
 30
0.0
 11
381.186362770654
 21
154.4519155
 31
0.0
  0
LINE
  5
18C1
330
1E
100
AcDbEntity
  8
0
100
AcDbLine
 10
381.186362770654
 20
154.94469063587
 30
0.0
 11
381.186362770654
 21
154.4519155
 31
0.0
  0
LINE
  5
18C2
330
1E
100
AcDbEntity
  8
0
100
AcDbLine
 10
381.186362770654
 20
154.4519155
 30
0.0
 11
381.186362770654
 21
153.8349155
 31
0.0
  0
LINE
  5
18C3
330
1E
100
AcDbEntity
  8
0
100
AcDbLine
 10
381.186362770654
 20
154.4519155
 30
0.0
 11
381.186362770654
 21
154.94469063587
 31
0.0
  0
LINE
  5
18C4
330
1E
100
AcDbEntity
  8
0
100
AcDbLine
 10
379.726362770654
 20
161.8639155
 30
0.0
 11
381.186362770654
 21
161.8639155
 31
0.0
  0
LINE
  5
18C5
330
1E
100
AcDbEntity
  8
0
100
AcDbLine
 10
379.726362770654
 20
161.8639155
 30
0.0
 11
379.726362770654
 21
162.36718820154
 31
0.0
  0
LINE
  5
18C6
330
1E
100
AcDbEntity
  8
0
100
AcDbLine
 10
379.726362770654
 20
161.8639155
 30
0.0
 11
379.726362770654
 21
162.4809155
 31
0.0
  0
LINE
  5
18C7
330
1E
100
AcDbEntity
  8
0
100
AcDbLine
 10
379.726362770654
 20
163.02091367332
 30
0.0
 11
379.726362770654
 21
162.4809155
 31
0.0
  0
LINE
  5
18C8
330
1E
100
AcDbEntity
  8
0
100
AcDbLine
 10
379.726362770654
 20
162.4809155
 30
0.0
 11
379.726362770654
 21
161.8639155
 31
0.0
  0
LINE
  5
18C9
330
1E
100
AcDbEntity
  8
0
100
AcDbLine
 10
379.726362770654
 20
162.4809155
 30
0.0
 11
381.186362770654
 21
162.4809155
 31
0.0
  0
LINE
  5
18CA
330
1E
100
AcDbEntity
  8
0
100
AcDbLine
 10
379.726362770654
 20
162.4809155
 30
0.0
 11
379.726362770654
 21
163.02091367332
 31
0.0
  0
LINE
  5
18CB
330
1E
100
AcDbEntity
  8
0
100
AcDbLine
 10
381.186362770654
 20
163.384795906168
 30
0.0
 11
381.186362770654
 21
162.4809155
 31
0.0
  0
LINE
  5
18CC
330
1E
100
AcDbEntity
  8
0
100
AcDbLine
 10
379.726362770654
 20
162.36718820154
 30
0.0
 11
379.726362770654
 21
161.8639155
 31
0.0
  0
LINE
  5
18CD
330
1E
100
AcDbEntity
  8
0
100
AcDbLine
 10
381.186362770654
 20
162.4809155
 30
0.0
 11
381.186362770654
 21
163.384795906168
 31
0.0
  0
LINE
  5
18CE
330
1E
100
AcDbEntity
  8
0
100
AcDbLine
 10
381.186362770654
 20
162.4809155
 30
0.0
 11
381.186362770654
 21
161.8639155
 31
0.0
  0
LINE
  5
18CF
330
1E
100
AcDbEntity
  8
0
100
AcDbLine
 10
381.186362770654
 20
161.8639155
 30
0.0
 11
381.186362770654
 21
162.4809155
 31
0.0
  0
LINE
  5
18D0
330
1E
100
AcDbEntity
  8
0
100
AcDbLine
 10
379.689362770654
 20
168.7429155
 30
0.0
 11
379.689362770654
 21
170.126794450974
 31
0.0
  0
LINE
  5
18D1
330
1E
100
AcDbEntity
  8
0
100
AcDbLine
 10
379.252362770654
 20
177.6309155
 30
0.0
 11
379.252362770654
 21
179.248807416578
 31
0.0
  0
LINE
  5
18D2
330
1E
100
AcDbEntity
  8
0
100
AcDbLine
 10
379.689362770654
 20
170.126794450974
 30
0.0
 11
379.689362770654
 21
168.7429155
 31
0.0
  0
LINE
  5
18D3
330
1E
100
AcDbEntity
  8
0
100
AcDbLine
 10
378.959362770654
 20
149.0149155
 30
0.0
 11
379.689362770654
 21
148.4799155
 31
0.0
  0
LINE
  5
18D4
330
1E
100
AcDbEntity
  8
0
100
AcDbLine
 10
379.689362770654
 20
148.573432576035
 30
0.0
 11
379.689362770654
 21
148.4799155
 31
0.0
  0
LINE
  5
18D5
330
1E
100
AcDbEntity
  8
0
100
AcDbLine
 10
378.425362770654
 20
148.1709155
 30
0.0
 11
379.689362770654
 21
148.4799155
 31
0.0
  0
LINE
  5
18D6
330
1E
100
AcDbEntity
  8
0
100
AcDbLine
 10
379.252362770654
 20
141.598458809484
 30
0.0
 11
382.962362770654
 21
142.0689155
 31
0.0
  0
LINE
  5
18D7
330
1E
100
AcDbEntity
  8
0
100
AcDbLine
 10
379.252362770654
 20
141.598458809484
 30
0.0
 11
379.252362770654
 21
141.4039155
 31
0.0
  0
LINE
  5
18D8
330
1E
100
AcDbEntity
  8
0
100
AcDbLine
 10
382.075362770654
 20
172.1749155
 30
0.0
 11
383.339362770654
 21
171.8669155
 31
0.0
  0
LINE
  5
18D9
330
1E
100
AcDbEntity
  8
0
100
AcDbLine
 10
382.075362770654
 20
172.1749155
 30
0.0
 11
382.804362770654
 21
172.7089155
 31
0.0
  0
LINE
  5
18DA
330
1E
100
AcDbEntity
  8
0
100
AcDbLine
 10
382.075362770654
 20
147.058120979452
 30
0.0
 11
382.075362770654
 21
145.9539155
 31
0.0
  0
LINE
  5
18DB
330
1E
100
AcDbEntity
  8
0
100
AcDbLine
 10
382.889362770654
 20
158.314472826079
 30
0.0
 11
382.889362770654
 21
157.8499155
 31
0.0
  0
LINE
  5
18DC
330
1E
100
AcDbEntity
  8
0
100
AcDbLine
 10
382.889362770654
 20
157.8499155
 30
0.0
 11
382.889362770654
 21
158.4659155
 31
0.0
  0
LINE
  5
18DD
330
1E
100
AcDbEntity
  8
0
100
AcDbLine
 10
382.889362770654
 20
157.8499155
 30
0.0
 11
384.349362770654
 21
157.8499155
 31
0.0
  0
LINE
  5
18DE
330
1E
100
AcDbEntity
  8
0
100
AcDbLine
 10
382.889362770654
 20
157.8499155
 30
0.0
 11
382.889362770654
 21
158.314472826079
 31
0.0
  0
LINE
  5
18DF
330
1E
100
AcDbEntity
  8
0
100
AcDbLine
 10
382.804362770654
 20
172.7089155
 30
0.0
 11
384.069362770654
 21
172.4019155
 31
0.0
  0
LINE
  5
18E0
330
1E
100
AcDbEntity
  8
0
100
AcDbLine
 10
382.889362770654
 20
159.371208688885
 30
0.0
 11
382.889362770654
 21
158.4659155
 31
0.0
  0
LINE
  5
18E1
330
1E
100
AcDbEntity
  8
0
100
AcDbLine
 10
382.889362770654
 20
158.4659155
 30
0.0
 11
384.349362770654
 21
158.4659155
 31
0.0
  0
LINE
  5
18E2
330
1E
100
AcDbEntity
  8
0
100
AcDbLine
 10
382.889362770654
 20
158.4659155
 30
0.0
 11
382.889362770654
 21
159.371208688885
 31
0.0
  0
LINE
  5
18E3
330
1E
100
AcDbEntity
  8
0
100
AcDbLine
 10
382.889362770654
 20
158.4659155
 30
0.0
 11
382.889362770654
 21
157.8499155
 31
0.0
  0
LINE
  5
18E4
330
1E
100
AcDbEntity
  8
0
100
AcDbLine
 10
382.075362770654
 20
145.9539155
 30
0.0
 11
383.339362770654
 21
146.2619155
 31
0.0
  0
LINE
  5
18E5
330
1E
100
AcDbEntity
  8
0
100
AcDbLine
 10
382.075362770654
 20
145.9539155
 30
0.0
 11
382.804362770654
 21
145.4189155
 31
0.0
  0
LINE
  5
18E6
330
1E
100
AcDbEntity
  8
0
100
AcDbLine
 10
382.075362770654
 20
145.9539155
 30
0.0
 11
382.075362770654
 21
147.058120979452
 31
0.0
  0
LINE
  5
18E7
330
1E
100
AcDbEntity
  8
0
100
AcDbLine
 10
382.804362770654
 20
145.4189155
 30
0.0
 11
384.069362770654
 21
145.7279155
 31
0.0
  0
LINE
  5
18E8
330
1E
100
AcDbEntity
  8
0
100
AcDbLine
 10
383.339362770654
 20
171.8669155
 30
0.0
 11
384.069362770654
 21
172.4019155
 31
0.0
  0
LINE
  5
18E9
330
1E
100
AcDbEntity
  8
0
100
AcDbLine
 10
383.339362770654
 20
146.967172557456
 30
0.0
 11
383.339362770654
 21
146.2619155
 31
0.0
  0
LINE
  5
18EA
330
1E
100
AcDbEntity
  8
0
100
AcDbLine
 10
383.339362770654
 20
146.2619155
 30
0.0
 11
384.069362770654
 21
145.7279155
 31
0.0
  0
LINE
  5
18EB
330
1E
100
AcDbEntity
  8
0
100
AcDbLine
 10
383.339362770654
 20
146.2619155
 30
0.0
 11
383.339362770654
 21
146.967172557456
 31
0.0
  0
LINE
  5
18EC
330
1E
100
AcDbEntity
  8
0
100
AcDbLine
 10
382.962362770654
 20
142.0689155
 30
0.0
 11
386.906805046442
 21
142.869331092402
 31
0.0
  0
LINE
  5
18ED
330
1E
100
AcDbEntity
  8
0
100
AcDbLine
 10
383.838362770654
 20
141.2359155
 30
0.0
 11
389.532362770654
 21
142.3779155
 31
0.0
  0
LINE
  5
18EE
330
1E
100
AcDbEntity
  8
0
100
AcDbLine
 10
377.988362770654
 20
179.408899972523
 30
0.0
 11
377.988362770654
 21
177.9399155
 31
0.0
  0
LINE
  5
18EF
330
1E
100
AcDbEntity
  8
0
100
AcDbLine
 10
379.252362770654
 20
179.248807416578
 30
0.0
 11
379.252362770654
 21
177.6309155
 31
0.0
  0
LINE
  5
18F0
330
1E
100
AcDbEntity
  8
0
100
AcDbLine
 10
382.962362770654
 20
178.7789155
 30
0.0
 11
388.437362770654
 21
177.6679155
 31
0.0
  0
LINE
  5
18F1
330
1E
100
AcDbEntity
  8
0
100
AcDbLine
 10
386.454362770654
 20
143.2009155
 30
0.0
 11
387.718362770654
 21
143.5089155
 31
0.0
  0
LINE
  5
18F2
330
1E
100
AcDbEntity
  8
0
100
AcDbLine
 10
386.454362770654
 20
143.2009155
 30
0.0
 11
387.184362770654
 21
142.6659155
 31
0.0
  0
LINE
  5
18F3
330
1E
100
AcDbEntity
  8
0
100
AcDbLine
 10
386.454362770654
 20
143.2009155
 30
0.0
 11
386.454362770654
 21
143.804754549394
 31
0.0
  0
LINE
  5
18F4
330
1E
100
AcDbEntity
  8
0
100
AcDbLine
 10
384.069362770654
 20
145.7279155
 30
0.0
 11
384.069362770654
 21
146.803401385088
 31
0.0
  0
LINE
  5
18F5
330
1E
100
AcDbEntity
  8
0
100
AcDbLine
 10
384.186362770654
 20
151.143560910292
 30
0.0
 11
384.186362770654
 21
150.7209155
 31
0.0
  0
LINE
  5
18F6
330
1E
100
AcDbEntity
  8
0
100
AcDbLine
 10
384.186362770654
 20
150.7209155
 30
0.0
 11
384.186362770654
 21
151.3379155
 31
0.0
  0
LINE
  5
18F7
330
1E
100
AcDbEntity
  8
0
100
AcDbLine
 10
384.186362770654
 20
150.7209155
 30
0.0
 11
385.646362770654
 21
150.7209155
 31
0.0
  0
LINE
  5
18F8
330
1E
100
AcDbEntity
  8
0
100
AcDbLine
 10
384.186362770654
 20
150.7209155
 30
0.0
 11
384.186362770654
 21
151.143560910292
 31
0.0
  0
LINE
  5
18F9
330
1E
100
AcDbEntity
  8
0
100
AcDbLine
 10
384.186362770654
 20
151.3379155
 30
0.0
 11
385.646362770654
 21
151.3379155
 31
0.0
  0
LINE
  5
18FA
330
1E
100
AcDbEntity
  8
0
100
AcDbLine
 10
384.186362770654
 20
151.3379155
 30
0.0
 11
384.186362770654
 21
150.7209155
 31
0.0
  0
LINE
  5
18FB
330
1E
100
AcDbEntity
  8
0
100
AcDbLine
 10
384.349362770654
 20
157.8499155
 30
0.0
 11
384.349362770654
 21
158.4659155
 31
0.0
  0
LINE
  5
18FC
330
1E
100
AcDbEntity
  8
0
100
AcDbLine
 10
384.069362770654
 20
172.4019155
 30
0.0
 11
384.069362770654
 21
172.606854888907
 31
0.0
  0
LINE
  5
18FD
330
1E
100
AcDbEntity
  8
0
100
AcDbLine
 10
384.186362770654
 20
167.355312996523
 30
0.0
 11
384.186362770654
 21
166.5019155
 31
0.0
  0
LINE
  5
18FE
330
1E
100
AcDbEntity
  8
0
100
AcDbLine
 10
384.186362770654
 20
166.5019155
 30
0.0
 11
384.186362770654
 21
165.8849155
 31
0.0
  0
LINE
  5
18FF
330
1E
100
AcDbEntity
  8
0
100
AcDbLine
 10
384.186362770654
 20
166.5019155
 30
0.0
 11
385.646362770654
 21
166.5019155
 31
0.0
  0
LINE
  5
1900
330
1E
100
AcDbEntity
  8
0
100
AcDbLine
 10
384.186362770654
 20
166.5019155
 30
0.0
 11
384.186362770654
 21
167.355312996523
 31
0.0
  0
LINE
  5
1901
330
1E
100
AcDbEntity
  8
0
100
AcDbLine
 10
384.186362770654
 20
165.8849155
 30
0.0
 11
385.646362770654
 21
165.8849155
 31
0.0
  0
LINE
  5
1902
330
1E
100
AcDbEntity
  8
0
100
AcDbLine
 10
384.186362770654
 20
165.8849155
 30
0.0
 11
384.186362770654
 21
166.5019155
 31
0.0
  0
LINE
  5
1903
330
1E
100
AcDbEntity
  8
0
100
AcDbLine
 10
384.069362770654
 20
172.606854888907
 30
0.0
 11
384.069362770654
 21
172.4019155
 31
0.0
  0
LINE
  5
1904
330
1E
100
AcDbEntity
  8
0
100
AcDbLine
 10
384.349362770654
 20
159.385181677614
 30
0.0
 11
384.349362770654
 21
158.4659155
 31
0.0
  0
LINE
  5
1905
330
1E
100
AcDbEntity
  8
0
100
AcDbLine
 10
385.646362770654
 20
150.7209155
 30
0.0
 11
385.646362770654
 21
151.3379155
 31
0.0
  0
LINE
  5
1906
330
1E
100
AcDbEntity
  8
0
100
AcDbLine
 10
385.646362770654
 20
152.220673598224
 30
0.0
 11
385.646362770654
 21
151.3379155
 31
0.0
  0
LINE
  5
1907
330
1E
100
AcDbEntity
  8
0
100
AcDbLine
 10
385.646362770654
 20
151.3379155
 30
0.0
 11
385.646362770654
 21
150.7209155
 31
0.0
  0
LINE
  5
1908
330
1E
100
AcDbEntity
  8
0
100
AcDbLine
 10
385.646362770654
 20
151.3379155
 30
0.0
 11
385.646362770654
 21
152.220673598224
 31
0.0
  0
LINE
  5
1909
330
1E
100
AcDbEntity
  8
0
100
AcDbLine
 10
385.646362770654
 20
166.5019155
 30
0.0
 11
385.646362770654
 21
165.8849155
 31
0.0
  0
LINE
  5
190A
330
1E
100
AcDbEntity
  8
0
100
AcDbLine
 10
385.646362770654
 20
165.8849155
 30
0.0
 11
385.646362770654
 21
166.5019155
 31
0.0
  0
LINE
  5
190B
330
1E
100
AcDbEntity
  8
0
100
AcDbLine
 10
386.454362770654
 20
176.708017829916
 30
0.0
 11
386.454362770654
 21
175.8339155
 31
0.0
  0
LINE
  5
190C
330
1E
100
AcDbEntity
  8
0
100
AcDbLine
 10
386.454362770654
 20
175.8339155
 30
0.0
 11
387.718362770654
 21
175.5259155
 31
0.0
  0
LINE
  5
190D
330
1E
100
AcDbEntity
  8
0
100
AcDbLine
 10
386.454362770654
 20
175.8339155
 30
0.0
 11
387.184362770654
 21
176.3689155
 31
0.0
  0
LINE
  5
190E
330
1E
100
AcDbEntity
  8
0
100
AcDbLine
 10
386.454362770654
 20
175.8339155
 30
0.0
 11
386.454362770654
 21
176.708017829916
 31
0.0
  0
LINE
  5
190F
330
1E
100
AcDbEntity
  8
0
100
AcDbLine
 10
384.349362770654
 20
158.4659155
 30
0.0
 11
384.349362770654
 21
157.8499155
 31
0.0
  0
LINE
  5
1910
330
1E
100
AcDbEntity
  8
0
100
AcDbLine
 10
384.349362770654
 20
158.4659155
 30
0.0
 11
384.349362770654
 21
159.385181677614
 31
0.0
  0
LINE
  5
1911
330
1E
100
AcDbEntity
  8
0
100
AcDbLine
 10
384.069362770654
 20
146.803401385088
 30
0.0
 11
384.069362770654
 21
145.7279155
 31
0.0
  0
LINE
  5
1912
330
1E
100
AcDbEntity
  8
0
100
AcDbLine
 10
387.718362770654
 20
175.5259155
 30
0.0
 11
388.448362770654
 21
176.0599155
 31
0.0
  0
LINE
  5
1913
330
1E
100
AcDbEntity
  8
0
100
AcDbLine
 10
387.184362770654
 20
177.061384092731
 30
0.0
 11
387.184362770654
 21
176.3689155
 31
0.0
  0
LINE
  5
1914
330
1E
100
AcDbEntity
  8
0
100
AcDbLine
 10
387.184362770654
 20
176.3689155
 30
0.0
 11
388.448362770654
 21
176.0599155
 31
0.0
  0
LINE
  5
1915
330
1E
100
AcDbEntity
  8
0
100
AcDbLine
 10
387.184362770654
 20
176.3689155
 30
0.0
 11
387.184362770654
 21
177.061384092731
 31
0.0
  0
LINE
  5
1916
330
1E
100
AcDbEntity
  8
0
100
AcDbLine
 10
386.454362770654
 20
143.804754549394
 30
0.0
 11
386.454362770654
 21
143.2009155
 31
0.0
  0
LINE
  5
1917
330
1E
100
AcDbEntity
  8
0
100
AcDbLine
 10
387.718362770654
 20
143.618210020548
 30
0.0
 11
387.718362770654
 21
143.5089155
 31
0.0
  0
LINE
  5
1918
330
1E
100
AcDbEntity
  8
0
100
AcDbLine
 10
387.718362770654
 20
143.5089155
 30
0.0
 11
388.448362770654
 21
142.9749155
 31
0.0
  0
LINE
  5
1919
330
1E
100
AcDbEntity
  8
0
100
AcDbLine
 10
387.718362770654
 20
143.5089155
 30
0.0
 11
387.718362770654
 21
143.618210020548
 31
0.0
  0
LINE
  5
191A
330
1E
100
AcDbEntity
  8
0
100
AcDbLine
 10
387.184362770654
 20
142.6659155
 30
0.0
 11
388.448362770654
 21
142.9749155
 31
0.0
  0
LINE
  5
191B
330
1E
100
AcDbEntity
  8
0
100
AcDbLine
 10
388.448362770654
 20
176.0599155
 30
0.0
 11
388.448362770654
 21
177.664771733115
 31
0.0
  0
LINE
  5
191C
330
1E
100
AcDbEntity
  8
0
100
AcDbLine
 10
388.448362770654
 20
177.664771733115
 30
0.0
 11
388.448362770654
 21
176.0599155
 31
0.0
  0
LINE
  5
191D
330
1E
100
AcDbEntity
  8
0
100
AcDbLine
 10
388.448362770654
 20
142.9749155
 30
0.0
 11
388.448362770654
 21
143.183059266885
 31
0.0
  0
LINE
  5
191E
330
1E
100
AcDbEntity
  8
0
100
AcDbLine
 10
389.051362770654
 20
147.7769155
 30
0.0
 11
389.051362770654
 21
148.3939155
 31
0.0
  0
LINE
  5
191F
330
1E
100
AcDbEntity
  8
0
100
AcDbLine
 10
389.051362770654
 20
147.7769155
 30
0.0
 11
390.511362770654
 21
147.7769155
 31
0.0
  0
LINE
  5
1920
330
1E
100
AcDbEntity
  8
0
100
AcDbLine
 10
389.051362770654
 20
149.41234132558
 30
0.0
 11
389.051362770654
 21
148.3939155
 31
0.0
  0
LINE
  5
1921
330
1E
100
AcDbEntity
  8
0
100
AcDbLine
 10
389.458362770654
 20
154.93567429397
 30
0.0
 11
389.458362770654
 21
154.5289155
 31
0.0
  0
LINE
  5
1922
330
1E
100
AcDbEntity
  8
0
100
AcDbLine
 10
389.458362770654
 20
154.5289155
 30
0.0
 11
389.458362770654
 21
155.1449155
 31
0.0
  0
LINE
  5
1923
330
1E
100
AcDbEntity
  8
0
100
AcDbLine
 10
389.458362770654
 20
154.5289155
 30
0.0
 11
390.918362770654
 21
154.5289155
 31
0.0
  0
LINE
  5
1924
330
1E
100
AcDbEntity
  8
0
100
AcDbLine
 10
389.458362770654
 20
154.5289155
 30
0.0
 11
389.458362770654
 21
154.93567429397
 31
0.0
  0
LINE
  5
1925
330
1E
100
AcDbEntity
  8
0
100
AcDbLine
 10
389.458362770654
 20
156.146492870392
 30
0.0
 11
389.458362770654
 21
155.1449155
 31
0.0
  0
LINE
  5
1926
330
1E
100
AcDbEntity
  8
0
100
AcDbLine
 10
389.458362770654
 20
155.1449155
 30
0.0
 11
390.918362770654
 21
155.1449155
 31
0.0
  0
LINE
  5
1927
330
1E
100
AcDbEntity
  8
0
100
AcDbLine
 10
389.458362770654
 20
155.1449155
 30
0.0
 11
389.458362770654
 21
156.146492870392
 31
0.0
  0
LINE
  5
1928
330
1E
100
AcDbEntity
  8
0
100
AcDbLine
 10
389.458362770654
 20
155.1449155
 30
0.0
 11
389.458362770654
 21
154.5289155
 31
0.0
  0
LINE
  5
1929
330
1E
100
AcDbEntity
  8
0
100
AcDbLine
 10
389.051362770654
 20
148.3939155
 30
0.0
 11
390.511362770654
 21
148.3939155
 31
0.0
  0
LINE
  5
192A
330
1E
100
AcDbEntity
  8
0
100
AcDbLine
 10
389.051362770654
 20
148.3939155
 30
0.0
 11
389.051362770654
 21
149.41234132558
 31
0.0
  0
LINE
  5
192B
330
1E
100
AcDbEntity
  8
0
100
AcDbLine
 10
389.051362770654
 20
148.3939155
 30
0.0
 11
389.051362770654
 21
147.7769155
 31
0.0
  0
LINE
  5
192C
330
1E
100
AcDbEntity
  8
0
100
AcDbLine
 10
389.051362770654
 20
170.3519155
 30
0.0
 11
389.051362770654
 21
169.7349155
 31
0.0
  0
LINE
  5
192D
330
1E
100
AcDbEntity
  8
0
100
AcDbLine
 10
389.051362770654
 20
170.3519155
 30
0.0
 11
390.511362770654
 21
170.3519155
 31
0.0
  0
LINE
  5
192E
330
1E
100
AcDbEntity
  8
0
100
AcDbLine
 10
389.051362770654
 20
169.7349155
 30
0.0
 11
390.511362770654
 21
169.7349155
 31
0.0
  0
LINE
  5
192F
330
1E
100
AcDbEntity
  8
0
100
AcDbLine
 10
389.051362770654
 20
169.7349155
 30
0.0
 11
389.051362770654
 21
170.3519155
 31
0.0
  0
LINE
  5
1930
330
1E
100
AcDbEntity
  8
0
100
AcDbLine
 10
389.458362770654
 20
163.50409375972
 30
0.0
 11
389.458362770654
 21
162.6939155
 31
0.0
  0
LINE
  5
1931
330
1E
100
AcDbEntity
  8
0
100
AcDbLine
 10
389.458362770654
 20
162.6939155
 30
0.0
 11
389.458362770654
 21
162.0769155
 31
0.0
  0
LINE
  5
1932
330
1E
100
AcDbEntity
  8
0
100
AcDbLine
 10
389.458362770654
 20
162.6939155
 30
0.0
 11
390.918362770654
 21
162.6939155
 31
0.0
  0
LINE
  5
1933
330
1E
100
AcDbEntity
  8
0
100
AcDbLine
 10
389.458362770654
 20
162.6939155
 30
0.0
 11
389.458362770654
 21
163.50409375972
 31
0.0
  0
LINE
  5
1934
330
1E
100
AcDbEntity
  8
0
100
AcDbLine
 10
389.458362770654
 20
162.210652539227
 30
0.0
 11
389.458362770654
 21
162.0769155
 31
0.0
  0
LINE
  5
1935
330
1E
100
AcDbEntity
  8
0
100
AcDbLine
 10
389.458362770654
 20
162.0769155
 30
0.0
 11
390.918362770654
 21
162.0769155
 31
0.0
  0
LINE
  5
1936
330
1E
100
AcDbEntity
  8
0
100
AcDbLine
 10
389.458362770654
 20
162.0769155
 30
0.0
 11
389.458362770654
 21
162.210652539227
 31
0.0
  0
LINE
  5
1937
330
1E
100
AcDbEntity
  8
0
100
AcDbLine
 10
389.458362770654
 20
162.0769155
 30
0.0
 11
389.458362770654
 21
162.6939155
 31
0.0
  0
LINE
  5
1938
330
1E
100
AcDbEntity
  8
0
100
AcDbLine
 10
388.448362770654
 20
143.183059266885
 30
0.0
 11
393.619362770654
 21
144.6609155
 31
0.0
  0
LINE
  5
1939
330
1E
100
AcDbEntity
  8
0
100
AcDbLine
 10
388.448362770654
 20
143.183059266885
 30
0.0
 11
388.448362770654
 21
142.9749155
 31
0.0
  0
LINE
  5
193A
330
1E
100
AcDbEntity
  8
0
100
AcDbLine
 10
389.532362770654
 20
142.3779155
 30
0.0
 11
394.933362770654
 21
143.9199155
 31
0.0
  0
LINE
  5
193B
330
1E
100
AcDbEntity
  8
0
100
AcDbLine
 10
388.437362770654
 20
177.6679155
 30
0.0
 11
393.619362770654
 21
176.1869155
 31
0.0
  0
LINE
  5
193C
330
1E
100
AcDbEntity
  8
0
100
AcDbLine
 10
389.532362770654
 20
178.4699155
 30
0.0
 11
394.933362770654
 21
176.9279155
 31
0.0
  0
LINE
  5
193D
330
1E
100
AcDbEntity
  8
0
100
AcDbLine
 10
383.838362770654
 20
179.6109155
 30
0.0
 11
389.532362770654
 21
178.4699155
 31
0.0
  0
LINE
  5
193E
330
1E
100
AcDbEntity
  8
0
100
AcDbLine
 10
384.130362770654
 20
180.8259155
 30
0.0
 11
389.897362770654
 21
179.6229155
 31
0.0
  0
LINE
  5
193F
330
1E
100
AcDbEntity
  8
0
100
AcDbLine
 10
377.926362770654
 20
181.6899155
 30
0.0
 11
384.130362770654
 21
180.8259155
 31
0.0
  0
LINE
  5
1940
330
1E
100
AcDbEntity
  8
0
100
AcDbLine
 10
384.130362770654
 20
199.8589155
 30
0.0
 11
389.897362770654
 21
198.6559155
 31
0.0
  0
LINE
  5
1941
330
1E
100
AcDbEntity
  8
0
100
AcDbLine
 10
390.511362770654
 20
147.7769155
 30
0.0
 11
390.511362770654
 21
148.3939155
 31
0.0
  0
LINE
  5
1942
330
1E
100
AcDbEntity
  8
0
100
AcDbLine
 10
390.511362770654
 20
148.930650291944
 30
0.0
 11
390.511362770654
 21
148.3939155
 31
0.0
  0
LINE
  5
1943
330
1E
100
AcDbEntity
  8
0
100
AcDbLine
 10
390.918362770654
 20
154.5289155
 30
0.0
 11
390.918362770654
 21
155.1449155
 31
0.0
  0
LINE
  5
1944
330
1E
100
AcDbEntity
  8
0
100
AcDbLine
 10
390.918362770654
 20
156.100804914548
 30
0.0
 11
390.918362770654
 21
155.1449155
 31
0.0
  0
LINE
  5
1945
330
1E
100
AcDbEntity
  8
0
100
AcDbLine
 10
390.918362770654
 20
155.1449155
 30
0.0
 11
390.918362770654
 21
154.5289155
 31
0.0
  0
LINE
  5
1946
330
1E
100
AcDbEntity
  8
0
100
AcDbLine
 10
390.918362770654
 20
155.1449155
 30
0.0
 11
390.918362770654
 21
156.100804914548
 31
0.0
  0
LINE
  5
1947
330
1E
100
AcDbEntity
  8
0
100
AcDbLine
 10
390.511362770654
 20
148.3939155
 30
0.0
 11
390.511362770654
 21
147.7769155
 31
0.0
  0
LINE
  5
1948
330
1E
100
AcDbEntity
  8
0
100
AcDbLine
 10
390.511362770654
 20
148.3939155
 30
0.0
 11
390.511362770654
 21
148.930650291944
 31
0.0
  0
LINE
  5
1949
330
1E
100
AcDbEntity
  8
0
100
AcDbLine
 10
391.648362770654
 20
158.3029155
 30
0.0
 11
391.648362770654
 21
158.9199155
 31
0.0
  0
LINE
  5
194A
330
1E
100
AcDbEntity
  8
0
100
AcDbLine
 10
391.648362770654
 20
158.3029155
 30
0.0
 11
393.108362770654
 21
158.3029155
 31
0.0
  0
LINE
  5
194B
330
1E
100
AcDbEntity
  8
0
100
AcDbLine
 10
391.648362770654
 20
158.3029155
 30
0.0
 11
391.648362770654
 21
159.002120707928
 31
0.0
  0
LINE
  5
194C
330
1E
100
AcDbEntity
  8
0
100
AcDbLine
 10
393.268362770654
 20
144.817765750179
 30
0.0
 11
393.268362770654
 21
144.6959155
 31
0.0
  0
LINE
  5
194D
330
1E
100
AcDbEntity
  8
0
100
AcDbLine
 10
393.268362770654
 20
144.6959155
 30
0.0
 11
393.268362770654
 21
145.3129155
 31
0.0
  0
LINE
  5
194E
330
1E
100
AcDbEntity
  8
0
100
AcDbLine
 10
393.268362770654
 20
144.6959155
 30
0.0
 11
394.728362770654
 21
144.6959155
 31
0.0
  0
LINE
  5
194F
330
1E
100
AcDbEntity
  8
0
100
AcDbLine
 10
393.268362770654
 20
144.6959155
 30
0.0
 11
393.268362770654
 21
144.817765750179
 31
0.0
  0
LINE
  5
1950
330
1E
100
AcDbEntity
  8
0
100
AcDbLine
 10
393.268362770654
 20
145.3129155
 30
0.0
 11
394.728362770654
 21
145.3129155
 31
0.0
  0
LINE
  5
1951
330
1E
100
AcDbEntity
  8
0
100
AcDbLine
 10
393.268362770654
 20
145.3129155
 30
0.0
 11
393.268362770654
 21
144.6959155
 31
0.0
  0
LINE
  5
1952
330
1E
100
AcDbEntity
  8
0
100
AcDbLine
 10
393.108362770654
 20
158.3029155
 30
0.0
 11
393.108362770654
 21
158.9199155
 31
0.0
  0
LINE
  5
1953
330
1E
100
AcDbEntity
  8
0
100
AcDbLine
 10
391.648362770654
 20
158.9199155
 30
0.0
 11
393.108362770654
 21
158.9199155
 31
0.0
  0
LINE
  5
1954
330
1E
100
AcDbEntity
  8
0
100
AcDbLine
 10
391.648362770654
 20
158.9199155
 30
0.0
 11
391.648362770654
 21
159.455037050719
 31
0.0
  0
LINE
  5
1955
330
1E
100
AcDbEntity
  8
0
100
AcDbLine
 10
391.648362770654
 20
158.9199155
 30
0.0
 11
391.648362770654
 21
158.3029155
 31
0.0
  0
LINE
  5
1956
330
1E
100
AcDbEntity
  8
0
100
AcDbLine
 10
391.648362770654
 20
159.002120707928
 30
0.0
 11
391.648362770654
 21
158.3029155
 31
0.0
  0
LINE
  5
1957
330
1E
100
AcDbEntity
  8
0
100
AcDbLine
 10
390.918362770654
 20
162.0769155
 30
0.0
 11
390.918362770654
 21
162.6939155
 31
0.0
  0
LINE
  5
1958
330
1E
100
AcDbEntity
  8
0
100
AcDbLine
 10
391.648362770654
 20
159.455037050719
 30
0.0
 11
391.648362770654
 21
158.9199155
 31
0.0
  0
LINE
  5
1959
330
1E
100
AcDbEntity
  8
0
100
AcDbLine
 10
393.108362770654
 20
159.469010039448
 30
0.0
 11
393.108362770654
 21
158.9199155
 31
0.0
  0
LINE
  5
195A
330
1E
100
AcDbEntity
  8
0
100
AcDbLine
 10
393.108362770654
 20
158.9199155
 30
0.0
 11
393.108362770654
 21
158.3029155
 31
0.0
  0
LINE
  5
195B
330
1E
100
AcDbEntity
  8
0
100
AcDbLine
 10
393.108362770654
 20
158.9199155
 30
0.0
 11
393.108362770654
 21
159.469010039448
 31
0.0
  0
LINE
  5
195C
330
1E
100
AcDbEntity
  8
0
100
AcDbLine
 10
393.619362770654
 20
144.6609155
 30
0.0
 11
393.712567750388
 21
144.6959155
 31
0.0
  0
LINE
  5
195D
330
1E
100
AcDbEntity
  8
0
100
AcDbLine
 10
390.511362770654
 20
170.488403998109
 30
0.0
 11
390.511362770654
 21
170.3519155
 31
0.0
  0
LINE
  5
195E
330
1E
100
AcDbEntity
  8
0
100
AcDbLine
 10
390.511362770654
 20
170.3519155
 30
0.0
 11
390.511362770654
 21
170.488403998109
 31
0.0
  0
LINE
  5
195F
330
1E
100
AcDbEntity
  8
0
100
AcDbLine
 10
390.511362770654
 20
170.3519155
 30
0.0
 11
390.511362770654
 21
169.7349155
 31
0.0
  0
LINE
  5
1960
330
1E
100
AcDbEntity
  8
0
100
AcDbLine
 10
390.511362770654
 20
169.7349155
 30
0.0
 11
390.511362770654
 21
170.3519155
 31
0.0
  0
LINE
  5
1961
330
1E
100
AcDbEntity
  8
0
100
AcDbLine
 10
390.918362770654
 20
163.828992992727
 30
0.0
 11
390.918362770654
 21
162.6939155
 31
0.0
  0
LINE
  5
1962
330
1E
100
AcDbEntity
  8
0
100
AcDbLine
 10
393.268362770654
 20
174.3389155
 30
0.0
 11
393.268362770654
 21
173.7219155
 31
0.0
  0
LINE
  5
1963
330
1E
100
AcDbEntity
  8
0
100
AcDbLine
 10
393.268362770654
 20
174.3389155
 30
0.0
 11
394.728362770654
 21
174.3389155
 31
0.0
  0
LINE
  5
1964
330
1E
100
AcDbEntity
  8
0
100
AcDbLine
 10
393.268362770654
 20
173.7219155
 30
0.0
 11
394.728362770654
 21
173.7219155
 31
0.0
  0
LINE
  5
1965
330
1E
100
AcDbEntity
  8
0
100
AcDbLine
 10
393.268362770654
 20
173.7219155
 30
0.0
 11
393.268362770654
 21
174.3389155
 31
0.0
  0
LINE
  5
1966
330
1E
100
AcDbEntity
  8
0
100
AcDbLine
 10
390.918362770654
 20
162.6939155
 30
0.0
 11
390.918362770654
 21
163.828992992727
 31
0.0
  0
LINE
  5
1967
330
1E
100
AcDbEntity
  8
0
100
AcDbLine
 10
390.918362770654
 20
162.6939155
 30
0.0
 11
390.918362770654
 21
162.0769155
 31
0.0
  0
LINE
  5
1968
330
1E
100
AcDbEntity
  8
0
100
AcDbLine
 10
394.405362770654
 20
150.875769417114
 30
0.0
 11
394.405362770654
 21
150.5909155
 31
0.0
  0
LINE
  5
1969
330
1E
100
AcDbEntity
  8
0
100
AcDbLine
 10
394.405362770654
 20
150.5909155
 30
0.0
 11
394.405362770654
 21
151.2079155
 31
0.0
  0
LINE
  5
196A
330
1E
100
AcDbEntity
  8
0
100
AcDbLine
 10
394.405362770654
 20
150.5909155
 30
0.0
 11
395.865362770654
 21
150.5909155
 31
0.0
  0
LINE
  5
196B
330
1E
100
AcDbEntity
  8
0
100
AcDbLine
 10
394.405362770654
 20
150.5909155
 30
0.0
 11
394.405362770654
 21
150.875769417114
 31
0.0
  0
LINE
  5
196C
330
1E
100
AcDbEntity
  8
0
100
AcDbLine
 10
394.405362770654
 20
151.2079155
 30
0.0
 11
395.865362770654
 21
151.2079155
 31
0.0
  0
LINE
  5
196D
330
1E
100
AcDbEntity
  8
0
100
AcDbLine
 10
394.405362770654
 20
151.2079155
 30
0.0
 11
394.405362770654
 21
150.5909155
 31
0.0
  0
LINE
  5
196E
330
1E
100
AcDbEntity
  8
0
100
AcDbLine
 10
394.728362770654
 20
144.6959155
 30
0.0
 11
394.728362770654
 21
145.3129155
 31
0.0
  0
LINE
  5
196F
330
1E
100
AcDbEntity
  8
0
100
AcDbLine
 10
394.728362770654
 20
145.3129155
 30
0.0
 11
394.728362770654
 21
144.6959155
 31
0.0
  0
LINE
  5
1970
330
1E
100
AcDbEntity
  8
0
100
AcDbLine
 10
394.405362770654
 20
168.549290689316
 30
0.0
 11
394.405362770654
 21
167.5379155
 31
0.0
  0
LINE
  5
1971
330
1E
100
AcDbEntity
  8
0
100
AcDbLine
 10
394.728362770654
 20
175.770226654599
 30
0.0
 11
394.728362770654
 21
174.3389155
 31
0.0
  0
LINE
  5
1972
330
1E
100
AcDbEntity
  8
0
100
AcDbLine
 10
394.728362770654
 20
174.3389155
 30
0.0
 11
394.728362770654
 21
175.770226654599
 31
0.0
  0
LINE
  5
1973
330
1E
100
AcDbEntity
  8
0
100
AcDbLine
 10
394.728362770654
 20
174.3389155
 30
0.0
 11
394.728362770654
 21
173.7219155
 31
0.0
  0
LINE
  5
1974
330
1E
100
AcDbEntity
  8
0
100
AcDbLine
 10
394.728362770654
 20
173.7219155
 30
0.0
 11
394.728362770654
 21
174.3389155
 31
0.0
  0
LINE
  5
1975
330
1E
100
AcDbEntity
  8
0
100
AcDbLine
 10
394.405362770654
 20
167.5379155
 30
0.0
 11
394.405362770654
 21
166.9209155
 31
0.0
  0
LINE
  5
1976
330
1E
100
AcDbEntity
  8
0
100
AcDbLine
 10
394.405362770654
 20
167.5379155
 30
0.0
 11
395.865362770654
 21
167.5379155
 31
0.0
  0
LINE
  5
1977
330
1E
100
AcDbEntity
  8
0
100
AcDbLine
 10
394.405362770654
 20
167.5379155
 30
0.0
 11
394.405362770654
 21
168.549290689316
 31
0.0
  0
LINE
  5
1978
330
1E
100
AcDbEntity
  8
0
100
AcDbLine
 10
394.405362770654
 20
166.9209155
 30
0.0
 11
395.865362770654
 21
166.9209155
 31
0.0
  0
LINE
  5
1979
330
1E
100
AcDbEntity
  8
0
100
AcDbLine
 10
394.405362770654
 20
166.9209155
 30
0.0
 11
394.405362770654
 21
167.5379155
 31
0.0
  0
LINE
  5
197A
330
1E
100
AcDbEntity
  8
0
100
AcDbLine
 10
394.728362770654
 20
145.077363206023
 30
0.0
 11
398.218362770654
 21
146.3879155
 31
0.0
  0
LINE
  5
197B
330
1E
100
AcDbEntity
  8
0
100
AcDbLine
 10
394.933362770654
 20
143.9199155
 30
0.0
 11
399.824362770654
 21
145.7089155
 31
0.0
  0
LINE
  5
197C
330
1E
100
AcDbEntity
  8
0
100
AcDbLine
 10
393.619362770654
 20
176.1869155
 30
0.0
 11
398.218362770654
 21
174.4589155
 31
0.0
  0
LINE
  5
197D
330
1E
100
AcDbEntity
  8
0
100
AcDbLine
 10
394.933362770654
 20
176.9279155
 30
0.0
 11
399.824362770654
 21
175.1379155
 31
0.0
  0
LINE
  5
197E
330
1E
100
AcDbEntity
  8
0
100
AcDbLine
 10
395.371362770654
 20
178.0809155
 30
0.0
 11
400.334362770654
 21
176.2609155
 31
0.0
  0
LINE
  5
197F
330
1E
100
AcDbEntity
  8
0
100
AcDbLine
 10
389.897362770654
 20
179.6229155
 30
0.0
 11
395.371362770654
 21
178.0809155
 31
0.0
  0
LINE
  5
1980
330
1E
100
AcDbEntity
  8
0
100
AcDbLine
 10
399.676362770654
 20
147.5429155
 30
0.0
 11
399.676362770654
 21
148.1599155
 31
0.0
  0
LINE
  5
1981
330
1E
100
AcDbEntity
  8
0
100
AcDbLine
 10
399.676362770654
 20
147.5429155
 30
0.0
 11
401.136362770654
 21
147.5429155
 31
0.0
  0
LINE
  5
1982
330
1E
100
AcDbEntity
  8
0
100
AcDbLine
 10
399.676362770654
 20
147.5429155
 30
0.0
 11
399.676362770654
 21
148.574327383473
 31
0.0
  0
LINE
  5
1983
330
1E
100
AcDbEntity
  8
0
100
AcDbLine
 10
398.218362770654
 20
146.3879155
 30
0.0
 11
400.647845529275
 21
147.5429155
 31
0.0
  0
LINE
  5
1984
330
1E
100
AcDbEntity
  8
0
100
AcDbLine
 10
401.136362770654
 20
147.5429155
 30
0.0
 11
401.136362770654
 21
148.1599155
 31
0.0
  0
LINE
  5
1985
330
1E
100
AcDbEntity
  8
0
100
AcDbLine
 10
401.136362770654
 20
147.775161401639
 30
0.0
 11
402.305362770654
 21
148.3309155
 31
0.0
  0
LINE
  5
1986
330
1E
100
AcDbEntity
  8
0
100
AcDbLine
 10
399.824362770654
 20
145.7089155
 30
0.0
 11
404.057362770654
 21
147.7759155
 31
0.0
  0
LINE
  5
1987
330
1E
100
AcDbEntity
  8
0
100
AcDbLine
 10
399.676362770654
 20
148.1599155
 30
0.0
 11
401.136362770654
 21
148.1599155
 31
0.0
  0
LINE
  5
1988
330
1E
100
AcDbEntity
  8
0
100
AcDbLine
 10
399.676362770654
 20
148.1599155
 30
0.0
 11
399.676362770654
 21
148.961093144711
 31
0.0
  0
LINE
  5
1989
330
1E
100
AcDbEntity
  8
0
100
AcDbLine
 10
399.676362770654
 20
148.1599155
 30
0.0
 11
399.676362770654
 21
147.5429155
 31
0.0
  0
LINE
  5
198A
330
1E
100
AcDbEntity
  8
0
100
AcDbLine
 10
401.136362770654
 20
148.1599155
 30
0.0
 11
401.136362770654
 21
147.5429155
 31
0.0
  0
LINE
  5
198B
330
1E
100
AcDbEntity
  8
0
100
AcDbLine
 10
401.136362770654
 20
148.1599155
 30
0.0
 11
401.136362770654
 21
148.611127621212
 31
0.0
  0
LINE
  5
198C
330
1E
100
AcDbEntity
  8
0
100
AcDbLine
 10
399.676362770654
 20
148.574327383473
 30
0.0
 11
399.676362770654
 21
147.5429155
 31
0.0
  0
LINE
  5
198D
330
1E
100
AcDbEntity
  8
0
100
AcDbLine
 10
395.865362770654
 20
150.5909155
 30
0.0
 11
395.865362770654
 21
151.2079155
 31
0.0
  0
LINE
  5
198E
330
1E
100
AcDbEntity
  8
0
100
AcDbLine
 10
395.865362770654
 20
152.167240309034
 30
0.0
 11
395.865362770654
 21
151.2079155
 31
0.0
  0
LINE
  5
198F
330
1E
100
AcDbEntity
  8
0
100
AcDbLine
 10
395.865362770654
 20
151.2079155
 30
0.0
 11
395.865362770654
 21
150.5909155
 31
0.0
  0
LINE
  5
1990
330
1E
100
AcDbEntity
  8
0
100
AcDbLine
 10
395.865362770654
 20
151.2079155
 30
0.0
 11
395.865362770654
 21
152.167240309034
 31
0.0
  0
LINE
  5
1991
330
1E
100
AcDbEntity
  8
0
100
AcDbLine
 10
399.676362770654
 20
148.961093144711
 30
0.0
 11
399.676362770654
 21
148.1599155
 31
0.0
  0
LINE
  5
1992
330
1E
100
AcDbEntity
  8
0
100
AcDbLine
 10
404.462362770654
 20
150.9749155
 30
0.0
 11
404.462362770654
 21
151.5919155
 31
0.0
  0
LINE
  5
1993
330
1E
100
AcDbEntity
  8
0
100
AcDbLine
 10
404.462362770654
 20
150.9749155
 30
0.0
 11
405.922362770654
 21
150.9749155
 31
0.0
  0
LINE
  5
1994
330
1E
100
AcDbEntity
  8
0
100
AcDbLine
 10
404.462362770654
 20
151.5919155
 30
0.0
 11
405.922362770654
 21
151.5919155
 31
0.0
  0
LINE
  5
1995
330
1E
100
AcDbEntity
  8
0
100
AcDbLine
 10
404.462362770654
 20
151.5919155
 30
0.0
 11
404.462362770654
 21
152.74894882879
 31
0.0
  0
LINE
  5
1996
330
1E
100
AcDbEntity
  8
0
100
AcDbLine
 10
404.462362770654
 20
151.5919155
 30
0.0
 11
404.462362770654
 21
150.9749155
 31
0.0
  0
LINE
  5
1997
330
1E
100
AcDbEntity
  8
0
100
AcDbLine
 10
401.136362770654
 20
148.611127621212
 30
0.0
 11
401.136362770654
 21
148.1599155
 31
0.0
  0
LINE
  5
1998
330
1E
100
AcDbEntity
  8
0
100
AcDbLine
 10
402.305362770654
 20
148.3309155
 30
0.0
 11
405.809362770654
 21
150.5209155
 31
0.0
  0
LINE
  5
1999
330
1E
100
AcDbEntity
  8
0
100
AcDbLine
 10
405.922362770654
 20
150.9749155
 30
0.0
 11
405.922362770654
 21
151.5919155
 31
0.0
  0
LINE
  5
199A
330
1E
100
AcDbEntity
  8
0
100
AcDbLine
 10
405.922362770654
 20
151.5919155
 30
0.0
 11
405.922362770654
 21
150.9749155
 31
0.0
  0
LINE
  5
199B
330
1E
100
AcDbEntity
  8
0
100
AcDbLine
 10
405.922362770654
 20
151.5919155
 30
0.0
 11
405.922362770654
 21
152.780891304253
 31
0.0
  0
LINE
  5
199C
330
1E
100
AcDbEntity
  8
0
100
AcDbLine
 10
405.809362770654
 20
150.5209155
 30
0.0
 11
408.437362770654
 21
152.8359155
 31
0.0
  0
LINE
  5
199D
330
1E
100
AcDbEntity
  8
0
100
AcDbLine
 10
404.057362770654
 20
147.7759155
 30
0.0
 11
407.707362770654
 21
150.0589155
 31
0.0
  0
LINE
  5
199E
330
1E
100
AcDbEntity
  8
0
100
AcDbLine
 10
407.707362770654
 20
150.0589155
 30
0.0
 11
410.407362770654
 21
152.4659155
 31
0.0
  0
LINE
  5
199F
330
1E
100
AcDbEntity
  8
0
100
AcDbLine
 10
404.462362770654
 20
152.74894882879
 30
0.0
 11
404.462362770654
 21
151.5919155
 31
0.0
  0
LINE
  5
19A0
330
1E
100
AcDbEntity
  8
0
100
AcDbLine
 10
405.922362770654
 20
152.780891304253
 30
0.0
 11
405.922362770654
 21
151.5919155
 31
0.0
  0
LINE
  5
19A1
330
1E
100
AcDbEntity
  8
0
100
AcDbLine
 10
398.866362770654
 20
154.6729155
 30
0.0
 11
398.866362770654
 21
155.2899155
 31
0.0
  0
LINE
  5
19A2
330
1E
100
AcDbEntity
  8
0
100
AcDbLine
 10
398.866362770654
 20
154.6729155
 30
0.0
 11
400.326362770654
 21
154.6729155
 31
0.0
  0
LINE
  5
19A3
330
1E
100
AcDbEntity
  8
0
100
AcDbLine
 10
398.866362770654
 20
154.6729155
 30
0.0
 11
398.866362770654
 21
155.86839981534
 31
0.0
  0
LINE
  5
19A4
330
1E
100
AcDbEntity
  8
0
100
AcDbLine
 10
400.326362770654
 20
154.6729155
 30
0.0
 11
400.326362770654
 21
155.2899155
 31
0.0
  0
LINE
  5
19A5
330
1E
100
AcDbEntity
  8
0
100
AcDbLine
 10
398.866362770654
 20
155.2899155
 30
0.0
 11
400.326362770654
 21
155.2899155
 31
0.0
  0
LINE
  5
19A6
330
1E
100
AcDbEntity
  8
0
100
AcDbLine
 10
398.866362770654
 20
155.2899155
 30
0.0
 11
398.866362770654
 21
155.86839981534
 31
0.0
  0
LINE
  5
19A7
330
1E
100
AcDbEntity
  8
0
100
AcDbLine
 10
398.866362770654
 20
155.2899155
 30
0.0
 11
398.866362770654
 21
154.6729155
 31
0.0
  0
LINE
  5
19A8
330
1E
100
AcDbEntity
  8
0
100
AcDbLine
 10
398.866362770654
 20
155.86839981534
 30
0.0
 11
398.866362770654
 21
155.2899155
 31
0.0
  0
LINE
  5
19A9
330
1E
100
AcDbEntity
  8
0
100
AcDbLine
 10
398.866362770654
 20
155.86839981534
 30
0.0
 11
398.866362770654
 21
154.6729155
 31
0.0
  0
LINE
  5
19AA
330
1E
100
AcDbEntity
  8
0
100
AcDbLine
 10
400.326362770654
 20
155.835826632739
 30
0.0
 11
400.326362770654
 21
155.2899155
 31
0.0
  0
LINE
  5
19AB
330
1E
100
AcDbEntity
  8
0
100
AcDbLine
 10
400.326362770654
 20
155.2899155
 30
0.0
 11
400.326362770654
 21
154.6729155
 31
0.0
  0
LINE
  5
19AC
330
1E
100
AcDbEntity
  8
0
100
AcDbLine
 10
400.326362770654
 20
155.2899155
 30
0.0
 11
400.326362770654
 21
155.835826632739
 31
0.0
  0
LINE
  5
19AD
330
1E
100
AcDbEntity
  8
0
100
AcDbLine
 10
400.407362770654
 20
158.7559155
 30
0.0
 11
400.407362770654
 21
159.3729155
 31
0.0
  0
LINE
  5
19AE
330
1E
100
AcDbEntity
  8
0
100
AcDbLine
 10
400.407362770654
 20
158.7559155
 30
0.0
 11
401.867362770654
 21
158.7559155
 31
0.0
  0
LINE
  5
19AF
330
1E
100
AcDbEntity
  8
0
100
AcDbLine
 10
400.407362770654
 20
158.7559155
 30
0.0
 11
400.407362770654
 21
159.66092343193
 31
0.0
  0
LINE
  5
19B0
330
1E
100
AcDbEntity
  8
0
100
AcDbLine
 10
400.407362770654
 20
159.66092343193
 30
0.0
 11
400.407362770654
 21
159.3729155
 31
0.0
  0
LINE
  5
19B1
330
1E
100
AcDbEntity
  8
0
100
AcDbLine
 10
400.407362770654
 20
159.66092343193
 30
0.0
 11
400.407362770654
 21
158.7559155
 31
0.0
  0
LINE
  5
19B2
330
1E
100
AcDbEntity
  8
0
100
AcDbLine
 10
401.867362770654
 20
158.7559155
 30
0.0
 11
401.867362770654
 21
159.3729155
 31
0.0
  0
LINE
  5
19B3
330
1E
100
AcDbEntity
  8
0
100
AcDbLine
 10
400.407362770654
 20
159.3729155
 30
0.0
 11
401.867362770654
 21
159.3729155
 31
0.0
  0
LINE
  5
19B4
330
1E
100
AcDbEntity
  8
0
100
AcDbLine
 10
400.407362770654
 20
159.3729155
 30
0.0
 11
400.407362770654
 21
159.66092343193
 31
0.0
  0
LINE
  5
19B5
330
1E
100
AcDbEntity
  8
0
100
AcDbLine
 10
400.407362770654
 20
159.3729155
 30
0.0
 11
400.407362770654
 21
158.7559155
 31
0.0
  0
LINE
  5
19B6
330
1E
100
AcDbEntity
  8
0
100
AcDbLine
 10
401.867362770654
 20
159.756305606721
 30
0.0
 11
401.867362770654
 21
159.3729155
 31
0.0
  0
LINE
  5
19B7
330
1E
100
AcDbEntity
  8
0
100
AcDbLine
 10
407.788362770654
 20
155.66934643509
 30
0.0
 11
407.788362770654
 21
155.0579155
 31
0.0
  0
LINE
  5
19B8
330
1E
100
AcDbEntity
  8
0
100
AcDbLine
 10
407.788362770654
 20
155.0579155
 30
0.0
 11
407.788362770654
 21
155.6749155
 31
0.0
  0
LINE
  5
19B9
330
1E
100
AcDbEntity
  8
0
100
AcDbLine
 10
407.788362770654
 20
155.0579155
 30
0.0
 11
409.247362770654
 21
155.0579155
 31
0.0
  0
LINE
  5
19BA
330
1E
100
AcDbEntity
  8
0
100
AcDbLine
 10
407.788362770654
 20
155.0579155
 30
0.0
 11
407.788362770654
 21
155.66934643509
 31
0.0
  0
LINE
  5
19BB
330
1E
100
AcDbEntity
  8
0
100
AcDbLine
 10
407.788362770654
 20
155.6749155
 30
0.0
 11
409.247362770654
 21
155.6749155
 31
0.0
  0
LINE
  5
19BC
330
1E
100
AcDbEntity
  8
0
100
AcDbLine
 10
407.788362770654
 20
155.6749155
 30
0.0
 11
407.788362770654
 21
155.0579155
 31
0.0
  0
LINE
  5
19BD
330
1E
100
AcDbEntity
  8
0
100
AcDbLine
 10
401.867362770654
 20
159.3729155
 30
0.0
 11
401.867362770654
 21
158.7559155
 31
0.0
  0
LINE
  5
19BE
330
1E
100
AcDbEntity
  8
0
100
AcDbLine
 10
401.867362770654
 20
159.3729155
 30
0.0
 11
401.867362770654
 21
159.756305606721
 31
0.0
  0
LINE
  5
19BF
330
1E
100
AcDbEntity
  8
0
100
AcDbLine
 10
409.167362770654
 20
159.864643877714
 30
0.0
 11
409.167362770654
 21
159.2099155
 31
0.0
  0
LINE
  5
19C0
330
1E
100
AcDbEntity
  8
0
100
AcDbLine
 10
409.167362770654
 20
159.2099155
 30
0.0
 11
409.167362770654
 21
159.8269155
 31
0.0
  0
LINE
  5
19C1
330
1E
100
AcDbEntity
  8
0
100
AcDbLine
 10
409.167362770654
 20
159.2099155
 30
0.0
 11
410.626362770654
 21
159.2099155
 31
0.0
  0
LINE
  5
19C2
330
1E
100
AcDbEntity
  8
0
100
AcDbLine
 10
409.167362770654
 20
159.2099155
 30
0.0
 11
409.167362770654
 21
159.864643877714
 31
0.0
  0
LINE
  5
19C3
330
1E
100
AcDbEntity
  8
0
100
AcDbLine
 10
398.866362770654
 20
163.4559155
 30
0.0
 11
398.866362770654
 21
162.8389155
 31
0.0
  0
LINE
  5
19C4
330
1E
100
AcDbEntity
  8
0
100
AcDbLine
 10
398.866362770654
 20
163.4559155
 30
0.0
 11
400.326362770654
 21
163.4559155
 31
0.0
  0
LINE
  5
19C5
330
1E
100
AcDbEntity
  8
0
100
AcDbLine
 10
398.866362770654
 20
163.413652342105
 30
0.0
 11
398.866362770654
 21
162.8389155
 31
0.0
  0
LINE
  5
19C6
330
1E
100
AcDbEntity
  8
0
100
AcDbLine
 10
398.866362770654
 20
162.8389155
 30
0.0
 11
400.326362770654
 21
162.8389155
 31
0.0
  0
LINE
  5
19C7
330
1E
100
AcDbEntity
  8
0
100
AcDbLine
 10
398.866362770654
 20
162.8389155
 30
0.0
 11
398.866362770654
 21
163.413652342105
 31
0.0
  0
LINE
  5
19C8
330
1E
100
AcDbEntity
  8
0
100
AcDbLine
 10
398.866362770654
 20
162.8389155
 30
0.0
 11
398.866362770654
 21
163.4559155
 31
0.0
  0
LINE
  5
19C9
330
1E
100
AcDbEntity
  8
0
100
AcDbLine
 10
400.326362770654
 20
163.644178657895
 30
0.0
 11
400.326362770654
 21
163.4559155
 31
0.0
  0
LINE
  5
19CA
330
1E
100
AcDbEntity
  8
0
100
AcDbLine
 10
400.326362770654
 20
163.4559155
 30
0.0
 11
400.326362770654
 21
163.644178657895
 31
0.0
  0
LINE
  5
19CB
330
1E
100
AcDbEntity
  8
0
100
AcDbLine
 10
400.326362770654
 20
163.4559155
 30
0.0
 11
400.326362770654
 21
162.8389155
 31
0.0
  0
LINE
  5
19CC
330
1E
100
AcDbEntity
  8
0
100
AcDbLine
 10
400.326362770654
 20
162.8389155
 30
0.0
 11
400.326362770654
 21
163.4559155
 31
0.0
  0
LINE
  5
19CD
330
1E
100
AcDbEntity
  8
0
100
AcDbLine
 10
407.788362770654
 20
164.822389184211
 30
0.0
 11
407.788362770654
 21
163.9769155
 31
0.0
  0
LINE
  5
19CE
330
1E
100
AcDbEntity
  8
0
100
AcDbLine
 10
407.788362770654
 20
163.9769155
 30
0.0
 11
407.788362770654
 21
163.3599155
 31
0.0
  0
LINE
  5
19CF
330
1E
100
AcDbEntity
  8
0
100
AcDbLine
 10
407.788362770654
 20
163.9769155
 30
0.0
 11
409.247362770654
 21
163.9769155
 31
0.0
  0
LINE
  5
19D0
330
1E
100
AcDbEntity
  8
0
100
AcDbLine
 10
407.788362770654
 20
163.9769155
 30
0.0
 11
407.788362770654
 21
164.822389184211
 31
0.0
  0
LINE
  5
19D1
330
1E
100
AcDbEntity
  8
0
100
AcDbLine
 10
407.788362770654
 20
163.3599155
 30
0.0
 11
409.247362770654
 21
163.3599155
 31
0.0
  0
LINE
  5
19D2
330
1E
100
AcDbEntity
  8
0
100
AcDbLine
 10
407.788362770654
 20
163.3599155
 30
0.0
 11
407.788362770654
 21
163.9769155
 31
0.0
  0
LINE
  5
19D3
330
1E
100
AcDbEntity
  8
0
100
AcDbLine
 10
409.167362770654
 20
160.611364807946
 30
0.0
 11
409.167362770654
 21
159.8269155
 31
0.0
  0
LINE
  5
19D4
330
1E
100
AcDbEntity
  8
0
100
AcDbLine
 10
409.247362770654
 20
155.0579155
 30
0.0
 11
409.247362770654
 21
155.6749155
 31
0.0
  0
LINE
  5
19D5
330
1E
100
AcDbEntity
  8
0
100
AcDbLine
 10
409.247362770654
 20
155.6749155
 30
0.0
 11
409.247362770654
 21
155.0579155
 31
0.0
  0
LINE
  5
19D6
330
1E
100
AcDbEntity
  8
0
100
AcDbLine
 10
409.247362770654
 20
165.052757605263
 30
0.0
 11
409.247362770654
 21
163.9769155
 31
0.0
  0
LINE
  5
19D7
330
1E
100
AcDbEntity
  8
0
100
AcDbLine
 10
409.247362770654
 20
163.9769155
 30
0.0
 11
409.247362770654
 21
165.052757605263
 31
0.0
  0
LINE
  5
19D8
330
1E
100
AcDbEntity
  8
0
100
AcDbLine
 10
409.247362770654
 20
163.9769155
 30
0.0
 11
409.247362770654
 21
163.3599155
 31
0.0
  0
LINE
  5
19D9
330
1E
100
AcDbEntity
  8
0
100
AcDbLine
 10
409.247362770654
 20
163.3599155
 30
0.0
 11
409.247362770654
 21
163.9769155
 31
0.0
  0
LINE
  5
19DA
330
1E
100
AcDbEntity
  8
0
100
AcDbLine
 10
409.167362770654
 20
159.8269155
 30
0.0
 11
410.626362770654
 21
159.8269155
 31
0.0
  0
LINE
  5
19DB
330
1E
100
AcDbEntity
  8
0
100
AcDbLine
 10
409.167362770654
 20
159.8269155
 30
0.0
 11
409.167362770654
 21
160.611364807946
 31
0.0
  0
LINE
  5
19DC
330
1E
100
AcDbEntity
  8
0
100
AcDbLine
 10
409.167362770654
 20
159.8269155
 30
0.0
 11
409.167362770654
 21
159.2099155
 31
0.0
  0
LINE
  5
19DD
330
1E
100
AcDbEntity
  8
0
100
AcDbLine
 10
408.437362770654
 20
152.8359155
 30
0.0
 11
410.407362770654
 21
155.6109155
 31
0.0
  0
LINE
  5
19DE
330
1E
100
AcDbEntity
  8
0
100
AcDbLine
 10
410.626362770654
 20
159.2099155
 30
0.0
 11
410.626362770654
 21
159.8269155
 31
0.0
  0
LINE
  5
19DF
330
1E
100
AcDbEntity
  8
0
100
AcDbLine
 10
410.626362770654
 20
160.517672262453
 30
0.0
 11
410.626362770654
 21
159.8269155
 31
0.0
  0
LINE
  5
19E0
330
1E
100
AcDbEntity
  8
0
100
AcDbLine
 10
410.626362770654
 20
159.8269155
 30
0.0
 11
410.626362770654
 21
159.2099155
 31
0.0
  0
LINE
  5
19E1
330
1E
100
AcDbEntity
  8
0
100
AcDbLine
 10
410.626362770654
 20
159.8269155
 30
0.0
 11
410.626362770654
 21
160.517672262453
 31
0.0
  0
LINE
  5
19E2
330
1E
100
AcDbEntity
  8
0
100
AcDbLine
 10
410.407362770654
 20
155.6109155
 30
0.0
 11
411.648362770654
 21
157.8009155
 31
0.0
  0
LINE
  5
19E3
330
1E
100
AcDbEntity
  8
0
100
AcDbLine
 10
410.407362770654
 20
152.4659155
 30
0.0
 11
411.137362770654
 21
153.2479155
 31
0.0
  0
LINE
  5
19E4
330
1E
100
AcDbEntity
  8
0
100
AcDbLine
 10
410.407362770654
 20
152.4659155
 30
0.0
 11
412.524362770654
 21
155.1799155
 31
0.0
  0
LINE
  5
19E5
330
1E
100
AcDbEntity
  8
0
100
AcDbLine
 10
411.648362770654
 20
157.8009155
 30
0.0
 11
412.086362770654
 21
160.4239155
 31
0.0
  0
LINE
  5
19E6
330
1E
100
AcDbEntity
  8
0
100
AcDbLine
 10
411.137362770654
 20
153.2479155
 30
0.0
 11
413.181362770654
 21
155.8699155
 31
0.0
  0
LINE
  5
19E7
330
1E
100
AcDbEntity
  8
0
100
AcDbLine
 10
410.407362770654
 20
165.2359155
 30
0.0
 11
411.648362770654
 21
163.0459155
 31
0.0
  0
LINE
  5
19E8
330
1E
100
AcDbEntity
  8
0
100
AcDbLine
 10
412.524362770654
 20
155.1799155
 30
0.0
 11
413.765362770654
 21
157.7399155
 31
0.0
  0
LINE
  5
19E9
330
1E
100
AcDbEntity
  8
0
100
AcDbLine
 10
413.765362770654
 20
157.7399155
 30
0.0
 11
414.276362770654
 21
160.4239155
 31
0.0
  0
LINE
  5
19EA
330
1E
100
AcDbEntity
  8
0
100
AcDbLine
 10
413.181362770654
 20
155.8699155
 30
0.0
 11
414.495362770654
 21
158.6159155
 31
0.0
  0
LINE
  5
19EB
330
1E
100
AcDbEntity
  8
0
100
AcDbLine
 10
411.648362770654
 20
163.0459155
 30
0.0
 11
412.086362770654
 21
160.4239155
 31
0.0
  0
LINE
  5
19EC
330
1E
100
AcDbEntity
  8
0
100
AcDbLine
 10
412.524362770654
 20
165.6679155
 30
0.0
 11
413.765362770654
 21
163.1079155
 31
0.0
  0
LINE
  5
19ED
330
1E
100
AcDbEntity
  8
0
100
AcDbLine
 10
414.495362770654
 20
158.6159155
 30
0.0
 11
415.006362770654
 21
161.3309155
 31
0.0
  0
LINE
  5
19EE
330
1E
100
AcDbEntity
  8
0
100
AcDbLine
 10
413.765362770654
 20
163.1079155
 30
0.0
 11
414.276362770654
 21
160.4239155
 31
0.0
  0
LINE
  5
19EF
330
1E
100
AcDbEntity
  8
0
100
AcDbLine
 10
395.865362770654
 20
166.9209155
 30
0.0
 11
395.865362770654
 21
167.5379155
 31
0.0
  0
LINE
  5
19F0
330
1E
100
AcDbEntity
  8
0
100
AcDbLine
 10
395.865362770654
 20
167.5379155
 30
0.0
 11
395.865362770654
 21
168.776743532493
 31
0.0
  0
LINE
  5
19F1
330
1E
100
AcDbEntity
  8
0
100
AcDbLine
 10
395.865362770654
 20
167.5379155
 30
0.0
 11
395.865362770654
 21
166.9209155
 31
0.0
  0
LINE
  5
19F2
330
1E
100
AcDbEntity
  8
0
100
AcDbLine
 10
395.865362770654
 20
168.776743532493
 30
0.0
 11
395.865362770654
 21
167.5379155
 31
0.0
  0
LINE
  5
19F3
330
1E
100
AcDbEntity
  8
0
100
AcDbLine
 10
404.462362770654
 20
168.0609155
 30
0.0
 11
404.462362770654
 21
167.4439155
 31
0.0
  0
LINE
  5
19F4
330
1E
100
AcDbEntity
  8
0
100
AcDbLine
 10
404.462362770654
 20
168.0609155
 30
0.0
 11
405.922362770654
 21
168.0609155
 31
0.0
  0
LINE
  5
19F5
330
1E
100
AcDbEntity
  8
0
100
AcDbLine
 10
405.922362770654
 20
168.0609155
 30
0.0
 11
405.922362770654
 21
167.4439155
 31
0.0
  0
LINE
  5
19F6
330
1E
100
AcDbEntity
  8
0
100
AcDbLine
 10
404.462362770654
 20
167.608425655398
 30
0.0
 11
404.462362770654
 21
167.4439155
 31
0.0
  0
LINE
  5
19F7
330
1E
100
AcDbEntity
  8
0
100
AcDbLine
 10
404.462362770654
 20
167.4439155
 30
0.0
 11
405.922362770654
 21
167.4439155
 31
0.0
  0
LINE
  5
19F8
330
1E
100
AcDbEntity
  8
0
100
AcDbLine
 10
404.462362770654
 20
167.4439155
 30
0.0
 11
404.462362770654
 21
167.608425655398
 31
0.0
  0
LINE
  5
19F9
330
1E
100
AcDbEntity
  8
0
100
AcDbLine
 10
404.462362770654
 20
167.4439155
 30
0.0
 11
404.462362770654
 21
168.0609155
 31
0.0
  0
LINE
  5
19FA
330
1E
100
AcDbEntity
  8
0
100
AcDbLine
 10
405.922362770654
 20
167.4439155
 30
0.0
 11
405.922362770654
 21
168.0609155
 31
0.0
  0
LINE
  5
19FB
330
1E
100
AcDbEntity
  8
0
100
AcDbLine
 10
405.809362770654
 20
170.3259155
 30
0.0
 11
408.437362770654
 21
168.0129155
 31
0.0
  0
LINE
  5
19FC
330
1E
100
AcDbEntity
  8
0
100
AcDbLine
 10
408.437362770654
 20
168.0129155
 30
0.0
 11
410.407362770654
 21
165.2359155
 31
0.0
  0
LINE
  5
19FD
330
1E
100
AcDbEntity
  8
0
100
AcDbLine
 10
399.676362770654
 20
171.4919155
 30
0.0
 11
399.676362770654
 21
170.8749155
 31
0.0
  0
LINE
  5
19FE
330
1E
100
AcDbEntity
  8
0
100
AcDbLine
 10
399.676362770654
 20
171.4919155
 30
0.0
 11
401.136362770654
 21
171.4919155
 31
0.0
  0
LINE
  5
19FF
330
1E
100
AcDbEntity
  8
0
100
AcDbLine
 10
399.676362770654
 20
171.4919155
 30
0.0
 11
399.676362770654
 21
171.928997126767
 31
0.0
  0
LINE
  5
1A00
330
1E
100
AcDbEntity
  8
0
100
AcDbLine
 10
399.676362770654
 20
171.453772785429
 30
0.0
 11
399.676362770654
 21
170.8749155
 31
0.0
  0
LINE
  5
1A01
330
1E
100
AcDbEntity
  8
0
100
AcDbLine
 10
399.676362770654
 20
170.8749155
 30
0.0
 11
401.136362770654
 21
170.8749155
 31
0.0
  0
LINE
  5
1A02
330
1E
100
AcDbEntity
  8
0
100
AcDbLine
 10
399.676362770654
 20
170.8749155
 30
0.0
 11
399.676362770654
 21
171.453772785429
 31
0.0
  0
LINE
  5
1A03
330
1E
100
AcDbEntity
  8
0
100
AcDbLine
 10
399.676362770654
 20
170.8749155
 30
0.0
 11
399.676362770654
 21
171.4919155
 31
0.0
  0
LINE
  5
1A04
330
1E
100
AcDbEntity
  8
0
100
AcDbLine
 10
401.136362770654
 20
171.4919155
 30
0.0
 11
401.136362770654
 21
172.254938863138
 31
0.0
  0
LINE
  5
1A05
330
1E
100
AcDbEntity
  8
0
100
AcDbLine
 10
401.136362770654
 20
171.4919155
 30
0.0
 11
401.136362770654
 21
170.8749155
 31
0.0
  0
LINE
  5
1A06
330
1E
100
AcDbEntity
  8
0
100
AcDbLine
 10
401.136362770654
 20
170.8749155
 30
0.0
 11
401.136362770654
 21
171.4919155
 31
0.0
  0
LINE
  5
1A07
330
1E
100
AcDbEntity
  8
0
100
AcDbLine
 10
407.707362770654
 20
170.7889155
 30
0.0
 11
410.407362770654
 21
168.3829155
 31
0.0
  0
LINE
  5
1A08
330
1E
100
AcDbEntity
  8
0
100
AcDbLine
 10
410.407362770654
 20
168.3829155
 30
0.0
 11
412.524362770654
 21
165.6679155
 31
0.0
  0
LINE
  5
1A09
330
1E
100
AcDbEntity
  8
0
100
AcDbLine
 10
401.136362770654
 20
172.254938863138
 30
0.0
 11
401.136362770654
 21
171.4919155
 31
0.0
  0
LINE
  5
1A0A
330
1E
100
AcDbEntity
  8
0
100
AcDbLine
 10
399.676362770654
 20
171.928997126767
 30
0.0
 11
399.676362770654
 21
171.4919155
 31
0.0
  0
LINE
  5
1A0B
330
1E
100
AcDbEntity
  8
0
100
AcDbLine
 10
398.218362770654
 20
174.4589155
 30
0.0
 11
402.305362770654
 21
172.5159155
 31
0.0
  0
LINE
  5
1A0C
330
1E
100
AcDbEntity
  8
0
100
AcDbLine
 10
402.305362770654
 20
172.5159155
 30
0.0
 11
405.809362770654
 21
170.3259155
 31
0.0
  0
LINE
  5
1A0D
330
1E
100
AcDbEntity
  8
0
100
AcDbLine
 10
399.824362770654
 20
175.1379155
 30
0.0
 11
404.057362770654
 21
173.0719155
 31
0.0
  0
LINE
  5
1A0E
330
1E
100
AcDbEntity
  8
0
100
AcDbLine
 10
404.057362770654
 20
173.0719155
 30
0.0
 11
407.707362770654
 21
170.7889155
 31
0.0
  0
LINE
  5
1A0F
330
1E
100
AcDbEntity
  8
0
100
AcDbLine
 10
400.334362770654
 20
176.2609155
 30
0.0
 11
404.641362770654
 21
174.1629155
 31
0.0
  0
LINE
  5
1A10
330
1E
100
AcDbEntity
  8
0
100
AcDbLine
 10
404.641362770654
 20
174.1629155
 30
0.0
 11
408.291362770654
 21
171.8499155
 31
0.0
  0
LINE
  5
1A11
330
1E
100
AcDbEntity
  8
0
100
AcDbLine
 10
408.291362770654
 20
171.8499155
 30
0.0
 11
411.137362770654
 21
169.4129155
 31
0.0
  0
LINE
  5
1A12
330
1E
100
AcDbEntity
  8
0
100
AcDbLine
 10
411.137362770654
 20
169.4129155
 30
0.0
 11
413.181362770654
 21
166.7899155
 31
0.0
  0
LINE
  5
1A13
330
1E
100
AcDbEntity
  8
0
100
AcDbLine
 10
413.181362770654
 20
166.7899155
 30
0.0
 11
414.495362770654
 21
164.0449155
 31
0.0
  0
LINE
  5
1A14
330
1E
100
AcDbEntity
  8
0
100
AcDbLine
 10
414.495362770654
 20
164.0449155
 30
0.0
 11
415.006362770654
 21
161.3309155
 31
0.0
  0
LINE
  5
1A15
330
1E
100
AcDbEntity
  8
0
100
AcDbLine
 10
408.291362770654
 20
190.8809155
 30
0.0
 11
411.137362770654
 21
188.4449155
 31
0.0
  0
LINE
  5
1A16
330
1E
100
AcDbEntity
  8
0
100
AcDbLine
 10
410.407362770654
 20
189.2279155
 30
0.0
 11
411.137362770654
 21
188.4449155
 31
0.0
  0
LINE
  5
1A17
330
1E
100
AcDbEntity
  8
0
100
AcDbLine
 10
411.137362770654
 20
188.4449155
 30
0.0
 11
413.181362770654
 21
185.8229155
 31
0.0
  0
LINE
  5
1A18
330
1E
100
AcDbEntity
  8
0
100
AcDbLine
 10
413.181362770654
 20
185.8229155
 30
0.0
 11
414.495362770654
 21
183.0779155
 31
0.0
  0
LINE
  5
1A19
330
1E
100
AcDbEntity
  8
0
100
AcDbLine
 10
415.006362770654
 20
180.3629155
 30
0.0
 11
415.006362770654
 21
161.3309155
 31
0.0
  0
LINE
  5
1A1A
330
1E
100
AcDbEntity
  8
0
100
AcDbLine
 10
415.006362770654
 20
161.3309155
 30
0.0
 11
415.006362770654
 21
180.3629155
 31
0.0
  0
LINE
  5
1A1B
330
1E
100
AcDbEntity
  8
0
100
AcDbLine
 10
414.495362770654
 20
183.0779155
 30
0.0
 11
415.006362770654
 21
180.3629155
 31
0.0
  0
LINE
  5
1A1C
330
1E
100
AcDbEntity
  8
0
100
AcDbLine
 10
400.334362770654
 20
195.2929155
 30
0.0
 11
404.641362770654
 21
193.1959155
 31
0.0
  0
LINE
  5
1A1D
330
1E
100
AcDbEntity
  8
0
100
AcDbLine
 10
399.824362770654
 20
195.9839155
 30
0.0
 11
404.057362770654
 21
193.9169155
 31
0.0
  0
LINE
  5
1A1E
330
1E
100
AcDbEntity
  8
0
100
AcDbLine
 10
404.641362770654
 20
193.1959155
 30
0.0
 11
408.291362770654
 21
190.8809155
 31
0.0
  0
LINE
  5
1A1F
330
1E
100
AcDbEntity
  8
0
100
AcDbLine
 10
404.057362770654
 20
193.9169155
 30
0.0
 11
407.707362770654
 21
191.6339155
 31
0.0
  0
LINE
  5
1A20
330
1E
100
AcDbEntity
  8
0
100
AcDbLine
 10
407.707362770654
 20
191.6339155
 30
0.0
 11
410.407362770654
 21
189.2279155
 31
0.0
  0
LINE
  5
1A21
330
1E
100
AcDbEntity
  8
0
100
AcDbLine
 10
395.371362770654
 20
197.1139155
 30
0.0
 11
400.334362770654
 21
195.2929155
 31
0.0
  0
LINE
  5
1A22
330
1E
100
AcDbEntity
  8
0
100
AcDbLine
 10
389.897362770654
 20
198.6559155
 30
0.0
 11
395.371362770654
 21
197.1139155
 31
0.0
  0
LINE
  5
1A23
330
1E
100
AcDbEntity
  8
0
100
AcDbLine
 10
394.933362770654
 20
197.7729155
 30
0.0
 11
399.824362770654
 21
195.9839155
 31
0.0
  0
LINE
  5
1A24
330
1E
100
AcDbEntity
  8
0
100
AcDbLine
 10
389.532362770654
 20
199.3159155
 30
0.0
 11
394.933362770654
 21
197.7729155
 31
0.0
  0
LINE
  5
1A25
330
1E
100
AcDbEntity
  8
0
100
AcDbLine
 10
377.926362770654
 20
200.7229155
 30
0.0
 11
384.130362770654
 21
199.8589155
 31
0.0
  0
LINE
  5
1A26
330
1E
100
AcDbEntity
  8
0
100
AcDbLine
 10
383.838362770654
 20
200.4569155
 30
0.0
 11
389.532362770654
 21
199.3159155
 31
0.0
  0
LINE
  5
1A27
330
1E
100
AcDbEntity
  8
0
100
AcDbLine
 10
377.415362770654
 20
201.3509155
 30
0.0
 11
383.838362770654
 21
200.4569155
 31
0.0
  0
LINE
  5
1A28
330
1E
100
AcDbEntity
  8
0
100
AcDbLine
 10
371.356362770654
 20
201.8759155
 30
0.0
 11
377.415362770654
 21
201.3509155
 31
0.0
  0
LINE
  5
1A29
330
1E
100
AcDbEntity
  8
0
100
AcDbLine
 10
365.006362770654
 20
202.0909155
 30
0.0
 11
371.356362770654
 21
201.8759155
 31
0.0
  0
LINE
  5
1A2A
330
1E
100
AcDbEntity
  8
0
100
AcDbLine
 10
381.359548907792
 20
12.481567434747
 30
0.0
 11
380.997714625137
 21
13.933646738196
 31
0.0
  0
LINE
  5
1A2B
330
1E
100
AcDbEntity
  8
0
100
AcDbLine
 10
348.989706769165
 20
45.568894294785
 30
0.0
 11
348.973362770654
 21
60.3424155
 31
0.0
  0
LINE
  5
1A2C
330
1E
100
AcDbEntity
  8
0
100
AcDbLine
 10
353.733362770654
 20
38.2445155
 30
0.0
 11
355.131362770654
 21
37.5169155
 31
0.0
  0
LINE
  5
1A2D
330
1E
100
AcDbEntity
  8
0
100
AcDbLine
 10
380.980362770654
 20
14.2229155
 30
0.0
 11
380.967362770654
 21
44.6898155
 31
0.0
  0
ENDSEC
  0
SECTION
  2
OBJECTS
  0
DICTIONARY
  5
C
330
0
100
AcDbDictionary
281
     1
  3
ACAD_GROUP
350
D
  3
ACAD_LAYOUT
350
19
  3
ACAD_MLEADERSTYLE
350
1A30
  3
ACAD_MLINESTYLE
350
16
  3
ACAD_PLOTSETTINGS
350
18
  3
ACAD_PLOTSTYLENAME
350
E
  3
ACAD_SCALELIST
350
727
  3
AcDbVariableDictionary
350
724
  3
DWGPROPS
350
1A36
  0
DICTIONARY
  5
D
102
{ACAD_REACTORS
330
C
102
}
330
C
100
AcDbDictionary
281
     1
  0
DICTIONARY
  5
19
102
{ACAD_REACTORS
330
C
102
}
330
C
100
AcDbDictionary
281
     1
  3
Layout1
350
1D
  3
Model
350
21
  0
DICTIONARY
  5
1A30
102
{ACAD_REACTORS
330
C
102
}
330
C
100
AcDbDictionary
281
     1
  0
DICTIONARY
  5
16
102
{ACAD_REACTORS
330
C
102
}
330
C
100
AcDbDictionary
281
     1
  3
Standard
350
17
  0
DICTIONARY
  5
18
102
{ACAD_REACTORS
330
C
102
}
330
C
100
AcDbDictionary
281
     1
  0
ACDBDICTIONARYWDFLT
  5
E
102
{ACAD_REACTORS
330
C
102
}
330
C
100
AcDbDictionary
281
     1
  3
Normal
350
F
100
AcDbDictionaryWithDefault
340
F
  0
DICTIONARY
  5
727
102
{ACAD_REACTORS
330
C
102
}
330
C
100
AcDbDictionary
281
     1
  3
A0
350
728
  3
A1
350
729
  3
A2
350
72A
  3
A3
350
72B
  3
A4
350
72C
  3
A5
350
72D
  3
A6
350
72E
  3
A7
350
72F
  3
A8
350
730
  3
A9
350
731
  3
B0
350
732
  3
B1
350
733
  3
B2
350
734
  3
B3
350
735
  3
B4
350
736
  3
B5
350
737
  3
B6
350
738
  3
B7
350
739
  3
B8
350
73A
  3
B9
350
73B
  3
C0
350
73C
  3
C1
350
73D
  3
C2
350
73E
  3
C3
350
73F
  3
C4
350
740
  3
C5
350
741
  3
C6
350
742
  3
C7
350
743
  3
C8
350
744
  3
C9
350
745
  3
D0
350
746
  3
D1
350
747
  3
D2
350
748
  0
DICTIONARY
  5
724
102
{ACAD_REACTORS
330
C
102
}
330
C
100
AcDbDictionary
281
     1
  3
CANNOSCALE
350
1A31
  3
DIMASSOC
350
725
  0
XRECORD
  5
1A36
102
{ACAD_REACTORS
330
C
102
}
330
C
100
AcDbXrecord
280
     1
  1
DWGPROPS COOKIE
  2

  3

  4

  6

  7

  8
MARTIN
  9

300
=
301
=
302
=
303
=
304
=
305
=
306
=
307
=
308
=
309
=
 40
0.0
 41
2454635.740849248
 42
2456210.339523287
  1

 90
        0
  0
LAYOUT
  5
1D
102
{ACAD_REACTORS
330
19
102
}
330
19
100
AcDbPlotSettings
  1

  2
hp deskjet 980c series
  4

  6

 40
0.0
 41
0.0
 42
0.0
 43
0.0
 44
0.0
 45
0.0
 46
0.0
 47
0.0
 48
0.0
 49
0.0
140
0.0
141
0.0
142
1.0
143
1.0
 70
   688
 72
     0
 73
     0
 74
     5
  7

 75
    16
147
1.0
148
0.0
149
0.0
100
AcDbLayout
  1
Layout1
 70
     1
 71
     1
 10
0.0
 20
0.0
 11
12.0
 21
9.0
 12
0.0
 22
0.0
 32
0.0
 14
1.000000000000E+20
 24
1.000000000000E+20
 34
1.000000000000E+20
 15
-1.000000000000E+20
 25
-1.000000000000E+20
 35
-1.000000000000E+20
146
0.0
 13
0.0
 23
0.0
 33
0.0
 16
1.0
 26
0.0
 36
0.0
 17
0.0
 27
1.0
 37
0.0
 76
     0
330
1A
  0
LAYOUT
  5
21
102
{ACAD_REACTORS
330
19
102
}
330
19
100
AcDbPlotSettings
  1

  2
hp deskjet 980c series
  4

  6

 40
0.0
 41
0.0
 42
0.0
 43
0.0
 44
0.0
 45
0.0
 46
0.0
 47
0.0
 48
0.0
 49
0.0
140
0.0
141
0.0
142
1.0
143
1.0
 70
  1712
 72
     0
 73
     0
 74
     0
  7

 75
     0
147
1.0
148
0.0
149
0.0
100
AcDbLayout
  1
Model
 70
     1
 71
     0
 10
0.0
 20
0.0
 11
12.0
 21
9.0
 12
0.0
 22
0.0
 32
0.0
 14
0.0
 24
0.0
 34
0.0
 15
415.006362770654
 25
202.0909155
 35
0.0
146
0.0
 13
0.0
 23
0.0
 33
0.0
 16
1.0
 26
0.0
 36
0.0
 17
0.0
 27
1.0
 37
0.0
 76
     0
330
1E
331
726
  0
MLINESTYLE
  5
17
102
{ACAD_REACTORS
330
16
102
}
330
16
100
AcDbMlineStyle
  2
STANDARD
 70
     0
  3

 62
   256
 51
90.0
 52
90.0
 71
     2
 49
0.5
 62
   256
  6
BYLAYER
 49
-0.5
 62
   256
  6
BYLAYER
  0
ACDBPLACEHOLDER
  5
F
102
{ACAD_REACTORS
330
E
102
}
330
E
  0
SCALE
  5
728
102
{ACAD_REACTORS
330
727
102
}
330
727
100
AcDbScale
 70
     0
300
1:1
140
1.0
141
1.0
290
     1
  0
SCALE
  5
729
102
{ACAD_REACTORS
330
727
102
}
330
727
100
AcDbScale
 70
     0
300
1:2
140
1.0
141
2.0
290
     0
  0
SCALE
  5
72A
102
{ACAD_REACTORS
330
727
102
}
330
727
100
AcDbScale
 70
     0
300
1:4
140
1.0
141
4.0
290
     0
  0
SCALE
  5
72B
102
{ACAD_REACTORS
330
727
102
}
330
727
100
AcDbScale
 70
     0
300
1:5
140
1.0
141
5.0
290
     0
  0
SCALE
  5
72C
102
{ACAD_REACTORS
330
727
102
}
330
727
100
AcDbScale
 70
     0
300
1:8
140
1.0
141
8.0
290
     0
  0
SCALE
  5
72D
102
{ACAD_REACTORS
330
727
102
}
330
727
100
AcDbScale
 70
     0
300
1:10
140
1.0
141
10.0
290
     0
  0
SCALE
  5
72E
102
{ACAD_REACTORS
330
727
102
}
330
727
100
AcDbScale
 70
     0
300
1:16
140
1.0
141
16.0
290
     0
  0
SCALE
  5
72F
102
{ACAD_REACTORS
330
727
102
}
330
727
100
AcDbScale
 70
     0
300
1:20
140
1.0
141
20.0
290
     0
  0
SCALE
  5
730
102
{ACAD_REACTORS
330
727
102
}
330
727
100
AcDbScale
 70
     0
300
1:30
140
1.0
141
30.0
290
     0
  0
SCALE
  5
731
102
{ACAD_REACTORS
330
727
102
}
330
727
100
AcDbScale
 70
     0
300
1:40
140
1.0
141
40.0
290
     0
  0
SCALE
  5
732
102
{ACAD_REACTORS
330
727
102
}
330
727
100
AcDbScale
 70
     0
300
1:50
140
1.0
141
50.0
290
     0
  0
SCALE
  5
733
102
{ACAD_REACTORS
330
727
102
}
330
727
100
AcDbScale
 70
     0
300
1:100
140
1.0
141
100.0
290
     0
  0
SCALE
  5
734
102
{ACAD_REACTORS
330
727
102
}
330
727
100
AcDbScale
 70
     0
300
2:1
140
2.0
141
1.0
290
     0
  0
SCALE
  5
735
102
{ACAD_REACTORS
330
727
102
}
330
727
100
AcDbScale
 70
     0
300
4:1
140
4.0
141
1.0
290
     0
  0
SCALE
  5
736
102
{ACAD_REACTORS
330
727
102
}
330
727
100
AcDbScale
 70
     0
300
8:1
140
8.0
141
1.0
290
     0
  0
SCALE
  5
737
102
{ACAD_REACTORS
330
727
102
}
330
727
100
AcDbScale
 70
     0
300
10:1
140
10.0
141
1.0
290
     0
  0
SCALE
  5
738
102
{ACAD_REACTORS
330
727
102
}
330
727
100
AcDbScale
 70
     0
300
100:1
140
100.0
141
1.0
290
     0
  0
SCALE
  5
739
102
{ACAD_REACTORS
330
727
102
}
330
727
100
AcDbScale
 70
     0
300
1/128" = 1'-0"
140
0.0078125
141
12.0
290
     0
  0
SCALE
  5
73A
102
{ACAD_REACTORS
330
727
102
}
330
727
100
AcDbScale
 70
     0
300
1/64" = 1'-0"
140
0.015625
141
12.0
290
     0
  0
SCALE
  5
73B
102
{ACAD_REACTORS
330
727
102
}
330
727
100
AcDbScale
 70
     0
300
1/32" = 1'-0"
140
0.03125
141
12.0
290
     0
  0
SCALE
  5
73C
102
{ACAD_REACTORS
330
727
102
}
330
727
100
AcDbScale
 70
     0
300
1/16" = 1'-0"
140
0.0625
141
12.0
290
     0
  0
SCALE
  5
73D
102
{ACAD_REACTORS
330
727
102
}
330
727
100
AcDbScale
 70
     0
300
3/32" = 1'-0"
140
0.09375
141
12.0
290
     0
  0
SCALE
  5
73E
102
{ACAD_REACTORS
330
727
102
}
330
727
100
AcDbScale
 70
     0
300
1/8" = 1'-0"
140
0.125
141
12.0
290
     0
  0
SCALE
  5
73F
102
{ACAD_REACTORS
330
727
102
}
330
727
100
AcDbScale
 70
     0
300
3/16" = 1'-0"
140
0.1875
141
12.0
290
     0
  0
SCALE
  5
740
102
{ACAD_REACTORS
330
727
102
}
330
727
100
AcDbScale
 70
     0
300
1/4" = 1'-0"
140
0.25
141
12.0
290
     0
  0
SCALE
  5
741
102
{ACAD_REACTORS
330
727
102
}
330
727
100
AcDbScale
 70
     0
300
3/8" = 1'-0"
140
0.375
141
12.0
290
     0
  0
SCALE
  5
742
102
{ACAD_REACTORS
330
727
102
}
330
727
100
AcDbScale
 70
     0
300
1/2" = 1'-0"
140
0.5
141
12.0
290
     0
  0
SCALE
  5
743
102
{ACAD_REACTORS
330
727
102
}
330
727
100
AcDbScale
 70
     0
300
3/4" = 1'-0"
140
0.75
141
12.0
290
     0
  0
SCALE
  5
744
102
{ACAD_REACTORS
330
727
102
}
330
727
100
AcDbScale
 70
     0
300
1" = 1'-0"
140
1.0
141
12.0
290
     0
  0
SCALE
  5
745
102
{ACAD_REACTORS
330
727
102
}
330
727
100
AcDbScale
 70
     0
300
1-1/2" = 1'-0"
140
1.5
141
12.0
290
     0
  0
SCALE
  5
746
102
{ACAD_REACTORS
330
727
102
}
330
727
100
AcDbScale
 70
     0
300
3" = 1'-0"
140
3.0
141
12.0
290
     0
  0
SCALE
  5
747
102
{ACAD_REACTORS
330
727
102
}
330
727
100
AcDbScale
 70
     0
300
6" = 1'-0"
140
6.0
141
12.0
290
     0
  0
SCALE
  5
748
102
{ACAD_REACTORS
330
727
102
}
330
727
100
AcDbScale
 70
     0
300
1'-0" = 1'-0"
140
12.0
141
12.0
290
     0
  0
DICTIONARYVAR
  5
1A31
102
{ACAD_REACTORS
330
724
102
}
330
724
100
DictionaryVariables
280
     0
  1
1:1
  0
DICTIONARYVAR
  5
725
102
{ACAD_REACTORS
330
724
102
}
330
724
100
DictionaryVariables
280
     0
  1
1
  0
ENDSEC
  0
SECTION
  2
THUMBNAILIMAGE
 90
    16364
310
28000000B40000005500000001000800000000000000000000000000000000000000000000000000FFFFFF000000FF0000FFFF0000FF0000FFFF0000FF000000FF00FF000000000080808000C0C0C0000000FF007F7FFF000000A5005252A50000007F003F3F7F0000004C0026264C000000260013132600003FFF007F9FFF
310
000029A5005267A500001F7F003F4F7F0000134C00262F4C000009260013172600007FFF007FBFFF000052A500527CA500003F7F003F5F7F0000264C0026394C0000132600131C260000BFFF007FDFFF00007CA5005291A500005F7F003F6F7F0000394C0026424C00001C26001321260000FFFF007FFFFF0000A5A50052A5
310
A500007F7F003F7F7F00004C4C00264C4C00002626001326260000FFBF007FFFDF0000A57C0052A59100007F5F003F7F6F00004C3900264C420000261C001326210000FF7F007FFFBF0000A5520052A57C00007F3F003F7F5F00004C2600264C39000026130013261C0000FF3F007FFF9F0000A5290052A56700007F1F003F
310
7F4F00004C1300264C2F00002609001326170000FF00007FFF7F0000A5000052A55200007F00003F7F3F00004C0000264C260000260000132613003FFF00009FFF7F0029A5000067A552001F7F00004F7F3F00134C00002F4C260009260000172613007FFF0000BFFF7F0052A500007CA552003F7F00005F7F3F00264C0000
310
394C2600132600001C261300BFFF0000DFFF7F007CA5000091A552005F7F00006F7F3F00394C0000424C26001C26000021261300FFFF0000FFFF7F00A5A50000A5A552007F7F00007F7F3F004C4C00004C4C26002626000026261300FFBF0000FFDF7F00A57C0000A59152007F5F00007F6F3F004C3900004C422600261C00
310
0026211300FF7F0000FFBF7F00A5520000A57C52007F3F00007F5F3F004C2600004C39260026130000261C1300FF3F0000FF9F7F00A5290000A56752007F1F00007F4F3F004C1300004C2F26002609000026171300FF000000FF7F7F00A5000000A55252007F0000007F3F3F004C0000004C2626002600000026131300FF00
310
3F00FF7F9F00A5002900A55267007F001F007F3F4F004C0013004C262F002600090026131700FF007F00FF7FBF00A5005200A5527C007F003F007F3F5F004C0026004C2639002600130026131C00FF00BF00FF7FDF00A5007C00A55291007F005F007F3F6F004C0039004C26420026001C0026132100FF00FF00FF7FFF00A5
310
00A500A552A5007F007F007F3F7F004C004C004C264C002600260026132600BF00FF00DF7FFF007C00A5009152A5005F007F006F3F7F0039004C0042264C001C002600211326007F00FF00BF7FFF005200A5007C52A5003F007F005F3F7F0026004C0039264C00130026001C1326003F00FF009F7FFF002900A5006752A500
310
1F007F004F3F7F0013004C002F264C000900260017132600000000002D2D2D005B5B5B0089898900B7B7B700B3B3B30000000000000000000000000000000000000000000000000000000000000000000000000000000000000000000000000000000000000000000000000000000000000000000000000000000000000000
310
00000000000000000000000000000000000000000000000000000000000000000000000000000000000000000000000000000000000000000000000000000000000000000000000000000000000000000000000000000000000000000000000000000000000000000000000000000000000000000000000000000000000000
310
00000000000000000000000000000000000000000000000000000000000000000000000000000000000000000000000000000000000000000000000000000000000000000000000000000000000000000000000000000000000000000000000000000000000000000000000000000000000000000000000000000000000000
310
00000000000000000000000000000000000000000000000000000000000000000000000000000000000000000000000000000000000000000000000000000000000000000000000000000000000000000000000000000000000000000000000000000000000000000000000000000000000000000000000000000000000000
310
00000000000000000000000000000000000000000000000000000000000000000000000000000000000000000000000000000000000000000000000000000000000000000000000000000000000000000000000000000000000007070707070707070707070707070707070707070707070707070707000000000000000000
310
00000000000007070707070707070707070707070707070707070707070707070700000000000000000000000000000007070707070707070707070707070707070707070707070707070707000000000000000000000000000007070707070707070707070707070707070707070707070707070700000000000000000000
310
00000000000000000000000000000000070000000000000000000000000000000000000000000000000000070000000000000000000000000000000700000000000000000000000000000000000000000000000000070000000000000000000000000000000700000000000000000000000000000000000000000000000000
310
00070000000000000000000000000000070000000000000000000000000000000000000000000000000000070000000000000000000000000000000000000000000000000007000000000000000000000000000000000000000000000000000007000000000000000000000000000000070000000000000000000000000000
310
00000000000000000000000700000000000000000000000000000007000000000000000000000000000000000000000000000000000007000000000000000000000000000007000000000000000000000000000000000000000000000000000007000000000000000000000000000000000000000000000000000707070707
310
07070707070707070707070707070707070707070707070000000000000000000000000000000707070707070707070707070707070707070707070707070707070000000000000000000000000000000707070707070707070707070707070707070707070707070707070700000000000000000000000000000707070707
310
07070707070707070707070707070707070707070707070000000000000000000000000000000000000000000000000007070707070707070707070707070707070707070707070707070707000000000000000000000000000000070707070707070707070707070707070707070707070707070707000000000000000000
310
00000000000007070707070707070707070707070707070707070707070707070707000000000000000000000000000000000000000000070000000000000000000000000700000000000000000000000000000000000000000000000000000000000000000000000000000007000000000000000000000000000700000000
310
00000000000000000000000000000000000000000700000000000000000000000000000000000000070000000000000000000000000000000000000000000000000700000000000000000000000000070000000000000000000000000000000000000000000000000000000007000000000000000000000000070000000000
310
00000000000000000000000000000000000000000000000000000000000000000000070000000000000000000000000007000000000000000000000000000000000000000000000000070000000000000000000000000000000000000007000000000000000000000000000000000000000000000000070000000000000000
310
00000000000700000000000000000000000000000000000000000000000000000000070000000000000000000000000700000000000000000000000000000000000000000000000000000000000000000000000000000007000000000000000000000000000700000000000000000000000000000000000000000000000007
310
00000000000000000000000000000000000000070000000000000000000000000000000000000000000000000700000000000000000000000000070000000000000000000000000000000000000000000000000000000007000000000000000000000000070000000000000000000000000000000000000000000000000000
310
00000000000000000000000000070000000000000000000000000007000000000000000000000000000000000000000000000000070000000000000000000000000000000000000007000000000000000000000000000000000000000000000000070000000000000000000000000007000000000000000000000000000000
310
00000000000000000000000000070000000000000000000000000700000000000000000000000000000000000000000000000000000000000000000000000000000007000000000000000000000000000700000000000000000000000000000000000000000000000007000000000000000000000000000000000000000700
310
00000000000000000000000000000000000000000000000700000000000000000000000000070000000000000000000000000000000000000000000000000000000007000000000000000000000000070000000000000000000000000000000000000000000000000000000000000000000000000000000700000000000000
310
00000000000007000000000000000000000000000000000000000000000000070000000000000000000000000000000000000007000000000000000000000000000000000000000000000000070000000000000000000000000007000000000000000000000000000000000000000000000000000000000700000000000000
310
00000000000700000000000000000000000000000000000000000000000000000000000000000000000000000007000000000000000000000000000700000000000000000000000000000000000000000000000007000000000000000000000000000000000000000700000000000000000000000000000000000000000000
310
00000700000000000000000000000000070000000000000000000000000000000000000000000000000000000007000000000000000000000000070000000000000000000000000000000000000000000000000000000000000000000000000000000700000000000000000000000000070000000000000000000000000000
310
00000000000000000000070000000000000000000000000000000000000007000000000000000000000000000000000000000000000000070000000000000000000000000007000000000000000000000000000000000000000000000000000000000700000000000000000000000007000000000000000000000000000000
310
00000000000000000000000000000000000000000000000007000000000000000000000000000700000000000000000000000000000000000000000000000007000000000000000000000000000000000000000700000000000000000000000000000000000000000000000007000000000000000000000000000700000000
310
00000000000000000000000000000000000000000000000007000000070707070707000000070000000000000000000000000000000000000000000000000000000000000000000000000000000700000000000000000000000000070000000000000000000000000000000000000000000000000700000000000000000000
310
00000000000000000007000000000000000000000000000000000000000000000000070000000000000000000000000007000000000000000000000000000000000000000000000000000000000700070700000000070707070007000000000000000000000000000000000000000000000000000000000000000000000000
310
00000007000000000000000000000000000700000000000000000000000000000000000000000000000007000000000000000000000000000000000000000700000000000000000000000000000000000000000000000007000000000000000000000000000700000000000000000000000000000000000000000000000000
310
00000007070700000000000000000707070000000000000000000000000000000000000000000000000000000000000000000000000000000700000000000000000000000000070000000000000000000000000000000000000000000000000700000000000000000000000000000000000000070000000000000000000000
310
00000000000000000000000000070000000000000000000000000007000000000000000000000000000000000000000000000000000000000707000000000000000000000707000000000000000000000000000000000000000000000000000000000000000000000000000000070707070707070707070707070707000000
310
00000000000000000000000000000000000000000007000000000000000000000000000000000000000700000000000000000000000000000000000000000000000007070707070707070707070707070700000000000000000000000000000000000000000000000000000000070000000000000000000000000700000000
310
00000000000000000000000000000000000000000000000000000000000000000000000000000000070000000700000000000000000000000000000000000000000000000000000000000700000000000000000000000000000000000000070000000000000000000000000000000000000000000000000000000000070000
310
00070000000000000000000000000000000000000000000000000000000000000000000700000000000000000000000007000000000000000000000000000000000000000000000000000000000000000000000000000000000000000007000000070000000000000000000000000000000000000000000000000000000000
310
07000000000000000000000000000000000000000700000000000000000000000000000000000000000000000000000000000700000007000000000000000000000000000000000000000000000000000000000000000000070000070707070707070700000700000000000000000000000000000000000000000000000000
310
00000000000000000000000000000000000000070000000700000000000000000000000000000000000000000000000000000000000700000000000000000000000000000000000000070000000000000000000000000000000000000000000000000000000000070000000700000000000000000000000000000000000000
310
00000000000000000000000000000700070700070707070000070007000000000000000000000000000000000000000000000000000000000000000000000000000000000000000007000000070000000000000000000000000000000000000000000000000000000000070000000000000000000000000000000000000007
310
00000000000000000000000000000000000000000000000000000000000700000007000000000000000000000000000000000000000000000000000000000000000000070700070700000000070700070700000000000000000000000000000000000000000000000000000000000000000000000000000000000000000700
310
00000700000000000000000000000000000000000000000000000000000000000700000000000000000000000000000000000000070000000000000000000000000000000000000000000000000000000000070000000700000000000000000000000000000000000000000000000000000000000000000007070707000000
310
00000007070007000000000000000000000000000000000000000000000000000000000000000000000000000000000000000007000000070000000000000000000000000000000000000000000000000000000000070000000000000000000000000000000000000007000000000000000000000000000000000000000000
310
00000000000000000700000007000000000000000000000000000000000000000000000000000000000000000000070007000000000000000007000700000000000000000000000000000000000000000000000000000000000000000000000000000000000000000700000007000000000000000000000000000000000000
310
00000000000000000000000707070707070707070707070707070707070707070000000000000000000000000000000000000000000000000000000000070000000700000000000000000000000000000000000000000000000000000000000000000000070700000000000000000707000000000000000000000000000000
310
00000000000000000000000000000000000000000000000000000000000007000000070000000000000000000000000000000000000000000000000000000000000707070707070707070707070707070707070700000000000000000000000000000000000000000000000000000000000007000000070000000000000000
310
00000000000000000000000000000000000000000000000000000707000000000000000007070000000000000000000000000000000000000000000000000000000000000000000000000000000000000000000700000007000000000000000000000000000000000000000000000000000000000000000000000700000000
310
00000000000700000000000000000000000000000000000000000000000000000000000000000000070000000700000000000000000000000000000000000000000000000000000000000000000000000700000000000000000700000000000000000000000000000000000000000000000000000000000000000000000000
310
00000000000000000007000000070000000000000000000000000000000000000000000000000000000000000000000007000000000000000000070000000000000000000000000000000000000000000000000000000000000000000007000000070000000000000000000000000000000000000000000000000000000000
310
00000000000007000000000000000007000000000000000000000000000000000000000000000000000000000000000000000000000000000000000000000700000007000000000000000000000000000000000000000000000000000000000000000000000700000000000000000007000000000000000000000000000000
310
00000000000000000000000000000000000000070000000700000000000000000000000000000000000000000000000000000000000000000000000700000000000000000700000000000000000000000000000000000000000000000000000000000000000000000000000000000000000000070000000700000000000000
310
00000000000000000000000000000000000000000000000000000007000000000000000000070000000000000000000000000000000000000000000000000000000000000000000007000000070000000000000000000000000000000000000000000000000000000000000000000000070000000000000000070000000000
310
00000000000000000000000000000000000000000000000000000000000707070707070707070707070707070707070707070707070707070700000000000000000000000000000000000000000000000700000000000000000007000000000000000000000000000000000000000000000007070707070707070707070707
310
07070707070707070707070707070700000000000000000000000000000000000000000000000700000000000000000700000000000000000000000000000000000000000000000000000000000000000000070707070707070707070707070707070707070707070707070707070000000000000000000000000000000000
310
00000000000007000000000000000000070000000000000000000000000000000000000000000000070707070707070707070707070707070707070707070707070707070000000000000000000000000000000000000000000000070000000000000000070000000000000000000000000000000000000000000000000000
310
00000000000000000700000000000000000000000700000700000000000000000000000700000000000000000000000000000000000000000000000700000000000000000007000000000000000000000000000000000000000000000007000000000000000000000007000007000000000000000000000007000000000000
310
00000000000000000000000000000000000700000000000000000700000000000000000000000000000000000000000000000000000000000000000000070000000000000000000000070000070000000000000000000000070000000000000000000000000000000000000000000000070000000000000000000700000000
310
00000000000000000000000000000000000000070000000000000000000000070000070000000000000000000000070000000000000000000000000000000000000000000000070000000000000000070000000000000000000000000000000000000000000000000000000000000000000007000000000000000000000007
310
00000700000000000000000000000700000000000000000000000000000000000000000000000700000000000000000007000000000000000000000000000000000000000000000007000000000000000000000007000007000000000000000000000007000000000000000000000000000000000000000000000007000000
310
00000000000700000000000000000000000000000000000000000000000000000000000000000000070000000000000000000000070000070000000000000000000000070000000000000000000000000000000000000000000000070000000000000000000700000000000000000000000000000000000000000000000700
310
00000000000000000000070000070000000000000000000000070000000000000000000000000000000000000000000000070000000000000000070000000000000000000000000000000000000000000000000000000000000000000007070707070707070707070707070707070707070707070707070707000000000000
310
00000000000000000000000000000000000700000000000000000007000000000000000000000000000000000000000000000007070707070707070707070707070707070707070707070707070707000000000000000000000000000000000000000000000007000000000000000007000000000000000000000000000000
310
00000000000000000000000000000000000000070707070707070707070707070707070707070707070707070707070000000000000000000000000000000000000000000000070000000000000000000700000000000000000000000000000000000000000000000707070707070707070707070707070707070707070707
310
07070707070000000000000000000000000000000000000000000000070000000000000000070000000000000000000000000000000000000000000000000000000000000000000000000000000000000000000000000000000000000000000000000000000000000000000000000000000000000000000000000007000000
310
00000000000007000000000000000000000000000000000000000000000000000000000000000000000000000000000000000000000000000000000000000000000000000000000000000000000000000007000000000000000007000000000000000000000000000000000000000000000000000000000000000000000000
310
00000000000000000000000000000000000000000000000000000000000000000000000000000000000000000000000000070000000000000000000700000000000000000000000000000000000000000000000000000000000000000000000000000000000000000000000000000000000000000000000000000000000000
310
00000000000000070000000000000000070000000000000000000000000000000000000000000000000000000000000000000000000000000000000000000000000000000000000000000000000000000000000000000000000000000000000000000000000007000000000000000000070000000000000000000000000000
310
00000000000000000000000000000000000000000000000000000000000000000000000000000000000000000000000000000000000000000000000007000000000000000007000000000000000000000000000000000000000000000000000000000000000000000000000000000000000000000000000000000000000000
310
00000000000000000000000000000000000000000000000000000000070000000000000000000700000000000000000000000000000000000000000000000000000000000000000000000000000000000000000000000000000000000000000000000000000000000000000000000000000700000000000000000700000000
310
00000000000000000000000000000000000000000000000000000000000000000000000000000000000000000000000000000000000000000000000000000000000000000000000000000000000000000007000007070707070000070000000000000000000000000000000000000000000000000000000000000000000000
310
00000000000000000000000000000000000000000000000000000000000000000000000000000007000000000000000007000000000000000000000000000000000000000000000000000000000000000000000000000000000000000000000000000000000000000000000000000000000000000000000000000000000000
310
00000000000000070707070707070707070700000000000000000000000000000000000000000000000000000000000000000000000000000000000000000000000000000000000000000000000000000000000000000000000000000700000000000000000700000000000000000000000000000000000000000000000000
310
00000000000000000000000000000000000000000000000000000000000000000000000000000000000000000000000000000000000000000000000007070707070707070707070000000000000000000000000000000000000000000000000000000000000000000000000000000000000000000000000000000000000000
310
00000000000000000000000000000000000007000000000000000007000000000000000000000000000000000000000000000000000000000000000000000000000000000000000000000000000000000000000000000000000000000000000000000000000000000000000000000000000707070707070707070707000000
310
00000000000000000000000000000000000000000000000000000000000000000000000000000000000000000000000000000000000000000000000000000000000000000000000700000000000000000700000000000000000000000000000000000000000000000000000000000000000000000000000000000000000000
310
00000000000000000000000000000000000000000000000000000000000000000000000000000007000000000000000000070000000000000000000000000000000000000000000000000000000000000000000000000000000000000000000000000000000000000000000000000000000000000000000000000000070000
310
07070707000007000000000000000000000000000000000000000000000000000000000000000000000000000000000000000000000000000000000000000000000000000000000000000000000000000000000000000000000000000700000000000000000007000000000000000000000000000000000000000000000000
310
00000000000000000000000000000000000000000000000000000000000000000000000000000000000000000000000000000700070000000007000700000000000000000000000000000000000000000000000000000000000000000000000000000000000000000000000000000000000000000000000000000000000000
310
00000000000000000000000000000000000007000000000000000000070000000000000000000000000000000000000000000000000000000000000000000000000000000000000000000000000000000000000000000000000000000000000000000000000000070700070707070007070000000000000000000000000000
310
00000000000000000000000000000000000000000000000000000000000000000000000000000000000000000000000000000000000000000000000000000000000000000000000700000000000000000007000000000000000000000000000000000000000000000000000000000000000000000000000000000000000000
310
00000000000000000000000000000000000000000000000000000000000707070000000007070700000000000000000000000000000000000000000000000000000000000000000000000000000000000000000000000000000000000000000000000000000000000000000000000000000000000000000000000000070000
310
00000000000000070000000000000000000000000000000000000000000000000000000000000000000000000000000000000000000000000000000000000000000000000000000000000000000000000000070700000000000007070000000000000000000000000000000000000000000000000000000000000000000000
310
00000000000000000000000000000000000000000000000000000000000000000000000000000000000000000000000000000700000000000000000007000000000000000000000000000000000000000000000000000000000000000000000000000000000000000000000000000000000000000000000000000000000000
310
00000000000000000707000000000000070700000000000000000000000000000000000000000000000000000000000000000000000000000000000000000000000000000000000000000000000000000000000000000000000000000000000000000000000000070000000000000000000700000000000000000000000000
310
00000000000000000000000000000000000000000000000000000000000000000000000000000000000000000000000000000000000000000000000000070700000707000007070000000000000000000000000000000000000000000000000000000000000000000000000000000000000000000000000000000000000000
310
00000000000000000000000000000000000000000000000000000000000700000000000000000007000000000000000000000000000000000000000000000000000000000000000000000000000000000000000000000000000000000000000000000000000000000000000000000000000000070707070707070700000000
310
00000000000000000000000000000000000000000000000000000000000000000000000000000000000000000000000000000000000000000000000000000000000000000000000000000000000000000000070000000000000000000700000000000000000000000000000000000000000000000000000000000000000000
310
00000000000000000000000000000000000000000000000000000000000000000000000707070707070707070707070707070707070707000000000000000000000000000000000000000000000000000000000000000000000000000000000000000000000000000000000000000000000000000000000000000000000000
310
00000000000000000700000000000000000007000000000000000000000000000000000000000000000000000000000000000000000000000000000000000000000000000000000000000000000000000000000000000707070707070707070007070700000700000007070707070000000000000000000000000000000000
310
00000000000000000000000000000000000000000000000000000000000000000000000000000000000000000000000000000000000000000000000000070000000000000000000700000000000000000000000000000000000000000000000000000000000000000000000000000000000000000000000000000000000000
310
00000000000000000007070707070700070700000707000000070007000007070007070707070707000000000000000000000000000000000000000000000000000000000000000000000000000000000000000000000000000000000000000000000000000000000000000000000000000007000000000000000000070000
310
00000000000000000000000000000000000000000000000000000000000000000000000000000000000000000000000000000000000000000000000007070707000000070000000707000700070007000007070000000700000007070007000000000000000000000000000000000000000000000000000000000000000000
310
00000000000000000000000000000000000000000000000000000000000000000000000000000000070000000000000000000700000000000000000000000000000000000000000000000000000000000000000000000000000000000000000000000000000000000000000000000000070707000000070000000700000007
310
00000700000007000000070000000700000007070700000000000000000000000000000000000000000000000000000000000000000000000000000000000000000000000000000000000000000000000000000000000000000000000007000000000000000000070000000000000000000000000000000000000000000000
310
00000000000000000000000000000000000000000000000000000000000000000000000000070707000007070000070000070707070700070700070707070700000700000007000007070700000000000000000000000000000000000000000000000000000000000000000000000000000000000000000000000000000000
310
00000000000000000000000000000000000000070000000000000000000700000000000000000000000000000000000000000000000000000000000000000000000000000000000000000000000000000000000000000000000007070700000707000007000707000707070700000707070700070700070000000700000707
310
07000000000000000000000000000000000000000000000000000000000000000000000000000000000000000000000000000000000000000000000000000000000000000000000007000000000000000000070000000000000000000000000000000000000000000000000000000000000000000000000000000000000000
310
00000000000000000000000000000007070707000707000007000007070000000707070707070000000707000007000007070007070007000000000000000000000000000000000000000000000000000000000000000000000000000000000000000000000000000000000000000000000000000000000000000000000700
310
00000000000000000700000000000000000000000000000000000000000000000000000000000000000000000000000000000000000000000000000000000000000000000707070700000707000007000007070000000007070000000007070000070000000700000707070700000000000000000000000000000000000000
310
00000000000000000000000000000000000000000000000000000000000000000000000000000000000000000000000000000007000000000000000000070000000000000000000000000000000000000000000000000000000000000000000000000000000000000000000000000000000000000000000000070707070000
310
07000000070007000000070000070000000700000007000700000007000007070707000000000000000000000000000000000000000000000000000000000000000000000000000000000000000000000000000000000000000000000000000000000000000000000700000000000000000007000000000000000000000000
310
00000000000000000000000000000000000000000000000000000000000000000000000000000000000000000000000707070707000000070000000700070707000007000000070707000700000007000000070707070700000000000000000000000000000000000000000000000000000000000000000000000000000000
310
00000000000000000000000000000000000000000000000000000000000007070707070707070707070000000000000000000000000000000000000000000000000000000000000000000000000000000000000000000000000000000000000000000000070007070700070007000700000007070007000000070000070700
310
00000700070007000707070007000000000000000000000000000000000000000000000000000000000000000000000000000000000000000000000000000000000000000000000000000000000000000000000000000000000000000000000000000000000000000000000000000000000000000000000000000000000000
310
00000000000000000000000000000000000000000000000000000700000707070700070700000707000707000007000000070000070700000707000707070700000700000000000000000000000000000000000000000000000000000000000000000000000000000000000000000000000000000000000000000000000000
310
00000000000000000000000000000000000000000000000000000000000000000000000000000000000000000000000000000000000000000000000000000000000000000000000000000000000000070000000707070707070007000000070700070700000007000000000707070707070707000000070000000000000000
310
00000000000000000000000000000000000000000000000000000000000000000000000000000000000000000000000000000000000000000000000000000000000000000000000000000000000000000000000000000000000000000000000000000000000000000000000000000000000000000000000000000000000000
310
00000000000700000000000007070707070707070000070700070700000707070707070707070000000000000700000000000000000000000000000000000000000000000000000000000000000000000000000000000000000000000000000000000000000000000000000000000000000000000000000000000000000000
310
00000000000000000000000000000000000000000000000000000000000000000000000000000000000000000000000000000000000000000000070000000000000000070707070707070707070707070707070707070707070000000000000000070000000000000000000000000000000000000000000000000000000000
310
00000000000000000000000000000000000000000000000000000000000000000000000000000000000000000000000000000000000000000000000000000000000000000000000000000000000000000000000000000000000000000000000000000000000000000000000000000007000000000000000000000000000707
310
07070707070707070707000000000000000000000000000700000000000000000000000000000000000000000000000000000000000000000000000000000000000000000000000000000000000000000000000000000000000000000000000000000000000000000000000000000000000000000000000000000000000000
310
00000000000000000000000000000000000000000000000000000000000000000000000000000700000000000000000000000000000000000000000000000000000000000000000000000007000000000000000000000000000000000000000000000000000000000000000000000000000000000000000000000000000000
310
00000000000000000000000000000000000000000000000000000000000000000000000000000000000000000000000000000000000000000000000000000000000000000000000000000000000000000000000000000000000000000700000000000000000000000000000000000000000000000000000000000000000000
310
07000000000000000000000000000000000000000000000000000000000000000000000000000000000000000000000000000000000000000000000000000000000000000000000000000000000000000000000000000000000000000000000000000000000000000000000000000000000000000000000000000000000000
310
00000000000000000000000000000000000000070000000000000000000000000000000000000000000000000000000000000000070000000000000000000000000000000000000000000000000000000000000000000000000000000000000000000000000000000000000000000000000000000000000000000000000000
310
00000000000000000000000000000000000000000000000000000000000000000000000000000000000000000000000000000000000000000000000000000000000000000000000000070700000000000000000000000000000000000000000000000000000000000700000000000000000000000000000000000000000000
310
00000000000000000000000000000000000000000000000000000000000000000000000000000000000000000000000000000000000000000000000000000000000000000000000000000000000000000000000000000000000000000000000000000000000000000000000000000000000000000000000000000000000000
310
07070707000000000000000000000000000000000000000000000707070700000000000000000000000000000000000000000000000000000000000000000000000000000000000000000000000000000000000000000000000000000000000000000000000000000000000000000000000000000000000000000000000000
310
00000000000000000000000000000000000000000000000000000000000000000000000000000000000000000000000000000000000000070707070707070000000000000000000000000707070707070700000000000000000000000000000000000000000000000000000000000000000000000000000000000000000000
310
00000000000000000000000000000000000000000000000000000000000000000000000000000000000000000000000000000000000000000000000000000000000000000000000000000000000000000000000000000000000000000000000000000000000000000000000000000000070707070707070707070707070707
310
07070700000000000000000000000000000000000000000000000000000000000000000000000000000000000000000000000000000000000000000000000000000000000000000000000000000000000000000000000000000000000000000000000000000000000000000000000000000000000000000000000000000000
310
00000000000000000000000000000000000000000000000000000000000000000000000000000000000000000000000000000000000000000000000000000000000000000000000000000000000000000000000000000000000000000000000000000000000000000000000000000000000000000000000000000000000000
310
00000000000000000000000000000000000000000000000000000000000000000000000000000000000000000000000000000000000000000000000000000000000000000000000000000000000000000000000000000000000000000000000000000000000000000000000000000000000000000000000000000000000000
310
00000000000000000000000000000000000000000000000000000000000000000000000000000000000000000000000000000000000000000000000000000000000000000000000000000000000000000000000000000000000000000000000000000000000000000000000000000000000000000000000000000000000000
310
00000000000000000000000000000000000000000000000000000000000000000000000000000000000000000000000000000000000000000000000000000000000000000000000000000000000000000000000000000000000000000000000000000000000000000000000000000000000000000000000000000000000000
310
000000000000000000000000000000000000000000000000000000000000000000000000000000000000000000000000000000000000000000000000000000000000000000000000000000000000000000000000000000000000000000000000000000000000000000000000
  0
ENDSEC
  0
EOF
