  0
SECTION
  2
HEADER
  9
$ACADVER
  1
AC1015
  9
$ACADMAINTVER
 70
     6
  9
$DWGCODEPAGE
  3
ANSI_1252
  9
$INSBASE
 10
0.0
 20
0.0
 30
0.0
  9
$EXTMIN
 10
0.0
 20
0.478725361393
 30
0.0
  9
$EXTMAX
 10
419.228180952732
 20
259.1883
 30
0.0
  9
$LIMMIN
 10
0.0
 20
0.0
  9
$LIMMAX
 10
12.0
 20
9.0
  9
$ORTHOMODE
 70
     0
  9
$REGENMODE
 70
     1
  9
$FILLMODE
 70
     1
  9
$QTEXTMODE
 70
     0
  9
$MIRRTEXT
 70
     1
  9
$LTSCALE
 40
1.0
  9
$ATTMODE
 70
     1
  9
$TEXTSIZE
 40
0.2
  9
$TRACEWID
 40
0.05
  9
$TEXTSTYLE
  7
Standard
  9
$CLAYER
  8
0
  9
$CELTYPE
  6
ByBlock
  9
$CECOLOR
 62
   256
  9
$CELTSCALE
 40
1.0
  9
$DISPSILH
 70
     0
  9
$DIMSCALE
 40
1.0
  9
$DIMASZ
 40
0.18
  9
$DIMEXO
 40
0.0625
  9
$DIMDLI
 40
0.38
  9
$DIMRND
 40
0.0
  9
$DIMDLE
 40
0.0
  9
$DIMEXE
 40
0.18
  9
$DIMTP
 40
0.0
  9
$DIMTM
 40
0.0
  9
$DIMTXT
 40
0.18
  9
$DIMCEN
 40
0.09
  9
$DIMTSZ
 40
0.0
  9
$DIMTOL
 70
     0
  9
$DIMLIM
 70
     0
  9
$DIMTIH
 70
     1
  9
$DIMTOH
 70
     1
  9
$DIMSE1
 70
     0
  9
$DIMSE2
 70
     0
  9
$DIMTAD
 70
     0
  9
$DIMZIN
 70
     0
  9
$DIMBLK
  1

  9
$DIMASO
 70
     1
  9
$DIMSHO
 70
     1
  9
$DIMPOST
  1

  9
$DIMAPOST
  1

  9
$DIMALT
 70
     0
  9
$DIMALTD
 70
     2
  9
$DIMALTF
 40
25.4
  9
$DIMLFAC
 40
1.0
  9
$DIMTOFL
 70
     0
  9
$DIMTVP
 40
0.0
  9
$DIMTIX
 70
     0
  9
$DIMSOXD
 70
     0
  9
$DIMSAH
 70
     0
  9
$DIMBLK1
  1

  9
$DIMBLK2
  1

  9
$DIMSTYLE
  2
Standard
  9
$DIMCLRD
 70
     0
  9
$DIMCLRE
 70
     0
  9
$DIMCLRT
 70
     0
  9
$DIMTFAC
 40
1.0
  9
$DIMGAP
 40
0.09
  9
$DIMJUST
 70
     0
  9
$DIMSD1
 70
     0
  9
$DIMSD2
 70
     0
  9
$DIMTOLJ
 70
     1
  9
$DIMTZIN
 70
     0
  9
$DIMALTZ
 70
     0
  9
$DIMALTTZ
 70
     0
  9
$DIMUPT
 70
     0
  9
$DIMDEC
 70
     4
  9
$DIMTDEC
 70
     4
  9
$DIMALTU
 70
     2
  9
$DIMALTTD
 70
     2
  9
$DIMTXSTY
  7
Standard
  9
$DIMAUNIT
 70
     0
  9
$DIMADEC
 70
     0
  9
$DIMALTRND
 40
0.0
  9
$DIMAZIN
 70
     0
  9
$DIMDSEP
 70
    46
  9
$DIMATFIT
 70
     3
  9
$DIMFRAC
 70
     0
  9
$DIMLDRBLK
  1

  9
$DIMLUNIT
 70
     2
  9
$DIMLWD
 70
    -2
  9
$DIMLWE
 70
    -2
  9
$DIMTMOVE
 70
     2
  9
$LUNITS
 70
     2
  9
$LUPREC
 70
     4
  9
$SKETCHINC
 40
0.1
  9
$FILLETRAD
 40
0.5
  9
$AUNITS
 70
     0
  9
$AUPREC
 70
     0
  9
$MENU
  1
.
  9
$ELEVATION
 40
0.0
  9
$PELEVATION
 40
0.0
  9
$THICKNESS
 40
0.0
  9
$LIMCHECK
 70
     0
  9
$CHAMFERA
 40
0.5
  9
$CHAMFERB
 40
0.5
  9
$CHAMFERC
 40
1.0
  9
$CHAMFERD
 40
0.0
  9
$SKPOLY
 70
     0
  9
$TDCREATE
 40
2455824.938166227
  9
$TDUCREATE
 40
2455824.854832894
  9
$TDUPDATE
 40
2456209.829178773
  9
$TDUUPDATE
 40
2456209.74584544
  9
$TDINDWG
 40
0.0032382176
  9
$TDUSRTIMER
 40
0.0032382176
  9
$USRTIMER
 70
     1
  9
$ANGBASE
 50
0.0
  9
$ANGDIR
 70
     0
  9
$PDMODE
 70
     0
  9
$PDSIZE
 40
0.0
  9
$PLINEWID
 40
0.0
  9
$SPLFRAME
 70
     0
  9
$SPLINETYPE
 70
     6
  9
$SPLINESEGS
 70
     8
  9
$HANDSEED
  5
15E7
  9
$SURFTAB1
 70
     6
  9
$SURFTAB2
 70
     6
  9
$SURFTYPE
 70
     6
  9
$SURFU
 70
     6
  9
$SURFV
 70
     6
  9
$UCSBASE
  2

  9
$UCSNAME
  2

  9
$UCSORG
 10
0.0
 20
0.0
 30
0.0
  9
$UCSXDIR
 10
1.0
 20
0.0
 30
0.0
  9
$UCSYDIR
 10
0.0
 20
1.0
 30
0.0
  9
$UCSORTHOREF
  2

  9
$UCSORTHOVIEW
 70
     0
  9
$UCSORGTOP
 10
0.0
 20
0.0
 30
0.0
  9
$UCSORGBOTTOM
 10
0.0
 20
0.0
 30
0.0
  9
$UCSORGLEFT
 10
0.0
 20
0.0
 30
0.0
  9
$UCSORGRIGHT
 10
0.0
 20
0.0
 30
0.0
  9
$UCSORGFRONT
 10
0.0
 20
0.0
 30
0.0
  9
$UCSORGBACK
 10
0.0
 20
0.0
 30
0.0
  9
$PUCSBASE
  2

  9
$PUCSNAME
  2

  9
$PUCSORG
 10
0.0
 20
0.0
 30
0.0
  9
$PUCSXDIR
 10
1.0
 20
0.0
 30
0.0
  9
$PUCSYDIR
 10
0.0
 20
1.0
 30
0.0
  9
$PUCSORTHOREF
  2

  9
$PUCSORTHOVIEW
 70
     0
  9
$PUCSORGTOP
 10
0.0
 20
0.0
 30
0.0
  9
$PUCSORGBOTTOM
 10
0.0
 20
0.0
 30
0.0
  9
$PUCSORGLEFT
 10
0.0
 20
0.0
 30
0.0
  9
$PUCSORGRIGHT
 10
0.0
 20
0.0
 30
0.0
  9
$PUCSORGFRONT
 10
0.0
 20
0.0
 30
0.0
  9
$PUCSORGBACK
 10
0.0
 20
0.0
 30
0.0
  9
$USERI1
 70
     0
  9
$USERI2
 70
     0
  9
$USERI3
 70
     0
  9
$USERI4
 70
     0
  9
$USERI5
 70
     0
  9
$USERR1
 40
0.0
  9
$USERR2
 40
0.0
  9
$USERR3
 40
0.0
  9
$USERR4
 40
0.0
  9
$USERR5
 40
0.0
  9
$WORLDVIEW
 70
     1
  9
$SHADEDGE
 70
     3
  9
$SHADEDIF
 70
    70
  9
$TILEMODE
 70
     1
  9
$MAXACTVP
 70
    64
  9
$PINSBASE
 10
0.0
 20
0.0
 30
0.0
  9
$PLIMCHECK
 70
     0
  9
$PEXTMIN
 10
1.000000000000E+20
 20
1.000000000000E+20
 30
1.000000000000E+20
  9
$PEXTMAX
 10
-1.000000000000E+20
 20
-1.000000000000E+20
 30
-1.000000000000E+20
  9
$PLIMMIN
 10
0.0
 20
0.0
  9
$PLIMMAX
 10
12.0
 20
9.0
  9
$UNITMODE
 70
     0
  9
$VISRETAIN
 70
     1
  9
$PLINEGEN
 70
     0
  9
$PSLTSCALE
 70
     1
  9
$TREEDEPTH
 70
  3020
  9
$CMLSTYLE
  2
Standard
  9
$CMLJUST
 70
     0
  9
$CMLSCALE
 40
1.0
  9
$PROXYGRAPHICS
 70
     1
  9
$MEASUREMENT
 70
     0
  9
$CELWEIGHT
370
    -1
  9
$ENDCAPS
280
     0
  9
$JOINSTYLE
280
     0
  9
$LWDISPLAY
290
     0
  9
$INSUNITS
 70
     0
  9
$HYPERLINKBASE
  1

  9
$STYLESHEET
  1

  9
$XEDIT
290
     1
  9
$CEPSNTYPE
380
     0
  9
$PSTYLEMODE
290
     1
  9
$FINGERPRINTGUID
  2
{76EA4F17-431F-49F9-B019-68CEF57F085C}
  9
$VERSIONGUID
  2
{FAEB1C32-E019-11D5-929B-00C0DF256EC4}
  9
$EXTNAMES
290
     1
  9
$PSVPSCALE
 40
0.0
  9
$OLESTARTUP
290
     0
  0
ENDSEC
  0
SECTION
  2
CLASSES
  0
CLASS
  1
ACDBDICTIONARYWDFLT
  2
AcDbDictionaryWithDefault
  3
ObjectDBX Classes
 90
        0
280
     0
281
     0
  0
CLASS
  1
SCALE
  2
AcDbScale
  3
ObjectDBX Classes
 90
     1153
280
     0
281
     0
  0
CLASS
  1
DICTIONARYVAR
  2
AcDbDictionaryVar
  3
ObjectDBX Classes
 90
        0
280
     0
281
     0
  0
CLASS
  1
ACDBPLACEHOLDER
  2
AcDbPlaceHolder
  3
ObjectDBX Classes
 90
        0
280
     0
281
     0
  0
CLASS
  1
LAYOUT
  2
AcDbLayout
  3
ObjectDBX Classes
 90
        0
280
     0
281
     0
  0
ENDSEC
  0
SECTION
  2
TABLES
  0
TABLE
  2
VPORT
  5
8
330
0
100
AcDbSymbolTable
 70
     1
  0
VPORT
  5
7B3
330
8
100
AcDbSymbolTableRecord
100
AcDbViewportTableRecord
  2
*Active
 70
     0
 10
0.0
 20
0.0
 11
1.0
 21
1.0
 12
209.614090476366
 22
129.59415
 13
0.0
 23
0.0
 14
0.5
 24
0.5
 15
0.5
 25
0.5
 16
0.0
 26
0.0
 36
1.0
 17
0.0
 27
0.0
 37
0.0
 40
264.372066
 41
2.271724137931
 42
50.0
 43
0.0
 44
0.0
 50
0.0
 51
0.0
 71
    16
 72
   100
 73
     1
 74
     3
 75
     0
 76
     0
 77
     0
 78
     0
281
     0
 65
     1
110
0.0
120
0.0
130
0.0
111
1.0
121
0.0
131
0.0
112
0.0
122
1.0
132
0.0
 79
     0
146
0.0
  0
ENDTAB
  0
TABLE
  2
LTYPE
  5
5
330
0
100
AcDbSymbolTable
 70
     1
  0
LTYPE
  5
14
330
5
100
AcDbSymbolTableRecord
100
AcDbLinetypeTableRecord
  2
ByBlock
 70
     0
  3

 72
    65
 73
     0
 40
0.0
  0
LTYPE
  5
15
330
5
100
AcDbSymbolTableRecord
100
AcDbLinetypeTableRecord
  2
ByLayer
 70
     0
  3

 72
    65
 73
     0
 40
0.0
  0
LTYPE
  5
16
330
5
100
AcDbSymbolTableRecord
100
AcDbLinetypeTableRecord
  2
Continuous
 70
     0
  3
Solid line
 72
    65
 73
     0
 40
0.0
  0
ENDTAB
  0
TABLE
  2
LAYER
  5
2
330
0
100
AcDbSymbolTable
 70
     1
  0
LAYER
  5
10
330
2
100
AcDbSymbolTableRecord
100
AcDbLayerTableRecord
  2
0
 70
     0
 62
     7
  6
Continuous
370
    -3
390
F
  0
ENDTAB
  0
TABLE
  2
STYLE
  5
3
330
0
100
AcDbSymbolTable
 70
     1
  0
STYLE
  5
11
330
3
100
AcDbSymbolTableRecord
100
AcDbTextStyleTableRecord
  2
Standard
 70
     0
 40
0.0
 41
1.0
 50
0.0
 71
     0
 42
0.2
  3
txt
  4

  0
ENDTAB
  0
TABLE
  2
VIEW
  5
6
330
0
100
AcDbSymbolTable
 70
     0
  0
ENDTAB
  0
TABLE
  2
UCS
  5
7
330
0
100
AcDbSymbolTable
 70
     0
  0
ENDTAB
  0
TABLE
  2
APPID
  5
9
330
0
100
AcDbSymbolTable
 70
     1
  0
APPID
  5
12
330
9
100
AcDbSymbolTableRecord
100
AcDbRegAppTableRecord
  2
ACAD
 70
     0
  0
ENDTAB
  0
TABLE
  2
DIMSTYLE
  5
A
330
0
100
AcDbSymbolTable
 70
     1
100
AcDbDimStyleTable
  0
DIMSTYLE
105
20
330
A
100
AcDbSymbolTableRecord
100
AcDbDimStyleTableRecord
  2
Standard
 70
     0
340
11
  0
ENDTAB
  0
TABLE
  2
BLOCK_RECORD
  5
1
330
0
100
AcDbSymbolTable
 70
     1
  0
BLOCK_RECORD
  5
1D
330
1
100
AcDbSymbolTableRecord
100
AcDbBlockTableRecord
  2
*Model_Space
340
1E
  0
BLOCK_RECORD
  5
1B
330
1
100
AcDbSymbolTableRecord
100
AcDbBlockTableRecord
  2
*Paper_Space
340
1C
  0
ENDTAB
  0
ENDSEC
  0
SECTION
  2
BLOCKS
  0
BLOCK
  5
7B6
330
1D
100
AcDbEntity
  8
0
100
AcDbBlockBegin
  2
*Model_Space
 70
     0
 10
0.0
 20
0.0
 30
0.0
  3
*Model_Space
  1
*Model_Space
  0
ENDBLK
  5
7B7
330
1D
100
AcDbEntity
  8
0
100
AcDbBlockEnd
  0
BLOCK
  5
7B4
330
1B
100
AcDbEntity
 67
     1
  8
0
100
AcDbBlockBegin
  2
*Paper_Space
 70
     0
 10
0.0
 20
0.0
 30
0.0
  3
*Paper_Space
  1
*Paper_Space
  0
ENDBLK
  5
7B5
330
1B
100
AcDbEntity
 67
     1
  8
0
100
AcDbBlockEnd
  0
ENDSEC
  0
SECTION
  2
ENTITIES
  0
LINE
  5
2E
330
1D
100
AcDbEntity
  8
0
100
AcDbLine
 10
11.3704
 20
181.1893
 30
0.0
 11
66.6223
 21
181.1883
 31
0.0
  0
LINE
  5
12A
330
1D
100
AcDbEntity
  8
0
100
AcDbLine
 10
137.3029
 20
18.3951
 30
0.0
 11
137.3595
 21
18.322
 31
0.0
  0
LINE
  5
12B
330
1D
100
AcDbEntity
  8
0
100
AcDbLine
 10
137.3595
 20
18.322
 30
0.0
 11
139.938
 21
15.6018
 31
0.0
  0
LINE
  5
12C
330
1D
100
AcDbEntity
  8
0
100
AcDbLine
 10
139.938
 20
15.6018
 30
0.0
 11
143.252
 21
13.6548
 31
0.0
  0
LINE
  5
12D
330
1D
100
AcDbEntity
  8
0
100
AcDbLine
 10
143.252
 20
13.6548
 30
0.0
 11
147.031
 21
12.6413
 31
0.0
  0
LINE
  5
12E
330
1D
100
AcDbEntity
  8
0
100
AcDbLine
 10
149.0
 20
12.6413
 30
0.0
 11
150.969
 21
12.6413
 31
0.0
  0
LINE
  5
12F
330
1D
100
AcDbEntity
  8
0
100
AcDbLine
 10
154.748
 20
13.6548
 30
0.0
 11
158.062
 21
15.6018
 31
0.0
  0
LINE
  5
130
330
1D
100
AcDbEntity
  8
0
100
AcDbLine
 10
160.697
 20
18.3951
 30
0.0
 11
162.341
 21
21.6842
 31
0.0
  0
LINE
  5
131
330
1D
100
AcDbEntity
  8
0
100
AcDbLine
 10
160.641
 20
18.322
 30
0.0
 11
160.697
 21
18.3951
 31
0.0
  0
LINE
  5
132
330
1D
100
AcDbEntity
  8
0
100
AcDbLine
 10
158.062
 20
15.6018
 30
0.0
 11
160.641
 21
18.322
 31
0.0
  0
LINE
  5
133
330
1D
100
AcDbEntity
  8
0
100
AcDbLine
 10
162.341
 20
21.6842
 30
0.0
 11
162.904
 21
25.2657
 31
0.0
  0
LINE
  5
134
330
1D
100
AcDbEntity
  8
0
100
AcDbLine
 10
150.969
 20
12.6413
 30
0.0
 11
154.748
 21
13.6548
 31
0.0
  0
LINE
  5
135
330
1D
100
AcDbEntity
  8
0
100
AcDbLine
 10
147.031
 20
12.6413
 30
0.0
 11
149.0
 21
12.6413
 31
0.0
  0
LINE
  5
16E
330
1D
100
AcDbEntity
  8
0
100
AcDbLine
 10
135.0961
 20
25.2657
 30
0.0
 11
135.6592
 21
21.6842
 31
0.0
  0
LINE
  5
170
330
1D
100
AcDbEntity
  8
0
100
AcDbLine
 10
135.6592
 20
21.6842
 30
0.0
 11
137.3029
 21
18.3951
 31
0.0
  0
LINE
  5
1BB
330
1D
100
AcDbEntity
  8
0
100
AcDbLine
 10
339.004
 20
181.3873
 30
0.0
 11
340.583
 21
180.6513
 31
0.0
  0
LINE
  5
1BC
330
1D
100
AcDbEntity
  8
0
100
AcDbLine
 10
340.583
 20
180.6513
 30
0.0
 11
342.265
 21
180.2013
 31
0.0
  0
LINE
  5
1CE
330
1D
100
AcDbEntity
  8
0
100
AcDbLine
 10
344.0
 20
180.0493
 30
0.0
 11
353.217911872384
 21
180.0493
 31
0.0
  0
LINE
  5
1CF
330
1D
100
AcDbEntity
  8
0
100
AcDbLine
 10
342.265
 20
180.2013
 30
0.0
 11
344.0
 21
180.0493
 31
0.0
  0
LINE
  5
1FB
330
1D
100
AcDbEntity
  8
0
100
AcDbLine
 10
385.193473341021
 20
180.0493
 30
0.0
 11
394.0
 21
180.0493
 31
0.0
  0
LINE
  5
1FC
330
1D
100
AcDbEntity
  8
0
100
AcDbLine
 10
394.0
 20
180.0493
 30
0.0
 11
395.735
 21
180.2013
 31
0.0
  0
LINE
  5
1FD
330
1D
100
AcDbEntity
  8
0
100
AcDbLine
 10
397.417
 20
180.6513
 30
0.0
 11
398.996
 21
181.3873
 31
0.0
  0
LINE
  5
1FE
330
1D
100
AcDbEntity
  8
0
100
AcDbLine
 10
395.735
 20
180.2013
 30
0.0
 11
397.417
 21
180.6513
 31
0.0
  0
LINE
  5
201
330
1D
100
AcDbEntity
  8
0
100
AcDbLine
 10
398.996
 20
181.3873
 30
0.0
 11
400.423
 21
182.3853
 31
0.0
  0
LINE
  5
26C
330
1D
100
AcDbEntity
  8
0
100
AcDbLine
 10
337.577
 20
182.3853
 30
0.0
 11
339.004
 21
181.3873
 31
0.0
  0
LINE
  5
26E
330
1D
100
AcDbEntity
  8
0
100
AcDbLine
 10
400.423
 20
182.3853
 30
0.0
 11
401.654
 21
183.6153
 31
0.0
  0
LINE
  5
274
330
1D
100
AcDbEntity
  8
0
100
AcDbLine
 10
401.654
 20
183.6153
 30
0.0
 11
402.653
 21
185.0413
 31
0.0
  0
LINE
  5
276
330
1D
100
AcDbEntity
  8
0
100
AcDbLine
 10
336.346
 20
183.6153
 30
0.0
 11
337.577
 21
182.3853
 31
0.0
  0
LINE
  5
278
330
1D
100
AcDbEntity
  8
0
100
AcDbLine
 10
335.347
 20
185.0413
 30
0.0
 11
336.346
 21
183.6153
 31
0.0
  0
LINE
  5
27B
330
1D
100
AcDbEntity
  8
0
100
AcDbLine
 10
402.653
 20
185.0413
 30
0.0
 11
403.389
 21
186.6193
 31
0.0
  0
LINE
  5
280
330
1D
100
AcDbEntity
  8
0
100
AcDbLine
 10
334.611
 20
186.6193
 30
0.0
 11
335.347
 21
185.0413
 31
0.0
  0
LINE
  5
282
330
1D
100
AcDbEntity
  8
0
100
AcDbLine
 10
403.389
 20
186.6193
 30
0.0
 11
403.84
 21
188.3003
 31
0.0
  0
LINE
  5
291
330
1D
100
AcDbEntity
  8
0
100
AcDbLine
 10
403.84
 20
188.3003
 30
0.0
 11
403.992
 21
190.0333
 31
0.0
  0
LINE
  5
292
330
1D
100
AcDbEntity
  8
0
100
AcDbLine
 10
334.16
 20
188.3003
 30
0.0
 11
334.611
 21
186.6193
 31
0.0
  0
LINE
  5
2C8
330
1D
100
AcDbEntity
  8
0
100
AcDbLine
 10
403.992
 20
190.0333
 30
0.0
 11
403.992
 21
240.4953
 31
0.0
  0
LINE
  5
2CB
330
1D
100
AcDbEntity
  8
0
100
AcDbLine
 10
334.008
 20
190.0333
 30
0.0
 11
334.16
 21
188.3003
 31
0.0
  0
LINE
  5
67A
330
1D
100
AcDbEntity
  8
0
100
AcDbLine
 10
334.008
 20
240.4953
 30
0.0
 11
334.008
 21
190.0333
 31
0.0
  0
LINE
  5
67B
330
1D
100
AcDbEntity
  8
0
100
AcDbLine
 10
334.008
 20
240.4953
 30
0.0
 11
334.16
 21
242.2293
 31
0.0
  0
LINE
  5
6F3
330
1D
100
AcDbEntity
  8
0
100
AcDbLine
 10
334.16
 20
242.2293
 30
0.0
 11
334.611
 21
243.9093
 31
0.0
  0
LINE
  5
6F8
330
1D
100
AcDbEntity
  8
0
100
AcDbLine
 10
403.84
 20
242.2293
 30
0.0
 11
403.992
 21
240.4953
 31
0.0
  0
LINE
  5
712
330
1D
100
AcDbEntity
  8
0
100
AcDbLine
 10
334.611
 20
243.9093
 30
0.0
 11
335.347
 21
245.4873
 31
0.0
  0
LINE
  5
726
330
1D
100
AcDbEntity
  8
0
100
AcDbLine
 10
403.389
 20
243.9093
 30
0.0
 11
403.84
 21
242.2293
 31
0.0
  0
LINE
  5
73F
330
1D
100
AcDbEntity
  8
0
100
AcDbLine
 10
402.653
 20
245.4873
 30
0.0
 11
403.389
 21
243.9093
 31
0.0
  0
LINE
  5
740
330
1D
100
AcDbEntity
  8
0
100
AcDbLine
 10
335.347
 20
245.4873
 30
0.0
 11
336.346
 21
246.9133
 31
0.0
  0
LINE
  5
75A
330
1D
100
AcDbEntity
  8
0
100
AcDbLine
 10
401.654
 20
246.9133
 30
0.0
 11
402.653
 21
245.4873
 31
0.0
  0
LINE
  5
75B
330
1D
100
AcDbEntity
  8
0
100
AcDbLine
 10
336.346
 20
246.9133
 30
0.0
 11
337.577
 21
248.1433
 31
0.0
  0
LINE
  5
765
330
1D
100
AcDbEntity
  8
0
100
AcDbLine
 10
400.423
 20
248.1433
 30
0.0
 11
401.654
 21
246.9133
 31
0.0
  0
LINE
  5
766
330
1D
100
AcDbEntity
  8
0
100
AcDbLine
 10
337.577
 20
248.1433
 30
0.0
 11
339.004
 21
249.1413
 31
0.0
  0
LINE
  5
77E
330
1D
100
AcDbEntity
  8
0
100
AcDbLine
 10
398.996
 20
249.1413
 30
0.0
 11
400.423
 21
248.1433
 31
0.0
  0
LINE
  5
77F
330
1D
100
AcDbEntity
  8
0
100
AcDbLine
 10
339.004
 20
249.1413
 30
0.0
 11
340.583
 21
249.8773
 31
0.0
  0
LINE
  5
783
330
1D
100
AcDbEntity
  8
0
100
AcDbLine
 10
397.417
 20
249.8773
 30
0.0
 11
398.996
 21
249.1413
 31
0.0
  0
LINE
  5
784
330
1D
100
AcDbEntity
  8
0
100
AcDbLine
 10
394.0
 20
250.4793
 30
0.0
 11
395.735
 21
250.3273
 31
0.0
  0
LINE
  5
785
330
1D
100
AcDbEntity
  8
0
100
AcDbLine
 10
395.735
 20
250.3273
 30
0.0
 11
397.417
 21
249.8773
 31
0.0
  0
LINE
  5
786
330
1D
100
AcDbEntity
  8
0
100
AcDbLine
 10
369.0
 20
250.4793
 30
0.0
 11
394.0
 21
250.4793
 31
0.0
  0
LINE
  5
787
330
1D
100
AcDbEntity
  8
0
100
AcDbLine
 10
344.0
 20
250.4793
 30
0.0
 11
369.0
 21
250.4793
 31
0.0
  0
LINE
  5
788
330
1D
100
AcDbEntity
  8
0
100
AcDbLine
 10
342.265
 20
250.3273
 30
0.0
 11
344.0
 21
250.4793
 31
0.0
  0
LINE
  5
789
330
1D
100
AcDbEntity
  8
0
100
AcDbLine
 10
340.583
 20
249.8773
 30
0.0
 11
342.265
 21
250.3273
 31
0.0
  0
LINE
  5
CBE
330
1D
100
AcDbEntity
  8
0
100
AcDbLine
 10
9.3094
 20
181.7153
 30
0.0
 11
11.3704
 21
181.1893
 31
0.0
  0
LINE
  5
CBF
330
1D
100
AcDbEntity
  8
0
100
AcDbLine
 10
7.7292
 20
182.4493
 30
0.0
 11
9.3094
 21
181.7153
 31
0.0
  0
LINE
  5
CC0
330
1D
100
AcDbEntity
  8
0
100
AcDbLine
 10
6.3011
 20
183.4463
 30
0.0
 11
7.7292
 21
182.4493
 31
0.0
  0
LINE
  5
CC1
330
1D
100
AcDbEntity
  8
0
100
AcDbLine
 10
5.0691
 20
184.6753
 30
0.0
 11
6.3011
 21
183.4463
 31
0.0
  0
LINE
  5
CC2
330
1D
100
AcDbEntity
  8
0
100
AcDbLine
 10
35.8547
 20
186.4713
 30
0.0
 11
38.8233
 21
186.3863
 31
0.0
  0
LINE
  5
CC3
330
1D
100
AcDbEntity
  8
0
100
AcDbLine
 10
33.0179
 20
186.7863
 30
0.0
 11
35.8547
 21
186.4713
 31
0.0
  0
LINE
  5
CC4
330
1D
100
AcDbEntity
  8
0
100
AcDbLine
 10
4.0694
 20
186.0993
 30
0.0
 11
5.0691
 21
184.6753
 31
0.0
  0
LINE
  5
CC5
330
1D
100
AcDbEntity
  8
0
100
AcDbLine
 10
30.2288
 20
187.3913
 30
0.0
 11
33.0179
 21
186.7863
 31
0.0
  0
LINE
  5
CC6
330
1D
100
AcDbEntity
  8
0
100
AcDbLine
 10
27.5103
 20
188.2583
 30
0.0
 11
30.2288
 21
187.3913
 31
0.0
  0
LINE
  5
CC7
330
1D
100
AcDbEntity
  8
0
100
AcDbLine
 10
3.3328
 20
187.6743
 30
0.0
 11
4.0694
 21
186.0993
 31
0.0
  0
LINE
  5
CC8
330
1D
100
AcDbEntity
  8
0
100
AcDbLine
 10
24.8964
 20
189.4013
 30
0.0
 11
27.5103
 21
188.2583
 31
0.0
  0
LINE
  5
CC9
330
1D
100
AcDbEntity
  8
0
100
AcDbLine
 10
2.8815
 20
189.3533
 30
0.0
 11
3.3328
 21
187.6743
 31
0.0
  0
LINE
  5
CCA
330
1D
100
AcDbEntity
  8
0
100
AcDbLine
 10
0.2544
 20
195.7383
 30
0.0
 11
0.6789
 21
194.9223
 31
0.0
  0
LINE
  5
CCB
330
1D
100
AcDbEntity
  8
0
100
AcDbLine
 10
0.1091
 20
197.8983
 30
0.0
 11
0.4724
 21
198.9183
 31
0.0
  0
LINE
  5
CCC
330
1D
100
AcDbEntity
  8
0
100
AcDbLine
 10
0.0
 20
196.7523
 30
0.0
 11
0.2544
 21
195.7383
 31
0.0
  0
LINE
  5
CCD
330
1D
100
AcDbEntity
  8
0
100
AcDbLine
 10
0.0
 20
196.7523
 30
0.0
 11
0.1091
 21
197.8983
 31
0.0
  0
LINE
  5
CCE
330
1D
100
AcDbEntity
  8
0
100
AcDbLine
 10
2.0414
 20
193.2373
 30
0.0
 11
2.5459
 21
192.9903
 31
0.0
  0
LINE
  5
CCF
330
1D
100
AcDbEntity
  8
0
100
AcDbLine
 10
1.2416
 20
194.0213
 30
0.0
 11
2.0414
 21
193.2373
 31
0.0
  0
LINE
  5
CD0
330
1D
100
AcDbEntity
  8
0
100
AcDbLine
 10
2.5459
 20
192.9903
 30
0.0
 11
3.3689
 21
192.6813
 31
0.0
  0
LINE
  5
CD1
330
1D
100
AcDbEntity
  8
0
100
AcDbLine
 10
0.6789
 20
194.9223
 30
0.0
 11
1.2416
 21
194.0213
 31
0.0
  0
LINE
  5
CD2
330
1D
100
AcDbEntity
  8
0
100
AcDbLine
 10
0.4724
 20
198.9183
 30
0.0
 11
0.9196
 21
199.7363
 31
0.0
  0
LINE
  5
CD3
330
1D
100
AcDbEntity
  8
0
100
AcDbLine
 10
2.5911
 20
201.5123
 30
0.0
 11
3.5275
 21
202.2753
 31
0.0
  0
LINE
  5
CD4
330
1D
100
AcDbEntity
  8
0
100
AcDbLine
 10
1.6885
 20
200.7273
 30
0.0
 11
2.5911
 21
201.5123
 31
0.0
  0
LINE
  5
CD5
330
1D
100
AcDbEntity
  8
0
100
AcDbLine
 10
0.9196
 20
199.7363
 30
0.0
 11
1.6885
 21
200.7273
 31
0.0
  0
LINE
  5
CD6
330
1D
100
AcDbEntity
  8
0
100
AcDbLine
 10
3.3689
 20
192.6813
 30
0.0
 11
4.2603
 21
192.5313
 31
0.0
  0
LINE
  5
CD7
330
1D
100
AcDbEntity
  8
0
100
AcDbLine
 10
3.5275
 20
202.2753
 30
0.0
 11
4.2122
 21
202.7123
 31
0.0
  0
LINE
  5
CD8
330
1D
100
AcDbEntity
  8
0
100
AcDbLine
 10
4.2603
 20
192.5313
 30
0.0
 11
5.0349
 21
192.5223
 31
0.0
  0
LINE
  5
CD9
330
1D
100
AcDbEntity
  8
0
100
AcDbLine
 10
6.4573
 20
192.7083
 30
0.0
 11
9.012
 21
193.7253
 31
0.0
  0
LINE
  5
CDA
330
1D
100
AcDbEntity
  8
0
100
AcDbLine
 10
8.2195
 20
214.1343
 30
0.0
 11
8.519
 21
211.3443
 31
0.0
  0
LINE
  5
CDB
330
1D
100
AcDbEntity
  8
0
100
AcDbLine
 10
5.0349
 20
192.5223
 30
0.0
 11
6.4573
 21
192.7083
 31
0.0
  0
LINE
  5
CDC
330
1D
100
AcDbEntity
  8
0
100
AcDbLine
 10
4.2122
 20
202.7123
 30
0.0
 11
19.8577
 21
212.6433
 31
0.0
  0
LINE
  5
CDD
330
1D
100
AcDbEntity
  8
0
100
AcDbLine
 10
8.1155
 20
216.9953
 30
0.0
 11
8.3639
 21
219.9103
 31
0.0
  0
LINE
  5
CDE
330
1D
100
AcDbEntity
  8
0
100
AcDbLine
 10
8.1155
 20
216.9953
 30
0.0
 11
8.2195
 21
214.1343
 31
0.0
  0
LINE
  5
CDF
330
1D
100
AcDbEntity
  8
0
100
AcDbLine
 10
8.3639
 20
219.9103
 30
0.0
 11
8.8914
 21
222.5993
 31
0.0
  0
LINE
  5
CE0
330
1D
100
AcDbEntity
  8
0
100
AcDbLine
 10
2.7294
 20
201.624989982913
 30
0.0
 11
2.7294
 21
241.4773
 31
0.0
  0
LINE
  5
CE1
330
1D
100
AcDbEntity
  8
0
100
AcDbLine
 10
2.7294
 20
191.0843
 30
0.0
 11
2.7294
 21
192.921403888214
 31
0.0
  0
LINE
  5
CE2
330
1D
100
AcDbEntity
  8
0
100
AcDbLine
 10
2.7294
 20
191.0843
 30
0.0
 11
2.8815
 21
189.3533
 31
0.0
  0
LINE
  5
CE3
330
1D
100
AcDbEntity
  8
0
100
AcDbLine
 10
15.7982
 20
196.1663
 30
0.0
 11
17.832
 21
194.1703
 31
0.0
  0
LINE
  5
CE4
330
1D
100
AcDbEntity
  8
0
100
AcDbLine
 10
15.178635912595
 20
196.927403920075
 30
0.0
 11
15.7982
 21
196.1663
 31
0.0
  0
LINE
  5
CE5
330
1D
100
AcDbEntity
  8
0
100
AcDbLine
 10
9.012
 20
193.7253
 30
0.0
 11
25.9437
 21
202.5173
 31
0.0
  0
LINE
  5
CE6
330
1D
100
AcDbEntity
  8
0
100
AcDbLine
 10
9.1241
 20
208.5713
 30
0.0
 11
9.878465208128
 21
206.308968676739
 31
0.0
  0
LINE
  5
CE7
330
1D
100
AcDbEntity
  8
0
100
AcDbLine
 10
22.3934
 20
190.7643
 30
0.0
 11
24.8964
 21
189.4013
 31
0.0
  0
LINE
  5
CE8
330
1D
100
AcDbEntity
  8
0
100
AcDbLine
 10
20.0177
 20
192.3403
 30
0.0
 11
22.3934
 21
190.7643
 31
0.0
  0
LINE
  5
CE9
330
1D
100
AcDbEntity
  8
0
100
AcDbLine
 10
17.832
 20
194.1703
 30
0.0
 11
20.0177
 21
192.3403
 31
0.0
  0
LINE
  5
CEA
330
1D
100
AcDbEntity
  8
0
100
AcDbLine
 10
25.87213669377
 20
202.480139845475
 30
0.0
 11
26.4271
 21
202.7203
 31
0.0
  0
LINE
  5
CEB
330
1D
100
AcDbEntity
  8
0
100
AcDbLine
 10
25.87213669377
 20
202.480139845475
 30
0.0
 11
26.4271
 21
202.7203
 31
0.0
  0
LINE
  5
CEC
330
1D
100
AcDbEntity
  8
0
100
AcDbLine
 10
35.7839
 20
201.4333
 30
0.0
 11
37.8523
 21
201.2843
 31
0.0
  0
LINE
  5
CED
330
1D
100
AcDbEntity
  8
0
100
AcDbLine
 10
34.3773
 20
201.7423
 30
0.0
 11
35.7839
 21
201.4333
 31
0.0
  0
LINE
  5
CEE
330
1D
100
AcDbEntity
  8
0
100
AcDbLine
 10
32.861
 20
202.1383
 30
0.0
 11
34.3773
 21
201.7423
 31
0.0
  0
LINE
  5
CEF
330
1D
100
AcDbEntity
  8
0
100
AcDbLine
 10
30.550511868094
 20
202.919231988982
 30
0.0
 11
32.861
 21
202.1383
 31
0.0
  0
LINE
  5
CF0
330
1D
100
AcDbEntity
  8
0
100
AcDbLine
 10
29.43081641583
 20
203.164250708763
 30
0.0
 11
29.7165
 21
203.1103
 31
0.0
  0
LINE
  5
CF1
330
1D
100
AcDbEntity
  8
0
100
AcDbLine
 10
27.779454691196
 20
203.123928917723
 30
0.0
 11
28.5674
 21
203.2093
 31
0.0
  0
LINE
  5
CF2
330
1D
100
AcDbEntity
  8
0
100
AcDbLine
 10
19.8577
 20
212.6433
 30
0.0
 11
21.550706116162
 21
214.134786738298
 31
0.0
  0
LINE
  5
CF3
330
1D
100
AcDbEntity
  8
0
100
AcDbLine
 10
21.550706116162
 20
214.134786738298
 30
0.0
 11
21.9304
 21
214.6753
 31
0.0
  0
LINE
  5
CF4
330
1D
100
AcDbEntity
  8
0
100
AcDbLine
 10
21.9304
 20
214.6753
 30
0.0
 11
22.1813
 21
215.1553
 31
0.0
  0
LINE
  5
CF5
330
1D
100
AcDbEntity
  8
0
100
AcDbLine
 10
23.4275
 20
220.1493
 30
0.0
 11
24.2287
 21
222.3293
 31
0.0
  0
LINE
  5
CF6
330
1D
100
AcDbEntity
  8
0
100
AcDbLine
 10
22.9971
 20
218.0683
 30
0.0
 11
23.4275
 21
220.1493
 31
0.0
  0
LINE
  5
CF7
330
1D
100
AcDbEntity
  8
0
100
AcDbLine
 10
22.597520082298
 20
216.277079679268
 30
0.0
 11
22.9971
 21
218.0683
 31
0.0
  0
LINE
  5
CF8
330
1D
100
AcDbEntity
  8
0
100
AcDbLine
 10
22.1813
 20
215.1553
 30
0.0
 11
22.4185
 21
215.7143
 31
0.0
  0
LINE
  5
CF9
330
1D
100
AcDbEntity
  8
0
100
AcDbLine
 10
24.2287
 20
222.3293
 30
0.0
 11
24.7758
 21
223.4153
 31
0.0
  0
LINE
  5
CFA
330
1D
100
AcDbEntity
  8
0
100
AcDbLine
 10
8.519
 20
211.3443
 30
0.0
 11
9.1241
 21
208.5713
 31
0.0
  0
LINE
  5
CFB
330
1D
100
AcDbEntity
  8
0
100
AcDbLine
 10
8.8914
 20
222.5993
 30
0.0
 11
9.5375
 21
225.2763
 31
0.0
  0
LINE
  5
CFC
330
1D
100
AcDbEntity
  8
0
100
AcDbLine
 10
24.7758
 20
223.4153
 30
0.0
 11
25.3361
 21
224.3933
 31
0.0
  0
LINE
  5
CFD
330
1D
100
AcDbEntity
  8
0
100
AcDbLine
 10
25.3361
 20
224.3933
 30
0.0
 11
26.71
 21
226.2333
 31
0.0
  0
LINE
  5
CFE
330
1D
100
AcDbEntity
  8
0
100
AcDbLine
 10
9.5375
 20
225.2763
 30
0.0
 11
10.5224
 21
228.0183
 31
0.0
  0
LINE
  5
CFF
330
1D
100
AcDbEntity
  8
0
100
AcDbLine
 10
26.71
 20
226.2333
 30
0.0
 11
27.1847
 21
226.6243
 31
0.0
  0
LINE
  5
D00
330
1D
100
AcDbEntity
  8
0
100
AcDbLine
 10
10.5224
 20
228.0183
 30
0.0
 11
11.8151
 21
230.5843
 31
0.0
  0
LINE
  5
D01
330
1D
100
AcDbEntity
  8
0
100
AcDbLine
 10
28.0309
 20
227.5503
 30
0.0
 11
29.588
 21
228.8903
 31
0.0
  0
LINE
  5
D02
330
1D
100
AcDbEntity
  8
0
100
AcDbLine
 10
27.1847
 20
226.6243
 30
0.0
 11
28.0309
 21
227.5503
 31
0.0
  0
LINE
  5
D03
330
1D
100
AcDbEntity
  8
0
100
AcDbLine
 10
29.588
 20
228.8903
 30
0.0
 11
30.368903073502
 21
229.632343193095
 31
0.0
  0
LINE
  5
D04
330
1D
100
AcDbEntity
  8
0
100
AcDbLine
 10
31.1551
 20
230.5563
 30
0.0
 11
31.640789432049
 21
231.558105259709
 31
0.0
  0
LINE
  5
D05
330
1D
100
AcDbEntity
  8
0
100
AcDbLine
 10
11.8151
 20
230.5843
 30
0.0
 11
13.2447
 21
232.9913
 31
0.0
  0
LINE
  5
D06
330
1D
100
AcDbEntity
  8
0
100
AcDbLine
 10
114.0
 20
190.0543
 30
0.0
 11
114.151
 21
188.3173
 31
0.0
  0
LINE
  5
D07
330
1D
100
AcDbEntity
  8
0
100
AcDbLine
 10
114.151
 20
188.3173
 30
0.0
 11
114.5989
 21
186.6323
 31
0.0
  0
LINE
  5
D08
330
1D
100
AcDbEntity
  8
0
100
AcDbLine
 10
114.5989
 20
186.6323
 30
0.0
 11
115.3298
 21
185.0513
 31
0.0
  0
LINE
  5
D09
330
1D
100
AcDbEntity
  8
0
100
AcDbLine
 10
115.3298
 20
185.0513
 30
0.0
 11
116.3219
 21
183.6233
 31
0.0
  0
LINE
  5
D0A
330
1D
100
AcDbEntity
  8
0
100
AcDbLine
 10
116.3219
 20
183.6233
 30
0.0
 11
117.5445
 21
182.3903
 31
0.0
  0
LINE
  5
D0B
330
1D
100
AcDbEntity
  8
0
100
AcDbLine
 10
117.5445
 20
182.3903
 30
0.0
 11
118.9617
 21
181.3903
 31
0.0
  0
LINE
  5
D0C
330
1D
100
AcDbEntity
  8
0
100
AcDbLine
 10
118.9617
 20
181.3903
 30
0.0
 11
120.5298
 21
180.6533
 31
0.0
  0
LINE
  5
D0D
330
1D
100
AcDbEntity
  8
0
100
AcDbLine
 10
120.5298
 20
180.6533
 30
0.0
 11
122.2003
 21
180.2013
 31
0.0
  0
LINE
  5
D12
330
1D
100
AcDbEntity
  8
0
100
AcDbLine
 10
135.0961
 20
25.2657
 30
0.0
 11
135.0961
 21
114.7473
 31
0.0
  0
LINE
  5
D15
330
1D
100
AcDbEntity
  8
0
100
AcDbLine
 10
135.0961
 20
118.1913
 30
0.0
 11
135.0961
 21
114.7473
 31
0.0
  0
LINE
  5
D16
330
1D
100
AcDbEntity
  8
0
100
AcDbLine
 10
135.0961
 20
118.1913
 30
0.0
 11
135.0961
 21
122.4463
 31
0.0
  0
LINE
  5
D17
330
1D
100
AcDbEntity
  8
0
100
AcDbLine
 10
135.0961
 20
122.4463
 30
0.0
 11
135.0961
 21
118.1913
 31
0.0
  0
LINE
  5
D18
330
1D
100
AcDbEntity
  8
0
100
AcDbLine
 10
135.0961
 20
122.4463
 30
0.0
 11
135.0961
 21
127.4333
 31
0.0
  0
LINE
  5
D19
330
1D
100
AcDbEntity
  8
0
100
AcDbLine
 10
135.0961
 20
127.4333
 30
0.0
 11
135.0961
 21
122.4463
 31
0.0
  0
LINE
  5
D1A
330
1D
100
AcDbEntity
  8
0
100
AcDbLine
 10
135.0961
 20
127.4333
 30
0.0
 11
135.0961
 21
133.0623
 31
0.0
  0
LINE
  5
D1B
330
1D
100
AcDbEntity
  8
0
100
AcDbLine
 10
135.0961
 20
133.0623
 30
0.0
 11
135.0961
 21
127.4333
 31
0.0
  0
LINE
  5
D1C
330
1D
100
AcDbEntity
  8
0
100
AcDbLine
 10
135.0961
 20
133.0623
 30
0.0
 11
135.0961
 21
139.2313
 31
0.0
  0
LINE
  5
D1D
330
1D
100
AcDbEntity
  8
0
100
AcDbLine
 10
135.0961
 20
139.2313
 30
0.0
 11
135.0961
 21
133.0623
 31
0.0
  0
LINE
  5
D1E
330
1D
100
AcDbEntity
  8
0
100
AcDbLine
 10
135.0961
 20
139.2313
 30
0.0
 11
135.0961
 21
145.8263
 31
0.0
  0
LINE
  5
D1F
330
1D
100
AcDbEntity
  8
0
100
AcDbLine
 10
135.0961
 20
145.8263
 30
0.0
 11
135.0961
 21
139.2313
 31
0.0
  0
LINE
  5
D20
330
1D
100
AcDbEntity
  8
0
100
AcDbLine
 10
135.0961
 20
145.8263
 30
0.0
 11
135.0961
 21
152.7283
 31
0.0
  0
LINE
  5
D21
330
1D
100
AcDbEntity
  8
0
100
AcDbLine
 10
135.0961
 20
152.7283
 30
0.0
 11
135.0961
 21
145.8263
 31
0.0
  0
LINE
  5
D22
330
1D
100
AcDbEntity
  8
0
100
AcDbLine
 10
135.0961
 20
152.7283
 30
0.0
 11
135.0961
 21
159.8093
 31
0.0
  0
LINE
  5
D23
330
1D
100
AcDbEntity
  8
0
100
AcDbLine
 10
135.0961
 20
159.8093
 30
0.0
 11
135.0961
 21
152.7283
 31
0.0
  0
LINE
  5
D24
330
1D
100
AcDbEntity
  8
0
100
AcDbLine
 10
135.0961
 20
159.8093
 30
0.0
 11
135.0961
 21
166.9393
 31
0.0
  0
LINE
  5
D25
330
1D
100
AcDbEntity
  8
0
100
AcDbLine
 10
135.0961
 20
166.9393
 30
0.0
 11
135.0961
 21
159.8093
 31
0.0
  0
LINE
  5
D26
330
1D
100
AcDbEntity
  8
0
100
AcDbLine
 10
135.0961
 20
166.9393
 30
0.0
 11
135.0961
 21
173.9913
 31
0.0
  0
LINE
  5
D27
330
1D
100
AcDbEntity
  8
0
100
AcDbLine
 10
135.0961
 20
173.9913
 30
0.0
 11
135.0961
 21
166.9393
 31
0.0
  0
LINE
  5
D28
330
1D
100
AcDbEntity
  8
0
100
AcDbLine
 10
135.0961
 20
173.9913
 30
0.0
 11
135.0961
 21
180.8333
 31
0.0
  0
LINE
  5
D29
330
1D
100
AcDbEntity
  8
0
100
AcDbLine
 10
135.0961
 20
114.7473
 30
0.0
 11
135.0961
 21
25.2657
 31
0.0
  0
LINE
  5
D2A
330
1D
100
AcDbEntity
  8
0
100
AcDbLine
 10
135.0961
 20
114.7473
 30
0.0
 11
135.0961
 21
118.1913
 31
0.0
  0
LINE
  5
D2C
330
1D
100
AcDbEntity
  8
0
100
AcDbLine
 10
135.0961
 20
198.8913
 30
0.0
 11
135.0961
 21
193.3983
 31
0.0
  0
LINE
  5
D2D
330
1D
100
AcDbEntity
  8
0
100
AcDbLine
 10
135.0961
 20
198.8913
 30
0.0
 11
135.0961
 21
203.7223
 31
0.0
  0
LINE
  5
D2E
330
1D
100
AcDbEntity
  8
0
100
AcDbLine
 10
135.0961
 20
193.3983
 30
0.0
 11
135.0961
 21
187.3433
 31
0.0
  0
LINE
  5
D2F
330
1D
100
AcDbEntity
  8
0
100
AcDbLine
 10
135.0961
 20
193.3983
 30
0.0
 11
135.0961
 21
198.8913
 31
0.0
  0
LINE
  5
D30
330
1D
100
AcDbEntity
  8
0
100
AcDbLine
 10
135.0961
 20
187.3433
 30
0.0
 11
135.0961
 21
180.8333
 31
0.0
  0
LINE
  5
D31
330
1D
100
AcDbEntity
  8
0
100
AcDbLine
 10
135.0961
 20
187.3433
 30
0.0
 11
135.0961
 21
193.3983
 31
0.0
  0
LINE
  5
D32
330
1D
100
AcDbEntity
  8
0
100
AcDbLine
 10
135.0961
 20
180.8333
 30
0.0
 11
135.0961
 21
173.9913
 31
0.0
  0
LINE
  5
D33
330
1D
100
AcDbEntity
  8
0
100
AcDbLine
 10
135.0961
 20
180.8333
 30
0.0
 11
135.0961
 21
187.3433
 31
0.0
  0
LINE
  5
D34
330
1D
100
AcDbEntity
  8
0
100
AcDbLine
 10
135.0961
 20
203.7223
 30
0.0
 11
135.0961
 21
198.8913
 31
0.0
  0
LINE
  5
D35
330
1D
100
AcDbEntity
  8
0
100
AcDbLine
 10
135.0961
 20
203.7223
 30
0.0
 11
135.0961
 21
207.8003
 31
0.0
  0
LINE
  5
D36
330
1D
100
AcDbEntity
  8
0
100
AcDbLine
 10
134.0007
 20
199.3193
 30
0.0
 11
135.0961
 21
198.476081238811
 31
0.0
  0
LINE
  5
D37
330
1D
100
AcDbEntity
  8
0
100
AcDbLine
 10
131.0263
 20
202.8123
 30
0.0
 11
134.0007
 21
199.3193
 31
0.0
  0
LINE
  5
D38
330
1D
100
AcDbEntity
  8
0
100
AcDbLine
 10
135.0961
 20
214.8553
 30
0.0
 11
135.0961
 21
213.4183
 31
0.0
  0
LINE
  5
D39
330
1D
100
AcDbEntity
  8
0
100
AcDbLine
 10
135.0961
 20
214.8553
 30
0.0
 11
135.0961
 21
215.3363
 31
0.0
  0
LINE
  5
D3A
330
1D
100
AcDbEntity
  8
0
100
AcDbLine
 10
135.0961
 20
213.4183
 30
0.0
 11
135.0961
 21
211.0513
 31
0.0
  0
LINE
  5
D3B
330
1D
100
AcDbEntity
  8
0
100
AcDbLine
 10
135.0961
 20
213.4183
 30
0.0
 11
135.0961
 21
214.8553
 31
0.0
  0
LINE
  5
D3C
330
1D
100
AcDbEntity
  8
0
100
AcDbLine
 10
135.0961
 20
211.0513
 30
0.0
 11
135.0961
 21
207.8003
 31
0.0
  0
LINE
  5
D3D
330
1D
100
AcDbEntity
  8
0
100
AcDbLine
 10
135.0961
 20
211.0513
 30
0.0
 11
135.0961
 21
213.4183
 31
0.0
  0
LINE
  5
D3E
330
1D
100
AcDbEntity
  8
0
100
AcDbLine
 10
135.0961
 20
207.8003
 30
0.0
 11
135.0961
 21
203.7223
 31
0.0
  0
LINE
  5
D3F
330
1D
100
AcDbEntity
  8
0
100
AcDbLine
 10
135.0961
 20
207.8003
 30
0.0
 11
135.0961
 21
211.0513
 31
0.0
  0
LINE
  5
D40
330
1D
100
AcDbEntity
  8
0
100
AcDbLine
 10
135.0961
 20
215.3363
 30
0.0
 11
135.5699
 21
218.9653
 31
0.0
  0
LINE
  5
D41
330
1D
100
AcDbEntity
  8
0
100
AcDbLine
 10
135.0961
 20
215.3363
 30
0.0
 11
135.0961
 21
214.8553
 31
0.0
  0
LINE
  5
D42
330
1D
100
AcDbEntity
  8
0
100
AcDbLine
 10
128.8354
 20
206.8543
 30
0.0
 11
131.0263
 21
202.8123
 31
0.0
  0
LINE
  5
D43
330
1D
100
AcDbEntity
  8
0
100
AcDbLine
 10
127.5275
 20
211.2663
 30
0.0
 11
128.8354
 21
206.8543
 31
0.0
  0
LINE
  5
D44
330
1D
100
AcDbEntity
  8
0
100
AcDbLine
 10
127.742
 20
220.4243
 30
0.0
 11
129.2555
 21
224.7693
 31
0.0
  0
LINE
  5
D45
330
1D
100
AcDbEntity
  8
0
100
AcDbLine
 10
129.2555
 20
224.7693
 30
0.0
 11
131.6321
 21
228.7023
 31
0.0
  0
LINE
  5
D46
330
1D
100
AcDbEntity
  8
0
100
AcDbLine
 10
146.269
 20
229.0813
 30
0.0
 11
146.527
 21
229.13032
 31
0.0
  0
LINE
  5
D47
330
1D
100
AcDbEntity
  8
0
100
AcDbLine
 10
145.402
 20
228.8773
 30
0.0
 11
146.269
 21
229.0813
 31
0.0
  0
LINE
  5
D48
330
1D
100
AcDbEntity
  8
0
100
AcDbLine
 10
146.569
 20
229.1383
 30
0.0
 11
147.404
 21
229.2613
 31
0.0
  0
LINE
  5
D49
330
1D
100
AcDbEntity
  8
0
100
AcDbLine
 10
147.404
 20
229.2613
 30
0.0
 11
148.592
 21
229.3493
 31
0.0
  0
LINE
  5
D4A
330
1D
100
AcDbEntity
  8
0
100
AcDbLine
 10
146.527
 20
229.13032
 30
0.0
 11
146.527
 21
230.9573
 31
0.0
  0
LINE
  5
D4B
330
1D
100
AcDbEntity
  8
0
100
AcDbLine
 10
142.048
 20
227.4763
 30
0.0
 11
145.402
 21
228.8773
 31
0.0
  0
LINE
  5
D4C
330
1D
100
AcDbEntity
  8
0
100
AcDbLine
 10
139.168
 20
225.2483
 30
0.0
 11
142.048
 21
227.4763
 31
0.0
  0
LINE
  5
D4D
330
1D
100
AcDbEntity
  8
0
100
AcDbLine
 10
136.9593
 20
222.3463
 30
0.0
 11
139.168
 21
225.2483
 31
0.0
  0
LINE
  5
D4E
330
1D
100
AcDbEntity
  8
0
100
AcDbLine
 10
135.5699
 20
218.9653
 30
0.0
 11
136.9593
 21
222.3463
 31
0.0
  0
LINE
  5
D4F
330
1D
100
AcDbEntity
  8
0
100
AcDbLine
 10
146.052
 20
230.9573
 30
0.0
 11
146.183
 21
230.9573
 31
0.0
  0
LINE
  5
D50
330
1D
100
AcDbEntity
  8
0
100
AcDbLine
 10
146.023
 20
230.9573
 30
0.0
 11
146.094
 21
230.9573
 31
0.0
  0
LINE
  5
D51
330
1D
100
AcDbEntity
  8
0
100
AcDbLine
 10
146.409
 20
230.9573
 30
0.0
 11
146.724
 21
230.9573
 31
0.0
  0
LINE
  5
D52
330
1D
100
AcDbEntity
  8
0
100
AcDbLine
 10
146.183
 20
230.9573
 30
0.0
 11
146.409
 21
230.9573
 31
0.0
  0
LINE
  5
D53
330
1D
100
AcDbEntity
  8
0
100
AcDbLine
 10
146.094
 20
230.9573
 30
0.0
 11
146.265
 21
230.9573
 31
0.0
  0
LINE
  5
D54
330
1D
100
AcDbEntity
  8
0
100
AcDbLine
 10
146.265
 20
230.9573
 30
0.0
 11
146.527
 21
230.9573
 31
0.0
  0
LINE
  5
D55
330
1D
100
AcDbEntity
  8
0
100
AcDbLine
 10
146.724
 20
230.9573
 30
0.0
 11
147.115
 21
230.9573
 31
0.0
  0
LINE
  5
D56
330
1D
100
AcDbEntity
  8
0
100
AcDbLine
 10
146.527
 20
230.9573
 30
0.0
 11
146.527
 21
229.13032
 31
0.0
  0
LINE
  5
D57
330
1D
100
AcDbEntity
  8
0
100
AcDbLine
 10
146.527
 20
230.9573
 30
0.0
 11
146.618
 21
230.9573
 31
0.0
  0
LINE
  5
D58
330
1D
100
AcDbEntity
  8
0
100
AcDbLine
 10
146.618
 20
230.9573
 30
0.0
 11
146.8
 21
230.9573
 31
0.0
  0
LINE
  5
D59
330
1D
100
AcDbEntity
  8
0
100
AcDbLine
 10
147.115
 20
230.9573
 30
0.0
 11
147.572
 21
230.9573
 31
0.0
  0
LINE
  5
D5A
330
1D
100
AcDbEntity
  8
0
100
AcDbLine
 10
146.8
 20
230.9573
 30
0.0
 11
147.066
 21
230.9573
 31
0.0
  0
LINE
  5
D5B
330
1D
100
AcDbEntity
  8
0
100
AcDbLine
 10
131.6321
 20
228.7023
 30
0.0
 11
134.7674
 21
232.0503
 31
0.0
  0
LINE
  5
D5C
330
1D
100
AcDbEntity
  8
0
100
AcDbLine
 10
127.157
 20
215.8563
 30
0.0
 11
127.5275
 21
211.2663
 31
0.0
  0
LINE
  5
D5D
330
1D
100
AcDbEntity
  8
0
100
AcDbLine
 10
127.157
 20
215.8563
 30
0.0
 11
127.742
 21
220.4243
 31
0.0
  0
LINE
  5
D5E
330
1D
100
AcDbEntity
  8
0
100
AcDbLine
 10
123.9234
 20
180.0493
 30
0.0
 11
135.0961
 21
180.0493
 31
0.0
  0
LINE
  5
D5F
330
1D
100
AcDbEntity
  8
0
100
AcDbLine
 10
122.2003
 20
180.2013
 30
0.0
 11
123.9234
 21
180.0493
 31
0.0
  0
LINE
  5
D60
330
1D
100
AcDbEntity
  8
0
100
AcDbLine
 10
16.9497
 20
237.3943
 30
0.0
 11
20.281
 21
240.2033
 31
0.0
  0
LINE
  5
D61
330
1D
100
AcDbEntity
  8
0
100
AcDbLine
 10
14.9517
 20
235.2623
 30
0.0
 11
16.9497
 21
237.3943
 31
0.0
  0
LINE
  5
D62
330
1D
100
AcDbEntity
  8
0
100
AcDbLine
 10
32.0919
 20
234.4553
 30
0.0
 11
32.9175
 21
253.0243
 31
0.0
  0
LINE
  5
D63
330
1D
100
AcDbEntity
  8
0
100
AcDbLine
 10
20.281
 20
240.2033
 30
0.0
 11
23.727
 21
242.3543
 31
0.0
  0
LINE
  5
D64
330
1D
100
AcDbEntity
  8
0
100
AcDbLine
 10
13.2447
 20
232.9913
 30
0.0
 11
14.9517
 21
235.2623
 31
0.0
  0
LINE
  5
D65
330
1D
100
AcDbEntity
  8
0
100
AcDbLine
 10
2.8815
 20
243.2093
 30
0.0
 11
3.3328
 21
244.8873
 31
0.0
  0
LINE
  5
D66
330
1D
100
AcDbEntity
  8
0
100
AcDbLine
 10
23.727
 20
242.3543
 30
0.0
 11
27.6027
 21
244.1003
 31
0.0
  0
LINE
  5
D67
330
1D
100
AcDbEntity
  8
0
100
AcDbLine
 10
27.6027
 20
244.1003
 30
0.0
 11
31.6975
 21
245.1933
 31
0.0
  0
LINE
  5
D68
330
1D
100
AcDbEntity
  8
0
100
AcDbLine
 10
27.6027
 20
244.1003
 30
0.0
 11
31.6945
 21
245.2003
 31
0.0
  0
LINE
  5
D69
330
1D
100
AcDbEntity
  8
0
100
AcDbLine
 10
31.6945
 20
245.2003
 30
0.0
 11
32.576103730835
 21
245.345778534242
 31
0.0
  0
LINE
  5
D6A
330
1D
100
AcDbEntity
  8
0
100
AcDbLine
 10
31.6975
 20
245.1933
 30
0.0
 11
32.575831839999
 21
245.339663295706
 31
0.0
  0
LINE
  5
D6B
330
1D
100
AcDbEntity
  8
0
100
AcDbLine
 10
3.3328
 20
244.8873
 30
0.0
 11
4.0694
 21
246.4633
 31
0.0
  0
LINE
  5
D6C
330
1D
100
AcDbEntity
  8
0
100
AcDbLine
 10
2.7294
 20
241.4773
 30
0.0
 11
2.8815
 21
243.2093
 31
0.0
  0
LINE
  5
D6D
330
1D
100
AcDbEntity
  8
0
100
AcDbLine
 10
4.0694
 20
246.4633
 30
0.0
 11
5.0691
 21
247.8873
 31
0.0
  0
LINE
  5
D6E
330
1D
100
AcDbEntity
  8
0
100
AcDbLine
 10
32.9175
 20
253.0243
 30
0.0
 11
33.2667
 21
255.1613
 31
0.0
  0
LINE
  5
D6F
330
1D
100
AcDbEntity
  8
0
100
AcDbLine
 10
33.2667
 20
255.1613
 30
0.0
 11
33.6606
 21
256.2383
 31
0.0
  0
LINE
  5
D70
330
1D
100
AcDbEntity
  8
0
100
AcDbLine
 10
33.6606
 20
256.2383
 30
0.0
 11
34.2659
 21
257.2943
 31
0.0
  0
LINE
  5
D71
330
1D
100
AcDbEntity
  8
0
100
AcDbLine
 10
34.2659
 20
257.2943
 30
0.0
 11
35.1287
 21
258.2993
 31
0.0
  0
LINE
  5
D72
330
1D
100
AcDbEntity
  8
0
100
AcDbLine
 10
36.5196
 20
259.0553
 30
0.0
 11
37.1481
 21
259.1483
 31
0.0
  0
LINE
  5
D73
330
1D
100
AcDbEntity
  8
0
100
AcDbLine
 10
36.0423
 20
258.8633
 30
0.0
 11
36.5196
 21
259.0553
 31
0.0
  0
LINE
  5
D74
330
1D
100
AcDbEntity
  8
0
100
AcDbLine
 10
35.8001
 20
258.7293
 30
0.0
 11
36.0423
 21
258.8633
 31
0.0
  0
LINE
  5
D75
330
1D
100
AcDbEntity
  8
0
100
AcDbLine
 10
35.1287
 20
258.2993
 30
0.0
 11
35.8001
 21
258.7293
 31
0.0
  0
LINE
  5
D76
330
1D
100
AcDbEntity
  8
0
100
AcDbLine
 10
37.1481
 20
259.1483
 30
0.0
 11
38.0071
 21
259.1883
 31
0.0
  0
LINE
  5
D77
330
1D
100
AcDbEntity
  8
0
100
AcDbLine
 10
38.0071
 20
259.1883
 30
0.0
 11
39.0124
 21
259.1153
 31
0.0
  0
LINE
  5
D78
330
1D
100
AcDbEntity
  8
0
100
AcDbLine
 10
12.729
 20
251.4483
 30
0.0
 11
32.847429150735
 21
251.4483
 31
0.0
  0
LINE
  5
D79
330
1D
100
AcDbEntity
  8
0
100
AcDbLine
 10
10.9926
 20
251.2973
 30
0.0
 11
12.729
 21
251.4483
 31
0.0
  0
LINE
  5
D7A
330
1D
100
AcDbEntity
  8
0
100
AcDbLine
 10
9.3094
 20
250.8473
 30
0.0
 11
10.9926
 21
251.2973
 31
0.0
  0
LINE
  5
D7B
330
1D
100
AcDbEntity
  8
0
100
AcDbLine
 10
7.7292
 20
250.1123
 30
0.0
 11
9.3094
 21
250.8473
 31
0.0
  0
LINE
  5
D7C
330
1D
100
AcDbEntity
  8
0
100
AcDbLine
 10
6.3011
 20
249.1153
 30
0.0
 11
7.7292
 21
250.1123
 31
0.0
  0
LINE
  5
D7D
330
1D
100
AcDbEntity
  8
0
100
AcDbLine
 10
5.0691
 20
247.8873
 30
0.0
 11
6.3011
 21
249.1153
 31
0.0
  0
LINE
  5
D7E
330
1D
100
AcDbEntity
  8
0
100
AcDbLine
 10
122.2003
 20
250.4723
 30
0.0
 11
123.9234
 21
250.6243
 31
0.0
  0
LINE
  5
D7F
330
1D
100
AcDbEntity
  8
0
100
AcDbLine
 10
120.5298
 20
250.0203
 30
0.0
 11
122.2003
 21
250.4723
 31
0.0
  0
LINE
  5
D80
330
1D
100
AcDbEntity
  8
0
100
AcDbLine
 10
118.9617
 20
249.2833
 30
0.0
 11
120.5298
 21
250.0203
 31
0.0
  0
LINE
  5
D81
330
1D
100
AcDbEntity
  8
0
100
AcDbLine
 10
117.5445
 20
248.2833
 30
0.0
 11
118.9617
 21
249.2833
 31
0.0
  0
LINE
  5
D82
330
1D
100
AcDbEntity
  8
0
100
AcDbLine
 10
116.3219
 20
247.0503
 30
0.0
 11
117.5445
 21
248.2833
 31
0.0
  0
LINE
  5
D83
330
1D
100
AcDbEntity
  8
0
100
AcDbLine
 10
115.3298
 20
245.6223
 30
0.0
 11
116.3219
 21
247.0503
 31
0.0
  0
LINE
  5
D84
330
1D
100
AcDbEntity
  8
0
100
AcDbLine
 10
114.5989
 20
244.0413
 30
0.0
 11
115.3298
 21
245.6223
 31
0.0
  0
LINE
  5
D85
330
1D
100
AcDbEntity
  8
0
100
AcDbLine
 10
114.151
 20
242.3563
 30
0.0
 11
114.5989
 21
244.0413
 31
0.0
  0
LINE
  5
D86
330
1D
100
AcDbEntity
  8
0
100
AcDbLine
 10
114.0
 20
240.6193
 30
0.0
 11
114.151
 21
242.3563
 31
0.0
  0
LINE
  5
D87
330
1D
100
AcDbEntity
  8
0
100
AcDbLine
 10
114.0
 20
240.6193
 30
0.0
 11
114.0
 21
190.0543
 31
0.0
  0
LINE
  5
D88
330
1D
100
AcDbEntity
  8
0
100
AcDbLine
 10
145.56835483871
 20
231.425041935484
 30
0.0
 11
146.023
 21
230.9573
 31
0.0
  0
LINE
  5
D89
330
1D
100
AcDbEntity
  8
0
100
AcDbLine
 10
145.535
 20
231.4573
 30
0.0
 11
145.627
 21
231.4573
 31
0.0
  0
LINE
  5
D8A
330
1D
100
AcDbEntity
  8
0
100
AcDbLine
 10
145.535
 20
231.4573
 30
0.0
 11
145.535
 21
242.4713
 31
0.0
  0
LINE
  5
D8B
330
1D
100
AcDbEntity
  8
0
100
AcDbLine
 10
145.627
 20
231.4573
 30
0.0
 11
145.811
 21
231.4573
 31
0.0
  0
LINE
  5
D8C
330
1D
100
AcDbEntity
  8
0
100
AcDbLine
 10
145.811
 20
231.4573
 30
0.0
 11
146.082
 21
231.4573
 31
0.0
  0
LINE
  5
D8D
330
1D
100
AcDbEntity
  8
0
100
AcDbLine
 10
146.082
 20
231.4573
 30
0.0
 11
146.434
 21
231.4573
 31
0.0
  0
LINE
  5
D8E
330
1D
100
AcDbEntity
  8
0
100
AcDbLine
 10
146.434
 20
231.4573
 30
0.0
 11
146.854
 21
231.4573
 31
0.0
  0
LINE
  5
D8F
330
1D
100
AcDbEntity
  8
0
100
AcDbLine
 10
146.854
 20
231.4573
 30
0.0
 11
147.334
 21
231.4573
 31
0.0
  0
LINE
  5
D90
330
1D
100
AcDbEntity
  8
0
100
AcDbLine
 10
147.334
 20
231.4573
 30
0.0
 11
147.858
 21
231.4573
 31
0.0
  0
LINE
  5
D91
330
1D
100
AcDbEntity
  8
0
100
AcDbLine
 10
138.5254
 20
234.6683
 30
0.0
 11
142.74
 21
236.4423
 31
0.0
  0
LINE
  5
D92
330
1D
100
AcDbEntity
  8
0
100
AcDbLine
 10
145.535
 20
242.4713
 30
0.0
 11
145.535
 21
231.4573
 31
0.0
  0
LINE
  5
D93
330
1D
100
AcDbEntity
  8
0
100
AcDbLine
 10
145.535
 20
242.4713
 30
0.0
 11
145.627
 21
242.4713
 31
0.0
  0
LINE
  5
D94
330
1D
100
AcDbEntity
  8
0
100
AcDbLine
 10
145.627
 20
242.4713
 30
0.0
 11
145.811
 21
242.4713
 31
0.0
  0
LINE
  5
D95
330
1D
100
AcDbEntity
  8
0
100
AcDbLine
 10
145.811
 20
242.4713
 30
0.0
 11
146.082
 21
242.4713
 31
0.0
  0
LINE
  5
D96
330
1D
100
AcDbEntity
  8
0
100
AcDbLine
 10
146.082
 20
242.4713
 30
0.0
 11
146.434
 21
242.4713
 31
0.0
  0
LINE
  5
D97
330
1D
100
AcDbEntity
  8
0
100
AcDbLine
 10
146.434
 20
242.4713
 30
0.0
 11
146.854
 21
242.4713
 31
0.0
  0
LINE
  5
D98
330
1D
100
AcDbEntity
  8
0
100
AcDbLine
 10
146.854
 20
242.4713
 30
0.0
 11
147.334
 21
242.4713
 31
0.0
  0
LINE
  5
D99
330
1D
100
AcDbEntity
  8
0
100
AcDbLine
 10
145.56835483871
 20
242.503622580645
 30
0.0
 11
146.023
 21
242.9723
 31
0.0
  0
LINE
  5
D9A
330
1D
100
AcDbEntity
  8
0
100
AcDbLine
 10
146.052
 20
242.9723
 30
0.0
 11
146.183
 21
242.9723
 31
0.0
  0
LINE
  5
D9B
330
1D
100
AcDbEntity
  8
0
100
AcDbLine
 10
146.183
 20
242.9723
 30
0.0
 11
146.409
 21
242.9723
 31
0.0
  0
LINE
  5
D9C
330
1D
100
AcDbEntity
  8
0
100
AcDbLine
 10
146.409
 20
242.9723
 30
0.0
 11
146.724
 21
242.9723
 31
0.0
  0
LINE
  5
D9D
330
1D
100
AcDbEntity
  8
0
100
AcDbLine
 10
146.724
 20
242.9723
 30
0.0
 11
147.115
 21
242.9723
 31
0.0
  0
LINE
  5
D9E
330
1D
100
AcDbEntity
  8
0
100
AcDbLine
 10
147.115
 20
242.9723
 30
0.0
 11
147.572
 21
242.9723
 31
0.0
  0
LINE
  5
D9F
330
1D
100
AcDbEntity
  8
0
100
AcDbLine
 10
147.334
 20
242.4713
 30
0.0
 11
147.858
 21
242.4713
 31
0.0
  0
LINE
  5
DA0
330
1D
100
AcDbEntity
  8
0
100
AcDbLine
 10
142.74
 20
236.4423
 30
0.0
 11
145.535
 21
237.016665183246
 31
0.0
  0
LINE
  5
DA1
330
1D
100
AcDbEntity
  8
0
100
AcDbLine
 10
134.7674
 20
232.0503
 30
0.0
 11
138.5254
 21
234.6683
 31
0.0
  0
LINE
  5
DA2
330
1D
100
AcDbEntity
  8
0
100
AcDbLine
 10
123.9234
 20
250.6243
 30
0.0
 11
149.0
 21
250.6243
 31
0.0
  0
LINE
  5
DA3
330
1D
100
AcDbEntity
  8
0
100
AcDbLine
 10
147.066
 20
230.9573
 30
0.0
 11
147.407
 21
230.9573
 31
0.0
  0
LINE
  5
E06
330
1D
100
AcDbEntity
  8
0
100
AcDbLine
 10
148.076
 20
230.9573
 30
0.0
 11
148.613
 21
230.9573
 31
0.0
  0
LINE
  5
E07
330
1D
100
AcDbEntity
  8
0
100
AcDbLine
 10
147.572
 20
230.9573
 30
0.0
 11
148.076
 21
230.9573
 31
0.0
  0
LINE
  5
E08
330
1D
100
AcDbEntity
  8
0
100
AcDbLine
 10
147.809
 20
230.9573
 30
0.0
 11
148.257
 21
230.9573
 31
0.0
  0
LINE
  5
E09
330
1D
100
AcDbEntity
  8
0
100
AcDbLine
 10
149.0
 20
230.9573
 30
0.0
 11
149.266
 21
230.9573
 31
0.0
  0
LINE
  5
E0A
330
1D
100
AcDbEntity
  8
0
100
AcDbLine
 10
148.613
 20
230.9573
 30
0.0
 11
149.0
 21
230.9573
 31
0.0
  0
LINE
  5
E0B
330
1D
100
AcDbEntity
  8
0
100
AcDbLine
 10
148.592
 20
229.3493
 30
0.0
 11
149.0
 21
229.3553
 31
0.0
  0
LINE
  5
E0C
330
1D
100
AcDbEntity
  8
0
100
AcDbLine
 10
148.257
 20
230.9573
 30
0.0
 11
148.734
 21
230.9573
 31
0.0
  0
LINE
  5
E0D
330
1D
100
AcDbEntity
  8
0
100
AcDbLine
 10
147.858
 20
242.4713
 30
0.0
 11
148.414
 21
242.4713
 31
0.0
  0
LINE
  5
E0E
330
1D
100
AcDbEntity
  8
0
100
AcDbLine
 10
147.858
 20
231.4573
 30
0.0
 11
148.414
 21
231.4573
 31
0.0
  0
LINE
  5
E0F
330
1D
100
AcDbEntity
  8
0
100
AcDbLine
 10
148.414
 20
242.4713
 30
0.0
 11
148.986
 21
242.4713
 31
0.0
  0
LINE
  5
E10
330
1D
100
AcDbEntity
  8
0
100
AcDbLine
 10
148.414
 20
231.4573
 30
0.0
 11
148.986
 21
231.4573
 31
0.0
  0
LINE
  5
E11
330
1D
100
AcDbEntity
  8
0
100
AcDbLine
 10
147.572
 20
242.9723
 30
0.0
 11
148.076
 21
242.9723
 31
0.0
  0
LINE
  5
E12
330
1D
100
AcDbEntity
  8
0
100
AcDbLine
 10
148.613
 20
242.9723
 30
0.0
 11
149.0
 21
242.9723
 31
0.0
  0
LINE
  5
E13
330
1D
100
AcDbEntity
  8
0
100
AcDbLine
 10
148.076
 20
242.9723
 30
0.0
 11
148.613
 21
242.9723
 31
0.0
  0
LINE
  5
E14
330
1D
100
AcDbEntity
  8
0
100
AcDbLine
 10
148.734
 20
230.9573
 30
0.0
 11
149.0
 21
230.9573
 31
0.0
  0
LINE
  5
FB6
330
1D
100
AcDbEntity
  8
0
100
AcDbLine
 10
147.407
 20
230.9573
 30
0.0
 11
147.809
 21
230.9573
 31
0.0
  0
LINE
  5
FB7
330
1D
100
AcDbEntity
  8
0
100
AcDbLine
 10
22.4185
 20
215.7143
 30
0.0
 11
22.597520082298
 21
216.277079679268
 31
0.0
  0
LINE
  5
FB8
330
1D
100
AcDbEntity
  8
0
100
AcDbLine
 10
27.779454691196
 20
203.123928917723
 30
0.0
 11
27.010352926131
 21
202.965146803823
 31
0.0
  0
LINE
  5
FB9
330
1D
100
AcDbEntity
  8
0
100
AcDbLine
 10
27.010352926131
 20
202.965146803823
 30
0.0
 11
26.4271
 21
202.7203
 31
0.0
  0
LINE
  5
FBA
330
1D
100
AcDbEntity
  8
0
100
AcDbLine
 10
28.5674
 20
203.2093
 30
0.0
 11
29.43081641583
 21
203.164250708763
 31
0.0
  0
LINE
  5
FBB
330
1D
100
AcDbEntity
  8
0
100
AcDbLine
 10
29.7165
 20
203.1103
 30
0.0
 11
30.550511868094
 21
202.919231988982
 31
0.0
  0
LINE
  5
FBC
330
1D
100
AcDbEntity
  8
0
100
AcDbLine
 10
30.368903073502
 20
229.632343193095
 30
0.0
 11
31.1551
 21
230.5563
 31
0.0
  0
LINE
  5
FBD
330
1D
100
AcDbEntity
  8
0
100
AcDbLine
 10
31.640789432049
 20
231.558105259709
 30
0.0
 11
32.014024791452
 21
232.922067919225
 31
0.0
  0
LINE
  5
FBE
330
1D
100
AcDbEntity
  8
0
100
AcDbLine
 10
32.014024791452
 20
232.922067919225
 30
0.0
 11
32.0919
 21
234.4553
 31
0.0
  0
LINE
  5
FBF
330
1D
100
AcDbEntity
  8
0
100
AcDbLine
 10
75.2706
 20
201.624989982913
 30
0.0
 11
75.2706
 21
241.4773
 31
0.0
  0
LINE
  5
FC0
330
1D
100
AcDbEntity
  8
0
100
AcDbLine
 10
67.4776
 20
228.0183
 30
0.0
 11
66.1849
 21
230.5843
 31
0.0
  0
LINE
  5
FC1
330
1D
100
AcDbEntity
  8
0
100
AcDbLine
 10
49.9691
 20
227.5503
 30
0.0
 11
48.412
 21
228.8903
 31
0.0
  0
LINE
  5
FC2
330
1D
100
AcDbEntity
  8
0
100
AcDbLine
 10
53.1036
 20
189.4013
 30
0.0
 11
50.4897
 21
188.2583
 31
0.0
  0
LINE
  5
FC3
330
1D
100
AcDbEntity
  8
0
100
AcDbLine
 10
52.12786330623
 20
202.480139845475
 30
0.0
 11
51.5729
 21
202.7203
 31
0.0
  0
LINE
  5
FC4
330
1D
100
AcDbEntity
  8
0
100
AcDbLine
 10
52.12786330623
 20
202.480139845475
 30
0.0
 11
51.5729
 21
202.7203
 31
0.0
  0
LINE
  5
FC5
330
1D
100
AcDbEntity
  8
0
100
AcDbLine
 10
52.6639
 20
224.3933
 30
0.0
 11
51.29
 21
226.2333
 31
0.0
  0
LINE
  5
FC6
330
1D
100
AcDbEntity
  8
0
100
AcDbLine
 10
74.4725
 20
202.2753
 30
0.0
 11
73.7878
 21
202.7123
 31
0.0
  0
LINE
  5
FC7
330
1D
100
AcDbEntity
  8
0
100
AcDbLine
 10
68.988
 20
193.7253
 30
0.0
 11
52.0563
 21
202.5173
 31
0.0
  0
LINE
  5
FC8
330
1D
100
AcDbEntity
  8
0
100
AcDbLine
 10
75.2706
 20
191.0843
 30
0.0
 11
75.1185
 21
189.3533
 31
0.0
  0
LINE
  5
FC9
330
1D
100
AcDbEntity
  8
0
100
AcDbLine
 10
68.6906
 20
181.7153
 30
0.0
 11
66.6296
 21
181.1893
 31
0.0
  0
LINE
  5
FCA
330
1D
100
AcDbEntity
  8
0
100
AcDbLine
 10
70.2708
 20
182.4493
 30
0.0
 11
68.6906
 21
181.7153
 31
0.0
  0
LINE
  5
FCB
330
1D
100
AcDbEntity
  8
0
100
AcDbLine
 10
71.6989
 20
183.4463
 30
0.0
 11
70.2708
 21
182.4493
 31
0.0
  0
LINE
  5
FCC
330
1D
100
AcDbEntity
  8
0
100
AcDbLine
 10
72.9309
 20
184.6753
 30
0.0
 11
71.6989
 21
183.4463
 31
0.0
  0
LINE
  5
FCD
330
1D
100
AcDbEntity
  8
0
100
AcDbLine
 10
73.9306
 20
186.0993
 30
0.0
 11
72.9309
 21
184.6753
 31
0.0
  0
LINE
  5
FCE
330
1D
100
AcDbEntity
  8
0
100
AcDbLine
 10
74.6672
 20
187.6743
 30
0.0
 11
73.9306
 21
186.0993
 31
0.0
  0
LINE
  5
FCF
330
1D
100
AcDbEntity
  8
0
100
AcDbLine
 10
75.1185
 20
189.3533
 30
0.0
 11
74.6672
 21
187.6743
 31
0.0
  0
LINE
  5
FD0
330
1D
100
AcDbEntity
  8
0
100
AcDbLine
 10
77.7456
 20
195.7383
 30
0.0
 11
77.3211
 21
194.9223
 31
0.0
  0
LINE
  5
FD1
330
1D
100
AcDbEntity
  8
0
100
AcDbLine
 10
77.8909
 20
197.8983
 30
0.0
 11
77.5276
 21
198.9183
 31
0.0
  0
LINE
  5
FD2
330
1D
100
AcDbEntity
  8
0
100
AcDbLine
 10
78.0
 20
196.7523
 30
0.0
 11
77.7456
 21
195.7383
 31
0.0
  0
LINE
  5
FD3
330
1D
100
AcDbEntity
  8
0
100
AcDbLine
 10
78.0
 20
196.7523
 30
0.0
 11
77.8909
 21
197.8983
 31
0.0
  0
LINE
  5
FD4
330
1D
100
AcDbEntity
  8
0
100
AcDbLine
 10
75.9586
 20
193.2373
 30
0.0
 11
75.4541
 21
192.9903
 31
0.0
  0
LINE
  5
FD5
330
1D
100
AcDbEntity
  8
0
100
AcDbLine
 10
76.7584
 20
194.0213
 30
0.0
 11
75.9586
 21
193.2373
 31
0.0
  0
LINE
  5
FD6
330
1D
100
AcDbEntity
  8
0
100
AcDbLine
 10
75.4541
 20
192.9903
 30
0.0
 11
74.6311
 21
192.6813
 31
0.0
  0
LINE
  5
FD7
330
1D
100
AcDbEntity
  8
0
100
AcDbLine
 10
77.3211
 20
194.9223
 30
0.0
 11
76.7584
 21
194.0213
 31
0.0
  0
LINE
  5
FD8
330
1D
100
AcDbEntity
  8
0
100
AcDbLine
 10
77.5276
 20
198.9183
 30
0.0
 11
77.0804
 21
199.7363
 31
0.0
  0
LINE
  5
FD9
330
1D
100
AcDbEntity
  8
0
100
AcDbLine
 10
75.4089
 20
201.5123
 30
0.0
 11
74.4725
 21
202.2753
 31
0.0
  0
LINE
  5
FDA
330
1D
100
AcDbEntity
  8
0
100
AcDbLine
 10
76.3115
 20
200.7273
 30
0.0
 11
75.4089
 21
201.5123
 31
0.0
  0
LINE
  5
FDB
330
1D
100
AcDbEntity
  8
0
100
AcDbLine
 10
77.0804
 20
199.7363
 30
0.0
 11
76.3115
 21
200.7273
 31
0.0
  0
LINE
  5
FDC
330
1D
100
AcDbEntity
  8
0
100
AcDbLine
 10
74.6311
 20
192.6813
 30
0.0
 11
73.7397
 21
192.5313
 31
0.0
  0
LINE
  5
FDD
330
1D
100
AcDbEntity
  8
0
100
AcDbLine
 10
73.7397
 20
192.5313
 30
0.0
 11
72.9651
 21
192.5223
 31
0.0
  0
LINE
  5
FDE
330
1D
100
AcDbEntity
  8
0
100
AcDbLine
 10
72.9651
 20
192.5223
 30
0.0
 11
71.5427
 21
192.7083
 31
0.0
  0
LINE
  5
FDF
330
1D
100
AcDbEntity
  8
0
100
AcDbLine
 10
75.2706
 20
191.0843
 30
0.0
 11
75.2706
 21
192.921403888214
 31
0.0
  0
LINE
  5
FE0
330
1D
100
AcDbEntity
  8
0
100
AcDbLine
 10
71.5427
 20
192.7083
 30
0.0
 11
68.988
 21
193.7253
 31
0.0
  0
LINE
  5
FE1
330
1D
100
AcDbEntity
  8
0
100
AcDbLine
 10
62.2018
 20
196.1663
 30
0.0
 11
60.168
 21
194.1703
 31
0.0
  0
LINE
  5
FE2
330
1D
100
AcDbEntity
  8
0
100
AcDbLine
 10
62.821364087405
 20
196.927403920075
 30
0.0
 11
62.2018
 21
196.1663
 31
0.0
  0
LINE
  5
FE3
330
1D
100
AcDbEntity
  8
0
100
AcDbLine
 10
55.6066
 20
190.7643
 30
0.0
 11
53.1036
 21
189.4013
 31
0.0
  0
LINE
  5
FE4
330
1D
100
AcDbEntity
  8
0
100
AcDbLine
 10
57.9823
 20
192.3403
 30
0.0
 11
55.6066
 21
190.7643
 31
0.0
  0
LINE
  5
FE5
330
1D
100
AcDbEntity
  8
0
100
AcDbLine
 10
60.168
 20
194.1703
 30
0.0
 11
57.9823
 21
192.3403
 31
0.0
  0
LINE
  5
FE6
330
1D
100
AcDbEntity
  8
0
100
AcDbLine
 10
73.7878
 20
202.7123
 30
0.0
 11
58.1423
 21
212.6433
 31
0.0
  0
LINE
  5
FE7
330
1D
100
AcDbEntity
  8
0
100
AcDbLine
 10
69.8845
 20
216.9953
 30
0.0
 11
69.7805
 21
214.1343
 31
0.0
  0
LINE
  5
FE8
330
1D
100
AcDbEntity
  8
0
100
AcDbLine
 10
69.7805
 20
214.1343
 30
0.0
 11
69.481
 21
211.3443
 31
0.0
  0
LINE
  5
FE9
330
1D
100
AcDbEntity
  8
0
100
AcDbLine
 10
68.8759
 20
208.5713
 30
0.0
 11
68.121534791872
 21
206.308968676739
 31
0.0
  0
LINE
  5
FEA
330
1D
100
AcDbEntity
  8
0
100
AcDbLine
 10
69.481
 20
211.3443
 30
0.0
 11
68.8759
 21
208.5713
 31
0.0
  0
LINE
  5
FEB
330
1D
100
AcDbEntity
  8
0
100
AcDbLine
 10
69.8845
 20
216.9953
 30
0.0
 11
69.6361
 21
219.9103
 31
0.0
  0
LINE
  5
FEC
330
1D
100
AcDbEntity
  8
0
100
AcDbLine
 10
69.6361
 20
219.9103
 30
0.0
 11
69.1086
 21
222.5993
 31
0.0
  0
LINE
  5
FED
330
1D
100
AcDbEntity
  8
0
100
AcDbLine
 10
69.1086
 20
222.5993
 30
0.0
 11
68.4625
 21
225.2763
 31
0.0
  0
LINE
  5
FEE
330
1D
100
AcDbEntity
  8
0
100
AcDbLine
 10
68.4625
 20
225.2763
 30
0.0
 11
67.4776
 21
228.0183
 31
0.0
  0
LINE
  5
FEF
330
1D
100
AcDbEntity
  8
0
100
AcDbLine
 10
56.449293883838
 20
214.134786738298
 30
0.0
 11
56.0696
 21
214.6753
 31
0.0
  0
LINE
  5
FF0
330
1D
100
AcDbEntity
  8
0
100
AcDbLine
 10
56.0696
 20
214.6753
 30
0.0
 11
55.8187
 21
215.1553
 31
0.0
  0
LINE
  5
FF1
330
1D
100
AcDbEntity
  8
0
100
AcDbLine
 10
54.5725
 20
220.1493
 30
0.0
 11
53.7713
 21
222.3293
 31
0.0
  0
LINE
  5
FF2
330
1D
100
AcDbEntity
  8
0
100
AcDbLine
 10
55.0029
 20
218.0683
 30
0.0
 11
54.5725
 21
220.1493
 31
0.0
  0
LINE
  5
FF3
330
1D
100
AcDbEntity
  8
0
100
AcDbLine
 10
55.402479917702
 20
216.277079679268
 30
0.0
 11
55.0029
 21
218.0683
 31
0.0
  0
LINE
  5
FF4
330
1D
100
AcDbEntity
  8
0
100
AcDbLine
 10
55.8187
 20
215.1553
 30
0.0
 11
55.5815
 21
215.7143
 31
0.0
  0
LINE
  5
FF5
330
1D
100
AcDbEntity
  8
0
100
AcDbLine
 10
53.7713
 20
222.3293
 30
0.0
 11
53.2242
 21
223.4153
 31
0.0
  0
LINE
  5
FF6
330
1D
100
AcDbEntity
  8
0
100
AcDbLine
 10
53.2242
 20
223.4153
 30
0.0
 11
52.6639
 21
224.3933
 31
0.0
  0
LINE
  5
FF7
330
1D
100
AcDbEntity
  8
0
100
AcDbLine
 10
58.1423
 20
212.6433
 30
0.0
 11
56.449293883838
 21
214.134786738298
 31
0.0
  0
LINE
  5
FF8
330
1D
100
AcDbEntity
  8
0
100
AcDbLine
 10
55.5815
 20
215.7143
 30
0.0
 11
55.402479917702
 21
216.277079679268
 31
0.0
  0
LINE
  5
FF9
330
1D
100
AcDbEntity
  8
0
100
AcDbLine
 10
47.449488131906
 20
202.919231988982
 30
0.0
 11
45.139
 21
202.1383
 31
0.0
  0
LINE
  5
FFA
330
1D
100
AcDbEntity
  8
0
100
AcDbLine
 10
42.1453
 20
186.4713
 30
0.0
 11
39.1767
 21
186.3863
 31
0.0
  0
LINE
  5
FFB
330
1D
100
AcDbEntity
  8
0
100
AcDbLine
 10
44.9821
 20
186.7863
 30
0.0
 11
42.1453
 21
186.4713
 31
0.0
  0
LINE
  5
FFC
330
1D
100
AcDbEntity
  8
0
100
AcDbLine
 10
47.7712
 20
187.3913
 30
0.0
 11
44.9821
 21
186.7863
 31
0.0
  0
LINE
  5
FFD
330
1D
100
AcDbEntity
  8
0
100
AcDbLine
 10
50.4897
 20
188.2583
 30
0.0
 11
47.7712
 21
187.3913
 31
0.0
  0
LINE
  5
FFE
330
1D
100
AcDbEntity
  8
0
100
AcDbLine
 10
42.2161
 20
201.4333
 30
0.0
 11
40.1477
 21
201.2843
 31
0.0
  0
LINE
  5
FFF
330
1D
100
AcDbEntity
  8
0
100
AcDbLine
 10
43.6227
 20
201.7423
 30
0.0
 11
42.2161
 21
201.4333
 31
0.0
  0
LINE
  5
1000
330
1D
100
AcDbEntity
  8
0
100
AcDbLine
 10
45.139
 20
202.1383
 30
0.0
 11
43.6227
 21
201.7423
 31
0.0
  0
LINE
  5
1001
330
1D
100
AcDbEntity
  8
0
100
AcDbLine
 10
48.56918358417
 20
203.164250708763
 30
0.0
 11
48.2835
 21
203.1103
 31
0.0
  0
LINE
  5
1002
330
1D
100
AcDbEntity
  8
0
100
AcDbLine
 10
50.220545308804
 20
203.123928917723
 30
0.0
 11
49.4326
 21
203.2093
 31
0.0
  0
LINE
  5
1003
330
1D
100
AcDbEntity
  8
0
100
AcDbLine
 10
51.29
 20
226.2333
 30
0.0
 11
50.8153
 21
226.6243
 31
0.0
  0
LINE
  5
1004
330
1D
100
AcDbEntity
  8
0
100
AcDbLine
 10
50.8153
 20
226.6243
 30
0.0
 11
49.9691
 21
227.5503
 31
0.0
  0
LINE
  5
1005
330
1D
100
AcDbEntity
  8
0
100
AcDbLine
 10
50.220545308804
 20
203.123928917723
 30
0.0
 11
50.989647073869
 21
202.965146803823
 31
0.0
  0
LINE
  5
1006
330
1D
100
AcDbEntity
  8
0
100
AcDbLine
 10
50.989647073869
 20
202.965146803823
 30
0.0
 11
51.5729
 21
202.7203
 31
0.0
  0
LINE
  5
1007
330
1D
100
AcDbEntity
  8
0
100
AcDbLine
 10
49.4326
 20
203.2093
 30
0.0
 11
48.56918358417
 21
203.164250708763
 31
0.0
  0
LINE
  5
1008
330
1D
100
AcDbEntity
  8
0
100
AcDbLine
 10
48.2835
 20
203.1103
 30
0.0
 11
47.449488131906
 21
202.919231988982
 31
0.0
  0
LINE
  5
1009
330
1D
100
AcDbEntity
  8
0
100
AcDbLine
 10
54.273
 20
242.3543
 30
0.0
 11
50.3973
 21
244.1003
 31
0.0
  0
LINE
  5
100A
330
1D
100
AcDbEntity
  8
0
100
AcDbLine
 10
65.271
 20
251.4483
 30
0.0
 11
45.152570849265
 21
251.4483
 31
0.0
  0
LINE
  5
100B
330
1D
100
AcDbEntity
  8
0
100
AcDbLine
 10
66.1849
 20
230.5843
 30
0.0
 11
64.7553
 21
232.9913
 31
0.0
  0
LINE
  5
100C
330
1D
100
AcDbEntity
  8
0
100
AcDbLine
 10
75.2706
 20
241.4773
 30
0.0
 11
75.1185
 21
243.2093
 31
0.0
  0
LINE
  5
100D
330
1D
100
AcDbEntity
  8
0
100
AcDbLine
 10
75.1185
 20
243.2093
 30
0.0
 11
74.6672
 21
244.8873
 31
0.0
  0
LINE
  5
100E
330
1D
100
AcDbEntity
  8
0
100
AcDbLine
 10
74.6672
 20
244.8873
 30
0.0
 11
73.9306
 21
246.4633
 31
0.0
  0
LINE
  5
100F
330
1D
100
AcDbEntity
  8
0
100
AcDbLine
 10
73.9306
 20
246.4633
 30
0.0
 11
72.9309
 21
247.8873
 31
0.0
  0
LINE
  5
1010
330
1D
100
AcDbEntity
  8
0
100
AcDbLine
 10
67.0074
 20
251.2973
 30
0.0
 11
65.271
 21
251.4483
 31
0.0
  0
LINE
  5
1011
330
1D
100
AcDbEntity
  8
0
100
AcDbLine
 10
68.6906
 20
250.8473
 30
0.0
 11
67.0074
 21
251.2973
 31
0.0
  0
LINE
  5
1012
330
1D
100
AcDbEntity
  8
0
100
AcDbLine
 10
70.2708
 20
250.1123
 30
0.0
 11
68.6906
 21
250.8473
 31
0.0
  0
LINE
  5
1013
330
1D
100
AcDbEntity
  8
0
100
AcDbLine
 10
71.6989
 20
249.1153
 30
0.0
 11
70.2708
 21
250.1123
 31
0.0
  0
LINE
  5
1014
330
1D
100
AcDbEntity
  8
0
100
AcDbLine
 10
72.9309
 20
247.8873
 30
0.0
 11
71.6989
 21
249.1153
 31
0.0
  0
LINE
  5
1015
330
1D
100
AcDbEntity
  8
0
100
AcDbLine
 10
61.0503
 20
237.3943
 30
0.0
 11
57.719
 21
240.2033
 31
0.0
  0
LINE
  5
1016
330
1D
100
AcDbEntity
  8
0
100
AcDbLine
 10
63.0483
 20
235.2623
 30
0.0
 11
61.0503
 21
237.3943
 31
0.0
  0
LINE
  5
1017
330
1D
100
AcDbEntity
  8
0
100
AcDbLine
 10
57.719
 20
240.2033
 30
0.0
 11
54.273
 21
242.3543
 31
0.0
  0
LINE
  5
1018
330
1D
100
AcDbEntity
  8
0
100
AcDbLine
 10
64.7553
 20
232.9913
 30
0.0
 11
63.0483
 21
235.2623
 31
0.0
  0
LINE
  5
1019
330
1D
100
AcDbEntity
  8
0
100
AcDbLine
 10
45.0825
 20
253.0243
 30
0.0
 11
44.7333
 21
255.1613
 31
0.0
  0
LINE
  5
101A
330
1D
100
AcDbEntity
  8
0
100
AcDbLine
 10
45.9081
 20
234.4553
 30
0.0
 11
45.0825
 21
253.0243
 31
0.0
  0
LINE
  5
101B
330
1D
100
AcDbEntity
  8
0
100
AcDbLine
 10
48.412
 20
228.8903
 30
0.0
 11
47.631096926498
 21
229.632343193095
 31
0.0
  0
LINE
  5
101C
330
1D
100
AcDbEntity
  8
0
100
AcDbLine
 10
46.8449
 20
230.5563
 30
0.0
 11
46.359210567951
 21
231.558105259709
 31
0.0
  0
LINE
  5
101D
330
1D
100
AcDbEntity
  8
0
100
AcDbLine
 10
47.631096926498
 20
229.632343193095
 30
0.0
 11
46.8449
 21
230.5563
 31
0.0
  0
LINE
  5
101E
330
1D
100
AcDbEntity
  8
0
100
AcDbLine
 10
46.359210567951
 20
231.558105259709
 30
0.0
 11
45.985975208548
 21
232.922067919225
 31
0.0
  0
LINE
  5
101F
330
1D
100
AcDbEntity
  8
0
100
AcDbLine
 10
45.985975208548
 20
232.922067919225
 30
0.0
 11
45.9081
 21
234.4553
 31
0.0
  0
LINE
  5
1020
330
1D
100
AcDbEntity
  8
0
100
AcDbLine
 10
50.3973
 20
244.1003
 30
0.0
 11
46.3025
 21
245.1933
 31
0.0
  0
LINE
  5
1021
330
1D
100
AcDbEntity
  8
0
100
AcDbLine
 10
50.3973
 20
244.1003
 30
0.0
 11
46.3055
 21
245.2003
 31
0.0
  0
LINE
  5
1022
330
1D
100
AcDbEntity
  8
0
100
AcDbLine
 10
46.3055
 20
245.2003
 30
0.0
 11
45.423896269165
 21
245.345778534242
 31
0.0
  0
LINE
  5
1023
330
1D
100
AcDbEntity
  8
0
100
AcDbLine
 10
46.3025
 20
245.1933
 30
0.0
 11
45.424168160001
 21
245.339663295706
 31
0.0
  0
LINE
  5
1024
330
1D
100
AcDbEntity
  8
0
100
AcDbLine
 10
44.7333
 20
255.1613
 30
0.0
 11
44.3394
 21
256.2383
 31
0.0
  0
LINE
  5
1025
330
1D
100
AcDbEntity
  8
0
100
AcDbLine
 10
44.3394
 20
256.2383
 30
0.0
 11
43.7341
 21
257.2943
 31
0.0
  0
LINE
  5
1026
330
1D
100
AcDbEntity
  8
0
100
AcDbLine
 10
43.7341
 20
257.2943
 30
0.0
 11
42.8713
 21
258.2993
 31
0.0
  0
LINE
  5
1027
330
1D
100
AcDbEntity
  8
0
100
AcDbLine
 10
41.4804
 20
259.0553
 30
0.0
 11
40.8519
 21
259.1483
 31
0.0
  0
LINE
  5
1028
330
1D
100
AcDbEntity
  8
0
100
AcDbLine
 10
41.9577
 20
258.8633
 30
0.0
 11
41.4804
 21
259.0553
 31
0.0
  0
LINE
  5
1029
330
1D
100
AcDbEntity
  8
0
100
AcDbLine
 10
42.1999
 20
258.7293
 30
0.0
 11
41.9577
 21
258.8633
 31
0.0
  0
LINE
  5
102A
330
1D
100
AcDbEntity
  8
0
100
AcDbLine
 10
42.8713
 20
258.2993
 30
0.0
 11
42.1999
 21
258.7293
 31
0.0
  0
LINE
  5
102B
330
1D
100
AcDbEntity
  8
0
100
AcDbLine
 10
40.8519
 20
259.1483
 30
0.0
 11
39.9929
 21
259.1883
 31
0.0
  0
LINE
  5
102C
330
1D
100
AcDbEntity
  8
0
100
AcDbLine
 10
39.9929
 20
259.1883
 30
0.0
 11
38.9876
 21
259.1153
 31
0.0
  0
LINE
  5
102D
330
1D
100
AcDbEntity
  8
0
100
AcDbLine
 10
38.8233
 20
186.3863
 30
0.0
 11
39.1767
 21
186.3863
 31
0.0
  0
LINE
  5
102E
330
1D
100
AcDbEntity
  8
0
100
AcDbLine
 10
11.3704
 20
181.1893
 30
0.0
 11
66.6296
 21
181.1893
 31
0.0
  0
LINE
  5
102F
330
1D
100
AcDbEntity
  8
0
100
AcDbLine
 10
37.8523
 20
201.2843
 30
0.0
 11
40.1477
 21
201.2843
 31
0.0
  0
LINE
  5
1033
330
1D
100
AcDbEntity
  8
0
100
AcDbLine
 10
155.952
 20
227.4763
 30
0.0
 11
152.598
 21
228.8773
 31
0.0
  0
LINE
  5
1034
330
1D
100
AcDbEntity
  8
0
100
AcDbLine
 10
166.3679
 20
228.7023
 30
0.0
 11
163.2326
 21
232.0503
 31
0.0
  0
LINE
  5
1035
330
1D
100
AcDbEntity
  8
0
100
AcDbLine
 10
184.0
 20
240.6193
 30
0.0
 11
184.0
 21
190.0543
 31
0.0
  0
LINE
  5
10CA
330
1D
100
AcDbEntity
  8
0
100
AcDbLine
 10
162.9039
 20
122.4463
 30
0.0
 11
162.9039
 21
127.4333
 31
0.0
  0
LINE
  5
10CB
330
1D
100
AcDbEntity
  8
0
100
AcDbLine
 10
162.9039
 20
127.4333
 30
0.0
 11
162.9039
 21
122.4463
 31
0.0
  0
LINE
  5
10D0
330
1D
100
AcDbEntity
  8
0
100
AcDbLine
 10
162.9039
 20
25.265063854351
 30
0.0
 11
162.9039
 21
114.7473
 31
0.0
  0
LINE
  5
10D1
330
1D
100
AcDbEntity
  8
0
100
AcDbLine
 10
162.9039
 20
114.7473
 30
0.0
 11
162.9039
 21
25.265063854351
 31
0.0
  0
LINE
  5
10D5
330
1D
100
AcDbEntity
  8
0
100
AcDbLine
 10
162.9039
 20
118.1913
 30
0.0
 11
162.9039
 21
114.7473
 31
0.0
  0
LINE
  5
10D6
330
1D
100
AcDbEntity
  8
0
100
AcDbLine
 10
162.9039
 20
118.1913
 30
0.0
 11
162.9039
 21
122.4463
 31
0.0
  0
LINE
  5
10D7
330
1D
100
AcDbEntity
  8
0
100
AcDbLine
 10
162.9039
 20
122.4463
 30
0.0
 11
162.9039
 21
118.1913
 31
0.0
  0
LINE
  5
10D8
330
1D
100
AcDbEntity
  8
0
100
AcDbLine
 10
162.9039
 20
114.7473
 30
0.0
 11
162.9039
 21
118.1913
 31
0.0
  0
LINE
  5
10D9
330
1D
100
AcDbEntity
  8
0
100
AcDbLine
 10
162.9039
 20
173.9913
 30
0.0
 11
162.9039
 21
180.8333
 31
0.0
  0
LINE
  5
10DA
330
1D
100
AcDbEntity
  8
0
100
AcDbLine
 10
162.9039
 20
180.8333
 30
0.0
 11
162.9039
 21
173.9913
 31
0.0
  0
LINE
  5
10DB
330
1D
100
AcDbEntity
  8
0
100
AcDbLine
 10
162.9039
 20
127.4333
 30
0.0
 11
162.9039
 21
133.0623
 31
0.0
  0
LINE
  5
10DC
330
1D
100
AcDbEntity
  8
0
100
AcDbLine
 10
162.9039
 20
133.0623
 30
0.0
 11
162.9039
 21
127.4333
 31
0.0
  0
LINE
  5
10DD
330
1D
100
AcDbEntity
  8
0
100
AcDbLine
 10
162.9039
 20
133.0623
 30
0.0
 11
162.9039
 21
139.2313
 31
0.0
  0
LINE
  5
10DE
330
1D
100
AcDbEntity
  8
0
100
AcDbLine
 10
162.9039
 20
139.2313
 30
0.0
 11
162.9039
 21
133.0623
 31
0.0
  0
LINE
  5
10DF
330
1D
100
AcDbEntity
  8
0
100
AcDbLine
 10
162.9039
 20
139.2313
 30
0.0
 11
162.9039
 21
145.8263
 31
0.0
  0
LINE
  5
10E0
330
1D
100
AcDbEntity
  8
0
100
AcDbLine
 10
162.9039
 20
145.8263
 30
0.0
 11
162.9039
 21
139.2313
 31
0.0
  0
LINE
  5
10E1
330
1D
100
AcDbEntity
  8
0
100
AcDbLine
 10
162.9039
 20
145.8263
 30
0.0
 11
162.9039
 21
152.7283
 31
0.0
  0
LINE
  5
10E2
330
1D
100
AcDbEntity
  8
0
100
AcDbLine
 10
162.9039
 20
152.7283
 30
0.0
 11
162.9039
 21
145.8263
 31
0.0
  0
LINE
  5
10E3
330
1D
100
AcDbEntity
  8
0
100
AcDbLine
 10
162.9039
 20
152.7283
 30
0.0
 11
162.9039
 21
159.8093
 31
0.0
  0
LINE
  5
10E4
330
1D
100
AcDbEntity
  8
0
100
AcDbLine
 10
162.9039
 20
159.8093
 30
0.0
 11
162.9039
 21
152.7283
 31
0.0
  0
LINE
  5
10E5
330
1D
100
AcDbEntity
  8
0
100
AcDbLine
 10
162.9039
 20
159.8093
 30
0.0
 11
162.9039
 21
166.9393
 31
0.0
  0
LINE
  5
10E6
330
1D
100
AcDbEntity
  8
0
100
AcDbLine
 10
162.9039
 20
166.9393
 30
0.0
 11
162.9039
 21
159.8093
 31
0.0
  0
LINE
  5
10E7
330
1D
100
AcDbEntity
  8
0
100
AcDbLine
 10
162.9039
 20
166.9393
 30
0.0
 11
162.9039
 21
173.9913
 31
0.0
  0
LINE
  5
10E8
330
1D
100
AcDbEntity
  8
0
100
AcDbLine
 10
162.9039
 20
173.9913
 30
0.0
 11
162.9039
 21
166.9393
 31
0.0
  0
LINE
  5
10E9
330
1D
100
AcDbEntity
  8
0
100
AcDbLine
 10
169.1646
 20
206.8543
 30
0.0
 11
166.9737
 21
202.8123
 31
0.0
  0
LINE
  5
10EA
330
1D
100
AcDbEntity
  8
0
100
AcDbLine
 10
168.7445
 20
224.7693
 30
0.0
 11
166.3679
 21
228.7023
 31
0.0
  0
LINE
  5
10EB
330
1D
100
AcDbEntity
  8
0
100
AcDbLine
 10
174.0766
 20
180.0493
 30
0.0
 11
162.9039
 21
180.0493
 31
0.0
  0
LINE
  5
10EC
330
1D
100
AcDbEntity
  8
0
100
AcDbLine
 10
184.0
 20
190.0543
 30
0.0
 11
183.849
 21
188.3173
 31
0.0
  0
LINE
  5
10ED
330
1D
100
AcDbEntity
  8
0
100
AcDbLine
 10
183.849
 20
188.3173
 30
0.0
 11
183.4011
 21
186.6323
 31
0.0
  0
LINE
  5
10EE
330
1D
100
AcDbEntity
  8
0
100
AcDbLine
 10
183.4011
 20
186.6323
 30
0.0
 11
182.6702
 21
185.0513
 31
0.0
  0
LINE
  5
10EF
330
1D
100
AcDbEntity
  8
0
100
AcDbLine
 10
182.6702
 20
185.0513
 30
0.0
 11
181.6781
 21
183.6233
 31
0.0
  0
LINE
  5
10F0
330
1D
100
AcDbEntity
  8
0
100
AcDbLine
 10
181.6781
 20
183.6233
 30
0.0
 11
180.4555
 21
182.3903
 31
0.0
  0
LINE
  5
10F1
330
1D
100
AcDbEntity
  8
0
100
AcDbLine
 10
180.4555
 20
182.3903
 30
0.0
 11
179.0383
 21
181.3903
 31
0.0
  0
LINE
  5
10F2
330
1D
100
AcDbEntity
  8
0
100
AcDbLine
 10
179.0383
 20
181.3903
 30
0.0
 11
177.4702
 21
180.6533
 31
0.0
  0
LINE
  5
10F3
330
1D
100
AcDbEntity
  8
0
100
AcDbLine
 10
177.4702
 20
180.6533
 30
0.0
 11
175.7997
 21
180.2013
 31
0.0
  0
LINE
  5
10F4
330
1D
100
AcDbEntity
  8
0
100
AcDbLine
 10
170.4725
 20
211.2663
 30
0.0
 11
169.1646
 21
206.8543
 31
0.0
  0
LINE
  5
10F5
330
1D
100
AcDbEntity
  8
0
100
AcDbLine
 10
170.258
 20
220.4243
 30
0.0
 11
168.7445
 21
224.7693
 31
0.0
  0
LINE
  5
10F6
330
1D
100
AcDbEntity
  8
0
100
AcDbLine
 10
170.843
 20
215.8563
 30
0.0
 11
170.4725
 21
211.2663
 31
0.0
  0
LINE
  5
10F7
330
1D
100
AcDbEntity
  8
0
100
AcDbLine
 10
170.843
 20
215.8563
 30
0.0
 11
170.258
 21
220.4243
 31
0.0
  0
LINE
  5
10F8
330
1D
100
AcDbEntity
  8
0
100
AcDbLine
 10
175.7997
 20
180.2013
 30
0.0
 11
174.0766
 21
180.0493
 31
0.0
  0
LINE
  5
10F9
330
1D
100
AcDbEntity
  8
0
100
AcDbLine
 10
162.9039
 20
198.8913
 30
0.0
 11
162.9039
 21
203.7223
 31
0.0
  0
LINE
  5
10FA
330
1D
100
AcDbEntity
  8
0
100
AcDbLine
 10
162.9039
 20
203.7223
 30
0.0
 11
162.9039
 21
198.8913
 31
0.0
  0
LINE
  5
10FB
330
1D
100
AcDbEntity
  8
0
100
AcDbLine
 10
166.9737
 20
202.8123
 30
0.0
 11
163.9993
 21
199.3193
 31
0.0
  0
LINE
  5
10FC
330
1D
100
AcDbEntity
  8
0
100
AcDbLine
 10
162.9039
 20
198.8913
 30
0.0
 11
162.9039
 21
193.3983
 31
0.0
  0
LINE
  5
10FD
330
1D
100
AcDbEntity
  8
0
100
AcDbLine
 10
162.9039
 20
193.3983
 30
0.0
 11
162.9039
 21
187.3433
 31
0.0
  0
LINE
  5
10FE
330
1D
100
AcDbEntity
  8
0
100
AcDbLine
 10
162.9039
 20
193.3983
 30
0.0
 11
162.9039
 21
198.8913
 31
0.0
  0
LINE
  5
10FF
330
1D
100
AcDbEntity
  8
0
100
AcDbLine
 10
162.9039
 20
187.3433
 30
0.0
 11
162.9039
 21
180.8333
 31
0.0
  0
LINE
  5
1100
330
1D
100
AcDbEntity
  8
0
100
AcDbLine
 10
162.9039
 20
187.3433
 30
0.0
 11
162.9039
 21
193.3983
 31
0.0
  0
LINE
  5
1101
330
1D
100
AcDbEntity
  8
0
100
AcDbLine
 10
162.9039
 20
180.8333
 30
0.0
 11
162.9039
 21
187.3433
 31
0.0
  0
LINE
  5
1102
330
1D
100
AcDbEntity
  8
0
100
AcDbLine
 10
163.9993
 20
199.3193
 30
0.0
 11
162.9039
 21
198.476081238811
 31
0.0
  0
LINE
  5
1103
330
1D
100
AcDbEntity
  8
0
100
AcDbLine
 10
162.9039
 20
203.7223
 30
0.0
 11
162.9039
 21
207.8003
 31
0.0
  0
LINE
  5
1104
330
1D
100
AcDbEntity
  8
0
100
AcDbLine
 10
162.9039
 20
214.8553
 30
0.0
 11
162.9039
 21
213.4183
 31
0.0
  0
LINE
  5
1105
330
1D
100
AcDbEntity
  8
0
100
AcDbLine
 10
162.9039
 20
214.8553
 30
0.0
 11
162.9039
 21
215.3363
 31
0.0
  0
LINE
  5
1106
330
1D
100
AcDbEntity
  8
0
100
AcDbLine
 10
162.9039
 20
213.4183
 30
0.0
 11
162.9039
 21
211.0513
 31
0.0
  0
LINE
  5
1107
330
1D
100
AcDbEntity
  8
0
100
AcDbLine
 10
162.9039
 20
213.4183
 30
0.0
 11
162.9039
 21
214.8553
 31
0.0
  0
LINE
  5
1108
330
1D
100
AcDbEntity
  8
0
100
AcDbLine
 10
162.9039
 20
211.0513
 30
0.0
 11
162.9039
 21
207.8003
 31
0.0
  0
LINE
  5
1109
330
1D
100
AcDbEntity
  8
0
100
AcDbLine
 10
162.9039
 20
211.0513
 30
0.0
 11
162.9039
 21
213.4183
 31
0.0
  0
LINE
  5
110A
330
1D
100
AcDbEntity
  8
0
100
AcDbLine
 10
162.9039
 20
207.8003
 30
0.0
 11
162.9039
 21
203.7223
 31
0.0
  0
LINE
  5
110B
330
1D
100
AcDbEntity
  8
0
100
AcDbLine
 10
162.9039
 20
207.8003
 30
0.0
 11
162.9039
 21
211.0513
 31
0.0
  0
LINE
  5
110C
330
1D
100
AcDbEntity
  8
0
100
AcDbLine
 10
162.9039
 20
215.3363
 30
0.0
 11
162.4301
 21
218.9653
 31
0.0
  0
LINE
  5
110D
330
1D
100
AcDbEntity
  8
0
100
AcDbLine
 10
162.9039
 20
215.3363
 30
0.0
 11
162.9039
 21
214.8553
 31
0.0
  0
LINE
  5
110E
330
1D
100
AcDbEntity
  8
0
100
AcDbLine
 10
158.832
 20
225.2483
 30
0.0
 11
155.952
 21
227.4763
 31
0.0
  0
LINE
  5
110F
330
1D
100
AcDbEntity
  8
0
100
AcDbLine
 10
161.0407
 20
222.3463
 30
0.0
 11
158.832
 21
225.2483
 31
0.0
  0
LINE
  5
1110
330
1D
100
AcDbEntity
  8
0
100
AcDbLine
 10
162.4301
 20
218.9653
 30
0.0
 11
161.0407
 21
222.3463
 31
0.0
  0
LINE
  5
1159
330
1D
100
AcDbEntity
  8
0
100
AcDbLine
 10
174.0766
 20
250.6243
 30
0.0
 11
149.0
 21
250.6243
 31
0.0
  0
LINE
  5
115A
330
1D
100
AcDbEntity
  8
0
100
AcDbLine
 10
175.7997
 20
250.4723
 30
0.0
 11
174.0766
 21
250.6243
 31
0.0
  0
LINE
  5
115B
330
1D
100
AcDbEntity
  8
0
100
AcDbLine
 10
177.4702
 20
250.0203
 30
0.0
 11
175.7997
 21
250.4723
 31
0.0
  0
LINE
  5
115C
330
1D
100
AcDbEntity
  8
0
100
AcDbLine
 10
179.0383
 20
249.2833
 30
0.0
 11
177.4702
 21
250.0203
 31
0.0
  0
LINE
  5
115D
330
1D
100
AcDbEntity
  8
0
100
AcDbLine
 10
180.4555
 20
248.2833
 30
0.0
 11
179.0383
 21
249.2833
 31
0.0
  0
LINE
  5
115E
330
1D
100
AcDbEntity
  8
0
100
AcDbLine
 10
181.6781
 20
247.0503
 30
0.0
 11
180.4555
 21
248.2833
 31
0.0
  0
LINE
  5
115F
330
1D
100
AcDbEntity
  8
0
100
AcDbLine
 10
182.6702
 20
245.6223
 30
0.0
 11
181.6781
 21
247.0503
 31
0.0
  0
LINE
  5
1160
330
1D
100
AcDbEntity
  8
0
100
AcDbLine
 10
183.4011
 20
244.0413
 30
0.0
 11
182.6702
 21
245.6223
 31
0.0
  0
LINE
  5
1161
330
1D
100
AcDbEntity
  8
0
100
AcDbLine
 10
183.849
 20
242.3563
 30
0.0
 11
183.4011
 21
244.0413
 31
0.0
  0
LINE
  5
1162
330
1D
100
AcDbEntity
  8
0
100
AcDbLine
 10
184.0
 20
240.6193
 30
0.0
 11
183.849
 21
242.3563
 31
0.0
  0
LINE
  5
1163
330
1D
100
AcDbEntity
  8
0
100
AcDbLine
 10
155.26
 20
236.4423
 30
0.0
 11
152.465
 21
237.016665183246
 31
0.0
  0
LINE
  5
1164
330
1D
100
AcDbEntity
  8
0
100
AcDbLine
 10
159.4746
 20
234.6683
 30
0.0
 11
155.26
 21
236.4423
 31
0.0
  0
LINE
  5
1165
330
1D
100
AcDbEntity
  8
0
100
AcDbLine
 10
163.2326
 20
232.0503
 30
0.0
 11
159.4746
 21
234.6683
 31
0.0
  0
LINE
  5
1166
330
1D
100
AcDbEntity
  8
0
100
AcDbLine
 10
152.465
 20
231.4573
 30
0.0
 11
152.465
 21
242.4713
 31
0.0
  0
LINE
  5
1167
330
1D
100
AcDbEntity
  8
0
100
AcDbLine
 10
152.465
 20
242.4713
 30
0.0
 11
152.465
 21
231.4573
 31
0.0
  0
LINE
  5
1168
330
1D
100
AcDbEntity
  8
0
100
AcDbLine
 10
151.431
 20
229.1383
 30
0.0
 11
150.596
 21
229.2613
 31
0.0
  0
LINE
  5
1169
330
1D
100
AcDbEntity
  8
0
100
AcDbLine
 10
150.885
 20
230.9573
 30
0.0
 11
150.428
 21
230.9573
 31
0.0
  0
LINE
  5
116A
330
1D
100
AcDbEntity
  8
0
100
AcDbLine
 10
151.146
 20
231.4573
 30
0.0
 11
150.666
 21
231.4573
 31
0.0
  0
LINE
  5
116B
330
1D
100
AcDbEntity
  8
0
100
AcDbLine
 10
150.934
 20
230.9573
 30
0.0
 11
150.593
 21
230.9573
 31
0.0
  0
LINE
  5
116C
330
1D
100
AcDbEntity
  8
0
100
AcDbLine
 10
151.731
 20
229.0813
 30
0.0
 11
151.473
 21
229.13032
 31
0.0
  0
LINE
  5
116D
330
1D
100
AcDbEntity
  8
0
100
AcDbLine
 10
152.598
 20
228.8773
 30
0.0
 11
151.731
 21
229.0813
 31
0.0
  0
LINE
  5
116E
330
1D
100
AcDbEntity
  8
0
100
AcDbLine
 10
151.473
 20
229.13032
 30
0.0
 11
151.473
 21
230.9573
 31
0.0
  0
LINE
  5
116F
330
1D
100
AcDbEntity
  8
0
100
AcDbLine
 10
151.948
 20
230.9573
 30
0.0
 11
151.817
 21
230.9573
 31
0.0
  0
LINE
  5
1170
330
1D
100
AcDbEntity
  8
0
100
AcDbLine
 10
151.977
 20
230.9573
 30
0.0
 11
151.906
 21
230.9573
 31
0.0
  0
LINE
  5
1171
330
1D
100
AcDbEntity
  8
0
100
AcDbLine
 10
151.591
 20
230.9573
 30
0.0
 11
151.276
 21
230.9573
 31
0.0
  0
LINE
  5
1172
330
1D
100
AcDbEntity
  8
0
100
AcDbLine
 10
151.817
 20
230.9573
 30
0.0
 11
151.591
 21
230.9573
 31
0.0
  0
LINE
  5
1173
330
1D
100
AcDbEntity
  8
0
100
AcDbLine
 10
151.906
 20
230.9573
 30
0.0
 11
151.735
 21
230.9573
 31
0.0
  0
LINE
  5
1174
330
1D
100
AcDbEntity
  8
0
100
AcDbLine
 10
151.735
 20
230.9573
 30
0.0
 11
151.473
 21
230.9573
 31
0.0
  0
LINE
  5
1175
330
1D
100
AcDbEntity
  8
0
100
AcDbLine
 10
151.276
 20
230.9573
 30
0.0
 11
150.885
 21
230.9573
 31
0.0
  0
LINE
  5
1176
330
1D
100
AcDbEntity
  8
0
100
AcDbLine
 10
151.473
 20
230.9573
 30
0.0
 11
151.473
 21
229.13032
 31
0.0
  0
LINE
  5
1177
330
1D
100
AcDbEntity
  8
0
100
AcDbLine
 10
151.473
 20
230.9573
 30
0.0
 11
151.382
 21
230.9573
 31
0.0
  0
LINE
  5
1178
330
1D
100
AcDbEntity
  8
0
100
AcDbLine
 10
151.382
 20
230.9573
 30
0.0
 11
151.2
 21
230.9573
 31
0.0
  0
LINE
  5
1179
330
1D
100
AcDbEntity
  8
0
100
AcDbLine
 10
151.2
 20
230.9573
 30
0.0
 11
150.934
 21
230.9573
 31
0.0
  0
LINE
  5
117A
330
1D
100
AcDbEntity
  8
0
100
AcDbLine
 10
152.43164516129
 20
231.425041935484
 30
0.0
 11
151.977
 21
230.9573
 31
0.0
  0
LINE
  5
117B
330
1D
100
AcDbEntity
  8
0
100
AcDbLine
 10
152.465
 20
231.4573
 30
0.0
 11
152.373
 21
231.4573
 31
0.0
  0
LINE
  5
117C
330
1D
100
AcDbEntity
  8
0
100
AcDbLine
 10
152.373
 20
231.4573
 30
0.0
 11
152.189
 21
231.4573
 31
0.0
  0
LINE
  5
117D
330
1D
100
AcDbEntity
  8
0
100
AcDbLine
 10
152.189
 20
231.4573
 30
0.0
 11
151.918
 21
231.4573
 31
0.0
  0
LINE
  5
117E
330
1D
100
AcDbEntity
  8
0
100
AcDbLine
 10
151.918
 20
231.4573
 30
0.0
 11
151.566
 21
231.4573
 31
0.0
  0
LINE
  5
117F
330
1D
100
AcDbEntity
  8
0
100
AcDbLine
 10
151.566
 20
231.4573
 30
0.0
 11
151.146
 21
231.4573
 31
0.0
  0
LINE
  5
1180
330
1D
100
AcDbEntity
  8
0
100
AcDbLine
 10
149.387
 20
230.9573
 30
0.0
 11
149.0
 21
230.9573
 31
0.0
  0
LINE
  5
1181
330
1D
100
AcDbEntity
  8
0
100
AcDbLine
 10
149.408
 20
229.3493
 30
0.0
 11
149.0
 21
229.3553
 31
0.0
  0
LINE
  5
1182
330
1D
100
AcDbEntity
  8
0
100
AcDbLine
 10
149.586
 20
231.4573
 30
0.0
 11
149.014
 21
231.4573
 31
0.0
  0
LINE
  5
1183
330
1D
100
AcDbEntity
  8
0
100
AcDbLine
 10
149.266
 20
230.9573
 30
0.0
 11
149.0
 21
230.9573
 31
0.0
  0
LINE
  5
1184
330
1D
100
AcDbEntity
  8
0
100
AcDbLine
 10
150.596
 20
229.2613
 30
0.0
 11
149.408
 21
229.3493
 31
0.0
  0
LINE
  5
1185
330
1D
100
AcDbEntity
  8
0
100
AcDbLine
 10
150.666
 20
231.4573
 30
0.0
 11
150.142
 21
231.4573
 31
0.0
  0
LINE
  5
1186
330
1D
100
AcDbEntity
  8
0
100
AcDbLine
 10
149.924
 20
230.9573
 30
0.0
 11
149.387
 21
230.9573
 31
0.0
  0
LINE
  5
1187
330
1D
100
AcDbEntity
  8
0
100
AcDbLine
 10
150.428
 20
230.9573
 30
0.0
 11
149.924
 21
230.9573
 31
0.0
  0
LINE
  5
1188
330
1D
100
AcDbEntity
  8
0
100
AcDbLine
 10
150.191
 20
230.9573
 30
0.0
 11
149.743
 21
230.9573
 31
0.0
  0
LINE
  5
1189
330
1D
100
AcDbEntity
  8
0
100
AcDbLine
 10
149.743
 20
230.9573
 30
0.0
 11
149.266
 21
230.9573
 31
0.0
  0
LINE
  5
118A
330
1D
100
AcDbEntity
  8
0
100
AcDbLine
 10
150.142
 20
231.4573
 30
0.0
 11
149.586
 21
231.4573
 31
0.0
  0
LINE
  5
118B
330
1D
100
AcDbEntity
  8
0
100
AcDbLine
 10
150.593
 20
230.9573
 30
0.0
 11
150.191
 21
230.9573
 31
0.0
  0
LINE
  5
118C
330
1D
100
AcDbEntity
  8
0
100
AcDbLine
 10
149.0
 20
230.9573
 30
0.0
 11
148.734
 21
230.9573
 31
0.0
  0
LINE
  5
118D
330
1D
100
AcDbEntity
  8
0
100
AcDbLine
 10
151.146
 20
242.4713
 30
0.0
 11
150.666
 21
242.4713
 31
0.0
  0
LINE
  5
118E
330
1D
100
AcDbEntity
  8
0
100
AcDbLine
 10
150.885
 20
242.9723
 30
0.0
 11
150.428
 21
242.9723
 31
0.0
  0
LINE
  5
118F
330
1D
100
AcDbEntity
  8
0
100
AcDbLine
 10
152.465
 20
242.4713
 30
0.0
 11
152.373
 21
242.4713
 31
0.0
  0
LINE
  5
1190
330
1D
100
AcDbEntity
  8
0
100
AcDbLine
 10
152.373
 20
242.4713
 30
0.0
 11
152.189
 21
242.4713
 31
0.0
  0
LINE
  5
1191
330
1D
100
AcDbEntity
  8
0
100
AcDbLine
 10
152.189
 20
242.4713
 30
0.0
 11
151.918
 21
242.4713
 31
0.0
  0
LINE
  5
1192
330
1D
100
AcDbEntity
  8
0
100
AcDbLine
 10
151.918
 20
242.4713
 30
0.0
 11
151.566
 21
242.4713
 31
0.0
  0
LINE
  5
1193
330
1D
100
AcDbEntity
  8
0
100
AcDbLine
 10
151.566
 20
242.4713
 30
0.0
 11
151.146
 21
242.4713
 31
0.0
  0
LINE
  5
1194
330
1D
100
AcDbEntity
  8
0
100
AcDbLine
 10
152.43164516129
 20
242.503622580645
 30
0.0
 11
151.977
 21
242.9723
 31
0.0
  0
LINE
  5
1195
330
1D
100
AcDbEntity
  8
0
100
AcDbLine
 10
151.948
 20
242.9723
 30
0.0
 11
151.817
 21
242.9723
 31
0.0
  0
LINE
  5
1196
330
1D
100
AcDbEntity
  8
0
100
AcDbLine
 10
151.817
 20
242.9723
 30
0.0
 11
151.591
 21
242.9723
 31
0.0
  0
LINE
  5
1197
330
1D
100
AcDbEntity
  8
0
100
AcDbLine
 10
151.591
 20
242.9723
 30
0.0
 11
151.276
 21
242.9723
 31
0.0
  0
LINE
  5
1198
330
1D
100
AcDbEntity
  8
0
100
AcDbLine
 10
151.276
 20
242.9723
 30
0.0
 11
150.885
 21
242.9723
 31
0.0
  0
LINE
  5
1199
330
1D
100
AcDbEntity
  8
0
100
AcDbLine
 10
150.666
 20
242.4713
 30
0.0
 11
150.142
 21
242.4713
 31
0.0
  0
LINE
  5
119A
330
1D
100
AcDbEntity
  8
0
100
AcDbLine
 10
150.142
 20
242.4713
 30
0.0
 11
149.586
 21
242.4713
 31
0.0
  0
LINE
  5
119B
330
1D
100
AcDbEntity
  8
0
100
AcDbLine
 10
149.586
 20
242.4713
 30
0.0
 11
149.014
 21
242.4713
 31
0.0
  0
LINE
  5
119C
330
1D
100
AcDbEntity
  8
0
100
AcDbLine
 10
150.428
 20
242.9723
 30
0.0
 11
149.924
 21
242.9723
 31
0.0
  0
LINE
  5
119D
330
1D
100
AcDbEntity
  8
0
100
AcDbLine
 10
149.387
 20
242.9723
 30
0.0
 11
149.0
 21
242.9723
 31
0.0
  0
LINE
  5
119E
330
1D
100
AcDbEntity
  8
0
100
AcDbLine
 10
149.924
 20
242.9723
 30
0.0
 11
149.387
 21
242.9723
 31
0.0
  0
LINE
  5
119F
330
1D
100
AcDbEntity
  8
0
100
AcDbLine
 10
260.1477
 20
201.2843
 30
0.0
 11
257.8523
 21
201.2843
 31
0.0
  0
LINE
  5
11A0
330
1D
100
AcDbEntity
  8
0
100
AcDbLine
 10
286.6296
 20
181.1893
 30
0.0
 11
231.3704
 21
181.1893
 31
0.0
  0
LINE
  5
11A1
330
1D
100
AcDbEntity
  8
0
100
AcDbLine
 10
259.1767
 20
186.3863
 30
0.0
 11
258.8233
 21
186.3863
 31
0.0
  0
LINE
  5
11A2
330
1D
100
AcDbEntity
  8
0
100
AcDbLine
 10
258.0071
 20
259.1883
 30
0.0
 11
259.0124
 21
259.1153
 31
0.0
  0
LINE
  5
11A3
330
1D
100
AcDbEntity
  8
0
100
AcDbLine
 10
257.1481
 20
259.1483
 30
0.0
 11
258.0071
 21
259.1883
 31
0.0
  0
LINE
  5
11A4
330
1D
100
AcDbEntity
  8
0
100
AcDbLine
 10
255.1287
 20
258.2993
 30
0.0
 11
255.8001
 21
258.7293
 31
0.0
  0
LINE
  5
11A5
330
1D
100
AcDbEntity
  8
0
100
AcDbLine
 10
255.8001
 20
258.7293
 30
0.0
 11
256.0423
 21
258.8633
 31
0.0
  0
LINE
  5
11A6
330
1D
100
AcDbEntity
  8
0
100
AcDbLine
 10
256.0423
 20
258.8633
 30
0.0
 11
256.5196
 21
259.0553
 31
0.0
  0
LINE
  5
11A7
330
1D
100
AcDbEntity
  8
0
100
AcDbLine
 10
256.5196
 20
259.0553
 30
0.0
 11
257.1481
 21
259.1483
 31
0.0
  0
LINE
  5
11A8
330
1D
100
AcDbEntity
  8
0
100
AcDbLine
 10
254.2659
 20
257.2943
 30
0.0
 11
255.1287
 21
258.2993
 31
0.0
  0
LINE
  5
11A9
330
1D
100
AcDbEntity
  8
0
100
AcDbLine
 10
253.6606
 20
256.2383
 30
0.0
 11
254.2659
 21
257.2943
 31
0.0
  0
LINE
  5
11AA
330
1D
100
AcDbEntity
  8
0
100
AcDbLine
 10
253.2667
 20
255.1613
 30
0.0
 11
253.6606
 21
256.2383
 31
0.0
  0
LINE
  5
11AB
330
1D
100
AcDbEntity
  8
0
100
AcDbLine
 10
251.6975
 20
245.1933
 30
0.0
 11
252.575831839999
 21
245.339663295706
 31
0.0
  0
LINE
  5
11AC
330
1D
100
AcDbEntity
  8
0
100
AcDbLine
 10
251.6945
 20
245.2003
 30
0.0
 11
252.576103730835
 21
245.345778534242
 31
0.0
  0
LINE
  5
11AD
330
1D
100
AcDbEntity
  8
0
100
AcDbLine
 10
247.6027
 20
244.1003
 30
0.0
 11
251.6945
 21
245.2003
 31
0.0
  0
LINE
  5
11AE
330
1D
100
AcDbEntity
  8
0
100
AcDbLine
 10
247.6027
 20
244.1003
 30
0.0
 11
251.6975
 21
245.1933
 31
0.0
  0
LINE
  5
11AF
330
1D
100
AcDbEntity
  8
0
100
AcDbLine
 10
252.014024791452
 20
232.922067919225
 30
0.0
 11
252.0919
 21
234.4553
 31
0.0
  0
LINE
  5
11B0
330
1D
100
AcDbEntity
  8
0
100
AcDbLine
 10
251.640789432049
 20
231.558105259709
 30
0.0
 11
252.014024791452
 21
232.922067919225
 31
0.0
  0
LINE
  5
11B1
330
1D
100
AcDbEntity
  8
0
100
AcDbLine
 10
250.368903073502
 20
229.632343193095
 30
0.0
 11
251.1551
 21
230.5563
 31
0.0
  0
LINE
  5
11B2
330
1D
100
AcDbEntity
  8
0
100
AcDbLine
 10
251.1551
 20
230.5563
 30
0.0
 11
251.640789432049
 21
231.558105259709
 31
0.0
  0
LINE
  5
11B3
330
1D
100
AcDbEntity
  8
0
100
AcDbLine
 10
249.588
 20
228.8903
 30
0.0
 11
250.368903073502
 21
229.632343193095
 31
0.0
  0
LINE
  5
11B4
330
1D
100
AcDbEntity
  8
0
100
AcDbLine
 10
252.0919
 20
234.4553
 30
0.0
 11
252.9175
 21
253.0243
 31
0.0
  0
LINE
  5
11B5
330
1D
100
AcDbEntity
  8
0
100
AcDbLine
 10
252.9175
 20
253.0243
 30
0.0
 11
253.2667
 21
255.1613
 31
0.0
  0
LINE
  5
11B6
330
1D
100
AcDbEntity
  8
0
100
AcDbLine
 10
233.2447
 20
232.9913
 30
0.0
 11
234.9517
 21
235.2623
 31
0.0
  0
LINE
  5
11B7
330
1D
100
AcDbEntity
  8
0
100
AcDbLine
 10
240.281
 20
240.2033
 30
0.0
 11
243.727
 21
242.3543
 31
0.0
  0
LINE
  5
11B8
330
1D
100
AcDbEntity
  8
0
100
AcDbLine
 10
234.9517
 20
235.2623
 30
0.0
 11
236.9497
 21
237.3943
 31
0.0
  0
LINE
  5
11B9
330
1D
100
AcDbEntity
  8
0
100
AcDbLine
 10
236.9497
 20
237.3943
 30
0.0
 11
240.281
 21
240.2033
 31
0.0
  0
LINE
  5
11BA
330
1D
100
AcDbEntity
  8
0
100
AcDbLine
 10
225.0691
 20
247.8873
 30
0.0
 11
226.3011
 21
249.1153
 31
0.0
  0
LINE
  5
11BB
330
1D
100
AcDbEntity
  8
0
100
AcDbLine
 10
226.3011
 20
249.1153
 30
0.0
 11
227.7292
 21
250.1123
 31
0.0
  0
LINE
  5
11BC
330
1D
100
AcDbEntity
  8
0
100
AcDbLine
 10
227.7292
 20
250.1123
 30
0.0
 11
229.3094
 21
250.8473
 31
0.0
  0
LINE
  5
11BD
330
1D
100
AcDbEntity
  8
0
100
AcDbLine
 10
229.3094
 20
250.8473
 30
0.0
 11
230.9926
 21
251.2973
 31
0.0
  0
LINE
  5
11BE
330
1D
100
AcDbEntity
  8
0
100
AcDbLine
 10
230.9926
 20
251.2973
 30
0.0
 11
232.729
 21
251.4483
 31
0.0
  0
LINE
  5
11BF
330
1D
100
AcDbEntity
  8
0
100
AcDbLine
 10
224.0694
 20
246.4633
 30
0.0
 11
225.0691
 21
247.8873
 31
0.0
  0
LINE
  5
11C0
330
1D
100
AcDbEntity
  8
0
100
AcDbLine
 10
223.3328
 20
244.8873
 30
0.0
 11
224.0694
 21
246.4633
 31
0.0
  0
LINE
  5
11C1
330
1D
100
AcDbEntity
  8
0
100
AcDbLine
 10
222.8815
 20
243.2093
 30
0.0
 11
223.3328
 21
244.8873
 31
0.0
  0
LINE
  5
11C2
330
1D
100
AcDbEntity
  8
0
100
AcDbLine
 10
222.7294
 20
241.4773
 30
0.0
 11
222.8815
 21
243.2093
 31
0.0
  0
LINE
  5
11C3
330
1D
100
AcDbEntity
  8
0
100
AcDbLine
 10
231.8151
 20
230.5843
 30
0.0
 11
233.2447
 21
232.9913
 31
0.0
  0
LINE
  5
11C4
330
1D
100
AcDbEntity
  8
0
100
AcDbLine
 10
232.729
 20
251.4483
 30
0.0
 11
252.847429150735
 21
251.4483
 31
0.0
  0
LINE
  5
11C5
330
1D
100
AcDbEntity
  8
0
100
AcDbLine
 10
243.727
 20
242.3543
 30
0.0
 11
247.6027
 21
244.1003
 31
0.0
  0
LINE
  5
11C6
330
1D
100
AcDbEntity
  8
0
100
AcDbLine
 10
249.7165
 20
203.1103
 30
0.0
 11
250.550511868094
 21
202.919231988982
 31
0.0
  0
LINE
  5
11C7
330
1D
100
AcDbEntity
  8
0
100
AcDbLine
 10
248.5674
 20
203.2093
 30
0.0
 11
249.43081641583
 21
203.164250708763
 31
0.0
  0
LINE
  5
11C8
330
1D
100
AcDbEntity
  8
0
100
AcDbLine
 10
247.010352926131
 20
202.965146803823
 30
0.0
 11
246.4271
 21
202.7203
 31
0.0
  0
LINE
  5
11C9
330
1D
100
AcDbEntity
  8
0
100
AcDbLine
 10
247.779454691196
 20
203.123928917723
 30
0.0
 11
247.010352926131
 21
202.965146803823
 31
0.0
  0
LINE
  5
11CA
330
1D
100
AcDbEntity
  8
0
100
AcDbLine
 10
247.1847
 20
226.6243
 30
0.0
 11
248.0309
 21
227.5503
 31
0.0
  0
LINE
  5
11CB
330
1D
100
AcDbEntity
  8
0
100
AcDbLine
 10
246.71
 20
226.2333
 30
0.0
 11
247.1847
 21
226.6243
 31
0.0
  0
LINE
  5
11CC
330
1D
100
AcDbEntity
  8
0
100
AcDbLine
 10
247.779454691196
 20
203.123928917723
 30
0.0
 11
248.5674
 21
203.2093
 31
0.0
  0
LINE
  5
11CD
330
1D
100
AcDbEntity
  8
0
100
AcDbLine
 10
249.43081641583
 20
203.164250708763
 30
0.0
 11
249.7165
 21
203.1103
 31
0.0
  0
LINE
  5
11CE
330
1D
100
AcDbEntity
  8
0
100
AcDbLine
 10
252.861
 20
202.1383
 30
0.0
 11
254.3773
 21
201.7423
 31
0.0
  0
LINE
  5
11CF
330
1D
100
AcDbEntity
  8
0
100
AcDbLine
 10
254.3773
 20
201.7423
 30
0.0
 11
255.7839
 21
201.4333
 31
0.0
  0
LINE
  5
11D0
330
1D
100
AcDbEntity
  8
0
100
AcDbLine
 10
255.7839
 20
201.4333
 30
0.0
 11
257.8523
 21
201.2843
 31
0.0
  0
LINE
  5
11D1
330
1D
100
AcDbEntity
  8
0
100
AcDbLine
 10
247.5103
 20
188.2583
 30
0.0
 11
250.2288
 21
187.3913
 31
0.0
  0
LINE
  5
11D2
330
1D
100
AcDbEntity
  8
0
100
AcDbLine
 10
250.2288
 20
187.3913
 30
0.0
 11
253.0179
 21
186.7863
 31
0.0
  0
LINE
  5
11D3
330
1D
100
AcDbEntity
  8
0
100
AcDbLine
 10
253.0179
 20
186.7863
 30
0.0
 11
255.8547
 21
186.4713
 31
0.0
  0
LINE
  5
11D4
330
1D
100
AcDbEntity
  8
0
100
AcDbLine
 10
255.8547
 20
186.4713
 30
0.0
 11
258.8233
 21
186.3863
 31
0.0
  0
LINE
  5
11D5
330
1D
100
AcDbEntity
  8
0
100
AcDbLine
 10
250.550511868094
 20
202.919231988982
 30
0.0
 11
252.861
 21
202.1383
 31
0.0
  0
LINE
  5
11D6
330
1D
100
AcDbEntity
  8
0
100
AcDbLine
 10
242.4185
 20
215.7143
 30
0.0
 11
242.597520082298
 21
216.277079679268
 31
0.0
  0
LINE
  5
11D7
330
1D
100
AcDbEntity
  8
0
100
AcDbLine
 10
239.8577
 20
212.6433
 30
0.0
 11
241.550706116162
 21
214.134786738298
 31
0.0
  0
LINE
  5
11D8
330
1D
100
AcDbEntity
  8
0
100
AcDbLine
 10
244.7758
 20
223.4153
 30
0.0
 11
245.3361
 21
224.3933
 31
0.0
  0
LINE
  5
11D9
330
1D
100
AcDbEntity
  8
0
100
AcDbLine
 10
244.2287
 20
222.3293
 30
0.0
 11
244.7758
 21
223.4153
 31
0.0
  0
LINE
  5
11DA
330
1D
100
AcDbEntity
  8
0
100
AcDbLine
 10
242.1813
 20
215.1553
 30
0.0
 11
242.4185
 21
215.7143
 31
0.0
  0
LINE
  5
11DB
330
1D
100
AcDbEntity
  8
0
100
AcDbLine
 10
242.597520082298
 20
216.277079679268
 30
0.0
 11
242.9971
 21
218.0683
 31
0.0
  0
LINE
  5
11DC
330
1D
100
AcDbEntity
  8
0
100
AcDbLine
 10
242.9971
 20
218.0683
 30
0.0
 11
243.4275
 21
220.1493
 31
0.0
  0
LINE
  5
11DD
330
1D
100
AcDbEntity
  8
0
100
AcDbLine
 10
243.4275
 20
220.1493
 30
0.0
 11
244.2287
 21
222.3293
 31
0.0
  0
LINE
  5
11DE
330
1D
100
AcDbEntity
  8
0
100
AcDbLine
 10
241.9304
 20
214.6753
 30
0.0
 11
242.1813
 21
215.1553
 31
0.0
  0
LINE
  5
11DF
330
1D
100
AcDbEntity
  8
0
100
AcDbLine
 10
241.550706116162
 20
214.134786738298
 30
0.0
 11
241.9304
 21
214.6753
 31
0.0
  0
LINE
  5
11E0
330
1D
100
AcDbEntity
  8
0
100
AcDbLine
 10
229.5375
 20
225.2763
 30
0.0
 11
230.5224
 21
228.0183
 31
0.0
  0
LINE
  5
11E1
330
1D
100
AcDbEntity
  8
0
100
AcDbLine
 10
228.8914
 20
222.5993
 30
0.0
 11
229.5375
 21
225.2763
 31
0.0
  0
LINE
  5
11E2
330
1D
100
AcDbEntity
  8
0
100
AcDbLine
 10
228.3639
 20
219.9103
 30
0.0
 11
228.8914
 21
222.5993
 31
0.0
  0
LINE
  5
11E3
330
1D
100
AcDbEntity
  8
0
100
AcDbLine
 10
228.1155
 20
216.9953
 30
0.0
 11
228.3639
 21
219.9103
 31
0.0
  0
LINE
  5
11E4
330
1D
100
AcDbEntity
  8
0
100
AcDbLine
 10
228.519
 20
211.3443
 30
0.0
 11
229.1241
 21
208.5713
 31
0.0
  0
LINE
  5
11E5
330
1D
100
AcDbEntity
  8
0
100
AcDbLine
 10
229.1241
 20
208.5713
 30
0.0
 11
229.878465208128
 21
206.308968676739
 31
0.0
  0
LINE
  5
11E6
330
1D
100
AcDbEntity
  8
0
100
AcDbLine
 10
228.2195
 20
214.1343
 30
0.0
 11
228.519
 21
211.3443
 31
0.0
  0
LINE
  5
11E7
330
1D
100
AcDbEntity
  8
0
100
AcDbLine
 10
228.1155
 20
216.9953
 30
0.0
 11
228.2195
 21
214.1343
 31
0.0
  0
LINE
  5
11E8
330
1D
100
AcDbEntity
  8
0
100
AcDbLine
 10
224.2122
 20
202.7123
 30
0.0
 11
239.8577
 21
212.6433
 31
0.0
  0
LINE
  5
11E9
330
1D
100
AcDbEntity
  8
0
100
AcDbLine
 10
237.832
 20
194.1703
 30
0.0
 11
240.0177
 21
192.3403
 31
0.0
  0
LINE
  5
11EA
330
1D
100
AcDbEntity
  8
0
100
AcDbLine
 10
240.0177
 20
192.3403
 30
0.0
 11
242.3934
 21
190.7643
 31
0.0
  0
LINE
  5
11EB
330
1D
100
AcDbEntity
  8
0
100
AcDbLine
 10
242.3934
 20
190.7643
 30
0.0
 11
244.8964
 21
189.4013
 31
0.0
  0
LINE
  5
11EC
330
1D
100
AcDbEntity
  8
0
100
AcDbLine
 10
235.178635912595
 20
196.927403920075
 30
0.0
 11
235.7982
 21
196.1663
 31
0.0
  0
LINE
  5
11ED
330
1D
100
AcDbEntity
  8
0
100
AcDbLine
 10
235.7982
 20
196.1663
 30
0.0
 11
237.832
 21
194.1703
 31
0.0
  0
LINE
  5
11EE
330
1D
100
AcDbEntity
  8
0
100
AcDbLine
 10
226.4573
 20
192.7083
 30
0.0
 11
229.012
 21
193.7253
 31
0.0
  0
LINE
  5
11EF
330
1D
100
AcDbEntity
  8
0
100
AcDbLine
 10
222.7294
 20
191.0843
 30
0.0
 11
222.7294
 21
192.921403888214
 31
0.0
  0
LINE
  5
11F0
330
1D
100
AcDbEntity
  8
0
100
AcDbLine
 10
225.0349
 20
192.5223
 30
0.0
 11
226.4573
 21
192.7083
 31
0.0
  0
LINE
  5
11F1
330
1D
100
AcDbEntity
  8
0
100
AcDbLine
 10
224.2603
 20
192.5313
 30
0.0
 11
225.0349
 21
192.5223
 31
0.0
  0
LINE
  5
11F2
330
1D
100
AcDbEntity
  8
0
100
AcDbLine
 10
223.3689
 20
192.6813
 30
0.0
 11
224.2603
 21
192.5313
 31
0.0
  0
LINE
  5
11F3
330
1D
100
AcDbEntity
  8
0
100
AcDbLine
 10
220.9196
 20
199.7363
 30
0.0
 11
221.6885
 21
200.7273
 31
0.0
  0
LINE
  5
11F4
330
1D
100
AcDbEntity
  8
0
100
AcDbLine
 10
221.6885
 20
200.7273
 30
0.0
 11
222.5911
 21
201.5123
 31
0.0
  0
LINE
  5
11F5
330
1D
100
AcDbEntity
  8
0
100
AcDbLine
 10
222.5911
 20
201.5123
 30
0.0
 11
223.5275
 21
202.2753
 31
0.0
  0
LINE
  5
11F6
330
1D
100
AcDbEntity
  8
0
100
AcDbLine
 10
220.4724
 20
198.9183
 30
0.0
 11
220.9196
 21
199.7363
 31
0.0
  0
LINE
  5
11F7
330
1D
100
AcDbEntity
  8
0
100
AcDbLine
 10
220.6789
 20
194.9223
 30
0.0
 11
221.2416
 21
194.0213
 31
0.0
  0
LINE
  5
11F8
330
1D
100
AcDbEntity
  8
0
100
AcDbLine
 10
222.5459
 20
192.9903
 30
0.0
 11
223.3689
 21
192.6813
 31
0.0
  0
LINE
  5
11F9
330
1D
100
AcDbEntity
  8
0
100
AcDbLine
 10
221.2416
 20
194.0213
 30
0.0
 11
222.0414
 21
193.2373
 31
0.0
  0
LINE
  5
11FA
330
1D
100
AcDbEntity
  8
0
100
AcDbLine
 10
222.0414
 20
193.2373
 30
0.0
 11
222.5459
 21
192.9903
 31
0.0
  0
LINE
  5
11FB
330
1D
100
AcDbEntity
  8
0
100
AcDbLine
 10
220.0
 20
196.7523
 30
0.0
 11
220.1091
 21
197.8983
 31
0.0
  0
LINE
  5
11FC
330
1D
100
AcDbEntity
  8
0
100
AcDbLine
 10
220.0
 20
196.7523
 30
0.0
 11
220.2544
 21
195.7383
 31
0.0
  0
LINE
  5
11FD
330
1D
100
AcDbEntity
  8
0
100
AcDbLine
 10
220.1091
 20
197.8983
 30
0.0
 11
220.4724
 21
198.9183
 31
0.0
  0
LINE
  5
11FE
330
1D
100
AcDbEntity
  8
0
100
AcDbLine
 10
220.2544
 20
195.7383
 30
0.0
 11
220.6789
 21
194.9223
 31
0.0
  0
LINE
  5
11FF
330
1D
100
AcDbEntity
  8
0
100
AcDbLine
 10
222.8815
 20
189.3533
 30
0.0
 11
223.3328
 21
187.6743
 31
0.0
  0
LINE
  5
1200
330
1D
100
AcDbEntity
  8
0
100
AcDbLine
 10
223.3328
 20
187.6743
 30
0.0
 11
224.0694
 21
186.0993
 31
0.0
  0
LINE
  5
1201
330
1D
100
AcDbEntity
  8
0
100
AcDbLine
 10
224.0694
 20
186.0993
 30
0.0
 11
225.0691
 21
184.6753
 31
0.0
  0
LINE
  5
1202
330
1D
100
AcDbEntity
  8
0
100
AcDbLine
 10
225.0691
 20
184.6753
 30
0.0
 11
226.3011
 21
183.4463
 31
0.0
  0
LINE
  5
1203
330
1D
100
AcDbEntity
  8
0
100
AcDbLine
 10
226.3011
 20
183.4463
 30
0.0
 11
227.7292
 21
182.4493
 31
0.0
  0
LINE
  5
1204
330
1D
100
AcDbEntity
  8
0
100
AcDbLine
 10
227.7292
 20
182.4493
 30
0.0
 11
229.3094
 21
181.7153
 31
0.0
  0
LINE
  5
1205
330
1D
100
AcDbEntity
  8
0
100
AcDbLine
 10
229.3094
 20
181.7153
 30
0.0
 11
231.3704
 21
181.1893
 31
0.0
  0
LINE
  5
1206
330
1D
100
AcDbEntity
  8
0
100
AcDbLine
 10
222.7294
 20
191.0843
 30
0.0
 11
222.8815
 21
189.3533
 31
0.0
  0
LINE
  5
1207
330
1D
100
AcDbEntity
  8
0
100
AcDbLine
 10
229.012
 20
193.7253
 30
0.0
 11
245.9437
 21
202.5173
 31
0.0
  0
LINE
  5
1208
330
1D
100
AcDbEntity
  8
0
100
AcDbLine
 10
223.5275
 20
202.2753
 30
0.0
 11
224.2122
 21
202.7123
 31
0.0
  0
LINE
  5
1209
330
1D
100
AcDbEntity
  8
0
100
AcDbLine
 10
245.3361
 20
224.3933
 30
0.0
 11
246.71
 21
226.2333
 31
0.0
  0
LINE
  5
120A
330
1D
100
AcDbEntity
  8
0
100
AcDbLine
 10
245.87213669377
 20
202.480139845475
 30
0.0
 11
246.4271
 21
202.7203
 31
0.0
  0
LINE
  5
120B
330
1D
100
AcDbEntity
  8
0
100
AcDbLine
 10
245.87213669377
 20
202.480139845475
 30
0.0
 11
246.4271
 21
202.7203
 31
0.0
  0
LINE
  5
120C
330
1D
100
AcDbEntity
  8
0
100
AcDbLine
 10
244.8964
 20
189.4013
 30
0.0
 11
247.5103
 21
188.2583
 31
0.0
  0
LINE
  5
120D
330
1D
100
AcDbEntity
  8
0
100
AcDbLine
 10
248.0309
 20
227.5503
 30
0.0
 11
249.588
 21
228.8903
 31
0.0
  0
LINE
  5
120E
330
1D
100
AcDbEntity
  8
0
100
AcDbLine
 10
230.5224
 20
228.0183
 30
0.0
 11
231.8151
 21
230.5843
 31
0.0
  0
LINE
  5
120F
330
1D
100
AcDbEntity
  8
0
100
AcDbLine
 10
222.7294
 20
201.624989982913
 30
0.0
 11
222.7294
 21
241.4773
 31
0.0
  0
LINE
  5
1210
330
1D
100
AcDbEntity
  8
0
100
AcDbLine
 10
265.985975208548
 20
232.922067919225
 30
0.0
 11
265.9081
 21
234.4553
 31
0.0
  0
LINE
  5
1211
330
1D
100
AcDbEntity
  8
0
100
AcDbLine
 10
266.359210567951
 20
231.558105259709
 30
0.0
 11
265.985975208548
 21
232.922067919225
 31
0.0
  0
LINE
  5
1212
330
1D
100
AcDbEntity
  8
0
100
AcDbLine
 10
267.631096926498
 20
229.632343193095
 30
0.0
 11
266.8449
 21
230.5563
 31
0.0
  0
LINE
  5
1213
330
1D
100
AcDbEntity
  8
0
100
AcDbLine
 10
268.2835
 20
203.1103
 30
0.0
 11
267.449488131906
 21
202.919231988982
 31
0.0
  0
LINE
  5
1214
330
1D
100
AcDbEntity
  8
0
100
AcDbLine
 10
269.4326
 20
203.2093
 30
0.0
 11
268.56918358417
 21
203.164250708763
 31
0.0
  0
LINE
  5
1215
330
1D
100
AcDbEntity
  8
0
100
AcDbLine
 10
270.989647073869
 20
202.965146803823
 30
0.0
 11
271.5729
 21
202.7203
 31
0.0
  0
LINE
  5
1216
330
1D
100
AcDbEntity
  8
0
100
AcDbLine
 10
270.220545308804
 20
203.123928917723
 30
0.0
 11
270.989647073869
 21
202.965146803823
 31
0.0
  0
LINE
  5
1217
330
1D
100
AcDbEntity
  8
0
100
AcDbLine
 10
275.5815
 20
215.7143
 30
0.0
 11
275.402479917702
 21
216.277079679268
 31
0.0
  0
LINE
  5
1218
330
1D
100
AcDbEntity
  8
0
100
AcDbLine
 10
292.9309
 20
247.8873
 30
0.0
 11
291.6989
 21
249.1153
 31
0.0
  0
LINE
  5
1219
330
1D
100
AcDbEntity
  8
0
100
AcDbLine
 10
291.6989
 20
249.1153
 30
0.0
 11
290.2708
 21
250.1123
 31
0.0
  0
LINE
  5
121A
330
1D
100
AcDbEntity
  8
0
100
AcDbLine
 10
290.2708
 20
250.1123
 30
0.0
 11
288.6906
 21
250.8473
 31
0.0
  0
LINE
  5
121B
330
1D
100
AcDbEntity
  8
0
100
AcDbLine
 10
288.6906
 20
250.8473
 30
0.0
 11
287.0074
 21
251.2973
 31
0.0
  0
LINE
  5
121C
330
1D
100
AcDbEntity
  8
0
100
AcDbLine
 10
287.0074
 20
251.2973
 30
0.0
 11
285.271
 21
251.4483
 31
0.0
  0
LINE
  5
121D
330
1D
100
AcDbEntity
  8
0
100
AcDbLine
 10
285.271
 20
251.4483
 30
0.0
 11
265.152570849265
 21
251.4483
 31
0.0
  0
LINE
  5
121E
330
1D
100
AcDbEntity
  8
0
100
AcDbLine
 10
259.9929
 20
259.1883
 30
0.0
 11
258.9876
 21
259.1153
 31
0.0
  0
LINE
  5
121F
330
1D
100
AcDbEntity
  8
0
100
AcDbLine
 10
260.8519
 20
259.1483
 30
0.0
 11
259.9929
 21
259.1883
 31
0.0
  0
LINE
  5
1220
330
1D
100
AcDbEntity
  8
0
100
AcDbLine
 10
262.8713
 20
258.2993
 30
0.0
 11
262.1999
 21
258.7293
 31
0.0
  0
LINE
  5
1221
330
1D
100
AcDbEntity
  8
0
100
AcDbLine
 10
262.1999
 20
258.7293
 30
0.0
 11
261.9577
 21
258.8633
 31
0.0
  0
LINE
  5
1222
330
1D
100
AcDbEntity
  8
0
100
AcDbLine
 10
261.9577
 20
258.8633
 30
0.0
 11
261.4804
 21
259.0553
 31
0.0
  0
LINE
  5
1223
330
1D
100
AcDbEntity
  8
0
100
AcDbLine
 10
261.4804
 20
259.0553
 30
0.0
 11
260.8519
 21
259.1483
 31
0.0
  0
LINE
  5
1224
330
1D
100
AcDbEntity
  8
0
100
AcDbLine
 10
263.7341
 20
257.2943
 30
0.0
 11
262.8713
 21
258.2993
 31
0.0
  0
LINE
  5
1225
330
1D
100
AcDbEntity
  8
0
100
AcDbLine
 10
264.3394
 20
256.2383
 30
0.0
 11
263.7341
 21
257.2943
 31
0.0
  0
LINE
  5
1226
330
1D
100
AcDbEntity
  8
0
100
AcDbLine
 10
264.7333
 20
255.1613
 30
0.0
 11
264.3394
 21
256.2383
 31
0.0
  0
LINE
  5
1227
330
1D
100
AcDbEntity
  8
0
100
AcDbLine
 10
265.0825
 20
253.0243
 30
0.0
 11
264.7333
 21
255.1613
 31
0.0
  0
LINE
  5
1228
330
1D
100
AcDbEntity
  8
0
100
AcDbLine
 10
293.9306
 20
246.4633
 30
0.0
 11
292.9309
 21
247.8873
 31
0.0
  0
LINE
  5
1229
330
1D
100
AcDbEntity
  8
0
100
AcDbLine
 10
295.2706
 20
241.4773
 30
0.0
 11
295.1185
 21
243.2093
 31
0.0
  0
LINE
  5
122A
330
1D
100
AcDbEntity
  8
0
100
AcDbLine
 10
294.6672
 20
244.8873
 30
0.0
 11
293.9306
 21
246.4633
 31
0.0
  0
LINE
  5
122B
330
1D
100
AcDbEntity
  8
0
100
AcDbLine
 10
266.3025
 20
245.1933
 30
0.0
 11
265.424168160001
 21
245.339663295706
 31
0.0
  0
LINE
  5
122C
330
1D
100
AcDbEntity
  8
0
100
AcDbLine
 10
266.3055
 20
245.2003
 30
0.0
 11
265.423896269165
 21
245.345778534242
 31
0.0
  0
LINE
  5
122D
330
1D
100
AcDbEntity
  8
0
100
AcDbLine
 10
270.3973
 20
244.1003
 30
0.0
 11
266.3055
 21
245.2003
 31
0.0
  0
LINE
  5
122E
330
1D
100
AcDbEntity
  8
0
100
AcDbLine
 10
270.3973
 20
244.1003
 30
0.0
 11
266.3025
 21
245.1933
 31
0.0
  0
LINE
  5
122F
330
1D
100
AcDbEntity
  8
0
100
AcDbLine
 10
274.273
 20
242.3543
 30
0.0
 11
270.3973
 21
244.1003
 31
0.0
  0
LINE
  5
1230
330
1D
100
AcDbEntity
  8
0
100
AcDbLine
 10
295.1185
 20
243.2093
 30
0.0
 11
294.6672
 21
244.8873
 31
0.0
  0
LINE
  5
1231
330
1D
100
AcDbEntity
  8
0
100
AcDbLine
 10
284.7553
 20
232.9913
 30
0.0
 11
283.0483
 21
235.2623
 31
0.0
  0
LINE
  5
1232
330
1D
100
AcDbEntity
  8
0
100
AcDbLine
 10
277.719
 20
240.2033
 30
0.0
 11
274.273
 21
242.3543
 31
0.0
  0
LINE
  5
1233
330
1D
100
AcDbEntity
  8
0
100
AcDbLine
 10
265.9081
 20
234.4553
 30
0.0
 11
265.0825
 21
253.0243
 31
0.0
  0
LINE
  5
1234
330
1D
100
AcDbEntity
  8
0
100
AcDbLine
 10
283.0483
 20
235.2623
 30
0.0
 11
281.0503
 21
237.3943
 31
0.0
  0
LINE
  5
1235
330
1D
100
AcDbEntity
  8
0
100
AcDbLine
 10
281.0503
 20
237.3943
 30
0.0
 11
277.719
 21
240.2033
 31
0.0
  0
LINE
  5
1236
330
1D
100
AcDbEntity
  8
0
100
AcDbLine
 10
286.1849
 20
230.5843
 30
0.0
 11
284.7553
 21
232.9913
 31
0.0
  0
LINE
  5
1237
330
1D
100
AcDbEntity
  8
0
100
AcDbLine
 10
266.8449
 20
230.5563
 30
0.0
 11
266.359210567951
 21
231.558105259709
 31
0.0
  0
LINE
  5
1238
330
1D
100
AcDbEntity
  8
0
100
AcDbLine
 10
268.412
 20
228.8903
 30
0.0
 11
267.631096926498
 21
229.632343193095
 31
0.0
  0
LINE
  5
1239
330
1D
100
AcDbEntity
  8
0
100
AcDbLine
 10
270.8153
 20
226.6243
 30
0.0
 11
269.9691
 21
227.5503
 31
0.0
  0
LINE
  5
123A
330
1D
100
AcDbEntity
  8
0
100
AcDbLine
 10
269.9691
 20
227.5503
 30
0.0
 11
268.412
 21
228.8903
 31
0.0
  0
LINE
  5
123B
330
1D
100
AcDbEntity
  8
0
100
AcDbLine
 10
287.4776
 20
228.0183
 30
0.0
 11
286.1849
 21
230.5843
 31
0.0
  0
LINE
  5
123C
330
1D
100
AcDbEntity
  8
0
100
AcDbLine
 10
271.29
 20
226.2333
 30
0.0
 11
270.8153
 21
226.6243
 31
0.0
  0
LINE
  5
123D
330
1D
100
AcDbEntity
  8
0
100
AcDbLine
 10
288.4625
 20
225.2763
 30
0.0
 11
287.4776
 21
228.0183
 31
0.0
  0
LINE
  5
123E
330
1D
100
AcDbEntity
  8
0
100
AcDbLine
 10
272.6639
 20
224.3933
 30
0.0
 11
271.29
 21
226.2333
 31
0.0
  0
LINE
  5
123F
330
1D
100
AcDbEntity
  8
0
100
AcDbLine
 10
273.2242
 20
223.4153
 30
0.0
 11
272.6639
 21
224.3933
 31
0.0
  0
LINE
  5
1240
330
1D
100
AcDbEntity
  8
0
100
AcDbLine
 10
289.1086
 20
222.5993
 30
0.0
 11
288.4625
 21
225.2763
 31
0.0
  0
LINE
  5
1241
330
1D
100
AcDbEntity
  8
0
100
AcDbLine
 10
289.481
 20
211.3443
 30
0.0
 11
288.8759
 21
208.5713
 31
0.0
  0
LINE
  5
1242
330
1D
100
AcDbEntity
  8
0
100
AcDbLine
 10
273.7713
 20
222.3293
 30
0.0
 11
273.2242
 21
223.4153
 31
0.0
  0
LINE
  5
1243
330
1D
100
AcDbEntity
  8
0
100
AcDbLine
 10
275.8187
 20
215.1553
 30
0.0
 11
275.5815
 21
215.7143
 31
0.0
  0
LINE
  5
1244
330
1D
100
AcDbEntity
  8
0
100
AcDbLine
 10
275.402479917702
 20
216.277079679268
 30
0.0
 11
275.0029
 21
218.0683
 31
0.0
  0
LINE
  5
1245
330
1D
100
AcDbEntity
  8
0
100
AcDbLine
 10
275.0029
 20
218.0683
 30
0.0
 11
274.5725
 21
220.1493
 31
0.0
  0
LINE
  5
1246
330
1D
100
AcDbEntity
  8
0
100
AcDbLine
 10
274.5725
 20
220.1493
 30
0.0
 11
273.7713
 21
222.3293
 31
0.0
  0
LINE
  5
1247
330
1D
100
AcDbEntity
  8
0
100
AcDbLine
 10
276.0696
 20
214.6753
 30
0.0
 11
275.8187
 21
215.1553
 31
0.0
  0
LINE
  5
1248
330
1D
100
AcDbEntity
  8
0
100
AcDbLine
 10
276.449293883838
 20
214.134786738298
 30
0.0
 11
276.0696
 21
214.6753
 31
0.0
  0
LINE
  5
1249
330
1D
100
AcDbEntity
  8
0
100
AcDbLine
 10
278.1423
 20
212.6433
 30
0.0
 11
276.449293883838
 21
214.134786738298
 31
0.0
  0
LINE
  5
124A
330
1D
100
AcDbEntity
  8
0
100
AcDbLine
 10
270.220545308804
 20
203.123928917723
 30
0.0
 11
269.4326
 21
203.2093
 31
0.0
  0
LINE
  5
124B
330
1D
100
AcDbEntity
  8
0
100
AcDbLine
 10
268.56918358417
 20
203.164250708763
 30
0.0
 11
268.2835
 21
203.1103
 31
0.0
  0
LINE
  5
124C
330
1D
100
AcDbEntity
  8
0
100
AcDbLine
 10
267.449488131906
 20
202.919231988982
 30
0.0
 11
265.139
 21
202.1383
 31
0.0
  0
LINE
  5
124D
330
1D
100
AcDbEntity
  8
0
100
AcDbLine
 10
265.139
 20
202.1383
 30
0.0
 11
263.6227
 21
201.7423
 31
0.0
  0
LINE
  5
124E
330
1D
100
AcDbEntity
  8
0
100
AcDbLine
 10
263.6227
 20
201.7423
 30
0.0
 11
262.2161
 21
201.4333
 31
0.0
  0
LINE
  5
124F
330
1D
100
AcDbEntity
  8
0
100
AcDbLine
 10
262.2161
 20
201.4333
 30
0.0
 11
260.1477
 21
201.2843
 31
0.0
  0
LINE
  5
1250
330
1D
100
AcDbEntity
  8
0
100
AcDbLine
 10
272.12786330623
 20
202.480139845475
 30
0.0
 11
271.5729
 21
202.7203
 31
0.0
  0
LINE
  5
1251
330
1D
100
AcDbEntity
  8
0
100
AcDbLine
 10
272.12786330623
 20
202.480139845475
 30
0.0
 11
271.5729
 21
202.7203
 31
0.0
  0
LINE
  5
1252
330
1D
100
AcDbEntity
  8
0
100
AcDbLine
 10
280.168
 20
194.1703
 30
0.0
 11
277.9823
 21
192.3403
 31
0.0
  0
LINE
  5
1253
330
1D
100
AcDbEntity
  8
0
100
AcDbLine
 10
277.9823
 20
192.3403
 30
0.0
 11
275.6066
 21
190.7643
 31
0.0
  0
LINE
  5
1254
330
1D
100
AcDbEntity
  8
0
100
AcDbLine
 10
275.6066
 20
190.7643
 30
0.0
 11
273.1036
 21
189.4013
 31
0.0
  0
LINE
  5
1255
330
1D
100
AcDbEntity
  8
0
100
AcDbLine
 10
288.8759
 20
208.5713
 30
0.0
 11
288.121534791872
 21
206.308968676739
 31
0.0
  0
LINE
  5
1256
330
1D
100
AcDbEntity
  8
0
100
AcDbLine
 10
288.988
 20
193.7253
 30
0.0
 11
272.0563
 21
202.5173
 31
0.0
  0
LINE
  5
1257
330
1D
100
AcDbEntity
  8
0
100
AcDbLine
 10
282.821364087405
 20
196.927403920075
 30
0.0
 11
282.2018
 21
196.1663
 31
0.0
  0
LINE
  5
1258
330
1D
100
AcDbEntity
  8
0
100
AcDbLine
 10
282.2018
 20
196.1663
 30
0.0
 11
280.168
 21
194.1703
 31
0.0
  0
LINE
  5
1259
330
1D
100
AcDbEntity
  8
0
100
AcDbLine
 10
295.2706
 20
191.0843
 30
0.0
 11
295.1185
 21
189.3533
 31
0.0
  0
LINE
  5
125A
330
1D
100
AcDbEntity
  8
0
100
AcDbLine
 10
295.2706
 20
191.0843
 30
0.0
 11
295.2706
 21
192.921403888214
 31
0.0
  0
LINE
  5
125B
330
1D
100
AcDbEntity
  8
0
100
AcDbLine
 10
295.2706
 20
201.624989982913
 30
0.0
 11
295.2706
 21
241.4773
 31
0.0
  0
LINE
  5
125C
330
1D
100
AcDbEntity
  8
0
100
AcDbLine
 10
289.6361
 20
219.9103
 30
0.0
 11
289.1086
 21
222.5993
 31
0.0
  0
LINE
  5
125D
330
1D
100
AcDbEntity
  8
0
100
AcDbLine
 10
289.8845
 20
216.9953
 30
0.0
 11
289.7805
 21
214.1343
 31
0.0
  0
LINE
  5
125E
330
1D
100
AcDbEntity
  8
0
100
AcDbLine
 10
289.8845
 20
216.9953
 30
0.0
 11
289.6361
 21
219.9103
 31
0.0
  0
LINE
  5
125F
330
1D
100
AcDbEntity
  8
0
100
AcDbLine
 10
293.7878
 20
202.7123
 30
0.0
 11
278.1423
 21
212.6433
 31
0.0
  0
LINE
  5
1260
330
1D
100
AcDbEntity
  8
0
100
AcDbLine
 10
292.9651
 20
192.5223
 30
0.0
 11
291.5427
 21
192.7083
 31
0.0
  0
LINE
  5
1261
330
1D
100
AcDbEntity
  8
0
100
AcDbLine
 10
289.7805
 20
214.1343
 30
0.0
 11
289.481
 21
211.3443
 31
0.0
  0
LINE
  5
1262
330
1D
100
AcDbEntity
  8
0
100
AcDbLine
 10
291.5427
 20
192.7083
 30
0.0
 11
288.988
 21
193.7253
 31
0.0
  0
LINE
  5
1263
330
1D
100
AcDbEntity
  8
0
100
AcDbLine
 10
293.7397
 20
192.5313
 30
0.0
 11
292.9651
 21
192.5223
 31
0.0
  0
LINE
  5
1264
330
1D
100
AcDbEntity
  8
0
100
AcDbLine
 10
294.4725
 20
202.2753
 30
0.0
 11
293.7878
 21
202.7123
 31
0.0
  0
LINE
  5
1265
330
1D
100
AcDbEntity
  8
0
100
AcDbLine
 10
294.6311
 20
192.6813
 30
0.0
 11
293.7397
 21
192.5313
 31
0.0
  0
LINE
  5
1266
330
1D
100
AcDbEntity
  8
0
100
AcDbLine
 10
297.0804
 20
199.7363
 30
0.0
 11
296.3115
 21
200.7273
 31
0.0
  0
LINE
  5
1267
330
1D
100
AcDbEntity
  8
0
100
AcDbLine
 10
296.3115
 20
200.7273
 30
0.0
 11
295.4089
 21
201.5123
 31
0.0
  0
LINE
  5
1268
330
1D
100
AcDbEntity
  8
0
100
AcDbLine
 10
295.4089
 20
201.5123
 30
0.0
 11
294.4725
 21
202.2753
 31
0.0
  0
LINE
  5
1269
330
1D
100
AcDbEntity
  8
0
100
AcDbLine
 10
297.5276
 20
198.9183
 30
0.0
 11
297.0804
 21
199.7363
 31
0.0
  0
LINE
  5
126A
330
1D
100
AcDbEntity
  8
0
100
AcDbLine
 10
297.3211
 20
194.9223
 30
0.0
 11
296.7584
 21
194.0213
 31
0.0
  0
LINE
  5
126B
330
1D
100
AcDbEntity
  8
0
100
AcDbLine
 10
295.4541
 20
192.9903
 30
0.0
 11
294.6311
 21
192.6813
 31
0.0
  0
LINE
  5
126C
330
1D
100
AcDbEntity
  8
0
100
AcDbLine
 10
296.7584
 20
194.0213
 30
0.0
 11
295.9586
 21
193.2373
 31
0.0
  0
LINE
  5
126D
330
1D
100
AcDbEntity
  8
0
100
AcDbLine
 10
295.9586
 20
193.2373
 30
0.0
 11
295.4541
 21
192.9903
 31
0.0
  0
LINE
  5
126E
330
1D
100
AcDbEntity
  8
0
100
AcDbLine
 10
298.0
 20
196.7523
 30
0.0
 11
297.8909
 21
197.8983
 31
0.0
  0
LINE
  5
126F
330
1D
100
AcDbEntity
  8
0
100
AcDbLine
 10
298.0
 20
196.7523
 30
0.0
 11
297.7456
 21
195.7383
 31
0.0
  0
LINE
  5
1270
330
1D
100
AcDbEntity
  8
0
100
AcDbLine
 10
297.8909
 20
197.8983
 30
0.0
 11
297.5276
 21
198.9183
 31
0.0
  0
LINE
  5
1271
330
1D
100
AcDbEntity
  8
0
100
AcDbLine
 10
297.7456
 20
195.7383
 30
0.0
 11
297.3211
 21
194.9223
 31
0.0
  0
LINE
  5
1272
330
1D
100
AcDbEntity
  8
0
100
AcDbLine
 10
295.1185
 20
189.3533
 30
0.0
 11
294.6672
 21
187.6743
 31
0.0
  0
LINE
  5
1273
330
1D
100
AcDbEntity
  8
0
100
AcDbLine
 10
273.1036
 20
189.4013
 30
0.0
 11
270.4897
 21
188.2583
 31
0.0
  0
LINE
  5
1274
330
1D
100
AcDbEntity
  8
0
100
AcDbLine
 10
294.6672
 20
187.6743
 30
0.0
 11
293.9306
 21
186.0993
 31
0.0
  0
LINE
  5
1275
330
1D
100
AcDbEntity
  8
0
100
AcDbLine
 10
270.4897
 20
188.2583
 30
0.0
 11
267.7712
 21
187.3913
 31
0.0
  0
LINE
  5
1276
330
1D
100
AcDbEntity
  8
0
100
AcDbLine
 10
267.7712
 20
187.3913
 30
0.0
 11
264.9821
 21
186.7863
 31
0.0
  0
LINE
  5
1277
330
1D
100
AcDbEntity
  8
0
100
AcDbLine
 10
293.9306
 20
186.0993
 30
0.0
 11
292.9309
 21
184.6753
 31
0.0
  0
LINE
  5
1278
330
1D
100
AcDbEntity
  8
0
100
AcDbLine
 10
264.9821
 20
186.7863
 30
0.0
 11
262.1453
 21
186.4713
 31
0.0
  0
LINE
  5
1279
330
1D
100
AcDbEntity
  8
0
100
AcDbLine
 10
262.1453
 20
186.4713
 30
0.0
 11
259.1767
 21
186.3863
 31
0.0
  0
LINE
  5
127A
330
1D
100
AcDbEntity
  8
0
100
AcDbLine
 10
292.9309
 20
184.6753
 30
0.0
 11
291.6989
 21
183.4463
 31
0.0
  0
LINE
  5
127B
330
1D
100
AcDbEntity
  8
0
100
AcDbLine
 10
291.6989
 20
183.4463
 30
0.0
 11
290.2708
 21
182.4493
 31
0.0
  0
LINE
  5
127C
330
1D
100
AcDbEntity
  8
0
100
AcDbLine
 10
290.2708
 20
182.4493
 30
0.0
 11
288.6906
 21
181.7153
 31
0.0
  0
LINE
  5
127D
330
1D
100
AcDbEntity
  8
0
100
AcDbLine
 10
288.6906
 20
181.7153
 30
0.0
 11
286.6296
 21
181.1893
 31
0.0
  0
LINE
  5
127E
330
1D
100
AcDbEntity
  8
0
100
AcDbLine
 10
286.6296
 20
181.1893
 30
0.0
 11
231.3777
 21
181.1883
 31
0.0
  0
LINE
  5
1435
330
1D
100
AcDbEntity
  8
0
100
AcDbLine
 10
338.863180952732
 20
9.872345361393
 30
0.0
 11
344.337180952732
 21
6.564305361393
 31
0.0
  0
LINE
  5
1436
330
1D
100
AcDbEntity
  8
0
100
AcDbLine
 10
344.337180952732
 20
6.564305361393
 30
0.0
 11
350.104180952732
 21
3.984625361393
 31
0.0
  0
LINE
  5
1437
330
1D
100
AcDbEntity
  8
0
100
AcDbLine
 10
350.104180952732
 20
3.984625361393
 30
0.0
 11
356.308180952732
 21
2.132325361393
 31
0.0
  0
LINE
  5
1438
330
1D
100
AcDbEntity
  8
0
100
AcDbLine
 10
356.308180952732
 20
2.132325361393
 30
0.0
 11
362.805180952732
 21
0.941425361393
 31
0.0
  0
LINE
  5
1439
330
1D
100
AcDbEntity
  8
0
100
AcDbLine
 10
362.805180952732
 20
0.941425361393
 30
0.0
 11
369.228180952732
 21
0.478725361393
 31
0.0
  0
LINE
  5
143A
330
1D
100
AcDbEntity
  8
0
100
AcDbLine
 10
362.805180952732
 20
9.816345361393
 30
0.0
 11
369.228180952732
 21
9.353795361393
 31
0.0
  0
LINE
  5
143B
330
1D
100
AcDbEntity
  8
0
100
AcDbLine
 10
369.228180952732
 20
0.478725361393
 30
0.0
 11
375.651180952732
 21
0.941425361393
 31
0.0
  0
LINE
  5
143C
330
1D
100
AcDbEntity
  8
0
100
AcDbLine
 10
394.119180952732
 20
6.564305361393
 30
0.0
 11
399.593180952732
 21
9.872345361393
 31
0.0
  0
LINE
  5
143D
330
1D
100
AcDbEntity
  8
0
100
AcDbLine
 10
388.352180952732
 20
3.984625361393
 30
0.0
 11
394.119180952732
 21
6.564305361393
 31
0.0
  0
LINE
  5
143E
330
1D
100
AcDbEntity
  8
0
100
AcDbLine
 10
382.148180952732
 20
2.132325361393
 30
0.0
 11
388.352180952732
 21
3.984625361393
 31
0.0
  0
LINE
  5
143F
330
1D
100
AcDbEntity
  8
0
100
AcDbLine
 10
375.651180952732
 20
0.941425361393
 30
0.0
 11
382.148180952732
 21
2.132325361393
 31
0.0
  0
LINE
  5
1440
330
1D
100
AcDbEntity
  8
0
100
AcDbLine
 10
399.593180952732
 20
9.872345361393
 30
0.0
 11
404.556180952732
 21
13.775795361393
 31
0.0
  0
LINE
  5
1441
330
1D
100
AcDbEntity
  8
0
100
AcDbLine
 10
375.651180952732
 20
9.816345361393
 30
0.0
 11
382.148180952732
 21
11.007275361393
 31
0.0
  0
LINE
  5
1442
330
1D
100
AcDbEntity
  8
0
100
AcDbLine
 10
369.228180952732
 20
9.353795361393
 30
0.0
 11
375.651180952732
 21
9.816345361393
 31
0.0
  0
LINE
  5
1443
330
1D
100
AcDbEntity
  8
0
100
AcDbLine
 10
319.739180952732
 20
39.972225361393
 30
0.0
 11
321.053180952732
 21
34.084525361393
 31
0.0
  0
LINE
  5
1444
330
1D
100
AcDbEntity
  8
0
100
AcDbLine
 10
319.739180952732
 20
48.847125361393
 30
0.0
 11
321.053180952732
 21
42.959425361393
 31
0.0
  0
LINE
  5
1445
330
1D
100
AcDbEntity
  8
0
100
AcDbLine
 10
319.228180952732
 20
45.793925361393
 30
0.0
 11
319.228180952732
 21
54.668925361393
 31
0.0
  0
LINE
  5
1446
330
1D
100
AcDbEntity
  8
0
100
AcDbLine
 10
319.228180952732
 20
45.793925361393
 30
0.0
 11
319.739180952732
 21
39.972225361393
 31
0.0
  0
LINE
  5
1447
330
1D
100
AcDbEntity
  8
0
100
AcDbLine
 10
319.739180952732
 20
60.490425361393
 30
0.0
 11
321.053180952732
 21
66.378025361393
 31
0.0
  0
LINE
  5
1448
330
1D
100
AcDbEntity
  8
0
100
AcDbLine
 10
319.228180952732
 20
54.668925361393
 30
0.0
 11
319.739180952732
 21
60.490425361393
 31
0.0
  0
LINE
  5
1449
330
1D
100
AcDbEntity
  8
0
100
AcDbLine
 10
319.228180952732
 20
54.668925361393
 30
0.0
 11
319.739180952732
 21
48.847125361393
 31
0.0
  0
LINE
  5
144A
330
1D
100
AcDbEntity
  8
0
100
AcDbLine
 10
319.228180952732
 20
54.668925361393
 30
0.0
 11
319.228180952732
 21
45.793925361393
 31
0.0
  0
LINE
  5
144B
330
1D
100
AcDbEntity
  8
0
100
AcDbLine
 10
323.097180952732
 20
28.461525361393
 30
0.0
 11
325.943180952732
 21
23.235225361393
 31
0.0
  0
LINE
  5
144C
330
1D
100
AcDbEntity
  8
0
100
AcDbLine
 10
321.053180952732
 20
34.084525361393
 30
0.0
 11
323.097180952732
 21
28.461525361393
 31
0.0
  0
LINE
  5
144D
330
1D
100
AcDbEntity
  8
0
100
AcDbLine
 10
323.097180952732
 20
37.336525361393
 30
0.0
 11
325.943180952732
 21
32.110325361393
 31
0.0
  0
LINE
  5
144E
330
1D
100
AcDbEntity
  8
0
100
AcDbLine
 10
321.053180952732
 20
42.959425361393
 30
0.0
 11
323.097180952732
 21
37.336525361393
 31
0.0
  0
LINE
  5
144F
330
1D
100
AcDbEntity
  8
0
100
AcDbLine
 10
329.593180952732
 20
18.273725361393
 30
0.0
 11
333.900180952732
 21
13.775795361393
 31
0.0
  0
LINE
  5
1450
330
1D
100
AcDbEntity
  8
0
100
AcDbLine
 10
325.943180952732
 20
23.235225361393
 30
0.0
 11
329.593180952732
 21
18.273725361393
 31
0.0
  0
LINE
  5
1451
330
1D
100
AcDbEntity
  8
0
100
AcDbLine
 10
329.593180952732
 20
27.148725361393
 30
0.0
 11
333.900180952732
 21
22.650825361393
 31
0.0
  0
LINE
  5
1452
330
1D
100
AcDbEntity
  8
0
100
AcDbLine
 10
325.943180952732
 20
32.110325361393
 30
0.0
 11
329.593180952732
 21
27.148725361393
 31
0.0
  0
LINE
  5
1453
330
1D
100
AcDbEntity
  8
0
100
AcDbLine
 10
333.900180952732
 20
13.775795361393
 30
0.0
 11
338.863180952732
 21
9.872345361393
 31
0.0
  0
LINE
  5
1454
330
1D
100
AcDbEntity
  8
0
100
AcDbLine
 10
333.900180952732
 20
22.650825361393
 30
0.0
 11
338.863180952732
 21
18.747325361393
 31
0.0
  0
LINE
  5
1455
330
1D
100
AcDbEntity
  8
0
100
AcDbLine
 10
334.410180952732
 20
23.536025361393
 30
0.0
 11
339.301180952732
 21
19.699425361393
 31
0.0
  0
LINE
  5
1456
330
1D
100
AcDbEntity
  8
0
100
AcDbLine
 10
330.177180952732
 20
27.967925361393
 30
0.0
 11
334.410180952732
 21
23.536025361393
 31
0.0
  0
LINE
  5
1457
330
1D
100
AcDbEntity
  8
0
100
AcDbLine
 10
326.527180952732
 20
32.863525361393
 30
0.0
 11
330.177180952732
 21
27.967925361393
 31
0.0
  0
LINE
  5
1458
330
1D
100
AcDbEntity
  8
0
100
AcDbLine
 10
323.827180952732
 20
38.023925361393
 30
0.0
 11
326.527180952732
 21
32.863525361393
 31
0.0
  0
LINE
  5
1459
330
1D
100
AcDbEntity
  8
0
100
AcDbLine
 10
321.710180952732
 20
43.845625361393
 30
0.0
 11
323.827180952732
 21
38.023925361393
 31
0.0
  0
LINE
  5
145A
330
1D
100
AcDbEntity
  8
0
100
AcDbLine
 10
320.469180952732
 20
49.335725361393
 30
0.0
 11
321.710180952732
 21
43.845625361393
 31
0.0
  0
LINE
  5
145B
330
1D
100
AcDbEntity
  8
0
100
AcDbLine
 10
321.053180952732
 20
66.378025361393
 30
0.0
 11
323.097180952732
 21
72.001225361393
 31
0.0
  0
LINE
  5
145C
330
1D
100
AcDbEntity
  8
0
100
AcDbLine
 10
323.097180952732
 20
72.001225361393
 30
0.0
 11
325.943180952732
 21
77.227225361393
 31
0.0
  0
LINE
  5
145D
330
1D
100
AcDbEntity
  8
0
100
AcDbLine
 10
325.943180952732
 20
77.227225361393
 30
0.0
 11
329.593180952732
 21
82.188825361393
 31
0.0
  0
LINE
  5
145E
330
1D
100
AcDbEntity
  8
0
100
AcDbLine
 10
329.593180952732
 20
82.188825361393
 30
0.0
 11
333.900180952732
 21
86.687325361393
 31
0.0
  0
LINE
  5
145F
330
1D
100
AcDbEntity
  8
0
100
AcDbLine
 10
330.177180952732
 20
82.214425361393
 30
0.0
 11
334.410180952732
 21
86.646825361393
 31
0.0
  0
LINE
  5
1460
330
1D
100
AcDbEntity
  8
0
100
AcDbLine
 10
326.527180952732
 20
77.319125361393
 30
0.0
 11
330.177180952732
 21
82.214425361393
 31
0.0
  0
LINE
  5
1461
330
1D
100
AcDbEntity
  8
0
100
AcDbLine
 10
323.827180952732
 20
72.159125361393
 30
0.0
 11
326.527180952732
 21
77.319125361393
 31
0.0
  0
LINE
  5
1462
330
1D
100
AcDbEntity
  8
0
100
AcDbLine
 10
321.710180952732
 20
66.337525361393
 30
0.0
 11
323.827180952732
 21
72.159125361393
 31
0.0
  0
LINE
  5
1463
330
1D
100
AcDbEntity
  8
0
100
AcDbLine
 10
320.469180952732
 20
60.846825361393
 30
0.0
 11
321.710180952732
 21
66.337525361393
 31
0.0
  0
LINE
  5
1464
330
1D
100
AcDbEntity
  8
0
100
AcDbLine
 10
319.958180952732
 20
55.091525361393
 30
0.0
 11
320.469180952732
 21
60.846825361393
 31
0.0
  0
LINE
  5
1465
330
1D
100
AcDbEntity
  8
0
100
AcDbLine
 10
319.958180952732
 20
55.091525361393
 30
0.0
 11
320.469180952732
 21
49.335725361393
 31
0.0
  0
LINE
  5
1466
330
1D
100
AcDbEntity
  8
0
100
AcDbLine
 10
333.900180952732
 20
86.687325361393
 30
0.0
 11
338.863180952732
 21
90.590225361393
 31
0.0
  0
LINE
  5
1467
330
1D
100
AcDbEntity
  8
0
100
AcDbLine
 10
338.863180952732
 20
18.747325361393
 30
0.0
 11
344.337180952732
 21
15.439255361393
 31
0.0
  0
LINE
  5
1468
330
1D
100
AcDbEntity
  8
0
100
AcDbLine
 10
344.337180952732
 20
15.439255361393
 30
0.0
 11
350.104180952732
 21
12.859615361393
 31
0.0
  0
LINE
  5
1469
330
1D
100
AcDbEntity
  8
0
100
AcDbLine
 10
339.301180952732
 20
19.699425361393
 30
0.0
 11
344.702180952732
 21
16.391425361393
 31
0.0
  0
LINE
  5
146A
330
1D
100
AcDbEntity
  8
0
100
AcDbLine
 10
344.702180952732
 20
16.391425361393
 30
0.0
 11
350.396180952732
 21
13.943635361393
 31
0.0
  0
LINE
  5
146B
330
1D
100
AcDbEntity
  8
0
100
AcDbLine
 10
334.410180952732
 20
86.646825361393
 30
0.0
 11
339.301180952732
 21
90.483625361393
 31
0.0
  0
LINE
  5
146C
330
1D
100
AcDbEntity
  8
0
100
AcDbLine
 10
338.863180952732
 20
90.590225361393
 30
0.0
 11
344.337180952732
 21
93.898025361393
 31
0.0
  0
LINE
  5
146D
330
1D
100
AcDbEntity
  8
0
100
AcDbLine
 10
344.337180952732
 20
93.898025361393
 30
0.0
 11
350.104180952732
 21
96.478025361393
 31
0.0
  0
LINE
  5
146E
330
1D
100
AcDbEntity
  8
0
100
AcDbLine
 10
339.301180952732
 20
90.483625361393
 30
0.0
 11
344.702180952732
 21
93.791425361393
 31
0.0
  0
LINE
  5
146F
330
1D
100
AcDbEntity
  8
0
100
AcDbLine
 10
350.104180952732
 20
12.859615361393
 30
0.0
 11
356.308180952732
 21
11.007275361393
 31
0.0
  0
LINE
  5
1470
330
1D
100
AcDbEntity
  8
0
100
AcDbLine
 10
356.308180952732
 20
11.007275361393
 30
0.0
 11
362.805180952732
 21
9.816345361393
 31
0.0
  0
LINE
  5
1471
330
1D
100
AcDbEntity
  8
0
100
AcDbLine
 10
350.396180952732
 20
13.943635361393
 30
0.0
 11
356.819180952732
 21
12.025405361393
 31
0.0
  0
LINE
  5
1472
330
1D
100
AcDbEntity
  8
0
100
AcDbLine
 10
356.819180952732
 20
12.025405361393
 30
0.0
 11
362.878180952732
 21
10.900365361393
 31
0.0
  0
LINE
  5
1473
330
1D
100
AcDbEntity
  8
0
100
AcDbLine
 10
344.702180952732
 20
93.791425361393
 30
0.0
 11
350.396180952732
 21
96.239125361393
 31
0.0
  0
LINE
  5
1474
330
1D
100
AcDbEntity
  8
0
100
AcDbLine
 10
350.104180952732
 20
96.478025361393
 30
0.0
 11
356.308180952732
 21
98.330325361393
 31
0.0
  0
LINE
  5
1475
330
1D
100
AcDbEntity
  8
0
100
AcDbLine
 10
356.308180952732
 20
98.330325361393
 30
0.0
 11
362.805180952732
 21
99.521125361393
 31
0.0
  0
LINE
  5
1476
330
1D
100
AcDbEntity
  8
0
100
AcDbLine
 10
350.396180952732
 20
96.239125361393
 30
0.0
 11
356.819180952732
 21
98.157625361393
 31
0.0
  0
LINE
  5
1477
330
1D
100
AcDbEntity
  8
0
100
AcDbLine
 10
360.588180952732
 20
99.114783418958
 30
0.0
 11
360.588180952732
 21
108.624025361393
 31
0.0
  0
LINE
  5
1478
330
1D
100
AcDbEntity
  8
0
100
AcDbLine
 10
362.878180952732
 20
10.900365361393
 30
0.0
 11
369.228180952732
 21
10.437825361393
 31
0.0
  0
LINE
  5
1479
330
1D
100
AcDbEntity
  8
0
100
AcDbLine
 10
356.819180952732
 20
98.157625361393
 30
0.0
 11
362.878180952732
 21
99.282125361393
 31
0.0
  0
LINE
  5
147A
330
1D
100
AcDbEntity
  8
0
100
AcDbLine
 10
362.805180952732
 20
99.521125361393
 30
0.0
 11
369.228180952732
 21
99.984225361393
 31
0.0
  0
LINE
  5
147B
330
1D
100
AcDbEntity
  8
0
100
AcDbLine
 10
362.878180952732
 20
99.282125361393
 30
0.0
 11
369.228180952732
 21
99.745225361393
 31
0.0
  0
LINE
  5
147C
330
1D
100
AcDbEntity
  8
0
100
AcDbLine
 10
375.578180952732
 20
99.282125361393
 30
0.0
 11
381.637180952732
 21
98.157625361393
 31
0.0
  0
LINE
  5
147D
330
1D
100
AcDbEntity
  8
0
100
AcDbLine
 10
357.612180952732
 20
107.244025361393
 30
0.0
 11
358.860180952732
 21
105.942025361393
 31
0.0
  0
LINE
  5
147E
330
1D
100
AcDbEntity
  8
0
100
AcDbLine
 10
357.228180952732
 20
108.624025361393
 30
0.0
 11
357.612180952732
 21
110.044025361393
 31
0.0
  0
LINE
  5
147F
330
1D
100
AcDbEntity
  8
0
100
AcDbLine
 10
357.228180952732
 20
108.624025361393
 30
0.0
 11
357.612180952732
 21
107.244025361393
 31
0.0
  0
LINE
  5
1480
330
1D
100
AcDbEntity
  8
0
100
AcDbLine
 10
357.228180952732
 20
108.624025361393
 30
0.0
 11
357.228180952732
 21
169.105025361393
 31
0.0
  0
LINE
  5
1481
330
1D
100
AcDbEntity
  8
0
100
AcDbLine
 10
358.860180952732
 20
105.942025361393
 30
0.0
 11
360.588180952732
 21
104.912785361393
 31
0.0
  0
LINE
  5
1482
330
1D
100
AcDbEntity
  8
0
100
AcDbLine
 10
357.612180952732
 20
110.044025361393
 30
0.0
 11
358.860180952732
 21
111.346025361393
 31
0.0
  0
LINE
  5
1483
330
1D
100
AcDbEntity
  8
0
100
AcDbLine
 10
358.860180952732
 20
111.346025361393
 30
0.0
 11
360.780180952732
 21
112.489025361393
 31
0.0
  0
LINE
  5
1484
330
1D
100
AcDbEntity
  8
0
100
AcDbLine
 10
360.780180952732
 20
112.489025361393
 30
0.0
 11
363.276180952732
 21
113.357025361393
 31
0.0
  0
LINE
  5
1485
330
1D
100
AcDbEntity
  8
0
100
AcDbLine
 10
367.020180952732
 20
112.410025361393
 30
0.0
 11
369.228180952732
 21
112.568025361393
 31
0.0
  0
LINE
  5
1486
330
1D
100
AcDbEntity
  8
0
100
AcDbLine
 10
364.908180952732
 20
112.015025361393
 30
0.0
 11
367.020180952732
 21
112.410025361393
 31
0.0
  0
LINE
  5
1487
330
1D
100
AcDbEntity
  8
0
100
AcDbLine
 10
363.084180952732
 20
111.385025361393
 30
0.0
 11
364.908180952732
 21
112.015025361393
 31
0.0
  0
LINE
  5
1488
330
1D
100
AcDbEntity
  8
0
100
AcDbLine
 10
361.740180952732
 20
110.596025361393
 30
0.0
 11
363.084180952732
 21
111.385025361393
 31
0.0
  0
LINE
  5
1489
330
1D
100
AcDbEntity
  8
0
100
AcDbLine
 10
360.876180952732
 20
109.649025361393
 30
0.0
 11
361.740180952732
 21
110.596025361393
 31
0.0
  0
LINE
  5
148A
330
1D
100
AcDbEntity
  8
0
100
AcDbLine
 10
360.588180952732
 20
108.624025361393
 30
0.0
 11
360.588180952732
 21
99.114783418958
 31
0.0
  0
LINE
  5
148B
330
1D
100
AcDbEntity
  8
0
100
AcDbLine
 10
360.588180952732
 20
108.624025361393
 30
0.0
 11
360.876180952732
 21
109.649025361393
 31
0.0
  0
LINE
  5
148C
330
1D
100
AcDbEntity
  8
0
100
AcDbLine
 10
353.831180952732
 20
168.140025361393
 30
0.0
 11
355.293180952732
 21
165.285025361393
 31
0.0
  0
LINE
  5
148D
330
1D
100
AcDbEntity
  8
0
100
AcDbLine
 10
356.877180952732
 20
163.511025361393
 30
0.0
 11
357.228180952732
 21
163.236267164672
 31
0.0
  0
LINE
  5
148E
330
1D
100
AcDbEntity
  8
0
100
AcDbLine
 10
355.293180952732
 20
165.285025361393
 30
0.0
 11
355.750180952732
 21
165.080025361393
 31
0.0
  0
LINE
  5
148F
330
1D
100
AcDbEntity
  8
0
100
AcDbLine
 10
355.402230561216
 20
165.236108140957
 30
0.0
 11
356.877180952732
 21
163.511025361393
 31
0.0
  0
LINE
  5
1490
330
1D
100
AcDbEntity
  8
0
100
AcDbLine
 10
355.750180952732
 20
165.080025361393
 30
0.0
 11
357.228180952732
 21
163.500384203172
 31
0.0
  0
LINE
  5
1491
330
1D
100
AcDbEntity
  8
0
100
AcDbLine
 10
354.168180952732
 20
167.464025361393
 30
0.0
 11
354.227947993793
 21
167.365216946736
 31
0.0
  0
LINE
  5
1492
330
1D
100
AcDbEntity
  8
0
100
AcDbLine
 10
353.195180952732
 20
172.191025361393
 30
0.0
 11
353.718180952732
 21
174.863025361393
 31
0.0
  0
LINE
  5
1493
330
1D
100
AcDbEntity
  8
0
100
AcDbLine
 10
353.195180952732
 20
172.191025361393
 30
0.0
 11
353.378180952732
 21
169.789025361393
 31
0.0
  0
LINE
  5
1494
330
1D
100
AcDbEntity
  8
0
100
AcDbLine
 10
353.378180952732
 20
169.789025361393
 30
0.0
 11
353.831180952732
 21
168.140025361393
 31
0.0
  0
LINE
  5
1495
330
1D
100
AcDbEntity
  8
0
100
AcDbLine
 10
357.228180952732
 20
169.105025361393
 30
0.0
 11
357.228180952732
 21
108.624025361393
 31
0.0
  0
LINE
  5
1496
330
1D
100
AcDbEntity
  8
0
100
AcDbLine
 10
357.228180952732
 20
169.105025361393
 30
0.0
 11
357.612180952732
 21
171.499025361393
 31
0.0
  0
LINE
  5
1497
330
1D
100
AcDbEntity
  8
0
100
AcDbLine
 10
357.612180952732
 20
171.499025361393
 30
0.0
 11
358.860180952732
 21
173.725025361393
 31
0.0
  0
LINE
  5
1498
330
1D
100
AcDbEntity
  8
0
100
AcDbLine
 10
353.718180952732
 20
174.863025361393
 30
0.0
 11
355.023180952732
 21
177.379025361393
 31
0.0
  0
LINE
  5
1499
330
1D
100
AcDbEntity
  8
0
100
AcDbLine
 10
358.860180952732
 20
173.725025361393
 30
0.0
 11
360.780180952732
 21
175.655025361393
 31
0.0
  0
LINE
  5
149A
330
1D
100
AcDbEntity
  8
0
100
AcDbLine
 10
360.780180952732
 20
175.655025361393
 30
0.0
 11
363.276180952732
 21
177.079025361393
 31
0.0
  0
LINE
  5
149B
330
1D
100
AcDbEntity
  8
0
100
AcDbLine
 10
355.023180952732
 20
177.379025361393
 30
0.0
 11
356.957180952732
 21
179.645025361392
 31
0.0
  0
LINE
  5
149C
330
1D
100
AcDbEntity
  8
0
100
AcDbLine
 10
363.276180952732
 20
177.079025361393
 30
0.0
 11
366.156180952732
 21
177.959025361393
 31
0.0
  0
LINE
  5
149D
330
1D
100
AcDbEntity
  8
0
100
AcDbLine
 10
363.276180952732
 20
113.357025361393
 30
0.0
 11
366.156180952732
 21
113.869025361393
 31
0.0
  0
LINE
  5
149E
330
1D
100
AcDbEntity
  8
0
100
AcDbLine
 10
366.156180952732
 20
177.959025361393
 30
0.0
 11
369.228180952732
 21
178.296025361393
 31
0.0
  0
LINE
  5
149F
330
1D
100
AcDbEntity
  8
0
100
AcDbLine
 10
366.156180952732
 20
113.869025361393
 30
0.0
 11
369.228180952732
 21
114.066025361393
 31
0.0
  0
LINE
  5
14A0
330
1D
100
AcDbEntity
  8
0
100
AcDbLine
 10
356.957180952732
 20
179.645025361392
 30
0.0
 11
359.842180952732
 21
181.682025361393
 31
0.0
  0
LINE
  5
14A1
330
1D
100
AcDbEntity
  8
0
100
AcDbLine
 10
359.842180952732
 20
181.682025361393
 30
0.0
 11
363.656180952732
 21
183.235025361393
 31
0.0
  0
LINE
  5
14A2
330
1D
100
AcDbEntity
  8
0
100
AcDbLine
 10
369.228180952732
 20
178.296025361393
 30
0.0
 11
372.300180952732
 21
177.959025361393
 31
0.0
  0
LINE
  5
14A3
330
1D
100
AcDbEntity
  8
0
100
AcDbLine
 10
369.228180952732
 20
114.066025361393
 30
0.0
 11
372.300180952732
 21
113.869025361393
 31
0.0
  0
LINE
  5
14A4
330
1D
100
AcDbEntity
  8
0
100
AcDbLine
 10
369.228180952732
 20
112.568025361393
 30
0.0
 11
371.436180952732
 21
112.410025361393
 31
0.0
  0
LINE
  5
14A5
330
1D
100
AcDbEntity
  8
0
100
AcDbLine
 10
375.372180952732
 20
111.385025361393
 30
0.0
 11
376.716180952732
 21
110.596025361393
 31
0.0
  0
LINE
  5
14A6
330
1D
100
AcDbEntity
  8
0
100
AcDbLine
 10
373.548180952732
 20
112.015025361393
 30
0.0
 11
375.372180952732
 21
111.385025361393
 31
0.0
  0
LINE
  5
14A7
330
1D
100
AcDbEntity
  8
0
100
AcDbLine
 10
372.300180952732
 20
177.959025361393
 30
0.0
 11
375.180180952732
 21
177.079025361393
 31
0.0
  0
LINE
  5
14A8
330
1D
100
AcDbEntity
  8
0
100
AcDbLine
 10
375.180180952732
 20
177.079025361393
 30
0.0
 11
377.676180952732
 21
175.655025361393
 31
0.0
  0
LINE
  5
14A9
330
1D
100
AcDbEntity
  8
0
100
AcDbLine
 10
375.180180952732
 20
113.357025361393
 30
0.0
 11
377.676180952732
 21
112.489025361393
 31
0.0
  0
LINE
  5
14AA
330
1D
100
AcDbEntity
  8
0
100
AcDbLine
 10
372.300180952732
 20
113.869025361393
 30
0.0
 11
375.180180952732
 21
113.357025361393
 31
0.0
  0
LINE
  5
14AB
330
1D
100
AcDbEntity
  8
0
100
AcDbLine
 10
371.436180952732
 20
112.410025361393
 30
0.0
 11
373.548180952732
 21
112.015025361393
 31
0.0
  0
LINE
  5
14AC
330
1D
100
AcDbEntity
  8
0
100
AcDbLine
 10
369.228180952732
 20
99.984225361393
 30
0.0
 11
375.651180952732
 21
99.521125361393
 31
0.0
  0
LINE
  5
14AD
330
1D
100
AcDbEntity
  8
0
100
AcDbLine
 10
369.228180952732
 20
99.745225361393
 30
0.0
 11
375.578180952732
 21
99.282125361393
 31
0.0
  0
LINE
  5
14AE
330
1D
100
AcDbEntity
  8
0
100
AcDbLine
 10
382.148180952732
 20
11.007275361393
 30
0.0
 11
388.352180952732
 21
12.859615361393
 31
0.0
  0
LINE
  5
14AF
330
1D
100
AcDbEntity
  8
0
100
AcDbLine
 10
388.060180952732
 20
96.239125361393
 30
0.0
 11
393.754180952732
 21
93.791425361393
 31
0.0
  0
LINE
  5
14B0
330
1D
100
AcDbEntity
  8
0
100
AcDbLine
 10
377.868180952732
 20
104.912785361393
 30
0.0
 11
379.596180952732
 21
105.942025361393
 31
0.0
  0
LINE
  5
14B1
330
1D
100
AcDbEntity
  8
0
100
AcDbLine
 10
379.596180952732
 20
105.942025361393
 30
0.0
 11
380.844180952732
 21
107.244025361393
 31
0.0
  0
LINE
  5
14B2
330
1D
100
AcDbEntity
  8
0
100
AcDbLine
 10
381.228180952732
 20
108.624025361393
 30
0.0
 11
381.228180952732
 21
169.105025361393
 31
0.0
  0
LINE
  5
14B3
330
1D
100
AcDbEntity
  8
0
100
AcDbLine
 10
380.844180952732
 20
107.244025361393
 30
0.0
 11
381.228180952732
 21
108.624025361393
 31
0.0
  0
LINE
  5
14B4
330
1D
100
AcDbEntity
  8
0
100
AcDbLine
 10
377.676180952732
 20
175.655025361393
 30
0.0
 11
379.596180952732
 21
173.725025361393
 31
0.0
  0
LINE
  5
14B5
330
1D
100
AcDbEntity
  8
0
100
AcDbLine
 10
380.844180952732
 20
110.044025361393
 30
0.0
 11
381.228180952732
 21
108.624025361393
 31
0.0
  0
LINE
  5
14B6
330
1D
100
AcDbEntity
  8
0
100
AcDbLine
 10
381.228180952732
 20
163.283588853456
 30
0.0
 11
381.949180952732
 21
164.025025361393
 31
0.0
  0
LINE
  5
14B7
330
1D
100
AcDbEntity
  8
0
100
AcDbLine
 10
381.228180952732
 20
163.971354635186
 30
0.0
 11
381.452180952732
 21
164.173025361393
 31
0.0
  0
LINE
  5
14B8
330
1D
100
AcDbEntity
  8
0
100
AcDbLine
 10
381.949180952732
 20
164.025025361393
 30
0.0
 11
383.839180952732
 21
166.438025361393
 31
0.0
  0
LINE
  5
14B9
330
1D
100
AcDbEntity
  8
0
100
AcDbLine
 10
384.827180952732
 20
168.817025361393
 30
0.0
 11
385.215180952732
 21
170.907025361392
 31
0.0
  0
LINE
  5
14BA
330
1D
100
AcDbEntity
  8
0
100
AcDbLine
 10
383.839180952732
 20
166.438025361393
 30
0.0
 11
384.827180952732
 21
168.817025361393
 31
0.0
  0
LINE
  5
14BB
330
1D
100
AcDbEntity
  8
0
100
AcDbLine
 10
381.228180952732
 20
169.105025361393
 30
0.0
 11
381.228180952732
 21
108.624025361393
 31
0.0
  0
LINE
  5
14BC
330
1D
100
AcDbEntity
  8
0
100
AcDbLine
 10
380.159180952732
 20
180.680025361393
 30
0.0
 11
382.014180952732
 21
179.117025361393
 31
0.0
  0
LINE
  5
14BD
330
1D
100
AcDbEntity
  8
0
100
AcDbLine
 10
382.014180952732
 20
179.117025361393
 30
0.0
 11
383.243180952732
 21
177.577025361393
 31
0.0
  0
LINE
  5
14BE
330
1D
100
AcDbEntity
  8
0
100
AcDbLine
 10
384.986180952732
 20
173.909025361393
 30
0.0
 11
385.215180952732
 21
170.907025361392
 31
0.0
  0
LINE
  5
14BF
330
1D
100
AcDbEntity
  8
0
100
AcDbLine
 10
384.236180952732
 20
175.937025361393
 30
0.0
 11
384.296170612997
 21
175.760321640586
 31
0.0
  0
LINE
  5
14C0
330
1D
100
AcDbEntity
  8
0
100
AcDbLine
 10
384.409180952732
 20
175.666025361393
 30
0.0
 11
384.986180952732
 21
173.909025361393
 31
0.0
  0
LINE
  5
14C1
330
1D
100
AcDbEntity
  8
0
100
AcDbLine
 10
383.243180952732
 20
177.577025361393
 30
0.0
 11
384.236180952732
 21
175.937025361393
 31
0.0
  0
LINE
  5
14C2
330
1D
100
AcDbEntity
  8
0
100
AcDbLine
 10
380.844180952732
 20
171.499025361393
 30
0.0
 11
381.228180952732
 21
169.105025361393
 31
0.0
  0
LINE
  5
14C3
330
1D
100
AcDbEntity
  8
0
100
AcDbLine
 10
379.596180952732
 20
173.725025361393
 30
0.0
 11
380.844180952732
 21
171.499025361393
 31
0.0
  0
LINE
  5
14C4
330
1D
100
AcDbEntity
  8
0
100
AcDbLine
 10
379.596180952732
 20
111.346025361393
 30
0.0
 11
380.844180952732
 21
110.044025361393
 31
0.0
  0
LINE
  5
14C5
330
1D
100
AcDbEntity
  8
0
100
AcDbLine
 10
377.676180952732
 20
112.489025361393
 30
0.0
 11
379.596180952732
 21
111.346025361393
 31
0.0
  0
LINE
  5
14C6
330
1D
100
AcDbEntity
  8
0
100
AcDbLine
 10
377.868180952732
 20
108.624025361393
 30
0.0
 11
377.868180952732
 21
99.114783418958
 31
0.0
  0
LINE
  5
14C7
330
1D
100
AcDbEntity
  8
0
100
AcDbLine
 10
377.580180952732
 20
109.649025361393
 30
0.0
 11
377.868180952732
 21
108.624025361393
 31
0.0
  0
LINE
  5
14C8
330
1D
100
AcDbEntity
  8
0
100
AcDbLine
 10
377.868180952732
 20
99.114783418958
 30
0.0
 11
377.868180952732
 21
108.624025361393
 31
0.0
  0
LINE
  5
14C9
330
1D
100
AcDbEntity
  8
0
100
AcDbLine
 10
376.716180952732
 20
110.596025361393
 30
0.0
 11
377.580180952732
 21
109.649025361393
 31
0.0
  0
LINE
  5
14CA
330
1D
100
AcDbEntity
  8
0
100
AcDbLine
 10
382.148180952732
 20
98.330325361393
 30
0.0
 11
388.352180952732
 21
96.478025361393
 31
0.0
  0
LINE
  5
14CB
330
1D
100
AcDbEntity
  8
0
100
AcDbLine
 10
375.651180952732
 20
99.521125361393
 30
0.0
 11
382.148180952732
 21
98.330325361393
 31
0.0
  0
LINE
  5
14CC
330
1D
100
AcDbEntity
  8
0
100
AcDbLine
 10
381.637180952732
 20
98.157625361393
 30
0.0
 11
388.060180952732
 21
96.239125361393
 31
0.0
  0
LINE
  5
14CD
330
1D
100
AcDbEntity
  8
0
100
AcDbLine
 10
404.556180952732
 20
13.775795361393
 30
0.0
 11
408.863180952732
 21
18.273725361393
 31
0.0
  0
LINE
  5
14CE
330
1D
100
AcDbEntity
  8
0
100
AcDbLine
 10
394.119180952732
 20
15.439255361393
 30
0.0
 11
399.593180952732
 21
18.747325361393
 31
0.0
  0
LINE
  5
14CF
330
1D
100
AcDbEntity
  8
0
100
AcDbLine
 10
388.352180952732
 20
12.859615361393
 30
0.0
 11
394.119180952732
 21
15.439255361393
 31
0.0
  0
LINE
  5
14D0
330
1D
100
AcDbEntity
  8
0
100
AcDbLine
 10
399.155180952732
 20
90.483625361393
 30
0.0
 11
404.046180952732
 21
86.646825361393
 31
0.0
  0
LINE
  5
14D1
330
1D
100
AcDbEntity
  8
0
100
AcDbLine
 10
394.119180952732
 20
93.898025361393
 30
0.0
 11
399.593180952732
 21
90.590225361393
 31
0.0
  0
LINE
  5
14D2
330
1D
100
AcDbEntity
  8
0
100
AcDbLine
 10
388.352180952732
 20
96.478025361393
 30
0.0
 11
394.119180952732
 21
93.898025361393
 31
0.0
  0
LINE
  5
14D3
330
1D
100
AcDbEntity
  8
0
100
AcDbLine
 10
393.754180952732
 20
93.791425361393
 30
0.0
 11
399.155180952732
 21
90.483625361393
 31
0.0
  0
LINE
  5
14D4
330
1D
100
AcDbEntity
  8
0
100
AcDbLine
 10
408.863180952732
 20
18.273725361393
 30
0.0
 11
412.513180952732
 21
23.235225361393
 31
0.0
  0
LINE
  5
14D5
330
1D
100
AcDbEntity
  8
0
100
AcDbLine
 10
404.556180952732
 20
22.650825361393
 30
0.0
 11
408.863180952732
 21
27.148725361393
 31
0.0
  0
LINE
  5
14D6
330
1D
100
AcDbEntity
  8
0
100
AcDbLine
 10
404.046180952732
 20
23.536025361393
 30
0.0
 11
408.279180952732
 21
27.967925361393
 31
0.0
  0
LINE
  5
14D7
330
1D
100
AcDbEntity
  8
0
100
AcDbLine
 10
412.513180952732
 20
23.235225361393
 30
0.0
 11
415.359180952732
 21
28.461525361393
 31
0.0
  0
LINE
  5
14D8
330
1D
100
AcDbEntity
  8
0
100
AcDbLine
 10
408.863180952732
 20
27.148725361393
 30
0.0
 11
412.513180952732
 21
32.110325361393
 31
0.0
  0
LINE
  5
14D9
330
1D
100
AcDbEntity
  8
0
100
AcDbLine
 10
412.513180952732
 20
32.110325361393
 30
0.0
 11
415.359180952732
 21
37.336525361393
 31
0.0
  0
LINE
  5
14DA
330
1D
100
AcDbEntity
  8
0
100
AcDbLine
 10
408.279180952732
 20
27.967925361393
 30
0.0
 11
411.929180952732
 21
32.863525361393
 31
0.0
  0
LINE
  5
14DB
330
1D
100
AcDbEntity
  8
0
100
AcDbLine
 10
411.929180952732
 20
32.863525361393
 30
0.0
 11
414.629180952732
 21
38.023925361393
 31
0.0
  0
LINE
  5
14DC
330
1D
100
AcDbEntity
  8
0
100
AcDbLine
 10
415.359180952732
 20
28.461525361393
 30
0.0
 11
417.403180952732
 21
34.084525361393
 31
0.0
  0
LINE
  5
14DD
330
1D
100
AcDbEntity
  8
0
100
AcDbLine
 10
417.403180952732
 20
34.084525361393
 30
0.0
 11
418.717180952732
 21
39.972225361393
 31
0.0
  0
LINE
  5
14DE
330
1D
100
AcDbEntity
  8
0
100
AcDbLine
 10
415.359180952732
 20
37.336525361393
 30
0.0
 11
417.403180952732
 21
42.959425361393
 31
0.0
  0
LINE
  5
14DF
330
1D
100
AcDbEntity
  8
0
100
AcDbLine
 10
417.403180952732
 20
42.959425361393
 30
0.0
 11
418.717180952732
 21
48.847125361393
 31
0.0
  0
LINE
  5
14E0
330
1D
100
AcDbEntity
  8
0
100
AcDbLine
 10
414.629180952732
 20
38.023925361393
 30
0.0
 11
416.746180952732
 21
43.845625361393
 31
0.0
  0
LINE
  5
14E1
330
1D
100
AcDbEntity
  8
0
100
AcDbLine
 10
412.513180952732
 20
77.227225361393
 30
0.0
 11
415.359180952732
 21
72.001225361393
 31
0.0
  0
LINE
  5
14E2
330
1D
100
AcDbEntity
  8
0
100
AcDbLine
 10
399.593180952732
 20
90.590225361393
 30
0.0
 11
404.556180952732
 21
86.687325361393
 31
0.0
  0
LINE
  5
14E3
330
1D
100
AcDbEntity
  8
0
100
AcDbLine
 10
404.556180952732
 20
86.687325361393
 30
0.0
 11
408.863180952732
 21
82.188825361393
 31
0.0
  0
LINE
  5
14E4
330
1D
100
AcDbEntity
  8
0
100
AcDbLine
 10
404.046180952732
 20
86.646825361393
 30
0.0
 11
408.279180952732
 21
82.214425361393
 31
0.0
  0
LINE
  5
14E5
330
1D
100
AcDbEntity
  8
0
100
AcDbLine
 10
408.863180952732
 20
82.188825361393
 30
0.0
 11
412.513180952732
 21
77.227225361393
 31
0.0
  0
LINE
  5
14E6
330
1D
100
AcDbEntity
  8
0
100
AcDbLine
 10
408.279180952732
 20
82.214425361393
 30
0.0
 11
411.929180952732
 21
77.319125361393
 31
0.0
  0
LINE
  5
14E7
330
1D
100
AcDbEntity
  8
0
100
AcDbLine
 10
411.929180952732
 20
77.319125361393
 30
0.0
 11
414.629180952732
 21
72.159125361393
 31
0.0
  0
LINE
  5
14E8
330
1D
100
AcDbEntity
  8
0
100
AcDbLine
 10
415.359180952732
 20
72.001225361393
 30
0.0
 11
417.403180952732
 21
66.378025361393
 31
0.0
  0
LINE
  5
14E9
330
1D
100
AcDbEntity
  8
0
100
AcDbLine
 10
417.403180952732
 20
66.378025361393
 30
0.0
 11
418.717180952732
 21
60.490425361393
 31
0.0
  0
LINE
  5
14EA
330
1D
100
AcDbEntity
  8
0
100
AcDbLine
 10
414.629180952732
 20
72.159125361393
 30
0.0
 11
416.746180952732
 21
66.337525361393
 31
0.0
  0
LINE
  5
14EB
330
1D
100
AcDbEntity
  8
0
100
AcDbLine
 10
416.746180952732
 20
66.337525361393
 30
0.0
 11
417.987180952732
 21
60.846825361393
 31
0.0
  0
LINE
  5
14EC
330
1D
100
AcDbEntity
  8
0
100
AcDbLine
 10
417.987180952732
 20
60.846825361393
 30
0.0
 11
418.498180952732
 21
55.091525361393
 31
0.0
  0
LINE
  5
14ED
330
1D
100
AcDbEntity
  8
0
100
AcDbLine
 10
416.746180952732
 20
43.845625361393
 30
0.0
 11
417.987180952732
 21
49.335725361393
 31
0.0
  0
LINE
  5
14EE
330
1D
100
AcDbEntity
  8
0
100
AcDbLine
 10
419.228180952732
 20
45.793925361393
 30
0.0
 11
419.228180952732
 21
54.668925361393
 31
0.0
  0
LINE
  5
14EF
330
1D
100
AcDbEntity
  8
0
100
AcDbLine
 10
418.717180952732
 20
39.972225361393
 30
0.0
 11
419.228180952732
 21
45.793925361393
 31
0.0
  0
LINE
  5
14F0
330
1D
100
AcDbEntity
  8
0
100
AcDbLine
 10
419.228180952732
 20
54.668925361393
 30
0.0
 11
419.228180952732
 21
45.793925361393
 31
0.0
  0
LINE
  5
14F1
330
1D
100
AcDbEntity
  8
0
100
AcDbLine
 10
418.717180952732
 20
60.490425361393
 30
0.0
 11
419.228180952732
 21
54.668925361393
 31
0.0
  0
LINE
  5
14F2
330
1D
100
AcDbEntity
  8
0
100
AcDbLine
 10
418.717180952732
 20
48.847125361393
 30
0.0
 11
419.228180952732
 21
54.668925361393
 31
0.0
  0
LINE
  5
14F3
330
1D
100
AcDbEntity
  8
0
100
AcDbLine
 10
417.987180952732
 20
49.335725361393
 30
0.0
 11
418.498180952732
 21
55.091525361393
 31
0.0
  0
LINE
  5
14F4
330
1D
100
AcDbEntity
  8
0
100
AcDbLine
 10
399.593180952732
 20
18.747325361393
 30
0.0
 11
404.556180952732
 21
22.650825361393
 31
0.0
  0
LINE
  5
14F5
330
1D
100
AcDbEntity
  8
0
100
AcDbLine
 10
399.155180952732
 20
19.699425361393
 30
0.0
 11
404.046180952732
 21
23.536025361393
 31
0.0
  0
LINE
  5
14F6
330
1D
100
AcDbEntity
  8
0
100
AcDbLine
 10
393.754180952732
 20
16.391425361393
 30
0.0
 11
399.155180952732
 21
19.699425361393
 31
0.0
  0
LINE
  5
14F7
330
1D
100
AcDbEntity
  8
0
100
AcDbLine
 10
388.060180952732
 20
13.943635361393
 30
0.0
 11
393.754180952732
 21
16.391425361393
 31
0.0
  0
LINE
  5
14F8
330
1D
100
AcDbEntity
  8
0
100
AcDbLine
 10
381.637180952732
 20
12.025405361393
 30
0.0
 11
388.060180952732
 21
13.943635361393
 31
0.0
  0
LINE
  5
14F9
330
1D
100
AcDbEntity
  8
0
100
AcDbLine
 10
375.578180952732
 20
10.900365361393
 30
0.0
 11
381.637180952732
 21
12.025405361393
 31
0.0
  0
LINE
  5
14FA
330
1D
100
AcDbEntity
  8
0
100
AcDbLine
 10
369.228180952732
 20
10.437825361393
 30
0.0
 11
375.578180952732
 21
10.900365361393
 31
0.0
  0
LINE
  5
14FF
330
1D
100
AcDbEntity
  8
0
100
AcDbLine
 10
353.210180952732
 20
183.006025361393
 30
0.0
 11
353.237888320201
 21
172.409216730185
 31
0.0
  0
LINE
  5
1500
330
1D
100
AcDbEntity
  8
0
100
AcDbLine
 10
353.210180952732
 20
183.006025361393
 30
0.0
 11
353.432180952732
 21
186.011025361393
 31
0.0
  0
LINE
  5
1501
330
1D
100
AcDbEntity
  8
0
100
AcDbLine
 10
353.451799445144
 20
186.056668710595
 30
0.0
 11
353.595180952732
 21
187.103025361392
 31
0.0
  0
LINE
  5
1502
330
1D
100
AcDbEntity
  8
0
100
AcDbLine
 10
353.432180952732
 20
186.011025361393
 30
0.0
 11
354.660180952732
 21
188.868025361393
 31
0.0
  0
LINE
  5
1503
330
1D
100
AcDbEntity
  8
0
100
AcDbLine
 10
363.656180952732
 20
183.235025361393
 30
0.0
 11
367.481180952732
 21
183.929025361393
 31
0.0
  0
LINE
  5
1504
330
1D
100
AcDbEntity
  8
0
100
AcDbLine
 10
376.652180952732
 20
182.625025361393
 30
0.0
 11
380.159180952732
 21
180.680025361393
 31
0.0
  0
LINE
  5
1505
330
1D
100
AcDbEntity
  8
0
100
AcDbLine
 10
367.481180952732
 20
183.929025361393
 30
0.0
 11
372.574180952732
 21
183.727025361393
 31
0.0
  0
LINE
  5
1506
330
1D
100
AcDbEntity
  8
0
100
AcDbLine
 10
372.574180952732
 20
183.727025361393
 30
0.0
 11
376.652180952732
 21
182.625025361393
 31
0.0
  0
LINE
  5
1508
330
1D
100
AcDbEntity
  8
0
100
AcDbLine
 10
385.005180952732
 20
186.152025361393
 30
0.0
 11
385.202180952732
 21
184.235025361393
 31
0.0
  0
LINE
  5
1509
330
1D
100
AcDbEntity
  8
0
100
AcDbLine
 10
384.915180952732
 20
186.230025361393
 30
0.0
 11
385.189180952732
 21
182.629025361393
 31
0.0
  0
LINE
  5
150A
330
1D
100
AcDbEntity
  8
0
100
AcDbLine
 10
385.202180952732
 20
184.043620309728
 30
0.0
 11
385.202180952732
 21
210.054025361393
 31
0.0
  0
LINE
  5
150B
330
1D
100
AcDbEntity
  8
0
100
AcDbLine
 10
385.189180952732
 20
182.629025361393
 30
0.0
 11
385.208180952732
 21
171.210025361393
 31
0.0
  0
LINE
  5
150C
330
1D
100
AcDbEntity
  8
0
100
AcDbLine
 10
353.595180952732
 20
187.103025361392
 30
0.0
 11
354.945180952732
 21
189.800025361392
 31
0.0
  0
LINE
  5
150D
330
1D
100
AcDbEntity
  8
0
100
AcDbLine
 10
354.660180952732
 20
188.868025361393
 30
0.0
 11
356.701180952732
 21
191.433025361393
 31
0.0
  0
LINE
  5
150E
330
1D
100
AcDbEntity
  8
0
100
AcDbLine
 10
384.250180952732
 20
187.968025361393
 30
0.0
 11
384.915180952732
 21
186.230025361393
 31
0.0
  0
LINE
  5
1510
330
1D
100
AcDbEntity
  8
0
100
AcDbLine
 10
384.027180952732
 20
188.943025361393
 30
0.0
 11
385.005180952732
 21
186.152025361393
 31
0.0
  0
LINE
  5
1511
330
1D
100
AcDbEntity
  8
0
100
AcDbLine
 10
354.945180952732
 20
189.799025361393
 30
0.0
 11
356.257180952732
 21
191.439025361393
 31
0.0
  0
LINE
  5
1513
330
1D
100
AcDbEntity
  8
0
100
AcDbLine
 10
383.286180952732
 20
189.617025361393
 30
0.0
 11
384.250180952732
 21
187.968025361393
 31
0.0
  0
LINE
  5
1515
330
1D
100
AcDbEntity
  8
0
100
AcDbLine
 10
350.787180952732
 20
193.401025361392
 30
0.0
 11
353.091180952732
 21
191.640025361393
 31
0.0
  0
LINE
  5
1517
330
1D
100
AcDbEntity
  8
0
100
AcDbLine
 10
356.701180952732
 20
191.433025361393
 30
0.0
 11
360.163180952732
 21
193.882025361393
 31
0.0
  0
LINE
  5
1518
330
1D
100
AcDbEntity
  8
0
100
AcDbLine
 10
385.202180952732
 20
191.572404964792
 30
0.0
 11
385.312180952732
 21
191.640025361393
 31
0.0
  0
LINE
  5
1519
330
1D
100
AcDbEntity
  8
0
100
AcDbLine
 10
385.312180952732
 20
191.640025361393
 30
0.0
 11
387.616180952732
 21
193.402025361393
 31
0.0
  0
LINE
  5
151A
330
1D
100
AcDbEntity
  8
0
100
AcDbLine
 10
356.257180952732
 20
191.439025361393
 30
0.0
 11
357.888180952732
 21
192.902025361393
 31
0.0
  0
LINE
  5
151C
330
1D
100
AcDbEntity
  8
0
100
AcDbLine
 10
357.888180952732
 20
192.902025361393
 30
0.0
 11
359.797180952732
 21
194.151025361392
 31
0.0
  0
LINE
  5
151D
330
1D
100
AcDbEntity
  8
0
100
AcDbLine
 10
381.404180952732
 20
192.220025361393
 30
0.0
 11
384.027180952732
 21
188.943025361393
 31
0.0
  0
LINE
  5
151E
330
1D
100
AcDbEntity
  8
0
100
AcDbLine
 10
378.627180952732
 20
193.643025361393
 30
0.0
 11
380.974180952732
 21
192.043025361393
 31
0.0
  0
LINE
  5
151F
330
1D
100
AcDbEntity
  8
0
100
AcDbLine
 10
387.616180952732
 20
193.402025361393
 30
0.0
 11
389.728180952732
 21
195.389025361392
 31
0.0
  0
LINE
  5
1521
330
1D
100
AcDbEntity
  8
0
100
AcDbLine
 10
380.974180952732
 20
192.043025361393
 30
0.0
 11
383.286180952732
 21
189.617025361393
 31
0.0
  0
LINE
  5
1522
330
1D
100
AcDbEntity
  8
0
100
AcDbLine
 10
353.091180952732
 20
191.640025361393
 30
0.0
 11
353.202180952732
 21
191.571790233914
 31
0.0
  0
LINE
  5
1523
330
1D
100
AcDbEntity
  8
0
100
AcDbLine
 10
360.163180952732
 20
193.882025361393
 30
0.0
 11
363.667180952732
 21
195.236025361393
 31
0.0
  0
LINE
  5
1524
330
1D
100
AcDbEntity
  8
0
100
AcDbLine
 10
361.675180952732
 20
194.468025361393
 30
0.0
 11
361.78695869523
 21
194.509478290429
 31
0.0
  0
LINE
  5
1525
330
1D
100
AcDbEntity
  8
0
100
AcDbLine
 10
359.797180952732
 20
194.151025361392
 30
0.0
 11
361.938180952732
 21
195.156025361393
 31
0.0
  0
LINE
  5
1526
330
1D
100
AcDbEntity
  8
0
100
AcDbLine
 10
375.918180952732
 20
194.862025361393
 30
0.0
 11
378.627180952732
 21
193.643025361393
 31
0.0
  0
LINE
  5
1527
330
1D
100
AcDbEntity
  8
0
100
AcDbLine
 10
363.667180952732
 20
195.236025361393
 30
0.0
 11
366.706180952732
 21
195.842025361393
 31
0.0
  0
LINE
  5
1528
330
1D
100
AcDbEntity
  8
0
100
AcDbLine
 10
361.938180952732
 20
195.156025361393
 30
0.0
 11
364.258180952732
 21
195.892025361393
 31
0.0
  0
LINE
  5
1529
330
1D
100
AcDbEntity
  8
0
100
AcDbLine
 10
377.589180952732
 20
194.716025361392
 30
0.0
 11
381.404180952732
 21
192.220025361393
 31
0.0
  0
LINE
  5
152A
330
1D
100
AcDbEntity
  8
0
100
AcDbLine
 10
348.675180952732
 20
195.389025361392
 30
0.0
 11
350.787180952732
 21
193.401025361392
 31
0.0
  0
LINE
  5
152B
330
1D
100
AcDbEntity
  8
0
100
AcDbLine
 10
389.728180952732
 20
195.389025361392
 30
0.0
 11
391.627180952732
 21
197.581025361393
 31
0.0
  0
LINE
  5
152D
330
1D
100
AcDbEntity
  8
0
100
AcDbLine
 10
372.951180952732
 20
195.651025361392
 30
0.0
 11
375.918180952732
 21
194.862025361393
 31
0.0
  0
LINE
  5
152E
330
1D
100
AcDbEntity
  8
0
100
AcDbLine
 10
366.706180952732
 20
195.842025361393
 30
0.0
 11
369.840180952732
 21
195.982025361393
 31
0.0
  0
LINE
  5
152F
330
1D
100
AcDbEntity
  8
0
100
AcDbLine
 10
364.258180952732
 20
195.892025361393
 30
0.0
 11
366.699180952732
 21
196.341025361392
 31
0.0
  0
LINE
  5
1530
330
1D
100
AcDbEntity
  8
0
100
AcDbLine
 10
369.840180952732
 20
195.982025361393
 30
0.0
 11
372.951180952732
 21
195.651025361392
 31
0.0
  0
LINE
  5
1531
330
1D
100
AcDbEntity
  8
0
100
AcDbLine
 10
371.704180952732
 20
196.341025361392
 30
0.0
 11
374.146180952732
 21
195.892025361393
 31
0.0
  0
LINE
  5
1532
330
1D
100
AcDbEntity
  8
0
100
AcDbLine
 10
374.146180952732
 20
195.892025361393
 30
0.0
 11
377.589180952732
 21
194.716025361392
 31
0.0
  0
LINE
  5
1533
330
1D
100
AcDbEntity
  8
0
100
AcDbLine
 10
369.202180952732
 20
196.492025361393
 30
0.0
 11
371.704180952732
 21
196.341025361392
 31
0.0
  0
LINE
  5
1534
330
1D
100
AcDbEntity
  8
0
100
AcDbLine
 10
385.202180952732
 20
196.623355204324
 30
0.0
 11
386.069180952732
 21
197.799025361393
 31
0.0
  0
LINE
  5
1535
330
1D
100
AcDbEntity
  8
0
100
AcDbLine
 10
366.699180952732
 20
196.341025361392
 30
0.0
 11
369.202180952732
 21
196.492025361393
 31
0.0
  0
LINE
  5
1536
330
1D
100
AcDbEntity
  8
0
100
AcDbLine
 10
352.542180952732
 20
197.507025361393
 30
0.0
 11
353.202180952732
 21
196.5730326874
 31
0.0
  0
LINE
  5
1537
330
1D
100
AcDbEntity
  8
0
100
AcDbLine
 10
346.776180952732
 20
197.580025361393
 30
0.0
 11
348.675180952732
 21
195.389025361392
 31
0.0
  0
LINE
  5
1538
330
1D
100
AcDbEntity
  8
0
100
AcDbLine
 10
391.627180952732
 20
197.581025361393
 30
0.0
 11
393.293180952732
 21
199.955025361393
 31
0.0
  0
LINE
  5
1539
330
1D
100
AcDbEntity
  8
0
100
AcDbLine
 10
386.069180952732
 20
197.799025361393
 30
0.0
 11
387.520180952732
 21
200.374025361393
 31
0.0
  0
LINE
  5
153C
330
1D
100
AcDbEntity
  8
0
100
AcDbLine
 10
345.111180952732
 20
199.955025361393
 30
0.0
 11
346.776180952732
 21
197.580025361393
 31
0.0
  0
LINE
  5
153D
330
1D
100
AcDbEntity
  8
0
100
AcDbLine
 10
351.132180952732
 20
199.890025361393
 30
0.0
 11
352.542180952732
 21
197.507025361393
 31
0.0
  0
LINE
  5
153E
330
1D
100
AcDbEntity
  8
0
100
AcDbLine
 10
393.293180952732
 20
199.955025361393
 30
0.0
 11
394.708180952732
 21
202.486025361393
 31
0.0
  0
LINE
  5
153F
330
1D
100
AcDbEntity
  8
0
100
AcDbLine
 10
387.520180952732
 20
200.374025361393
 30
0.0
 11
388.526180952732
 21
202.594025361393
 31
0.0
  0
LINE
  5
1540
330
1D
100
AcDbEntity
  8
0
100
AcDbLine
 10
343.695180952732
 20
202.485025361393
 30
0.0
 11
345.111180952732
 21
199.955025361393
 31
0.0
  0
LINE
  5
1541
330
1D
100
AcDbEntity
  8
0
100
AcDbLine
 10
349.957180952732
 20
202.427025361393
 30
0.0
 11
351.132180952732
 21
199.890025361393
 31
0.0
  0
LINE
  5
1542
330
1D
100
AcDbEntity
  8
0
100
AcDbLine
 10
394.708180952732
 20
202.486025361393
 30
0.0
 11
395.858180952732
 21
205.148025361393
 31
0.0
  0
LINE
  5
1543
330
1D
100
AcDbEntity
  8
0
100
AcDbLine
 10
388.526180952732
 20
202.594025361393
 30
0.0
 11
389.921180952732
 21
206.959025361393
 31
0.0
  0
LINE
  5
1547
330
1D
100
AcDbEntity
  8
0
100
AcDbLine
 10
349.123180952732
 20
204.767025361393
 30
0.0
 11
349.957180952732
 21
202.427025361393
 31
0.0
  0
LINE
  5
1548
330
1D
100
AcDbEntity
  8
0
100
AcDbLine
 10
342.545180952732
 20
205.148025361393
 30
0.0
 11
343.695180952732
 21
202.485025361393
 31
0.0
  0
LINE
  5
1549
330
1D
100
AcDbEntity
  8
0
100
AcDbLine
 10
395.858180952732
 20
205.148025361393
 30
0.0
 11
396.732180952732
 21
207.914025361393
 31
0.0
  0
LINE
  5
154A
330
1D
100
AcDbEntity
  8
0
100
AcDbLine
 10
389.921180952732
 20
206.959025361393
 30
0.0
 11
390.505180952732
 21
210.667025361393
 31
0.0
  0
LINE
  5
154B
330
1D
100
AcDbEntity
  8
0
100
AcDbLine
 10
348.483180952732
 20
207.167025361393
 30
0.0
 11
349.123180952732
 21
204.767025361393
 31
0.0
  0
LINE
  5
154D
330
1D
100
AcDbEntity
  8
0
100
AcDbLine
 10
341.671180952732
 20
207.913025361392
 30
0.0
 11
342.545180952732
 21
205.148025361393
 31
0.0
  0
LINE
  5
154E
330
1D
100
AcDbEntity
  8
0
100
AcDbLine
 10
396.732180952732
 20
207.914025361393
 30
0.0
 11
397.319180952732
 21
210.754025361393
 31
0.0
  0
LINE
  5
154F
330
1D
100
AcDbEntity
  8
0
100
AcDbLine
 10
348.034180952732
 20
209.599025361393
 30
0.0
 11
348.483180952732
 21
207.164025361393
 31
0.0
  0
LINE
  5
1550
330
1D
100
AcDbEntity
  8
0
100
AcDbLine
 10
348.035180952732
 20
209.600025361393
 30
0.0
 11
348.483180952732
 21
207.167025361393
 31
0.0
  0
LINE
  5
1552
330
1D
100
AcDbEntity
  8
0
100
AcDbLine
 10
341.084180952732
 20
210.754025361393
 30
0.0
 11
341.671180952732
 21
207.913025361392
 31
0.0
  0
LINE
  5
1553
330
1D
100
AcDbEntity
  8
0
100
AcDbLine
 10
390.505180952732
 20
210.667025361393
 30
0.0
 11
390.652180952732
 21
212.455025361393
 31
0.0
  0
LINE
  5
1554
330
1D
100
AcDbEntity
  8
0
100
AcDbLine
 10
397.319180952732
 20
210.754025361393
 30
0.0
 11
397.615180952732
 21
213.638025361393
 31
0.0
  0
LINE
  5
1555
330
1D
100
AcDbEntity
  8
0
100
AcDbLine
 10
353.202180952732
 20
210.054025361393
 30
0.0
 11
353.211180952732
 21
210.793025361393
 31
0.0
  0
LINE
  5
1556
330
1D
100
AcDbEntity
  8
0
100
AcDbLine
 10
353.202180952732
 20
210.054025361393
 30
0.0
 11
353.221269287949
 21
184.044427607772
 31
0.0
  0
LINE
  5
1557
330
1D
100
AcDbEntity
  8
0
100
AcDbLine
 10
347.823180952732
 20
211.442025361393
 30
0.0
 11
348.035180952732
 21
209.600025361393
 31
0.0
  0
LINE
  5
1558
330
1D
100
AcDbEntity
  8
0
100
AcDbLine
 10
347.823180952732
 20
211.442025361393
 30
0.0
 11
348.034180952732
 21
209.599025361393
 31
0.0
  0
LINE
  5
1559
330
1D
100
AcDbEntity
  8
0
100
AcDbLine
 10
353.293180952732
 20
212.276025361392
 30
0.0
 11
353.986180952732
 21
216.817025361393
 31
0.0
  0
LINE
  5
155A
330
1D
100
AcDbEntity
  8
0
100
AcDbLine
 10
390.652180952732
 20
212.455025361393
 30
0.0
 11
390.702180952732
 21
214.250025361393
 31
0.0
  0
LINE
  5
155C
330
1D
100
AcDbEntity
  8
0
100
AcDbLine
 10
353.211180952732
 20
210.793025361393
 30
0.0
 11
353.293180952732
 21
212.276025361392
 31
0.0
  0
LINE
  5
155D
330
1D
100
AcDbEntity
  8
0
100
AcDbLine
 10
347.715180952732
 20
213.292025361393
 30
0.0
 11
347.823180952732
 21
211.442025361393
 31
0.0
  0
LINE
  5
155E
330
1D
100
AcDbEntity
  8
0
100
AcDbLine
 10
347.716180952732
 20
213.292025361393
 30
0.0
 11
347.823180952732
 21
211.442025361393
 31
0.0
  0
LINE
  5
155F
330
1D
100
AcDbEntity
  8
0
100
AcDbLine
 10
340.788180952732
 20
213.639025361392
 30
0.0
 11
341.084180952732
 21
210.754025361393
 31
0.0
  0
LINE
  5
1560
330
1D
100
AcDbEntity
  8
0
100
AcDbLine
 10
340.788180952732
 20
213.639025361392
 30
0.0
 11
340.788180952732
 21
216.539025361393
 31
0.0
  0
LINE
  5
1561
330
1D
100
AcDbEntity
  8
0
100
AcDbLine
 10
397.615180952732
 20
213.638025361393
 30
0.0
 11
397.615180952732
 21
216.538025361392
 31
0.0
  0
LINE
  5
1562
330
1D
100
AcDbEntity
  8
0
100
AcDbLine
 10
384.901180952732
 20
214.257025361393
 30
0.0
 11
385.202180952732
 21
210.054025361393
 31
0.0
  0
LINE
  5
1563
330
1D
100
AcDbEntity
  8
0
100
AcDbLine
 10
347.702180952732
 20
214.250025361393
 30
0.0
 11
347.744180952732
 21
215.905025361393
 31
0.0
  0
LINE
  5
1564
330
1D
100
AcDbEntity
  8
0
100
AcDbLine
 10
347.702180952732
 20
214.250025361393
 30
0.0
 11
347.716180952732
 21
213.292025361393
 31
0.0
  0
LINE
  5
1565
330
1D
100
AcDbEntity
  8
0
100
AcDbLine
 10
347.702180952732
 20
214.250025361393
 30
0.0
 11
347.715180952732
 21
213.292025361393
 31
0.0
  0
LINE
  5
1566
330
1D
100
AcDbEntity
  8
0
100
AcDbLine
 10
347.702180952732
 20
214.250025361393
 30
0.0
 11
347.743180952732
 21
215.905025361393
 31
0.0
  0
LINE
  5
156A
330
1D
100
AcDbEntity
  8
0
100
AcDbLine
 10
347.743180952732
 20
215.905025361393
 30
0.0
 11
347.869180952732
 21
217.557025361393
 31
0.0
  0
LINE
  5
156B
330
1D
100
AcDbEntity
  8
0
100
AcDbLine
 10
340.788180952732
 20
216.539025361393
 30
0.0
 11
341.084180952732
 21
219.423025361393
 31
0.0
  0
LINE
  5
156C
330
1D
100
AcDbEntity
  8
0
100
AcDbLine
 10
347.869180952732
 20
217.557025361393
 30
0.0
 11
348.075180952732
 21
219.173025361393
 31
0.0
  0
LINE
  5
156D
330
1D
100
AcDbEntity
  8
0
100
AcDbLine
 10
390.688180952732
 20
215.207025361393
 30
0.0
 11
390.702180952732
 21
214.250025361393
 31
0.0
  0
LINE
  5
156E
330
1D
100
AcDbEntity
  8
0
100
AcDbLine
 10
353.986180952732
 20
216.817025361393
 30
0.0
 11
355.510180952732
 21
220.863025361393
 31
0.0
  0
LINE
  5
156F
330
1D
100
AcDbEntity
  8
0
100
AcDbLine
 10
348.075180952732
 20
219.173025361393
 30
0.0
 11
348.363180952732
 21
220.778025361393
 31
0.0
  0
LINE
  5
1570
330
1D
100
AcDbEntity
  8
0
100
AcDbLine
 10
348.363180952732
 20
220.778025361393
 30
0.0
 11
349.644180952732
 21
225.397025361393
 31
0.0
  0
LINE
  5
1571
330
1D
100
AcDbEntity
  8
0
100
AcDbLine
 10
341.084180952732
 20
219.423025361393
 30
0.0
 11
341.671180952732
 21
222.263025361393
 31
0.0
  0
LINE
  5
1572
330
1D
100
AcDbEntity
  8
0
100
AcDbLine
 10
390.369180952732
 20
218.899025361393
 30
0.0
 11
390.581180952732
 21
217.057025361393
 31
0.0
  0
LINE
  5
1573
330
1D
100
AcDbEntity
  8
0
100
AcDbLine
 10
397.319180952732
 20
219.423025361393
 30
0.0
 11
397.615180952732
 21
216.538025361392
 31
0.0
  0
LINE
  5
1574
330
1D
100
AcDbEntity
  8
0
100
AcDbLine
 10
390.308701032395
 20
219.193065358706
 30
0.0
 11
390.378180952732
 21
218.809025361393
 31
0.0
  0
LINE
  5
1575
330
1D
100
AcDbEntity
  8
0
100
AcDbLine
 10
382.944180952732
 20
220.813025361393
 30
0.0
 11
384.093180952732
 21
217.692025361393
 31
0.0
  0
LINE
  5
1576
330
1D
100
AcDbEntity
  8
0
100
AcDbLine
 10
384.093180952732
 20
217.693025361393
 30
0.0
 11
384.901180952732
 21
214.257025361393
 31
0.0
  0
LINE
  5
1578
330
1D
100
AcDbEntity
  8
0
100
AcDbLine
 10
341.671180952732
 20
222.263025361393
 30
0.0
 11
342.545180952732
 21
225.029025361393
 31
0.0
  0
LINE
  5
1579
330
1D
100
AcDbEntity
  8
0
100
AcDbLine
 10
355.510180952732
 20
220.863025361393
 30
0.0
 11
356.544180952732
 21
222.830025361393
 31
0.0
  0
LINE
  5
157A
330
1D
100
AcDbEntity
  8
0
100
AcDbLine
 10
396.732180952732
 20
222.264025361392
 30
0.0
 11
397.319180952732
 21
219.423025361393
 31
0.0
  0
LINE
  5
157C
330
1D
100
AcDbEntity
  8
0
100
AcDbLine
 10
342.545180952732
 20
225.029025361393
 30
0.0
 11
343.695180952732
 21
227.691025361393
 31
0.0
  0
LINE
  5
157E
330
1D
100
AcDbEntity
  8
0
100
AcDbLine
 10
349.644180952732
 20
225.397025361393
 30
0.0
 11
351.534180952732
 21
229.399025361393
 31
0.0
  0
LINE
  5
157F
330
1D
100
AcDbEntity
  8
0
100
AcDbLine
 10
356.544180952732
 20
222.830025361393
 30
0.0
 11
357.644180952732
 21
224.497025361393
 31
0.0
  0
LINE
  5
1580
330
1D
100
AcDbEntity
  8
0
100
AcDbLine
 10
380.202180952732
 20
225.221025361393
 30
0.0
 11
381.096180952732
 21
224.023025361393
 31
0.0
  0
LINE
  5
1581
330
1D
100
AcDbEntity
  8
0
100
AcDbLine
 10
381.512180952732
 20
223.402025361393
 30
0.0
 11
382.944180952732
 21
220.813025361393
 31
0.0
  0
LINE
  5
1582
330
1D
100
AcDbEntity
  8
0
100
AcDbLine
 10
389.281180952732
 20
223.731025361393
 30
0.0
 11
389.921180952732
 21
221.335025361393
 31
0.0
  0
LINE
  5
1583
330
1D
100
AcDbEntity
  8
0
100
AcDbLine
 10
381.096804922748
 20
223.958596405522
 30
0.0
 11
381.512180952732
 21
223.402025361393
 31
0.0
  0
LINE
  5
1584
330
1D
100
AcDbEntity
  8
0
100
AcDbLine
 10
358.906180952732
 20
226.041025361393
 30
0.0
 11
360.329180952732
 21
227.435025361393
 31
0.0
  0
LINE
  5
1585
330
1D
100
AcDbEntity
  8
0
100
AcDbLine
 10
358.905180952732
 20
226.041025361393
 30
0.0
 11
360.329180952732
 21
227.435025361393
 31
0.0
  0
LINE
  5
1586
330
1D
100
AcDbEntity
  8
0
100
AcDbLine
 10
357.644180952732
 20
224.497025361393
 30
0.0
 11
358.906180952732
 21
226.041025361393
 31
0.0
  0
LINE
  5
1587
330
1D
100
AcDbEntity
  8
0
100
AcDbLine
 10
357.644180952732
 20
224.497025361393
 30
0.0
 11
358.905180952732
 21
226.041025361393
 31
0.0
  0
LINE
  5
1588
330
1D
100
AcDbEntity
  8
0
100
AcDbLine
 10
343.695180952732
 20
227.691025361393
 30
0.0
 11
345.111180952732
 21
230.222025361392
 31
0.0
  0
LINE
  5
1589
330
1D
100
AcDbEntity
  8
0
100
AcDbLine
 10
377.363180952732
 20
228.020025361392
 30
0.0
 11
378.221180952732
 21
227.306025361392
 31
0.0
  0
LINE
  5
158A
330
1D
100
AcDbEntity
  8
0
100
AcDbLine
 10
361.870180952732
 20
228.619025361393
 30
0.0
 11
362.772940507484
 21
229.143382707566
 31
0.0
  0
LINE
  5
158B
330
1D
100
AcDbEntity
  8
0
100
AcDbLine
 10
360.329180952732
 20
227.435025361393
 30
0.0
 11
361.870180952732
 21
228.619025361393
 31
0.0
  0
LINE
  5
158C
330
1D
100
AcDbEntity
  8
0
100
AcDbLine
 10
387.274180952732
 20
228.607025361393
 30
0.0
 11
388.446180952732
 21
226.071025361393
 31
0.0
  0
LINE
  5
158D
330
1D
100
AcDbEntity
  8
0
100
AcDbLine
 10
378.221180952732
 20
227.306025361392
 30
0.0
 11
379.253180952732
 21
226.304025361393
 31
0.0
  0
LINE
  5
158E
330
1D
100
AcDbEntity
  8
0
100
AcDbLine
 10
387.273180952732
 20
228.607025361393
 30
0.0
 11
388.446180952732
 21
226.071025361393
 31
0.0
  0
LINE
  5
158F
330
1D
100
AcDbEntity
  8
0
100
AcDbLine
 10
379.253180952732
 20
226.304025361393
 30
0.0
 11
380.202180952732
 21
225.221025361393
 31
0.0
  0
LINE
  5
1590
330
1D
100
AcDbEntity
  8
0
100
AcDbLine
 10
395.858180952732
 20
225.029025361393
 30
0.0
 11
396.732180952732
 21
222.264025361392
 31
0.0
  0
LINE
  5
1591
330
1D
100
AcDbEntity
  8
0
100
AcDbLine
 10
394.708180952732
 20
227.692025361393
 30
0.0
 11
395.858180952732
 21
225.029025361393
 31
0.0
  0
LINE
  5
1593
330
1D
100
AcDbEntity
  8
0
100
AcDbLine
 10
351.534180952732
 20
229.399025361393
 30
0.0
 11
353.285180952732
 21
232.050025361392
 31
0.0
  0
LINE
  5
1594
330
1D
100
AcDbEntity
  8
0
100
AcDbLine
 10
345.111180952732
 20
230.222025361392
 30
0.0
 11
346.776180952732
 21
232.596025361393
 31
0.0
  0
LINE
  5
1595
330
1D
100
AcDbEntity
  8
0
100
AcDbLine
 10
373.719180952732
 20
230.090025361393
 30
0.0
 11
374.665180952732
 21
229.685025361393
 31
0.0
  0
LINE
  5
1596
330
1D
100
AcDbEntity
  8
0
100
AcDbLine
 10
372.746180952732
 20
230.421025361393
 30
0.0
 11
373.719180952732
 21
230.090025361393
 31
0.0
  0
LINE
  5
1597
330
1D
100
AcDbEntity
  8
0
100
AcDbLine
 10
374.665180952732
 20
229.685025361393
 30
0.0
 11
375.578180952732
 21
229.210025361393
 31
0.0
  0
LINE
  5
1598
330
1D
100
AcDbEntity
  8
0
100
AcDbLine
 10
365.329180952732
 20
230.319025361393
 30
0.0
 11
366.924180952732
 21
230.728025361392
 31
0.0
  0
LINE
  5
1599
330
1D
100
AcDbEntity
  8
0
100
AcDbLine
 10
363.540180952732
 20
229.589025361393
 30
0.0
 11
365.329180952732
 21
230.319025361393
 31
0.0
  0
LINE
  5
159A
330
1D
100
AcDbEntity
  8
0
100
AcDbLine
 10
362.782776220727
 20
229.149095666755
 30
0.0
 11
363.540180952732
 21
229.589025361393
 31
0.0
  0
LINE
  5
159B
330
1D
100
AcDbEntity
  8
0
100
AcDbLine
 10
376.456180952732
 20
228.670025361393
 30
0.0
 11
377.363180952732
 21
228.020025361392
 31
0.0
  0
LINE
  5
159C
330
1D
100
AcDbEntity
  8
0
100
AcDbLine
 10
375.578180952732
 20
229.210025361393
 30
0.0
 11
376.456180952732
 21
228.670025361393
 31
0.0
  0
LINE
  5
159D
330
1D
100
AcDbEntity
  8
0
100
AcDbLine
 10
353.285180952732
 20
232.050025361392
 30
0.0
 11
354.936180952732
 21
234.045025361393
 31
0.0
  0
LINE
  5
159E
330
1D
100
AcDbEntity
  8
0
100
AcDbLine
 10
353.286180952732
 20
232.050025361392
 30
0.0
 11
354.936180952732
 21
234.046025361393
 31
0.0
  0
LINE
  5
159F
330
1D
100
AcDbEntity
  8
0
100
AcDbLine
 10
370.736180952732
 20
230.844025361393
 30
0.0
 11
371.750180952732
 21
230.674025361393
 31
0.0
  0
LINE
  5
15A0
330
1D
100
AcDbEntity
  8
0
100
AcDbLine
 10
368.827180952732
 20
230.935025361393
 30
0.0
 11
370.736180952732
 21
230.844025361393
 31
0.0
  0
LINE
  5
15A1
330
1D
100
AcDbEntity
  8
0
100
AcDbLine
 10
366.924180952732
 20
230.728025361392
 30
0.0
 11
368.827180952732
 21
230.935025361393
 31
0.0
  0
LINE
  5
15A2
330
1D
100
AcDbEntity
  8
0
100
AcDbLine
 10
385.850180952732
 20
231.009025361393
 30
0.0
 11
387.273180952732
 21
228.607025361393
 31
0.0
  0
LINE
  5
15A3
330
1D
100
AcDbEntity
  8
0
100
AcDbLine
 10
385.045180952732
 20
232.148025361393
 30
0.0
 11
385.850180952732
 21
231.009025361393
 31
0.0
  0
LINE
  5
15A4
330
1D
100
AcDbEntity
  8
0
100
AcDbLine
 10
371.750180952732
 20
230.674025361393
 30
0.0
 11
372.746180952732
 21
230.421025361393
 31
0.0
  0
LINE
  5
15A5
330
1D
100
AcDbEntity
  8
0
100
AcDbLine
 10
393.293180952732
 20
230.222025361392
 30
0.0
 11
394.708180952732
 21
227.692025361393
 31
0.0
  0
LINE
  5
15A8
330
1D
100
AcDbEntity
  8
0
100
AcDbLine
 10
346.776180952732
 20
232.596025361393
 30
0.0
 11
348.675180952732
 21
234.788025361392
 31
0.0
  0
LINE
  5
15A9
330
1D
100
AcDbEntity
  8
0
100
AcDbLine
 10
354.936180952732
 20
234.046025361393
 30
0.0
 11
356.794180952732
 21
235.845025361393
 31
0.0
  0
LINE
  5
15AA
330
1D
100
AcDbEntity
  8
0
100
AcDbLine
 10
383.250180952732
 20
234.278025361393
 30
0.0
 11
384.178180952732
 21
233.240025361392
 31
0.0
  0
LINE
  5
15AB
330
1D
100
AcDbEntity
  8
0
100
AcDbLine
 10
391.627180952732
 20
232.597025361392
 30
0.0
 11
393.293180952732
 21
230.222025361392
 31
0.0
  0
LINE
  5
15AD
330
1D
100
AcDbEntity
  8
0
100
AcDbLine
 10
384.178180952732
 20
233.240025361392
 30
0.0
 11
385.045180952732
 21
232.148025361393
 31
0.0
  0
LINE
  5
15AE
330
1D
100
AcDbEntity
  8
0
100
AcDbLine
 10
348.675180952732
 20
234.788025361392
 30
0.0
 11
350.787180952732
 21
236.775025361393
 31
0.0
  0
LINE
  5
15AF
330
1D
100
AcDbEntity
  8
0
100
AcDbLine
 10
389.728180952732
 20
234.789025361393
 30
0.0
 11
391.627180952732
 21
232.597025361392
 31
0.0
  0
LINE
  5
15B1
330
1D
100
AcDbEntity
  8
0
100
AcDbLine
 10
353.091180952732
 20
238.537025361393
 30
0.0
 11
355.562180952732
 21
240.056025361392
 31
0.0
  0
LINE
  5
15B2
330
1D
100
AcDbEntity
  8
0
100
AcDbLine
 10
350.787180952732
 20
236.775025361393
 30
0.0
 11
353.091180952732
 21
238.537025361393
 31
0.0
  0
LINE
  5
15B3
330
1D
100
AcDbEntity
  8
0
100
AcDbLine
 10
359.078180952732
 20
237.561025361393
 30
0.0
 11
360.899180952732
 21
238.617025361393
 31
0.0
  0
LINE
  5
15B4
330
1D
100
AcDbEntity
  8
0
100
AcDbLine
 10
357.907180952732
 20
236.742025361393
 30
0.0
 11
359.078180952732
 21
237.561025361393
 31
0.0
  0
LINE
  5
15B5
330
1D
100
AcDbEntity
  8
0
100
AcDbLine
 10
356.794180952732
 20
235.845025361393
 30
0.0
 11
357.907180952732
 21
236.742025361393
 31
0.0
  0
LINE
  5
15B6
330
1D
100
AcDbEntity
  8
0
100
AcDbLine
 10
355.562180952732
 20
240.056025361392
 30
0.0
 11
358.123180952732
 21
241.293025361393
 31
0.0
  0
LINE
  5
15B7
330
1D
100
AcDbEntity
  8
0
100
AcDbLine
 10
360.899180952732
 20
238.617025361393
 30
0.0
 11
362.898180952732
 21
239.491025361393
 31
0.0
  0
LINE
  5
15B8
330
1D
100
AcDbEntity
  8
0
100
AcDbLine
 10
374.449180952732
 20
239.848025361393
 30
0.0
 11
375.698180952732
 21
239.418025361393
 31
0.0
  0
LINE
  5
15B9
330
1D
100
AcDbEntity
  8
0
100
AcDbLine
 10
365.305180952732
 20
240.205025361393
 30
0.0
 11
366.607180952732
 21
240.446025361393
 31
0.0
  0
LINE
  5
15BA
330
1D
100
AcDbEntity
  8
0
100
AcDbLine
 10
367.922180952732
 20
240.590025361393
 30
0.0
 11
369.244180952732
 21
240.636025361393
 31
0.0
  0
LINE
  5
15BB
330
1D
100
AcDbEntity
  8
0
100
AcDbLine
 10
366.607180952732
 20
240.446025361393
 30
0.0
 11
367.922180952732
 21
240.590025361393
 31
0.0
  0
LINE
  5
15BC
330
1D
100
AcDbEntity
  8
0
100
AcDbLine
 10
373.173180952732
 20
240.188025361393
 30
0.0
 11
374.449180952732
 21
239.848025361393
 31
0.0
  0
LINE
  5
15BD
330
1D
100
AcDbEntity
  8
0
100
AcDbLine
 10
371.917498923981
 20
240.402804885399
 30
0.0
 11
373.173180952732
 21
240.188025361393
 31
0.0
  0
LINE
  5
15BE
330
1D
100
AcDbEntity
  8
0
100
AcDbLine
 10
364.255180952732
 20
239.938025361393
 30
0.0
 11
365.305180952732
 21
240.205025361393
 31
0.0
  0
LINE
  5
15BF
330
1D
100
AcDbEntity
  8
0
100
AcDbLine
 10
362.898180952732
 20
239.491025361393
 30
0.0
 11
364.255180952732
 21
239.938025361393
 31
0.0
  0
LINE
  5
15C0
330
1D
100
AcDbEntity
  8
0
100
AcDbLine
 10
375.698180952732
 20
239.418025361393
 30
0.0
 11
376.915180952732
 21
238.901025361392
 31
0.0
  0
LINE
  5
15C1
330
1D
100
AcDbEntity
  8
0
100
AcDbLine
 10
376.915180952732
 20
238.901025361392
 30
0.0
 11
377.975387188532
 21
238.342761482414
 31
0.0
  0
LINE
  5
15C2
330
1D
100
AcDbEntity
  8
0
100
AcDbLine
 10
377.975387188532
 20
238.342761482414
 30
0.0
 11
380.322180952732
 21
236.872025361393
 31
0.0
  0
LINE
  5
15C3
330
1D
100
AcDbEntity
  8
0
100
AcDbLine
 10
382.263180952732
 20
235.258025361392
 30
0.0
 11
383.250180952732
 21
234.278025361393
 31
0.0
  0
LINE
  5
15C4
330
1D
100
AcDbEntity
  8
0
100
AcDbLine
 10
380.322180952732
 20
236.872025361393
 30
0.0
 11
382.263180952732
 21
235.258025361392
 31
0.0
  0
LINE
  5
15C5
330
1D
100
AcDbEntity
  8
0
100
AcDbLine
 10
369.244180952732
 20
240.636025361393
 30
0.0
 11
371.917498923981
 21
240.402804885399
 31
0.0
  0
LINE
  5
15C6
330
1D
100
AcDbEntity
  8
0
100
AcDbLine
 10
358.123180952732
 20
241.293025361393
 30
0.0
 11
360.794180952732
 21
242.267025361393
 31
0.0
  0
LINE
  5
15C8
330
1D
100
AcDbEntity
  8
0
100
AcDbLine
 10
360.794180952732
 20
242.267025361393
 30
0.0
 11
363.549180952732
 21
242.972025361392
 31
0.0
  0
LINE
  5
15C9
330
1D
100
AcDbEntity
  8
0
100
AcDbLine
 10
366.362180952732
 20
243.397025361393
 30
0.0
 11
369.201180952732
 21
243.538025361392
 31
0.0
  0
LINE
  5
15CA
330
1D
100
AcDbEntity
  8
0
100
AcDbLine
 10
363.549180952732
 20
242.972025361392
 30
0.0
 11
366.362180952732
 21
243.397025361393
 31
0.0
  0
LINE
  5
15CB
330
1D
100
AcDbEntity
  8
0
100
AcDbLine
 10
377.609180952732
 20
242.267025361393
 30
0.0
 11
380.280180952732
 21
241.293025361393
 31
0.0
  0
LINE
  5
15CC
330
1D
100
AcDbEntity
  8
0
100
AcDbLine
 10
374.854180952732
 20
242.972025361392
 30
0.0
 11
377.609180952732
 21
242.267025361393
 31
0.0
  0
LINE
  5
15CD
330
1D
100
AcDbEntity
  8
0
100
AcDbLine
 10
369.201180952732
 20
243.538025361392
 30
0.0
 11
372.041180952732
 21
243.397025361393
 31
0.0
  0
LINE
  5
15CF
330
1D
100
AcDbEntity
  8
0
100
AcDbLine
 10
372.041180952732
 20
243.397025361393
 30
0.0
 11
374.854180952732
 21
242.972025361392
 31
0.0
  0
LINE
  5
15D0
330
1D
100
AcDbEntity
  8
0
100
AcDbLine
 10
380.280180952732
 20
241.293025361393
 30
0.0
 11
382.841180952732
 21
240.056025361392
 31
0.0
  0
LINE
  5
15D1
330
1D
100
AcDbEntity
  8
0
100
AcDbLine
 10
387.616180952732
 20
236.776025361392
 30
0.0
 11
389.728180952732
 21
234.789025361393
 31
0.0
  0
LINE
  5
15D3
330
1D
100
AcDbEntity
  8
0
100
AcDbLine
 10
385.312180952732
 20
238.537025361393
 30
0.0
 11
387.616180952732
 21
236.776025361392
 31
0.0
  0
LINE
  5
15D6
330
1D
100
AcDbEntity
  8
0
100
AcDbLine
 10
382.841180952732
 20
240.056025361392
 30
0.0
 11
385.312180952732
 21
238.537025361393
 31
0.0
  0
LINE
  5
15DF
330
1D
100
AcDbEntity
  8
0
100
AcDbLine
 10
388.446180952732
 20
226.071025361393
 30
0.0
 11
389.281180952732
 21
223.731025361393
 31
0.0
  0
LINE
  5
15E0
330
1D
100
AcDbEntity
  8
0
100
AcDbLine
 10
389.921180952732
 20
221.335025361393
 30
0.0
 11
390.308701032395
 21
219.193065358706
 31
0.0
  0
LINE
  5
15E1
330
1D
100
AcDbEntity
  8
0
100
AcDbLine
 10
390.581180952732
 20
217.057025361393
 30
0.0
 11
390.688180952732
 21
215.207025361393
 31
0.0
  0
ENDSEC
  0
SECTION
  2
OBJECTS
  0
DICTIONARY
  5
C
330
0
100
AcDbDictionary
281
     1
  3
ACAD_GROUP
350
D
  3
ACAD_LAYOUT
350
1A
  3
ACAD_MLEADERSTYLE
350
1281
  3
ACAD_MLINESTYLE
350
17
  3
ACAD_PLOTSETTINGS
350
19
  3
ACAD_PLOTSTYLENAME
350
E
  3
ACAD_SCALELIST
350
7B8
  3
AcDbVariableDictionary
350
127F
  3
DWGPROPS
350
15E6
  0
DICTIONARY
  5
D
102
{ACAD_REACTORS
330
C
102
}
330
C
100
AcDbDictionary
281
     1
  0
DICTIONARY
  5
1A
102
{ACAD_REACTORS
330
C
102
}
330
C
100
AcDbDictionary
281
     1
  3
Layout1
350
1C
  3
Model
350
1E
  0
DICTIONARY
  5
1281
102
{ACAD_REACTORS
330
C
102
}
330
C
100
AcDbDictionary
281
     1
  0
DICTIONARY
  5
17
102
{ACAD_REACTORS
330
C
102
}
330
C
100
AcDbDictionary
281
     1
  3
Standard
350
18
  0
DICTIONARY
  5
19
102
{ACAD_REACTORS
330
C
102
}
330
C
100
AcDbDictionary
281
     1
  0
ACDBDICTIONARYWDFLT
  5
E
102
{ACAD_REACTORS
330
C
102
}
330
C
100
AcDbDictionary
281
     1
  3
Normal
350
F
100
AcDbDictionaryWithDefault
340
F
  0
DICTIONARY
  5
7B8
102
{ACAD_REACTORS
330
C
102
}
330
C
100
AcDbDictionary
281
     1
  3
A0
350
7B9
  3
A1
350
7BA
  3
A2
350
7BB
  3
A3
350
7BC
  3
A4
350
7BD
  3
A5
350
7BE
  3
A6
350
7BF
  3
A7
350
7C0
  3
A8
350
7C1
  3
A9
350
7C2
  3
B0
350
7C3
  3
B1
350
7C4
  3
B2
350
7C5
  3
B3
350
7C6
  3
B4
350
7C7
  3
B5
350
7C8
  3
B6
350
7C9
  3
B7
350
7CA
  3
B8
350
7CB
  3
B9
350
7CC
  3
C0
350
7CD
  3
C1
350
7CE
  3
C2
350
7CF
  3
C3
350
7D0
  3
C4
350
7D1
  3
C5
350
7D2
  3
C6
350
7D3
  3
C7
350
7D4
  3
C8
350
7D5
  3
C9
350
7D6
  3
D0
350
7D7
  3
D1
350
7D8
  3
D2
350
7D9
  0
DICTIONARY
  5
127F
102
{ACAD_REACTORS
330
C
102
}
330
C
100
AcDbDictionary
281
     1
  3
CANNOSCALE
350
15E4
  0
XRECORD
  5
15E6
102
{ACAD_REACTORS
330
C
102
}
330
C
100
AcDbXrecord
280
     1
  1
DWGPROPS COOKIE
  2

  3

  4

  6

  7

  8
MARTIN
  9

300
=
301
=
302
=
303
=
304
=
305
=
306
=
307
=
308
=
309
=
 40
0.0
 41
2455824.854832894
 42
2456209.74584544
  1

 90
        0
  0
LAYOUT
  5
1C
102
{ACAD_REACTORS
330
1A
102
}
330
1A
100
AcDbPlotSettings
  1

  2
none_device
  4

  6

 40
0.0
 41
0.0
 42
0.0
 43
0.0
 44
0.0
 45
0.0
 46
0.0
 47
0.0
 48
0.0
 49
0.0
140
0.0
141
0.0
142
1.0
143
1.0
 70
   688
 72
     0
 73
     0
 74
     5
  7

 75
    16
147
1.0
148
0.0
149
0.0
100
AcDbLayout
  1
Layout1
 70
     1
 71
     1
 10
0.0
 20
0.0
 11
12.0
 21
9.0
 12
0.0
 22
0.0
 32
0.0
 14
1.000000000000E+20
 24
1.000000000000E+20
 34
1.000000000000E+20
 15
-1.000000000000E+20
 25
-1.000000000000E+20
 35
-1.000000000000E+20
146
0.0
 13
0.0
 23
0.0
 33
0.0
 16
1.0
 26
0.0
 36
0.0
 17
0.0
 27
1.0
 37
0.0
 76
     0
330
1B
  0
LAYOUT
  5
1E
102
{ACAD_REACTORS
330
1A
102
}
330
1A
100
AcDbPlotSettings
  1

  2
none_device
  4

  6

 40
0.0
 41
0.0
 42
0.0
 43
0.0
 44
0.0
 45
0.0
 46
0.0
 47
0.0
 48
0.0
 49
0.0
140
0.0
141
0.0
142
1.0
143
1.0
 70
  1712
 72
     0
 73
     0
 74
     0
  7

 75
     0
147
1.0
148
0.0
149
0.0
100
AcDbLayout
  1
Model
 70
     1
 71
     0
 10
0.0
 20
0.0
 11
12.0
 21
9.0
 12
0.0
 22
0.0
 32
0.0
 14
0.0
 24
0.478725361393
 34
0.0
 15
419.228180952732
 25
259.1883
 35
0.0
146
0.0
 13
0.0
 23
0.0
 33
0.0
 16
1.0
 26
0.0
 36
0.0
 17
0.0
 27
1.0
 37
0.0
 76
     0
330
1D
331
7B3
  0
MLINESTYLE
  5
18
102
{ACAD_REACTORS
330
17
102
}
330
17
100
AcDbMlineStyle
  2
Standard
 70
     0
  3

 62
   256
 51
90.0
 52
90.0
 71
     2
 49
0.5
 62
   256
  6
BYLAYER
 49
-0.5
 62
   256
  6
BYLAYER
  0
ACDBPLACEHOLDER
  5
F
102
{ACAD_REACTORS
330
E
102
}
330
E
  0
SCALE
  5
7B9
102
{ACAD_REACTORS
330
7B8
102
}
330
7B8
100
AcDbScale
 70
     0
300
1:1
140
1.0
141
1.0
290
     1
  0
SCALE
  5
7BA
102
{ACAD_REACTORS
330
7B8
102
}
330
7B8
100
AcDbScale
 70
     0
300
1:2
140
1.0
141
2.0
290
     0
  0
SCALE
  5
7BB
102
{ACAD_REACTORS
330
7B8
102
}
330
7B8
100
AcDbScale
 70
     0
300
1:4
140
1.0
141
4.0
290
     0
  0
SCALE
  5
7BC
102
{ACAD_REACTORS
330
7B8
102
}
330
7B8
100
AcDbScale
 70
     0
300
1:5
140
1.0
141
5.0
290
     0
  0
SCALE
  5
7BD
102
{ACAD_REACTORS
330
7B8
102
}
330
7B8
100
AcDbScale
 70
     0
300
1:8
140
1.0
141
8.0
290
     0
  0
SCALE
  5
7BE
102
{ACAD_REACTORS
330
7B8
102
}
330
7B8
100
AcDbScale
 70
     0
300
1:10
140
1.0
141
10.0
290
     0
  0
SCALE
  5
7BF
102
{ACAD_REACTORS
330
7B8
102
}
330
7B8
100
AcDbScale
 70
     0
300
1:16
140
1.0
141
16.0
290
     0
  0
SCALE
  5
7C0
102
{ACAD_REACTORS
330
7B8
102
}
330
7B8
100
AcDbScale
 70
     0
300
1:20
140
1.0
141
20.0
290
     0
  0
SCALE
  5
7C1
102
{ACAD_REACTORS
330
7B8
102
}
330
7B8
100
AcDbScale
 70
     0
300
1:30
140
1.0
141
30.0
290
     0
  0
SCALE
  5
7C2
102
{ACAD_REACTORS
330
7B8
102
}
330
7B8
100
AcDbScale
 70
     0
300
1:40
140
1.0
141
40.0
290
     0
  0
SCALE
  5
7C3
102
{ACAD_REACTORS
330
7B8
102
}
330
7B8
100
AcDbScale
 70
     0
300
1:50
140
1.0
141
50.0
290
     0
  0
SCALE
  5
7C4
102
{ACAD_REACTORS
330
7B8
102
}
330
7B8
100
AcDbScale
 70
     0
300
1:100
140
1.0
141
100.0
290
     0
  0
SCALE
  5
7C5
102
{ACAD_REACTORS
330
7B8
102
}
330
7B8
100
AcDbScale
 70
     0
300
2:1
140
2.0
141
1.0
290
     0
  0
SCALE
  5
7C6
102
{ACAD_REACTORS
330
7B8
102
}
330
7B8
100
AcDbScale
 70
     0
300
4:1
140
4.0
141
1.0
290
     0
  0
SCALE
  5
7C7
102
{ACAD_REACTORS
330
7B8
102
}
330
7B8
100
AcDbScale
 70
     0
300
8:1
140
8.0
141
1.0
290
     0
  0
SCALE
  5
7C8
102
{ACAD_REACTORS
330
7B8
102
}
330
7B8
100
AcDbScale
 70
     0
300
10:1
140
10.0
141
1.0
290
     0
  0
SCALE
  5
7C9
102
{ACAD_REACTORS
330
7B8
102
}
330
7B8
100
AcDbScale
 70
     0
300
100:1
140
100.0
141
1.0
290
     0
  0
SCALE
  5
7CA
102
{ACAD_REACTORS
330
7B8
102
}
330
7B8
100
AcDbScale
 70
     0
300
1/128" = 1'-0"
140
0.0078125
141
12.0
290
     0
  0
SCALE
  5
7CB
102
{ACAD_REACTORS
330
7B8
102
}
330
7B8
100
AcDbScale
 70
     0
300
1/64" = 1'-0"
140
0.015625
141
12.0
290
     0
  0
SCALE
  5
7CC
102
{ACAD_REACTORS
330
7B8
102
}
330
7B8
100
AcDbScale
 70
     0
300
1/32" = 1'-0"
140
0.03125
141
12.0
290
     0
  0
SCALE
  5
7CD
102
{ACAD_REACTORS
330
7B8
102
}
330
7B8
100
AcDbScale
 70
     0
300
1/16" = 1'-0"
140
0.0625
141
12.0
290
     0
  0
SCALE
  5
7CE
102
{ACAD_REACTORS
330
7B8
102
}
330
7B8
100
AcDbScale
 70
     0
300
3/32" = 1'-0"
140
0.09375
141
12.0
290
     0
  0
SCALE
  5
7CF
102
{ACAD_REACTORS
330
7B8
102
}
330
7B8
100
AcDbScale
 70
     0
300
1/8" = 1'-0"
140
0.125
141
12.0
290
     0
  0
SCALE
  5
7D0
102
{ACAD_REACTORS
330
7B8
102
}
330
7B8
100
AcDbScale
 70
     0
300
3/16" = 1'-0"
140
0.1875
141
12.0
290
     0
  0
SCALE
  5
7D1
102
{ACAD_REACTORS
330
7B8
102
}
330
7B8
100
AcDbScale
 70
     0
300
1/4" = 1'-0"
140
0.25
141
12.0
290
     0
  0
SCALE
  5
7D2
102
{ACAD_REACTORS
330
7B8
102
}
330
7B8
100
AcDbScale
 70
     0
300
3/8" = 1'-0"
140
0.375
141
12.0
290
     0
  0
SCALE
  5
7D3
102
{ACAD_REACTORS
330
7B8
102
}
330
7B8
100
AcDbScale
 70
     0
300
1/2" = 1'-0"
140
0.5
141
12.0
290
     0
  0
SCALE
  5
7D4
102
{ACAD_REACTORS
330
7B8
102
}
330
7B8
100
AcDbScale
 70
     0
300
3/4" = 1'-0"
140
0.75
141
12.0
290
     0
  0
SCALE
  5
7D5
102
{ACAD_REACTORS
330
7B8
102
}
330
7B8
100
AcDbScale
 70
     0
300
1" = 1'-0"
140
1.0
141
12.0
290
     0
  0
SCALE
  5
7D6
102
{ACAD_REACTORS
330
7B8
102
}
330
7B8
100
AcDbScale
 70
     0
300
1-1/2" = 1'-0"
140
1.5
141
12.0
290
     0
  0
SCALE
  5
7D7
102
{ACAD_REACTORS
330
7B8
102
}
330
7B8
100
AcDbScale
 70
     0
300
3" = 1'-0"
140
3.0
141
12.0
290
     0
  0
SCALE
  5
7D8
102
{ACAD_REACTORS
330
7B8
102
}
330
7B8
100
AcDbScale
 70
     0
300
6" = 1'-0"
140
6.0
141
12.0
290
     0
  0
SCALE
  5
7D9
102
{ACAD_REACTORS
330
7B8
102
}
330
7B8
100
AcDbScale
 70
     0
300
1'-0" = 1'-0"
140
12.0
141
12.0
290
     0
  0
DICTIONARYVAR
  5
15E4
102
{ACAD_REACTORS
330
127F
102
}
330
127F
100
DictionaryVariables
280
     0
  1
1:1
  0
ENDSEC
  0
SECTION
  2
THUMBNAILIMAGE
 90
    16364
310
28000000B40000005500000001000800000000000000000000000000000000000000000000000000FFFFFF000000FF0000FFFF0000FF0000FFFF0000FF000000FF00FF000000000080808000C0C0C0000000FF007F7FFF000000A5005252A50000007F003F3F7F0000004C0026264C000000260013132600003FFF007F9FFF
310
000029A5005267A500001F7F003F4F7F0000134C00262F4C000009260013172600007FFF007FBFFF000052A500527CA500003F7F003F5F7F0000264C0026394C0000132600131C260000BFFF007FDFFF00007CA5005291A500005F7F003F6F7F0000394C0026424C00001C26001321260000FFFF007FFFFF0000A5A50052A5
310
A500007F7F003F7F7F00004C4C00264C4C00002626001326260000FFBF007FFFDF0000A57C0052A59100007F5F003F7F6F00004C3900264C420000261C001326210000FF7F007FFFBF0000A5520052A57C00007F3F003F7F5F00004C2600264C39000026130013261C0000FF3F007FFF9F0000A5290052A56700007F1F003F
310
7F4F00004C1300264C2F00002609001326170000FF00007FFF7F0000A5000052A55200007F00003F7F3F00004C0000264C260000260000132613003FFF00009FFF7F0029A5000067A552001F7F00004F7F3F00134C00002F4C260009260000172613007FFF0000BFFF7F0052A500007CA552003F7F00005F7F3F00264C0000
310
394C2600132600001C261300BFFF0000DFFF7F007CA5000091A552005F7F00006F7F3F00394C0000424C26001C26000021261300FFFF0000FFFF7F00A5A50000A5A552007F7F00007F7F3F004C4C00004C4C26002626000026261300FFBF0000FFDF7F00A57C0000A59152007F5F00007F6F3F004C3900004C422600261C00
310
0026211300FF7F0000FFBF7F00A5520000A57C52007F3F00007F5F3F004C2600004C39260026130000261C1300FF3F0000FF9F7F00A5290000A56752007F1F00007F4F3F004C1300004C2F26002609000026171300FF000000FF7F7F00A5000000A55252007F0000007F3F3F004C0000004C2626002600000026131300FF00
310
3F00FF7F9F00A5002900A55267007F001F007F3F4F004C0013004C262F002600090026131700FF007F00FF7FBF00A5005200A5527C007F003F007F3F5F004C0026004C2639002600130026131C00FF00BF00FF7FDF00A5007C00A55291007F005F007F3F6F004C0039004C26420026001C0026132100FF00FF00FF7FFF00A5
310
00A500A552A5007F007F007F3F7F004C004C004C264C002600260026132600BF00FF00DF7FFF007C00A5009152A5005F007F006F3F7F0039004C0042264C001C002600211326007F00FF00BF7FFF005200A5007C52A5003F007F005F3F7F0026004C0039264C00130026001C1326003F00FF009F7FFF002900A5006752A500
310
1F007F004F3F7F0013004C002F264C000900260017132600000000002D2D2D005B5B5B0089898900B7B7B700B3B3B30000000000000000000000000000000000000000000000000000000000000000000000000000000000000000000000000000000000000000000000000000000000000000000000000000000000000000
310
00000000000000000000000000000000000000000000000000000000000000000000000000000000000000000000000000000000000000000000000000000000000000000000000000000000000000000000000000000000000000000000000000000000000000000000000000000000000000000000000000000000000000
310
00000000000000000000000000000000000000000000000000000000000000000000000000000000000000000000000000000000000000000000000000000000000000000000000000000000000000000000000000000000000000000000000000000000000000000000000000000000000000000000000000000000000000
310
00000000000000000000000000000000000000000000000000000000000000000000000000000000000000000000000000000000000000000000000000000000000000000000000000000000000000000000000000000000000000000000000000000000000000000000000000000000000000000000000000000000000000
310
00000000000000000000000000000000000000000000000000000000000000000000000000000000000000000000000000000000000000000000000000000000000000000000000000000000000000000000000000000000000000000000000000000000000000000000000000000000000000000000000000000000000000
310
00000000000000000000000000000000000000000000000000000000000000000000000000000000000000000000000000000000000000000000000000000000000000000000000000000000000000000000000000000007070707070707070700000000000000000000000000000000000000000000000000000000000000
310
00000000000000000000000000000000000000000000000000000000000000000000000000000000000000000000000000000000000000000000000000000000000000000000000000000000000000000000000000000000000000000000000000000000000000000000000000000000000000000000000000000000000000
310
00000000000000000000000707000000000000000000070700000000000000000000000000000000000000000000000000000000000000000000000000000000000000000000000000000000000000000000000000000000000000000000000000000000000000000000000000000000000000000000000000000000000000
310
00000000000000000000000000000000000000000000000000000000000000000000000000000000000000000000000000000000000000000000000000000707000000000000070000000000000700000000000000000000000000000000000000000000000000000000000000000000000000000000000000000000000000
310
00000000000000000000000000000000000000000000000000000000000000000000000000000000000000000000000000000000000000000707000000000000000000000000000000000000000000000000000000000000000000000000000000000000000000000000000000000000000007000000000707070707070707
310
07000000070700000000000000000000000000000000000000000000000000000000000000000000000000000000000000000000000000000000000000000000000000000000000000000000000000000000000000000000000000000000000000000000000000000000000707000007070700000000000000000000000000
310
00000000000000000000000000000000000000000000000000000000000000000000000000000707000707070700000000000000000007070700000700000000000000000000000000000000000000000000000000000000000000000000000000000000000000000000000000000000000000000000000000000000000000
310
00000000000000000000000000000000000000000000000000000000000000000700000000000007000000000000000000000000000000000000000000000000000000000000000000000000000000000000000000000000000007000007070700000000000000000000000007070707000707000000000000000000000000
310
00000000000000000000000000000000000000000000000000000000000000000000000000000000000000000000000000000000000000000000000000000000000000000000000000000000000000000000000000070000000000000007000000000000000000000000000000000000000000000000000000000000000000
310
00000000000000000000000000000007000707070000000000000000000000000000000007070700070000000000000000000000000000000000000000000000000000000000000000000000000000000000000000000000000000000000000000000000000000000000000000000000000000000000000000000000000000
310
00000000000000000000000700000000000000070000000000000000000000000000000000000000000000000000000000000000000000000000000000000000000000000707070700000000000000000000000000000000000000070700070000000000000000000000000000000000000000000000000000000000000000
310
00000000000000000000000000000000000000000000000000000000000000000000000000000000000000000000000000000000000000000000000000000000070000000000000007000000000000000000000000000000000000000000000000000000000000000000000000000000000000000000000007000700000000
310
00000000000000000000000000000000000007070007000000000000000000000000000000000000000000000000000000000000000000000000000000000000000000000000000000000000000000000000000000000000000000000000000000000000000000000000000000000000000000000007000000000000000700
310
00000000000000000000000000000000000000000000000000000000000000000000000000000000000000000007000700000000000000000000000000000000000000000000000007070700000000000000000000000000000000000000000000000000000000000000000000000000000000000000000000000000000000
310
00000000000000000000000000000000000000000000000000000000000000000000000000000000000000070000000000000007000000000000000000000000000000000000000000000000000000000000000000000000000000000000000000000707070000000000000000000000000000000000000000000000000007
310
07000000000000000000000000000000000000000000000000000000000000000000000000000000000000000000000000000000000000000000000000000000000000000000000000000000000000000000000000000000000000000000000007000000000000000700000000000000000000000000000000000000000000
310
00000000000000000000000000000000000000000000000007070000000000000000000000000000000000000000000000000000070700000000000000000000000000000000000000000000000000000000000000000000000000000000000000000000000000000000000000000000000000000000000000000000000000
310
00000000000000000000000000000000000000000000070000000000000007000000000000000000000000000000000000000000000000000000000000000000000000000000000000000000000707000000000000000000000000000000000000000000000000000007070700000000000000000000000000000000000000
310
00000000000000000000000000000000000000000000000000000000000000000000000000000000000000000000000000000000000000000000000000000000000000000000000000000007000000000000000700000000000000000000000000000000000000000000000000000000000000000000000000000000000000
310
00000007070000000000000000000000000000000000000000000000000000000707000000000000000000000000000000000000000000000000000000000000000000000000000000000000000000000000000000000000000000000000000000000000000000000000000000000000000000000000000000000000000000
310
00070000000000000007000000000000000000000000000000000000000000000000000000000000000000000000000000000000000000000700000000000000000000000000000000000000000000000000000000070700000000000000000000000000000000000000000000000000000000000000000000000000000000
310
00000000000000000000000000000000000000000000000000000000000000000000000000000000000000000000000000000000000007000000000000000700000000000000000000000000000000000000000000000000000000000000000000000000000000000000000000070000000000000000000000000000000000
310
00000000000000000000000707000000000000000000000000000000000000000000000000000000000000000000000000000000000000000000000000000000000000000000000000000000000000000000000000000000000000000000000000000000000000000000000700000000000000070000000000000000000000
310
00000000000000000000000000000000000000000000000000000000000000000000000700000000000000000000000000000000000000000000000000000000000700000000000000000000000000000000000000000000000000000000000000000000000000000000000000000000000000000000000000000000000000
310
00000000000000000000000000000000000000000000000000000000000000000007000000000000000700000000000000000000000000000000000000000000000000000000000000000000000000000000000000000000070000000000000000000000000000000000000000000000000000000007070000000000000000
310
00000000000000000000000000000000000000000000000000000000000000000000000000000000000000000000000000000000000000000000000000000000000000000000000000000000000000000000000000000700000000000000070000000000000000000000000000000000000000000000000000000000000000
310
00000000000000000000000000000700000000000000000000000000000000000000000000000000000000070700000000000000000000000000000000000000000000000000000000000000000000000000000000000000000000000000000000000000000000000000000000000000000000000000000000000000000000
310
00000000000000000000000007000000000000000700000000000000000000000000000000000000000000000000000000000000000000000000000000000000000000070000000000000000000000000000000000000000000000000000000007000000000000000000000000000000000000000000000000000000000000
310
00000000000000000000000000000000000000000000000000000000000000000000000000000000000000000000000000000000000000000000000000000000000700000000000000070000000000000000000000000000000000000000000000000000000000000000000000000000000000000000000007070000000000
310
00000000000000000000000000000000000000000000070000000000000000000000000000000000000000000000000000000000000000000000000000000000000000000000000000000000000000000000000000000000000000000000000000000000000000000000000000000000000000000000070000000000000007
310
00000000000000000000000000000000000000000000000000000000000000000000000000000000000000000000000700000000000000000000000000000000000000000000000000000707000000000000000000000000000000000000000000000000000000000000000000000000000000000000000000000000000000
310
00000000000000000000000000000000000000000000000000000000000000000000000000000000000000000700000000000000070000000000000000000000000000000000000000000000000000000000000000000000000000000000000000000000070000000000000000000000000000000000000000000000000000
310
07000000000000000000000000000000000000000000000000000000000000000000000000000000000000000000000000000000000000000000000000000000000000000000000000000000000000000000000000000000000000000000000000070000000000000007000000000000000000000000000000000000000000
310
00000000000000000000000000000000000000000000000000000007000000000000000000000000000000000000000000000000000700000000000000000000000000000000000000000000000000000000000000000000000000000000000000000000000000000000000000000000000000000000000000000000000000
310
00000000000000000000000000000000000000000000000700000000000000070000000000000000000000000000000000000000000000000000000000000000000000000000000000000000000000000007000000000000000000000000000000000000000000000007000000000000000000000000000000000000000000
310
00000000000000000000000000000000000000000000000000000000000000000000000000000000000000000000000000000000000000000000000000000000000000000000000000000000070000000000000007000000000000000000000000000000000000000000000000000000000000000000000000000000000000
310
00000000000000070000000000000000000000000000000000000000000007000000000000000000000000000000000000000000000000000000000000000000000000000000000000000000000000000000000000000000000000000000000000000000000000000000000000000000000000000000000000000000000000
310
00000700000000000000070000000000000000000000000000000000000000000000000000000000000000000000000000000000000000000000000000070000000000000000000000000000000000000000070000000000000000000000000000000000000000000000000000000000000000000000000000000000000000
310
00000000000000000000000000000000000000000000000000000000000000000000000000000000000000000000000000000000000000070000000000000007000000000000000000000000000000000000000000000000000000000000000000000000000000000000000000000000000000070700000000000000000000
310
00000000000000070000000000000000000000000000000000000000000000000000000000000000000000000000000000000000000000000000000000000000000000000000000000000000000000000000000000000000000000000000000000000000000000000000000007000000000000000700000000000000000000
310
00000000000000000000000000000000000000000000000000000000000000000000000000000000000000070000000000000000000000000000070700000000000000000000000000000000000000000000000000000000000000000000000000000000000000000000000000000000000000000000000000000000000000
310
00000000000000000000000000000000000000000000000000000000000000000000070000000000000007000000000000000000000000000000000000000000000000000000000000000000000000000000000000000000000000000000000000070707070707000000070707070700000000000000000000000000000000
310
00000000000000000000000000000000000000000000000000000000000000000000000000000000000000000000000000000000000000000000000000000000000000000000000000000000000000000000000000000007000000000000000700000000000000000000000000000000000000000000000000000000000000
310
00000000000000000000000000000000000000000000000000000007000707070700000000000000000000000000000000000000000000000000000000000000000000000000000000000000000000000000000000000000000000000000000000000000000000000000000000000000000000000000000000000000000000
310
00000000000000000000000000070000000000000007000000000000000000000000000000000000000000000000000000000000000000000000000000000000000000000000000000000000000000000700000000070700000000000000000000000000000000000000000000000000000000000000000000000000000000
310
00000000000000000000000000000000000000000000000000000000000000000000000000000000000000000000000000000000000000000000000000000000000007000000000000000700000000000000000000000000000000000000000000000000000000000000000000000000000000000000000000000000000000
310
00000000000707000000000707000000000000000000000000000000000000000000000000000000000000000000000000000000000000000000000000000000000000000000000000000000000000000000000000000000000000000000000000000000000000000000000000000000000000000000000700000000000000
310
07000000000000000000000000000000000000000000000000000000000000000000000000000000000000000000000000000000000000000000070707070707070700000000000000000000000000000000000000000000000000000000000000000000000000000000000000000000000000000000000000000000000000
310
00000000000000000000000000000000000000000000000000000000000000000000000000000000000000000007000000000000000700000000000000000000000000000000000000000000000000000000000000000000000000000000000000000000000000000000000000000007000707070707070000000000000000
310
00000000000000000000000000000000000000000000000000000000000000000000000000000000000000000000000000000000000000000000000000000000000000000000000000000000000000000000000000000000000000000000000000000700000000000000070000000000000000000000000000000000000000
310
00000000000000000000000000000000000000000000000000000000000000000000000000070000000000000700000000000000000000000000000000000000000000000000000000000000000000000000000000000000000000000000000000000000000000000000000000000000000000000000000000000000000000
310
00000000000000000000000000000000000000000000000007000000000000000700000000000000000000000000000000000000000000000000000000000000000000000000000000000000000000000000000000000000000007000000000000070000000000000000000000000000000000000000000000000000000000
310
00000000000000000000000000000000000000000000000000000000000000000000000000000000000000000000000000000000000000000000000000000000000000000000000000000000000700000000000000070000000000000000000000000000000000000000000000000000000000000000000000000000000000
310
00000000000000000000000000000000070000000000000700000000000000000000000000000000000000000000000000000000000000000000000000000000000000000000000000000000000000000000000000000000000000000000000000000000000000000000000000000000000000000000000000000000000000
310
00000007000000000000000700000000000000000000000000000000000000000000000000000000000000000000000000000000000000000000000000000000000000000007000000000000070000000000000000000000000000000000000000000000000000000000000000000000000000000000000000000000000000
310
00000000000000000000000000000000000000000000000000000000000000000000000000000000000000000000000000000000000000000700000000000000070000000000000000000000000000000000000000000000000000000000000000000000000000000000000000000000000000000000000000000700000000
310
00000700000000000000000000000000000000000000000000000000000000000000000000000000000000000000000000000000000000000000000000000000000000000000000000000000000000000000000000000000000000000000000000000000000000000000000000070000000000000007000000000000000000
310
00000000000000000000000000000000000000000000000000000000000000000000000000000000000000000000000007000000000000070000000000000000000000000000000000000000000000000000000000000000000000000000000000000000000000000000000000000000000000000000000000000000000000
310
00000000000000000000000000000000000000000000000000000000000000000000000700000000000000070000000000000000000000000000000000000000000000000000000000000000000000000000000000000000000000000000000000000000000700000000000007000000000000000000000000000000000000
310
00000000000000000000000000000000000000000000000000000000000000000000000000000000000000000000000000000000000000000000000000000000000000000000000000000000000000000000000000000000070000000000000007000000000000000000000000000000000000000000000000000000000000
310
00000000000000000000000000000000000000000000000000000007000000000000070000000000000000000000000000000000000000000000000000000000000000000000000000000000000000000000000000000000000000000000000000000000000000000000000000000000000000000000000000000000000000
310
00000000000000000000000000000700000000000000070000000000000000000000000000000000000000000000000000000000000000000000000000000000000000000000000000000000000000000700000000000007000000000000000000000000000000000000000000000000000000000000000000000000000000
310
00000000000000000000000000000000000000000000000000000000000000000000000000000000000000000000000000000000000000000000000000000000000000070000000000000007000000000000000000000000000000000000000000000000000000000000000000000000000000000000000000000000000000
310
00000000000007000000000000070000000000000000000000000000000000000000000000000000000000000000000000000000000000000000000000000000000000000000000000000000000000000000000000000000000000000000000000000000000000000000000000000000000000000000000007000000000000
310
00070000000000000000000000000000000000000000000000000000000000000000000000000000000000000000000000000000000000000000000700000000000007000000000000000000000000000000000000000000000000000000000000000000000000000000000000000000000000000000000000000000000000
310
00000000000000000000000000000000000000000000000000000000000000000000000000000000000000000000070000000000000007000000000000000000000000000000000000000000000000000000000000000000000000000000000000000000000000000000000000000000070000000000000700000000000000
310
00000000000000000000000000000000000000000000000000000000000000000000000000000000000000000000000000000000000000000000000000000000000000000000000000000000000000000000000000000000000000000000000000000007000000000000000700000000000000000000000000000000000000
310
00000000000000000000000000000000000000000000000000000000000000000000000000000700000000000007000000000000000000000000000000000000000000000000000000000000000000000000000000000000000000000000000000000000000000000000000000000000000000000000000000000000000000
310
00000000000000000000000000000000000000000000000000070000000000000007000000000000000000000000000000000000000000000000000000000000000000000000000000000000000000000000000000000000000000070000000000000700000000000000000000000000000000000000000000000000000000
310
00000000000000000000000000000000000000000000000000000000000000000000000000000000000000000000000000000000000000000000000000000000000000000000000000000000000007000000000000000700000000000000000000000000000000000000000000000000000000000000000000000000000000
310
00000000000000000000000000000000000700000000000007070000000000000000000000000000000000000000000000000000000000000000000000000000000000000000000000000000000000000000000000000000000000000000000000000000000000000000000000000000000000000000000000000000000000
310
00000000070000000000000007000000000000000000000000000000000000000000000000000000000000000000000000000000000000000000000000000000000000000007070000000000000707070000000000000000000000000000000000000000000000000000000000000000000000000000000000000000000000
310
00000000000000000000000000000000000000000000000000000000000000000000000000000000000000000000000000000000000000000007000000000000000700000000000000000000000000000000000000000000000000000000000000000000000000000000000000000000000000000000000000000707000000
310
00000007000000000000000000000000000000000000000000000000000000000000000000000000000000000000000000000000000000000000000000000000000000000000000000000000000000000000000000000000000000000000000000000000000000000000000000000700000000000000070000000000000000
310
00000000000000000000000000000000000000000000000000000000000000000000000000000000000000000000000007000700000000070707070000000000000000000000000000000000000000000000000000000000000000000000000000000000000000000000000000000000000000000000000000000000000000
310
00000000000000000000000000000000000000000000000000000000000000000000000007000000000000000700000000000000000000000000000000000000000000000000000000000000000000000000000000000000000000000000000000000000000707000707070707000707000000000000000000000000000000
310
00000000000000000000000000000000000000000000000000000000000000000000000000000000000000000000000000000707070707070707070707070707070707070007000000000000000000000000000707070707070700000000000000070707070707000000000000000000000000000707000707070707070707
310
07070707070707070700000000000000000000000000070707070707070700000000070700070707070700000000000000000000000000000000000000000000000000000000000000000000000000000000000000000000000000000000000000000000000007070000000000000000000000000000000000000007000000
310
00000000000000000007000000000007000000000000000700000000000700000000000000000000000707000000000000000000000000000000000000000700000000000000000000000007000000000700000707070700000007000000000700000000000000000000000000000000000000000000000000000000000000
310
00000000000000000000000000000000000000000000000000000000070000000000000707070707070707070000000000000700000000000000000000070700000000000700000000000000070000000000070000000000000000000000070000000000000707070707070707070000000000070700000000000000000000
310
07000000000007000000000000000007070000000007000000000000000000000000000000000000000000000000000000000000000000000000000000000000000000000000000000000000000000000007070000000707000000000000000000070700000007070000000000000000000007000000000000070000000000
310
00000700000000000700000000000000000000000707000000070700000000000000000007000000000707000000000000000000000700000000000707000000000000070007000000000700000000000000000000000000000000000000000000000000000000000000000000000000000000000000000000000000000000
310
00000000000007070007070707000000000000000000000007070707000700000000000000000000070000000000000700000000000000070000000000070000000000000000000007070007070700000000000000000000000007070707000700000000000000000000070000000007070007070707070707000707000000
310
07000000000000000000000000000000000000000000000000000000000000000000000000000000000000000000000000000000000000000000000700000000070700000000000000000000000707000000070700000000000000000007000000000007070000000000000007000000000007000000000000000000000700
310
00000007070000000000000000000000070700000007000000000000000000000700000007000700000007070700000007000700000700000000000000000000000000000000000000000000000000000000000000000000000000000000000000000000000000000000000000000000070700000000000707070707070707
310
07070700000000070700000000000000000000070000000007000700000000000000070700000000070000000000000000000007070000000000070707070707070707070700000000070700000000000000000000070000070707070000000000000000000707070000070000000000000000000000000000000000000000
310
00000000000000000000000000000000000000000000000000000000000000000000000000000007070700000000000700000000000700000000000700070000000000000000000007000000000700070000000000000007070000000007000000000000000000000007070700000000070700000000000700000000000700
310
07000000000000000000000700000700070700000000000000000007070007000700000000000000000000000000000000000000000000000000000000000000000000000000000000000000000000000000000000000000000000000700070707000000000000000000000000000707070007000000000000000000000700
310
00000007000700000000000000070007000000070000000000000000000000070007070700000000000000000000000000070707000700000000000000000000070000070707070000000000000000000707000700070000000000000000000000000000000000000000000000000000000000000000000000000000000000
310
00000000000000000000000000000000000007000700000700000000000000000000000700000700070000000000000000000007000000070000070000000000000007000700000007000000000000000000000007000700000700000000000000000000000700000700070000000000000000000007000700070007000000
310
00000000000000070007000700000000000000000000000000000000000000000000000000000000000000000000000000000000000000000000000000000000000000000000000700070000000700000000000000000007000000070007000000000000000000000700000007000007000000000000000700070000000700
310
00000000000000000000070007000000070000000000000000000700000007000700000000000000000000070007000700070000000000000000000707000700070000000000000000000000000000000000000000000000000000000000000000000000000000000000000000000000000000000000000000000000070007
310
00000007000000000000000000070000000700070000000000000000000007000000070000070000000000000007000700000007000000000000000000000007000700000007000000000000000000070000000700070000000000000000000007000700070007000000000000000007000700070007000000000000000000
310
00000000000000000000000000000000000000000000000000000000000000000000000000000000000000000000000000000700070000000700000000000000000707000000070007000000000000000000000700000007000007000000000000070000070000000700000000000000000000000700070000000700000000
310
00000000070000000007000700000000000000000000070000070007000700000000000000070007000700070000000000000000000000000000000000000000000000000000000000000000000000000000000000000000000000000000000000000000000000070007000000000700000000000000070000000007000700
310
00000000000000000007000000000700000700000000000700000700000007000000000000000000000007000700000000070000000000000707000000000700070000000000000000000007000007000700070700000000000707000700070007000000000000000000000000000000000000000000000000000000000000
310
00000000000000000000000000000000000000000000000000000000000700070000000007070000000007070000000007000007000000000000000000000700000000000700000707070707000007000000000700000000000000000000000700070000000007070000000007070000000007000007000000000000000000
310
00070000070000070007070000070707000700070000070000000000000000000000000000000000000000000000000000000000000000000000000000000000000000000000000000000000000000000000070000070000000000070000000700000000000700000700000000000000000000070000000000000700000707
310
07000007000000000007000000000000000000000007000007000000000707000000070000000000070000070000000000000000000007000000070007000000070707000000070007000007000000000000000000000000000000000000000000000000000000000000000000000000000000000000000000000000000000
310
00000000000000000700000007000000000700000007000000000700000007000000000000000000000700000000000000070007000700070000000000000700000000000000000000000700000007000000000700000007000000000700000007000000000000000000000700000000070007000000000000000700070000
310
00070000000000000000000000000000000000000000000000000000000000000000000000000000000000000000000000000000000000000000000000070000000700000000070000000700000007000000000700000000000000000000070000000000000000070700070700000000000000070000000000000000000000
310
07000000070000000007000000070000000700000000070000000000000000000007000000000707070707000000070700070000000007000000000000000000000000000000000000000000000000000000000000000000000000000000000000000000000000000000000000000000000007000000000707000007000000
310
07000707000000000007000000000000000000000700000000000000000007070700000000000000000700000000000000000000000700000000070700000700000007000707000000000007000000000000000000000700000000000007070707070707070700000000000700000000000000000000000000000000000000
310
00000000000000000000000000000000000000000000000000000000000000000000000000000000070000000000000707070000000707000000000000000700000000000000000000000700000000000000000000000000000000000000070000000000000000000000070000000000000707070000000707000000000000
310
07070000000000000000000007070000000000000000070707000000000000000007000000000000000000000000000000000000000000000000000000000000000000000000000000000000000000000000000000000000000000000007070000000000000007000000070000000000000007000000000000000000000000
310
07070000000000000000000000000000000000070700000000000000000000000707000000000000000700000007000000000000000700000000000000000000000007070000000000000000000000000000000000070700000000000000000000000000000000000000000000000000000000000000000000000000000000
310
00000000000000000000000000000000000000000707070707070707070000000707070707070707000000000000000000000000000007070707070707070700070707070707070700000000000000000000000000000707070707070707070000000707070707070707000000000000000000000000000007070707070707
310
07070707070707070707070000000000000000000000000000000000000000000000000000000000000000000000000000000000000000000000000000000000000000000000000000000000000000000007000007070000000000000000000000000000000000000000000000000000000000000000000000000000000000
310
00000000000000000000000000000000000000000700000707000000000000000000000000000000000000000000000000000000000000000000000000000000000000000000000000000000000000000000000000000000000000000000000000000000000000000000000000000000000000000000000000000000000000
310
00000000000000070707070000000000000000000000000000000000000000000000000000000000000000000000000000000000000000000000000000000000000000000000000000070707070000000000000000000000000000000000000000000000000000000000000000000000000000000000000000000000000000
310
00000000000000000000000000000000000000000000000000000000000000000000000000000000000000000000000000000000000000000000000000000000000000000000000000000000000000000000000000000000000000000000000000000000000000000000000000000000000000000000000000000000000000
310
00000000000000000000000000000000000000000000000000000000000000000000000000000000000000000000000000000000000000000000000000000000000000000000000000000000000000000000000000000000000000000000000000000000000000000000000000000000000000000000000000000000000000
310
00000000000000000000000000000000000000000000000000000000000000000000000000000000000000000000000000000000000000000000000000000000000000000000000000000000000000000000000000000000000000000000000000000000000000000000000000000000000000000000000000000000000000
310
00000000000000000000000000000000000000000000000000000000000000000000000000000000000000000000000000000000000000000000000000000000000000000000000000000000000000000000000000000000000000000000000000000000000000000000000000000000000000000000000000000000000000
310
00000000000000000000000000000000000000000000000000000000000000000000000000000000000000000000000000000000000000000000000000000000000000000000000000000000000000000000000000000000000000000000000000000000000000000000000000000000000000000000000000000000000000
310
000000000000000000000000000000000000000000000000000000000000000000000000000000000000000000000000000000000000000000000000000000000000000000000000000000000000000000000000000000000000000000000000000000000000000000000000
  0
ENDSEC
  0
EOF
