  0
SECTION
  2
HEADER
  9
$ACADVER
  1
AC1015
  9
$ACADMAINTVER
 70
     6
  9
$DWGCODEPAGE
  3
ANSI_1252
  9
$INSBASE
 10
0.0
 20
0.0
 30
0.0
  9
$EXTMIN
 10
-0.846
 20
-37.4271
 30
0.0
  9
$EXTMAX
 10
415.0
 20
212.1722
 30
0.0
  9
$LIMMIN
 10
0.0
 20
0.0
  9
$LIMMAX
 10
12.0
 20
9.0
  9
$ORTHOMODE
 70
     0
  9
$REGENMODE
 70
     1
  9
$FILLMODE
 70
     1
  9
$QTEXTMODE
 70
     0
  9
$MIRRTEXT
 70
     1
  9
$LTSCALE
 40
1.0
  9
$ATTMODE
 70
     1
  9
$TEXTSIZE
 40
0.2
  9
$TRACEWID
 40
0.05
  9
$TEXTSTYLE
  7
STANDARD
  9
$CLAYER
  8
0
  9
$CELTYPE
  6
CONTINUOUS
  9
$CECOLOR
 62
   256
  9
$CELTSCALE
 40
1.0
  9
$DISPSILH
 70
     0
  9
$DIMSCALE
 40
1.0
  9
$DIMASZ
 40
0.18
  9
$DIMEXO
 40
0.0625
  9
$DIMDLI
 40
0.38
  9
$DIMRND
 40
0.0
  9
$DIMDLE
 40
0.0
  9
$DIMEXE
 40
0.18
  9
$DIMTP
 40
0.0
  9
$DIMTM
 40
0.0
  9
$DIMTXT
 40
0.18
  9
$DIMCEN
 40
0.09
  9
$DIMTSZ
 40
0.0
  9
$DIMTOL
 70
     0
  9
$DIMLIM
 70
     0
  9
$DIMTIH
 70
     1
  9
$DIMTOH
 70
     1
  9
$DIMSE1
 70
     0
  9
$DIMSE2
 70
     0
  9
$DIMTAD
 70
     0
  9
$DIMZIN
 70
     0
  9
$DIMBLK
  1

  9
$DIMASO
 70
     1
  9
$DIMSHO
 70
     1
  9
$DIMPOST
  1

  9
$DIMAPOST
  1

  9
$DIMALT
 70
     0
  9
$DIMALTD
 70
     2
  9
$DIMALTF
 40
25.4
  9
$DIMLFAC
 40
1.0
  9
$DIMTOFL
 70
     0
  9
$DIMTVP
 40
0.0
  9
$DIMTIX
 70
     0
  9
$DIMSOXD
 70
     0
  9
$DIMSAH
 70
     0
  9
$DIMBLK1
  1

  9
$DIMBLK2
  1

  9
$DIMSTYLE
  2
STANDARD
  9
$DIMCLRD
 70
     0
  9
$DIMCLRE
 70
     0
  9
$DIMCLRT
 70
     0
  9
$DIMTFAC
 40
1.0
  9
$DIMGAP
 40
0.09
  9
$DIMJUST
 70
     0
  9
$DIMSD1
 70
     0
  9
$DIMSD2
 70
     0
  9
$DIMTOLJ
 70
     1
  9
$DIMTZIN
 70
     0
  9
$DIMALTZ
 70
     0
  9
$DIMALTTZ
 70
     0
  9
$DIMUPT
 70
     0
  9
$DIMDEC
 70
     4
  9
$DIMTDEC
 70
     4
  9
$DIMALTU
 70
     2
  9
$DIMALTTD
 70
     2
  9
$DIMTXSTY
  7
STANDARD
  9
$DIMAUNIT
 70
     0
  9
$DIMADEC
 70
     0
  9
$DIMALTRND
 40
0.0
  9
$DIMAZIN
 70
     0
  9
$DIMDSEP
 70
    46
  9
$DIMATFIT
 70
     3
  9
$DIMFRAC
 70
     0
  9
$DIMLDRBLK
  1

  9
$DIMLUNIT
 70
     2
  9
$DIMLWD
 70
    -2
  9
$DIMLWE
 70
    -2
  9
$DIMTMOVE
 70
     2
  9
$LUNITS
 70
     2
  9
$LUPREC
 70
     4
  9
$SKETCHINC
 40
0.1
  9
$FILLETRAD
 40
0.0
  9
$AUNITS
 70
     0
  9
$AUPREC
 70
     0
  9
$MENU
  1
.
  9
$ELEVATION
 40
0.0
  9
$PELEVATION
 40
0.0
  9
$THICKNESS
 40
0.0
  9
$LIMCHECK
 70
     0
  9
$CHAMFERA
 40
0.0
  9
$CHAMFERB
 40
0.0
  9
$CHAMFERC
 40
0.0
  9
$CHAMFERD
 40
0.0
  9
$SKPOLY
 70
     0
  9
$TDCREATE
 40
2454691.694065209
  9
$TDUCREATE
 40
2454691.610731875
  9
$TDUPDATE
 40
2456209.739070995
  9
$TDUUPDATE
 40
2456209.655737662
  9
$TDINDWG
 40
0.0018278009
  9
$TDUSRTIMER
 40
0.0018278009
  9
$USRTIMER
 70
     1
  9
$ANGBASE
 50
0.0
  9
$ANGDIR
 70
     0
  9
$PDMODE
 70
     0
  9
$PDSIZE
 40
0.0
  9
$PLINEWID
 40
0.0
  9
$SPLFRAME
 70
     0
  9
$SPLINETYPE
 70
     6
  9
$SPLINESEGS
 70
     8
  9
$HANDSEED
  5
73E
  9
$SURFTAB1
 70
     6
  9
$SURFTAB2
 70
     6
  9
$SURFTYPE
 70
     6
  9
$SURFU
 70
     6
  9
$SURFV
 70
     6
  9
$UCSBASE
  2

  9
$UCSNAME
  2

  9
$UCSORG
 10
0.0
 20
0.0
 30
0.0
  9
$UCSXDIR
 10
1.0
 20
0.0
 30
0.0
  9
$UCSYDIR
 10
0.0
 20
1.0
 30
0.0
  9
$UCSORTHOREF
  2

  9
$UCSORTHOVIEW
 70
     0
  9
$UCSORGTOP
 10
0.0
 20
0.0
 30
0.0
  9
$UCSORGBOTTOM
 10
0.0
 20
0.0
 30
0.0
  9
$UCSORGLEFT
 10
0.0
 20
0.0
 30
0.0
  9
$UCSORGRIGHT
 10
0.0
 20
0.0
 30
0.0
  9
$UCSORGFRONT
 10
0.0
 20
0.0
 30
0.0
  9
$UCSORGBACK
 10
0.0
 20
0.0
 30
0.0
  9
$PUCSBASE
  2

  9
$PUCSNAME
  2

  9
$PUCSORG
 10
0.0
 20
0.0
 30
0.0
  9
$PUCSXDIR
 10
1.0
 20
0.0
 30
0.0
  9
$PUCSYDIR
 10
0.0
 20
1.0
 30
0.0
  9
$PUCSORTHOREF
  2

  9
$PUCSORTHOVIEW
 70
     0
  9
$PUCSORGTOP
 10
0.0
 20
0.0
 30
0.0
  9
$PUCSORGBOTTOM
 10
0.0
 20
0.0
 30
0.0
  9
$PUCSORGLEFT
 10
0.0
 20
0.0
 30
0.0
  9
$PUCSORGRIGHT
 10
0.0
 20
0.0
 30
0.0
  9
$PUCSORGFRONT
 10
0.0
 20
0.0
 30
0.0
  9
$PUCSORGBACK
 10
0.0
 20
0.0
 30
0.0
  9
$USERI1
 70
     0
  9
$USERI2
 70
     0
  9
$USERI3
 70
     0
  9
$USERI4
 70
     0
  9
$USERI5
 70
     0
  9
$USERR1
 40
0.0
  9
$USERR2
 40
0.0
  9
$USERR3
 40
0.0
  9
$USERR4
 40
0.0
  9
$USERR5
 40
0.0
  9
$WORLDVIEW
 70
     1
  9
$SHADEDGE
 70
     3
  9
$SHADEDIF
 70
    70
  9
$TILEMODE
 70
     1
  9
$MAXACTVP
 70
    64
  9
$PINSBASE
 10
0.0
 20
0.0
 30
0.0
  9
$PLIMCHECK
 70
     0
  9
$PEXTMIN
 10
1.000000000000E+20
 20
1.000000000000E+20
 30
1.000000000000E+20
  9
$PEXTMAX
 10
-1.000000000000E+20
 20
-1.000000000000E+20
 30
-1.000000000000E+20
  9
$PLIMMIN
 10
0.0
 20
0.0
  9
$PLIMMAX
 10
12.0
 20
9.0
  9
$UNITMODE
 70
     0
  9
$VISRETAIN
 70
     1
  9
$PLINEGEN
 70
     0
  9
$PSLTSCALE
 70
     1
  9
$TREEDEPTH
 70
  3020
  9
$CMLSTYLE
  2
STANDARD
  9
$CMLJUST
 70
     0
  9
$CMLSCALE
 40
1.0
  9
$PROXYGRAPHICS
 70
     1
  9
$MEASUREMENT
 70
     0
  9
$CELWEIGHT
370
    -1
  9
$ENDCAPS
280
     0
  9
$JOINSTYLE
280
     0
  9
$LWDISPLAY
290
     0
  9
$INSUNITS
 70
     0
  9
$HYPERLINKBASE
  1

  9
$STYLESHEET
  1

  9
$XEDIT
290
     1
  9
$CEPSNTYPE
380
     0
  9
$PSTYLEMODE
290
     1
  9
$FINGERPRINTGUID
  2
{6C95532C-53F2-4B47-9EEA-3CD595C584B4}
  9
$VERSIONGUID
  2
{66F84EAB-1DB4-45C1-90A0-AE7E84EB9F2A}
  9
$EXTNAMES
290
     1
  9
$PSVPSCALE
 40
0.0
  9
$OLESTARTUP
290
     0
  0
ENDSEC
  0
SECTION
  2
CLASSES
  0
CLASS
  1
ACDBDICTIONARYWDFLT
  2
AcDbDictionaryWithDefault
  3
ObjectDBX Classes
 90
        0
280
     0
281
     0
  0
CLASS
  1
ACDBPLACEHOLDER
  2
AcDbPlaceHolder
  3
ObjectDBX Classes
 90
        0
280
     0
281
     0
  0
CLASS
  1
LAYOUT
  2
AcDbLayout
  3
ObjectDBX Classes
 90
        0
280
     0
281
     0
  0
CLASS
  1
DICTIONARYVAR
  2
AcDbDictionaryVar
  3
ObjectDBX Classes
 90
        0
280
     0
281
     0
  0
CLASS
  1
DUMMY
  2
AcDbLongTransaction
  3
DUMMY
 90
        0
280
     0
281
     0
  0
CLASS
  1
LWPOLYLINE
  2
AcDbPolyline
  3
AutoCAD 2000
 90
        0
280
     0
281
     1
  0
CLASS
  1
HATCH
  2
AcDbHatch
  3
AutoCAD 2000
 90
        0
280
     0
281
     1
  0
CLASS
  1
XRECORD
  2
AcDbXrecord
  3
AutoCAD 2000
 90
        0
280
     0
281
     0
  0
CLASS
  1
SCALE
  2
AcDbScale
  3
ObjectDBX Classes
 90
     1153
280
     0
281
     0
  0
ENDSEC
  0
SECTION
  2
TABLES
  0
TABLE
  2
VPORT
  5
8
330
0
100
AcDbSymbolTable
 70
     1
  0
VPORT
  5
392
330
8
100
AcDbSymbolTableRecord
100
AcDbViewportTableRecord
  2
*ACTIVE
 70
     0
 10
0.0
 20
0.0
 11
1.0
 21
1.0
 12
207.077
 22
87.37255
 13
0.0
 23
0.0
 14
1.0
 24
1.0
 15
0.0
 25
0.0
 16
0.0
 26
0.0
 36
1.0
 17
0.0
 27
0.0
 37
0.0
 40
254.591286
 41
2.271724137931
 42
50.0
 43
0.0
 44
0.0
 50
0.0
 51
0.0
 71
    16
 72
   100
 73
     1
 74
     3
 75
     0
 76
     0
 77
     0
 78
     0
281
     0
 65
     1
110
0.0
120
0.0
130
0.0
111
1.0
121
0.0
131
0.0
112
0.0
122
1.0
132
0.0
 79
     0
146
0.0
  0
ENDTAB
  0
TABLE
  2
LTYPE
  5
5
330
0
100
AcDbSymbolTable
 70
     1
  0
LTYPE
  5
13
330
5
100
AcDbSymbolTableRecord
100
AcDbLinetypeTableRecord
  2
BYBLOCK
 70
     0
  3

 72
    65
 73
     0
 40
0.0
  0
LTYPE
  5
14
330
5
100
AcDbSymbolTableRecord
100
AcDbLinetypeTableRecord
  2
BYLAYER
 70
     0
  3

 72
    65
 73
     0
 40
0.0
  0
LTYPE
  5
15
330
5
100
AcDbSymbolTableRecord
100
AcDbLinetypeTableRecord
  2
CONTINUOUS
 70
     0
  3
Solid line
 72
    65
 73
     0
 40
0.0
  0
ENDTAB
  0
TABLE
  2
LAYER
  5
2
330
0
100
AcDbSymbolTable
 70
     1
  0
LAYER
  5
10
330
2
100
AcDbSymbolTableRecord
100
AcDbLayerTableRecord
  2
0
 70
     0
 62
     7
  6
CONTINUOUS
370
    -3
390
F
  0
ENDTAB
  0
TABLE
  2
STYLE
  5
3
330
0
100
AcDbSymbolTable
 70
     1
  0
STYLE
  5
11
330
3
100
AcDbSymbolTableRecord
100
AcDbTextStyleTableRecord
  2
STANDARD
 70
     0
 40
0.0
 41
1.0
 50
0.0
 71
     0
 42
0.2
  3
txt
  4

  0
ENDTAB
  0
TABLE
  2
VIEW
  5
6
330
0
100
AcDbSymbolTable
 70
     0
  0
ENDTAB
  0
TABLE
  2
UCS
  5
7
330
0
100
AcDbSymbolTable
 70
     0
  0
ENDTAB
  0
TABLE
  2
APPID
  5
9
330
0
100
AcDbSymbolTable
 70
     1
  0
APPID
  5
12
330
9
100
AcDbSymbolTableRecord
100
AcDbRegAppTableRecord
  2
ACAD
 70
     0
  0
ENDTAB
  0
TABLE
  2
DIMSTYLE
  5
A
330
0
100
AcDbSymbolTable
 70
     1
100
AcDbDimStyleTable
  0
DIMSTYLE
105
38C
330
A
100
AcDbSymbolTableRecord
100
AcDbDimStyleTableRecord
  2
STANDARD
 70
     0
340
11
  0
ENDTAB
  0
TABLE
  2
BLOCK_RECORD
  5
1
330
0
100
AcDbSymbolTable
 70
     1
  0
BLOCK_RECORD
  5
1E
330
1
100
AcDbSymbolTableRecord
100
AcDbBlockTableRecord
  2
*MODEL_SPACE
340
3B7
  0
BLOCK_RECORD
  5
1A
330
1
100
AcDbSymbolTableRecord
100
AcDbBlockTableRecord
  2
*PAPER_SPACE
340
3B8
  0
ENDTAB
  0
ENDSEC
  0
SECTION
  2
BLOCKS
  0
BLOCK
  5
1F
330
1E
100
AcDbEntity
  8
0
100
AcDbBlockBegin
  2
*MODEL_SPACE
 70
     0
 10
0.0
 20
0.0
 30
0.0
  3
*MODEL_SPACE
  1
*MODEL_SPACE
  0
ENDBLK
  5
20
330
1E
100
AcDbEntity
  8
0
100
AcDbBlockEnd
  0
BLOCK
  5
1B
330
1A
100
AcDbEntity
 67
     1
  8
0
100
AcDbBlockBegin
  2
*PAPER_SPACE
 70
     0
 10
0.0
 20
0.0
 30
0.0
  3
*PAPER_SPACE
  1
*PAPER_SPACE
  0
ENDBLK
  5
1C
330
1A
100
AcDbEntity
 67
     1
  8
0
100
AcDbBlockEnd
  0
ENDSEC
  0
SECTION
  2
ENTITIES
  0
LINE
  5
11A
330
1E
100
AcDbEntity
  8
0
100
AcDbLine
 10
365.996
 20
36.4962
 30
0.0
 11
366.004
 21
40.0512
 31
0.0
  0
LINE
  5
11B
330
1E
100
AcDbEntity
  8
0
100
AcDbLine
 10
365.996
 20
36.4962
 30
0.0
 11
367.062
 21
31.5422
 31
0.0
  0
LINE
  5
11C
330
1E
100
AcDbEntity
  8
0
100
AcDbLine
 10
366.004
 20
40.0512
 30
0.0
 11
367.069
 21
35.0972
 31
0.0
  0
LINE
  5
11D
330
1E
100
AcDbEntity
  8
0
100
AcDbLine
 10
366.004
 20
40.0512
 30
0.0
 11
366.112584006322
 21
40.556192097009
 31
0.0
  0
LINE
  5
11E
330
1E
100
AcDbEntity
  8
0
100
AcDbLine
 10
366.004
 20
40.0512
 30
0.0
 11
366.112584006322
 21
40.556192097009
 31
0.0
  0
LINE
  5
11F
330
1E
100
AcDbEntity
  8
0
100
AcDbLine
 10
370.097
 20
27.3412
 30
0.0
 11
374.638
 21
24.5342
 31
0.0
  0
LINE
  5
120
330
1E
100
AcDbEntity
  8
0
100
AcDbLine
 10
367.062
 20
31.5422
 30
0.0
 11
370.097
 21
27.3412
 31
0.0
  0
LINE
  5
121
330
1E
100
AcDbEntity
  8
0
100
AcDbLine
 10
370.104
 20
30.8972
 30
0.0
 11
374.646
 21
28.0892
 31
0.0
  0
LINE
  5
122
330
1E
100
AcDbEntity
  8
0
100
AcDbLine
 10
374.638
 20
24.5342
 30
0.0
 11
380.018
 21
23.5472
 31
0.0
  0
LINE
  5
123
330
1E
100
AcDbEntity
  8
0
100
AcDbLine
 10
380.018
 20
23.5472
 30
0.0
 11
385.354
 21
24.5302
 31
0.0
  0
LINE
  5
124
330
1E
100
AcDbEntity
  8
0
100
AcDbLine
 10
374.646
 20
28.0892
 30
0.0
 11
380.026
 21
27.1022
 31
0.0
  0
LINE
  5
125
330
1E
100
AcDbEntity
  8
0
100
AcDbLine
 10
380.026
 20
27.1022
 30
0.0
 11
385.361
 21
28.0862
 31
0.0
  0
LINE
  5
126
330
1E
100
AcDbEntity
  8
0
100
AcDbLine
 10
385.354
 20
24.5302
 30
0.0
 11
389.896
 21
27.3352
 31
0.0
  0
LINE
  5
127
330
1E
100
AcDbEntity
  8
0
100
AcDbLine
 10
389.896
 20
27.3352
 30
0.0
 11
392.93
 21
31.5342
 31
0.0
  0
LINE
  5
128
330
1E
100
AcDbEntity
  8
0
100
AcDbLine
 10
380.123
 20
27.1242
 30
0.0
 11
385.48
 21
28.1122
 31
0.0
  0
LINE
  5
129
330
1E
100
AcDbEntity
  8
0
100
AcDbLine
 10
392.93
 20
31.5342
 30
0.0
 11
393.996
 21
36.4972
 31
0.0
  0
LINE
  5
12A
330
1E
100
AcDbEntity
  8
0
100
AcDbLine
 10
390.019
 20
30.9172
 30
0.0
 11
393.051
 21
35.1122
 31
0.0
  0
LINE
  5
12B
330
1E
100
AcDbEntity
  8
0
100
AcDbLine
 10
385.48
 20
28.1122
 30
0.0
 11
390.019
 21
30.9172
 31
0.0
  0
LINE
  5
12C
330
1E
100
AcDbEntity
  8
0
100
AcDbLine
 10
374.764
 20
28.1032
 30
0.0
 11
380.123
 21
27.1242
 31
0.0
  0
LINE
  5
12D
330
1E
100
AcDbEntity
  8
0
100
AcDbLine
 10
370.221
 20
30.9012
 30
0.0
 11
374.764
 21
28.1032
 31
0.0
  0
LINE
  5
12E
330
1E
100
AcDbEntity
  8
0
100
AcDbLine
 10
367.069
 20
35.0972
 30
0.0
 11
370.104
 21
30.8972
 31
0.0
  0
LINE
  5
12F
330
1E
100
AcDbEntity
  8
0
100
AcDbLine
 10
393.996
 20
36.4972
 30
0.0
 11
394.002857227266
 21
39.545237519829
 31
0.0
  0
LINE
  5
130
330
1E
100
AcDbEntity
  8
0
100
AcDbLine
 10
393.051
 20
35.1122
 30
0.0
 11
394.113
 21
40.0582
 31
0.0
  0
LINE
  5
131
330
1E
100
AcDbEntity
  8
0
100
AcDbLine
 10
367.182
 20
35.0912
 30
0.0
 11
370.221
 21
30.9012
 31
0.0
  0
LINE
  5
132
330
1E
100
AcDbEntity
  8
0
100
AcDbLine
 10
366.113
 20
40.0362
 30
0.0
 11
367.182
 21
35.0912
 31
0.0
  0
LINE
  5
133
330
1E
100
AcDbEntity
  8
0
100
AcDbLine
 10
394.109
 20
45.0582
 30
0.0
 11
394.113
 21
40.0582
 31
0.0
  0
LINE
  5
134
330
1E
100
AcDbEntity
  8
0
100
AcDbLine
 10
366.109
 20
45.0362
 30
0.0
 11
366.113
 21
40.0362
 31
0.0
  0
LINE
  5
135
330
1E
100
AcDbEntity
  8
0
100
AcDbLine
 10
366.102
 20
53.5362
 30
0.0
 11
366.109
 21
45.0362
 31
0.0
  0
LINE
  5
136
330
1E
100
AcDbEntity
  8
0
100
AcDbLine
 10
394.102
 20
53.5582
 30
0.0
 11
395.094
 21
64.0592
 31
0.0
  0
LINE
  5
137
330
1E
100
AcDbEntity
  8
0
100
AcDbLine
 10
394.102
 20
53.5582
 30
0.0
 11
394.109
 21
45.0582
 31
0.0
  0
LINE
  5
139
330
1E
100
AcDbEntity
  8
0
100
AcDbLine
 10
365.094
 20
64.0352
 30
0.0
 11
366.102
 21
53.5362
 31
0.0
  0
LINE
  5
13A
330
1E
100
AcDbEntity
  8
0
100
AcDbLine
 10
395.094
 20
64.0592
 30
0.0
 11
396.085
 21
75.0602
 31
0.0
  0
LINE
  5
13B
330
1E
100
AcDbEntity
  8
0
100
AcDbLine
 10
364.085
 20
75.0342
 30
0.0
 11
365.094
 21
64.0352
 31
0.0
  0
LINE
  5
13C
330
1E
100
AcDbEntity
  8
0
100
AcDbLine
 10
396.085
 20
75.0602
 30
0.0
 11
397.075
 21
86.8602
 31
0.0
  0
LINE
  5
13F
330
1E
100
AcDbEntity
  8
0
100
AcDbLine
 10
363.075
 20
86.8332
 30
0.0
 11
364.085
 21
75.0342
 31
0.0
  0
LINE
  5
140
330
1E
100
AcDbEntity
  8
0
100
AcDbLine
 10
397.075
 20
86.8602
 30
0.0
 11
398.067
 21
97.0612
 31
0.0
  0
LINE
  5
143
330
1E
100
AcDbEntity
  8
0
100
AcDbLine
 10
362.067
 20
97.0332
 30
0.0
 11
363.075
 21
86.8332
 31
0.0
  0
LINE
  5
144
330
1E
100
AcDbEntity
  8
0
100
AcDbLine
 10
398.067
 20
97.0612
 30
0.0
 11
399.061
 21
105.0622
 31
0.0
  0
LINE
  5
145
330
1E
100
AcDbEntity
  8
0
100
AcDbLine
 10
361.061
 20
105.0322
 30
0.0
 11
362.067
 21
97.0332
 31
0.0
  0
LINE
  5
146
330
1E
100
AcDbEntity
  8
0
100
AcDbLine
 10
399.061
 20
105.0622
 30
0.0
 11
400.056
 21
111.5632
 31
0.0
  0
LINE
  5
147
330
1E
100
AcDbEntity
  8
0
100
AcDbLine
 10
360.056
 20
111.5312
 30
0.0
 11
361.061
 21
105.0322
 31
0.0
  0
LINE
  5
148
330
1E
100
AcDbEntity
  8
0
100
AcDbLine
 10
400.056
 20
111.5632
 30
0.0
 11
401.048
 21
121.0632
 31
0.0
  0
LINE
  5
149
330
1E
100
AcDbEntity
  8
0
100
AcDbLine
 10
359.048
 20
121.0302
 30
0.0
 11
360.056
 21
111.5312
 31
0.0
  0
LINE
  5
14A
330
1E
100
AcDbEntity
  8
0
100
AcDbLine
 10
401.048
 20
121.0632
 30
0.0
 11
402.041
 21
130.5642
 31
0.0
  0
LINE
  5
14B
330
1E
100
AcDbEntity
  8
0
100
AcDbLine
 10
358.041
 20
130.5292
 30
0.0
 11
359.048
 21
121.0302
 31
0.0
  0
LINE
  5
14C
330
1E
100
AcDbEntity
  8
0
100
AcDbLine
 10
402.041
 20
130.5642
 30
0.0
 11
403.033
 21
140.0652
 31
0.0
  0
LINE
  5
14D
330
1E
100
AcDbEntity
  8
0
100
AcDbLine
 10
357.033
 20
140.0282
 30
0.0
 11
358.041
 21
130.5292
 31
0.0
  0
LINE
  5
14E
330
1E
100
AcDbEntity
  8
0
100
AcDbLine
 10
403.033
 20
140.0652
 30
0.0
 11
404.527
 21
148.0662
 31
0.0
  0
LINE
  5
14F
330
1E
100
AcDbEntity
  8
0
100
AcDbLine
 10
270.0
 20
142.1722
 30
0.0
 11
279.0
 21
143.4722
 31
0.0
  0
LINE
  5
150
330
1E
100
AcDbEntity
  8
0
100
AcDbLine
 10
270.0
 20
142.1722
 30
0.0
 11
279.0
 21
143.4722
 31
0.0
  0
LINE
  5
151
330
1E
100
AcDbEntity
  8
0
100
AcDbLine
 10
160.0
 20
142.1722
 30
0.0
 11
169.0
 21
143.4722
 31
0.0
  0
LINE
  5
152
330
1E
100
AcDbEntity
  8
0
100
AcDbLine
 10
160.0
 20
142.1722
 30
0.0
 11
169.0
 21
143.4722
 31
0.0
  0
LINE
  5
156
330
1E
100
AcDbEntity
  8
0
100
AcDbLine
 10
261.0
 20
143.4722
 30
0.0
 11
270.0
 21
142.1722
 31
0.0
  0
LINE
  5
157
330
1E
100
AcDbEntity
  8
0
100
AcDbLine
 10
261.0
 20
143.4722
 30
0.0
 11
270.0
 21
142.1722
 31
0.0
  0
LINE
  5
158
330
1E
100
AcDbEntity
  8
0
100
AcDbLine
 10
270.0
 20
143.1722
 30
0.0
 11
278.7
 21
144.3722
 31
0.0
  0
LINE
  5
159
330
1E
100
AcDbEntity
  8
0
100
AcDbLine
 10
279.0
 20
143.4722
 30
0.0
 11
287.4
 21
146.8722
 31
0.0
  0
LINE
  5
15A
330
1E
100
AcDbEntity
  8
0
100
AcDbLine
 10
160.0
 20
143.1722
 30
0.0
 11
168.7
 21
144.3722
 31
0.0
  0
LINE
  5
15B
330
1E
100
AcDbEntity
  8
0
100
AcDbLine
 10
169.0
 20
143.4722
 30
0.0
 11
177.4
 21
146.8722
 31
0.0
  0
LINE
  5
15C
330
1E
100
AcDbEntity
  8
0
100
AcDbLine
 10
151.0
 20
143.4722
 30
0.0
 11
160.0
 21
142.1722
 31
0.0
  0
LINE
  5
15D
330
1E
100
AcDbEntity
  8
0
100
AcDbLine
 10
151.0
 20
143.4722
 30
0.0
 11
160.0
 21
142.1722
 31
0.0
  0
LINE
  5
160
330
1E
100
AcDbEntity
  8
0
100
AcDbLine
 10
261.3
 20
144.3722
 30
0.0
 11
270.0
 21
143.1722
 31
0.0
  0
LINE
  5
161
330
1E
100
AcDbEntity
  8
0
100
AcDbLine
 10
278.7
 20
144.3722
 30
0.0
 11
286.9
 21
147.7722
 31
0.0
  0
LINE
  5
162
330
1E
100
AcDbEntity
  8
0
100
AcDbLine
 10
168.7
 20
144.3722
 30
0.0
 11
176.9
 21
147.7722
 31
0.0
  0
LINE
  5
163
330
1E
100
AcDbEntity
  8
0
100
AcDbLine
 10
151.3
 20
144.3722
 30
0.0
 11
160.0
 21
143.1722
 31
0.0
  0
LINE
  5
182
330
1E
100
AcDbEntity
  8
0
100
AcDbLine
 10
158.0
 20
145.1722
 30
0.0
 11
158.072
 21
145.1722
 31
0.0
  0
LINE
  5
183
330
1E
100
AcDbEntity
  8
0
100
AcDbLine
 10
158.0
 20
145.1722
 30
0.0
 11
158.0
 21
150.462055072464
 31
0.0
  0
LINE
  5
184
330
1E
100
AcDbEntity
  8
0
100
AcDbLine
 10
158.072
 20
145.1722
 30
0.0
 11
158.264
 21
145.1722
 31
0.0
  0
LINE
  5
185
330
1E
100
AcDbEntity
  8
0
100
AcDbLine
 10
158.264
 20
145.1722
 30
0.0
 11
158.584
 21
145.1722
 31
0.0
  0
LINE
  5
186
330
1E
100
AcDbEntity
  8
0
100
AcDbLine
 10
158.584
 20
145.1722
 30
0.0
 11
159.008
 21
145.1722
 31
0.0
  0
LINE
  5
187
330
1E
100
AcDbEntity
  8
0
100
AcDbLine
 10
268.0
 20
145.1722
 30
0.0
 11
268.072
 21
145.1722
 31
0.0
  0
LINE
  5
188
330
1E
100
AcDbEntity
  8
0
100
AcDbLine
 10
268.0
 20
145.1722
 30
0.0
 11
268.0
 21
150.462055072464
 31
0.0
  0
LINE
  5
189
330
1E
100
AcDbEntity
  8
0
100
AcDbLine
 10
268.072
 20
145.1722
 30
0.0
 11
268.264
 21
145.1722
 31
0.0
  0
LINE
  5
18A
330
1E
100
AcDbEntity
  8
0
100
AcDbLine
 10
268.264
 20
145.1722
 30
0.0
 11
268.584
 21
145.1722
 31
0.0
  0
LINE
  5
18B
330
1E
100
AcDbEntity
  8
0
100
AcDbLine
 10
268.584
 20
145.1722
 30
0.0
 11
269.008
 21
145.1722
 31
0.0
  0
LINE
  5
18C
330
1E
100
AcDbEntity
  8
0
100
AcDbLine
 10
269.008
 20
145.1722
 30
0.0
 11
269.488
 21
145.1722
 31
0.0
  0
LINE
  5
18D
330
1E
100
AcDbEntity
  8
0
100
AcDbLine
 10
272.0
 20
145.1722
 30
0.0
 11
272.0
 21
150.462055072464
 31
0.0
  0
LINE
  5
18E
330
1E
100
AcDbEntity
  8
0
100
AcDbLine
 10
271.928
 20
145.1722
 30
0.0
 11
272.0
 21
145.1722
 31
0.0
  0
LINE
  5
18F
330
1E
100
AcDbEntity
  8
0
100
AcDbLine
 10
271.736
 20
145.1722
 30
0.0
 11
271.928
 21
145.1722
 31
0.0
  0
LINE
  5
190
330
1E
100
AcDbEntity
  8
0
100
AcDbLine
 10
271.416
 20
145.1722
 30
0.0
 11
271.736
 21
145.1722
 31
0.0
  0
LINE
  5
191
330
1E
100
AcDbEntity
  8
0
100
AcDbLine
 10
270.992
 20
145.1722
 30
0.0
 11
271.416
 21
145.1722
 31
0.0
  0
LINE
  5
192
330
1E
100
AcDbEntity
  8
0
100
AcDbLine
 10
270.512
 20
145.1722
 30
0.0
 11
270.992
 21
145.1722
 31
0.0
  0
LINE
  5
193
330
1E
100
AcDbEntity
  8
0
100
AcDbLine
 10
270.0
 20
145.1722
 30
0.0
 11
270.512
 21
145.1722
 31
0.0
  0
LINE
  5
194
330
1E
100
AcDbEntity
  8
0
100
AcDbLine
 10
269.488
 20
145.1722
 30
0.0
 11
270.0
 21
145.1722
 31
0.0
  0
LINE
  5
195
330
1E
100
AcDbEntity
  8
0
100
AcDbLine
 10
162.0
 20
145.1722
 30
0.0
 11
162.0
 21
150.462055072464
 31
0.0
  0
LINE
  5
196
330
1E
100
AcDbEntity
  8
0
100
AcDbLine
 10
161.928
 20
145.1722
 30
0.0
 11
162.0
 21
145.1722
 31
0.0
  0
LINE
  5
197
330
1E
100
AcDbEntity
  8
0
100
AcDbLine
 10
161.736
 20
145.1722
 30
0.0
 11
161.928
 21
145.1722
 31
0.0
  0
LINE
  5
198
330
1E
100
AcDbEntity
  8
0
100
AcDbLine
 10
161.416
 20
145.1722
 30
0.0
 11
161.736
 21
145.1722
 31
0.0
  0
LINE
  5
199
330
1E
100
AcDbEntity
  8
0
100
AcDbLine
 10
160.992
 20
145.1722
 30
0.0
 11
161.416
 21
145.1722
 31
0.0
  0
LINE
  5
19A
330
1E
100
AcDbEntity
  8
0
100
AcDbLine
 10
160.512
 20
145.1722
 30
0.0
 11
160.992
 21
145.1722
 31
0.0
  0
LINE
  5
19B
330
1E
100
AcDbEntity
  8
0
100
AcDbLine
 10
160.0
 20
145.1722
 30
0.0
 11
160.512
 21
145.1722
 31
0.0
  0
LINE
  5
19C
330
1E
100
AcDbEntity
  8
0
100
AcDbLine
 10
159.008
 20
145.1722
 30
0.0
 11
159.488
 21
145.1722
 31
0.0
  0
LINE
  5
19D
330
1E
100
AcDbEntity
  8
0
100
AcDbLine
 10
159.488
 20
145.1722
 30
0.0
 11
160.0
 21
145.1722
 31
0.0
  0
LINE
  5
19F
330
1E
100
AcDbEntity
  8
0
100
AcDbLine
 10
176.9
 20
147.7722
 30
0.0
 11
184.0
 21
153.1722
 31
0.0
  0
LINE
  5
1A0
330
1E
100
AcDbEntity
  8
0
100
AcDbLine
 10
252.6
 20
146.8722
 30
0.0
 11
261.0
 21
143.4722
 31
0.0
  0
LINE
  5
1A1
330
1E
100
AcDbEntity
  8
0
100
AcDbLine
 10
253.1
 20
147.7722
 30
0.0
 11
261.3
 21
144.3722
 31
0.0
  0
LINE
  5
1A2
330
1E
100
AcDbEntity
  8
0
100
AcDbLine
 10
286.9
 20
147.7722
 30
0.0
 11
294.0
 21
153.1722
 31
0.0
  0
LINE
  5
1A3
330
1E
100
AcDbEntity
  8
0
100
AcDbLine
 10
287.4
 20
146.8722
 30
0.0
 11
294.7
 21
152.4722
 31
0.0
  0
LINE
  5
1A4
330
1E
100
AcDbEntity
  8
0
100
AcDbLine
 10
177.4
 20
146.8722
 30
0.0
 11
184.7
 21
152.4722
 31
0.0
  0
LINE
  5
1A5
330
1E
100
AcDbEntity
  8
0
100
AcDbLine
 10
355.527
 20
148.0272
 30
0.0
 11
357.033
 21
140.0282
 31
0.0
  0
LINE
  5
1A6
330
1E
100
AcDbEntity
  8
0
100
AcDbLine
 10
143.1
 20
147.7722
 30
0.0
 11
151.3
 21
144.3722
 31
0.0
  0
LINE
  5
1A7
330
1E
100
AcDbEntity
  8
0
100
AcDbLine
 10
142.6
 20
146.8722
 30
0.0
 11
151.0
 21
143.4722
 31
0.0
  0
LINE
  5
1AA
330
1E
100
AcDbEntity
  8
0
100
AcDbLine
 10
404.527
 20
148.0662
 30
0.0
 11
405.77
 21
156.5672
 31
0.0
  0
LINE
  5
1AD
330
1E
100
AcDbEntity
  8
0
100
AcDbLine
 10
158.0
 20
150.462055072464
 30
0.0
 11
158.0
 21
145.1722
 31
0.0
  0
LINE
  5
1AE
330
1E
100
AcDbEntity
  8
0
100
AcDbLine
 10
160.0
 20
150.6722
 30
0.0
 11
166.8
 21
151.6722
 31
0.0
  0
LINE
  5
1AF
330
1E
100
AcDbEntity
  8
0
100
AcDbLine
 10
268.0
 20
150.462055072464
 30
0.0
 11
268.0
 21
145.1722
 31
0.0
  0
LINE
  5
1B0
330
1E
100
AcDbEntity
  8
0
100
AcDbLine
 10
272.0
 20
150.462055072464
 30
0.0
 11
272.0
 21
145.1722
 31
0.0
  0
LINE
  5
1B1
330
1E
100
AcDbEntity
  8
0
100
AcDbLine
 10
270.0
 20
150.1722
 30
0.0
 11
276.9
 21
151.1722
 31
0.0
  0
LINE
  5
1B2
330
1E
100
AcDbEntity
  8
0
100
AcDbLine
 10
270.0
 20
150.6722
 30
0.0
 11
276.8
 21
151.6722
 31
0.0
  0
LINE
  5
1B3
330
1E
100
AcDbEntity
  8
0
100
AcDbLine
 10
162.0
 20
150.462055072464
 30
0.0
 11
162.0
 21
145.1722
 31
0.0
  0
LINE
  5
1B4
330
1E
100
AcDbEntity
  8
0
100
AcDbLine
 10
160.0
 20
150.1722
 30
0.0
 11
166.9
 21
151.1722
 31
0.0
  0
LINE
  5
1B5
330
1E
100
AcDbEntity
  8
0
100
AcDbLine
 10
166.8
 20
151.6722
 30
0.0
 11
173.2
 21
154.1722
 31
0.0
  0
LINE
  5
1B6
330
1E
100
AcDbEntity
  8
0
100
AcDbLine
 10
263.1
 20
151.1722
 30
0.0
 11
270.0
 21
150.1722
 31
0.0
  0
LINE
  5
1B7
330
1E
100
AcDbEntity
  8
0
100
AcDbLine
 10
263.2
 20
151.6722
 30
0.0
 11
270.0
 21
150.6722
 31
0.0
  0
LINE
  5
1B8
330
1E
100
AcDbEntity
  8
0
100
AcDbLine
 10
276.8
 20
151.6722
 30
0.0
 11
283.2
 21
154.1722
 31
0.0
  0
LINE
  5
1B9
330
1E
100
AcDbEntity
  8
0
100
AcDbLine
 10
276.9
 20
151.1722
 30
0.0
 11
283.4
 21
153.7722
 31
0.0
  0
LINE
  5
1BA
330
1E
100
AcDbEntity
  8
0
100
AcDbLine
 10
276.9
 20
151.1722
 30
0.0
 11
283.4
 21
153.7722
 31
0.0
  0
LINE
  5
1BB
330
1E
100
AcDbEntity
  8
0
100
AcDbLine
 10
166.9
 20
151.1722
 30
0.0
 11
173.4
 21
153.7722
 31
0.0
  0
LINE
  5
1BC
330
1E
100
AcDbEntity
  8
0
100
AcDbLine
 10
166.9
 20
151.1722
 30
0.0
 11
173.4
 21
153.7722
 31
0.0
  0
LINE
  5
1BD
330
1E
100
AcDbEntity
  8
0
100
AcDbLine
 10
153.2
 20
151.6722
 30
0.0
 11
160.0
 21
150.6722
 31
0.0
  0
LINE
  5
1BE
330
1E
100
AcDbEntity
  8
0
100
AcDbLine
 10
153.1
 20
151.1722
 30
0.0
 11
160.0
 21
150.1722
 31
0.0
  0
LINE
  5
1D3
330
1E
100
AcDbEntity
  8
0
100
AcDbLine
 10
184.0
 20
153.1722
 30
0.0
 11
189.4
 21
160.2722
 31
0.0
  0
LINE
  5
1D4
330
1E
100
AcDbEntity
  8
0
100
AcDbLine
 10
245.3
 20
152.4722
 30
0.0
 11
252.6
 21
146.8722
 31
0.0
  0
LINE
  5
1D5
330
1E
100
AcDbEntity
  8
0
100
AcDbLine
 10
246.0
 20
153.1722
 30
0.0
 11
253.1
 21
147.7722
 31
0.0
  0
LINE
  5
1D6
330
1E
100
AcDbEntity
  8
0
100
AcDbLine
 10
294.0
 20
153.1722
 30
0.0
 11
299.4
 21
160.2722
 31
0.0
  0
LINE
  5
1D7
330
1E
100
AcDbEntity
  8
0
100
AcDbLine
 10
294.7
 20
152.4722
 30
0.0
 11
300.3
 21
159.7722
 31
0.0
  0
LINE
  5
1D8
330
1E
100
AcDbEntity
  8
0
100
AcDbLine
 10
184.7
 20
152.4722
 30
0.0
 11
190.3
 21
159.7722
 31
0.0
  0
LINE
  5
1D9
330
1E
100
AcDbEntity
  8
0
100
AcDbLine
 10
256.6
 20
153.7722
 30
0.0
 11
263.1
 21
151.1722
 31
0.0
  0
LINE
  5
1DA
330
1E
100
AcDbEntity
  8
0
100
AcDbLine
 10
173.2
 20
154.1722
 30
0.0
 11
178.7
 21
158.4722
 31
0.0
  0
LINE
  5
1DB
330
1E
100
AcDbEntity
  8
0
100
AcDbLine
 10
256.6
 20
153.7722
 30
0.0
 11
263.1
 21
151.1722
 31
0.0
  0
LINE
  5
1DC
330
1E
100
AcDbEntity
  8
0
100
AcDbLine
 10
256.8
 20
154.1722
 30
0.0
 11
263.2
 21
151.6722
 31
0.0
  0
LINE
  5
1DD
330
1E
100
AcDbEntity
  8
0
100
AcDbLine
 10
283.2
 20
154.1722
 30
0.0
 11
288.7
 21
158.4722
 31
0.0
  0
LINE
  5
1DE
330
1E
100
AcDbEntity
  8
0
100
AcDbLine
 10
283.4
 20
153.7722
 30
0.0
 11
289.0
 21
158.1722
 31
0.0
  0
LINE
  5
1DF
330
1E
100
AcDbEntity
  8
0
100
AcDbLine
 10
173.4
 20
153.7722
 30
0.0
 11
179.0
 21
158.1722
 31
0.0
  0
LINE
  5
1E0
330
1E
100
AcDbEntity
  8
0
100
AcDbLine
 10
354.27
 20
156.5262
 30
0.0
 11
355.527
 21
148.0272
 31
0.0
  0
LINE
  5
1E1
330
1E
100
AcDbEntity
  8
0
100
AcDbLine
 10
146.8
 20
154.1722
 30
0.0
 11
153.2
 21
151.6722
 31
0.0
  0
LINE
  5
1E2
330
1E
100
AcDbEntity
  8
0
100
AcDbLine
 10
146.6
 20
153.7722
 30
0.0
 11
153.1
 21
151.1722
 31
0.0
  0
LINE
  5
1E3
330
1E
100
AcDbEntity
  8
0
100
AcDbLine
 10
146.6
 20
153.7722
 30
0.0
 11
153.1
 21
151.1722
 31
0.0
  0
LINE
  5
1E4
330
1E
100
AcDbEntity
  8
0
100
AcDbLine
 10
405.77
 20
156.5672
 30
0.0
 11
407.016
 21
162.0682
 31
0.0
  0
LINE
  5
1E5
330
1E
100
AcDbEntity
  8
0
100
AcDbLine
 10
405.576712009946
 20
155.245284309374
 30
0.0
 11
409.4
 21
160.2722
 31
0.0
  0
LINE
  5
1E6
330
1E
100
AcDbEntity
  8
0
100
AcDbLine
 10
405.282209349704
 20
153.231151473722
 30
0.0
 11
410.3
 21
159.7722
 31
0.0
  0
LINE
  5
1E7
330
1E
100
AcDbEntity
  8
0
100
AcDbLine
 10
136.0
 20
153.1722
 30
0.0
 11
143.1
 21
147.7722
 31
0.0
  0
LINE
  5
1E8
330
1E
100
AcDbEntity
  8
0
100
AcDbLine
 10
135.3
 20
152.4722
 30
0.0
 11
142.6
 21
146.8722
 31
0.0
  0
LINE
  5
1EB
330
1E
100
AcDbEntity
  8
0
100
AcDbLine
 10
405.945499092851
 20
157.342015818438
 30
0.0
 11
406.35
 21
158.3812
 31
0.0
  0
LINE
  5
1EE
330
1E
100
AcDbEntity
  8
0
100
AcDbLine
 10
178.7
 20
158.4722
 30
0.0
 11
183.0
 21
163.9722
 31
0.0
  0
LINE
  5
1EF
330
1E
100
AcDbEntity
  8
0
100
AcDbLine
 10
251.0
 20
158.1722
 30
0.0
 11
256.6
 21
153.7722
 31
0.0
  0
LINE
  5
1F0
330
1E
100
AcDbEntity
  8
0
100
AcDbLine
 10
251.0
 20
158.1722
 30
0.0
 11
256.6
 21
153.7722
 31
0.0
  0
LINE
  5
1F1
330
1E
100
AcDbEntity
  8
0
100
AcDbLine
 10
251.3
 20
158.4722
 30
0.0
 11
256.8
 21
154.1722
 31
0.0
  0
LINE
  5
1F2
330
1E
100
AcDbEntity
  8
0
100
AcDbLine
 10
353.687
 20
158.3392
 30
0.0
 11
354.093612432291
 21
157.29968902299
 31
0.0
  0
LINE
  5
1F3
330
1E
100
AcDbEntity
  8
0
100
AcDbLine
 10
406.35
 20
158.3812
 30
0.0
 11
406.833213145219
 21
159.877009638459
 31
0.0
  0
LINE
  5
1F4
330
1E
100
AcDbEntity
  8
0
100
AcDbLine
 10
288.7
 20
158.4722
 30
0.0
 11
293.0
 21
163.9722
 31
0.0
  0
LINE
  5
1F5
330
1E
100
AcDbEntity
  8
0
100
AcDbLine
 10
289.0
 20
158.1722
 30
0.0
 11
293.4
 21
163.7722
 31
0.0
  0
LINE
  5
1F6
330
1E
100
AcDbEntity
  8
0
100
AcDbLine
 10
289.0
 20
158.1722
 30
0.0
 11
293.4
 21
163.7722
 31
0.0
  0
LINE
  5
1F7
330
1E
100
AcDbEntity
  8
0
100
AcDbLine
 10
179.0
 20
158.1722
 30
0.0
 11
183.4
 21
163.7722
 31
0.0
  0
LINE
  5
1F8
330
1E
100
AcDbEntity
  8
0
100
AcDbLine
 10
179.0
 20
158.1722
 30
0.0
 11
183.4
 21
163.7722
 31
0.0
  0
LINE
  5
1F9
330
1E
100
AcDbEntity
  8
0
100
AcDbLine
 10
239.7
 20
159.7722
 30
0.0
 11
245.3
 21
152.4722
 31
0.0
  0
LINE
  5
1FA
330
1E
100
AcDbEntity
  8
0
100
AcDbLine
 10
300.3
 20
159.7722
 30
0.0
 11
303.7
 21
168.1722
 31
0.0
  0
LINE
  5
1FB
330
1E
100
AcDbEntity
  8
0
100
AcDbLine
 10
141.3
 20
158.4722
 30
0.0
 11
146.8
 21
154.1722
 31
0.0
  0
LINE
  5
1FC
330
1E
100
AcDbEntity
  8
0
100
AcDbLine
 10
141.0
 20
158.1722
 30
0.0
 11
146.6
 21
153.7722
 31
0.0
  0
LINE
  5
1FD
330
1E
100
AcDbEntity
  8
0
100
AcDbLine
 10
141.0
 20
158.1722
 30
0.0
 11
146.6
 21
153.7722
 31
0.0
  0
LINE
  5
1FE
330
1E
100
AcDbEntity
  8
0
100
AcDbLine
 10
349.7
 20
159.7722
 30
0.0
 11
354.766782361531
 21
153.167287278719
 31
0.0
  0
LINE
  5
1FF
330
1E
100
AcDbEntity
  8
0
100
AcDbLine
 10
410.3
 20
159.7722
 30
0.0
 11
413.7
 21
168.1722
 31
0.0
  0
LINE
  5
200
330
1E
100
AcDbEntity
  8
0
100
AcDbLine
 10
406.833213145219
 20
159.877009638459
 30
0.0
 11
410.04
 21
164.5302
 31
0.0
  0
LINE
  5
202
330
1E
100
AcDbEntity
  8
0
100
AcDbLine
 10
190.3
 20
159.7722
 30
0.0
 11
193.7
 21
168.1722
 31
0.0
  0
LINE
  5
203
330
1E
100
AcDbEntity
  8
0
100
AcDbLine
 10
129.7
 20
159.7722
 30
0.0
 11
135.3
 21
152.4722
 31
0.0
  0
LINE
  5
211
330
1E
100
AcDbEntity
  8
0
100
AcDbLine
 10
240.6
 20
160.2722
 30
0.0
 11
246.0
 21
153.1722
 31
0.0
  0
LINE
  5
212
330
1E
100
AcDbEntity
  8
0
100
AcDbLine
 10
299.4
 20
160.2722
 30
0.0
 11
302.8
 21
168.4722
 31
0.0
  0
LINE
  5
213
330
1E
100
AcDbEntity
  8
0
100
AcDbLine
 10
350.6
 20
160.2722
 30
0.0
 11
354.468176089197
 21
155.186264771612
 31
0.0
  0
LINE
  5
214
330
1E
100
AcDbEntity
  8
0
100
AcDbLine
 10
409.4
 20
160.2722
 30
0.0
 11
412.8
 21
168.4722
 31
0.0
  0
LINE
  5
215
330
1E
100
AcDbEntity
  8
0
100
AcDbLine
 10
189.4
 20
160.2722
 30
0.0
 11
192.8
 21
168.4722
 31
0.0
  0
LINE
  5
217
330
1E
100
AcDbEntity
  8
0
100
AcDbLine
 10
353.200785301133
 20
159.835649127182
 30
0.0
 11
353.687
 21
158.3392
 31
0.0
  0
LINE
  5
219
330
1E
100
AcDbEntity
  8
0
100
AcDbLine
 10
353.016
 20
162.0252
 30
0.0
 11
354.27
 21
156.5262
 31
0.0
  0
LINE
  5
21C
330
1E
100
AcDbEntity
  8
0
100
AcDbLine
 10
130.6
 20
160.2722
 30
0.0
 11
136.0
 21
153.1722
 31
0.0
  0
LINE
  5
21E
330
1E
100
AcDbEntity
  8
0
100
AcDbLine
 10
136.6
 20
163.7722
 30
0.0
 11
141.0
 21
158.1722
 31
0.0
  0
LINE
  5
21F
330
1E
100
AcDbEntity
  8
0
100
AcDbLine
 10
246.6
 20
163.7722
 30
0.0
 11
251.0
 21
158.1722
 31
0.0
  0
LINE
  5
220
330
1E
100
AcDbEntity
  8
0
100
AcDbLine
 10
293.4
 20
163.7722
 30
0.0
 11
296.0
 21
170.2722
 31
0.0
  0
LINE
  5
221
330
1E
100
AcDbEntity
  8
0
100
AcDbLine
 10
183.4
 20
163.7722
 30
0.0
 11
186.0
 21
170.2722
 31
0.0
  0
LINE
  5
222
330
1E
100
AcDbEntity
  8
0
100
AcDbLine
 10
183.4
 20
163.7722
 30
0.0
 11
186.0
 21
170.2722
 31
0.0
  0
LINE
  5
223
330
1E
100
AcDbEntity
  8
0
100
AcDbLine
 10
136.6
 20
163.7722
 30
0.0
 11
141.0
 21
158.1722
 31
0.0
  0
LINE
  5
226
330
1E
100
AcDbEntity
  8
0
100
AcDbLine
 10
183.0
 20
163.9722
 30
0.0
 11
185.5
 21
170.3722
 31
0.0
  0
LINE
  5
227
330
1E
100
AcDbEntity
  8
0
100
AcDbLine
 10
137.0
 20
163.9722
 30
0.0
 11
141.3
 21
158.4722
 31
0.0
  0
LINE
  5
228
330
1E
100
AcDbEntity
  8
0
100
AcDbLine
 10
247.0
 20
163.9722
 30
0.0
 11
251.3
 21
158.4722
 31
0.0
  0
LINE
  5
229
330
1E
100
AcDbEntity
  8
0
100
AcDbLine
 10
236.3
 20
168.1722
 30
0.0
 11
239.7
 21
159.7722
 31
0.0
  0
LINE
  5
22A
330
1E
100
AcDbEntity
  8
0
100
AcDbLine
 10
303.7
 20
168.1722
 30
0.0
 11
305.0
 21
177.1722
 31
0.0
  0
LINE
  5
22B
330
1E
100
AcDbEntity
  8
0
100
AcDbLine
 10
293.0
 20
163.9722
 30
0.0
 11
295.5
 21
170.3722
 31
0.0
  0
LINE
  5
22D
330
1E
100
AcDbEntity
  8
0
100
AcDbLine
 10
410.04
 20
164.5302
 30
0.0
 11
412.504
 21
176.5722
 31
0.0
  0
LINE
  5
22E
330
1E
100
AcDbEntity
  8
0
100
AcDbLine
 10
349.987
 20
164.4832
 30
0.0
 11
353.200785301133
 21
159.835649127182
 31
0.0
  0
LINE
  5
22F
330
1E
100
AcDbEntity
  8
0
100
AcDbLine
 10
346.3
 20
168.1722
 30
0.0
 11
349.7
 21
159.7722
 31
0.0
  0
LINE
  5
230
330
1E
100
AcDbEntity
  8
0
100
AcDbLine
 10
413.7
 20
168.1722
 30
0.0
 11
415.0
 21
177.1722
 31
0.0
  0
LINE
  5
231
330
1E
100
AcDbEntity
  8
0
100
AcDbLine
 10
193.7
 20
168.1722
 30
0.0
 11
195.0
 21
177.1722
 31
0.0
  0
LINE
  5
232
330
1E
100
AcDbEntity
  8
0
100
AcDbLine
 10
237.2
 20
168.4722
 30
0.0
 11
240.6
 21
160.2722
 31
0.0
  0
LINE
  5
233
330
1E
100
AcDbEntity
  8
0
100
AcDbLine
 10
302.8
 20
168.4722
 30
0.0
 11
304.0
 21
177.1722
 31
0.0
  0
LINE
  5
234
330
1E
100
AcDbEntity
  8
0
100
AcDbLine
 10
347.2
 20
168.4722
 30
0.0
 11
350.6
 21
160.2722
 31
0.0
  0
LINE
  5
235
330
1E
100
AcDbEntity
  8
0
100
AcDbLine
 10
412.8
 20
168.4722
 30
0.0
 11
414.0
 21
177.1722
 31
0.0
  0
LINE
  5
236
330
1E
100
AcDbEntity
  8
0
100
AcDbLine
 10
192.8
 20
168.4722
 30
0.0
 11
194.0
 21
177.1722
 31
0.0
  0
LINE
  5
237
330
1E
100
AcDbEntity
  8
0
100
AcDbLine
 10
127.2
 20
168.4722
 30
0.0
 11
130.6
 21
160.2722
 31
0.0
  0
LINE
  5
238
330
1E
100
AcDbEntity
  8
0
100
AcDbLine
 10
126.3
 20
168.1722
 30
0.0
 11
129.7
 21
159.7722
 31
0.0
  0
LINE
  5
23B
330
1E
100
AcDbEntity
  8
0
100
AcDbLine
 10
244.0
 20
170.2722
 30
0.0
 11
246.6
 21
163.7722
 31
0.0
  0
LINE
  5
23C
330
1E
100
AcDbEntity
  8
0
100
AcDbLine
 10
244.0
 20
170.2722
 30
0.0
 11
246.6
 21
163.7722
 31
0.0
  0
LINE
  5
23D
330
1E
100
AcDbEntity
  8
0
100
AcDbLine
 10
296.0
 20
170.2722
 30
0.0
 11
296.710144927536
 21
175.1722
 31
0.0
  0
LINE
  5
23E
330
1E
100
AcDbEntity
  8
0
100
AcDbLine
 10
296.0
 20
170.2722
 30
0.0
 11
297.0
 21
177.1722
 31
0.0
  0
LINE
  5
23F
330
1E
100
AcDbEntity
  8
0
100
AcDbLine
 10
186.0
 20
170.2722
 30
0.0
 11
187.0
 21
177.1722
 31
0.0
  0
LINE
  5
240
330
1E
100
AcDbEntity
  8
0
100
AcDbLine
 10
134.0
 20
170.2722
 30
0.0
 11
136.6
 21
163.7722
 31
0.0
  0
LINE
  5
241
330
1E
100
AcDbEntity
  8
0
100
AcDbLine
 10
134.0
 20
170.2722
 30
0.0
 11
136.6
 21
163.7722
 31
0.0
  0
LINE
  5
244
330
1E
100
AcDbEntity
  8
0
100
AcDbLine
 10
244.5
 20
170.3722
 30
0.0
 11
247.0
 21
163.9722
 31
0.0
  0
LINE
  5
245
330
1E
100
AcDbEntity
  8
0
100
AcDbLine
 10
295.5
 20
170.3722
 30
0.0
 11
296.5
 21
177.1722
 31
0.0
  0
LINE
  5
246
330
1E
100
AcDbEntity
  8
0
100
AcDbLine
 10
185.5
 20
170.3722
 30
0.0
 11
186.5
 21
177.1722
 31
0.0
  0
LINE
  5
247
330
1E
100
AcDbEntity
  8
0
100
AcDbLine
 10
134.5
 20
170.3722
 30
0.0
 11
137.0
 21
163.9722
 31
0.0
  0
LINE
  5
24F
330
1E
100
AcDbEntity
  8
0
100
AcDbLine
 10
296.710144927536
 20
175.1722
 30
0.0
 11
302.0
 21
175.1722
 31
0.0
  0
LINE
  5
250
330
1E
100
AcDbEntity
  8
0
100
AcDbLine
 10
302.0
 20
175.1722
 30
0.0
 11
302.0
 21
175.2442
 31
0.0
  0
LINE
  5
251
330
1E
100
AcDbEntity
  8
0
100
AcDbLine
 10
238.0
 20
175.1722
 30
0.0
 11
238.0
 21
175.2442
 31
0.0
  0
LINE
  5
252
330
1E
100
AcDbEntity
  8
0
100
AcDbLine
 10
238.0
 20
175.1722
 30
0.0
 11
243.289855072464
 21
175.1722
 31
0.0
  0
LINE
  5
253
330
1E
100
AcDbEntity
  8
0
100
AcDbLine
 10
243.289855072464
 20
175.1722
 30
0.0
 11
244.0
 21
170.2722
 31
0.0
  0
LINE
  5
254
330
1E
100
AcDbEntity
  8
0
100
AcDbLine
 10
186.710144927536
 20
175.1722
 30
0.0
 11
192.0
 21
175.1722
 31
0.0
  0
LINE
  5
255
330
1E
100
AcDbEntity
  8
0
100
AcDbLine
 10
192.0
 20
175.1722
 30
0.0
 11
192.0
 21
175.2442
 31
0.0
  0
LINE
  5
256
330
1E
100
AcDbEntity
  8
0
100
AcDbLine
 10
128.0
 20
175.1722
 30
0.0
 11
128.0
 21
175.2442
 31
0.0
  0
LINE
  5
257
330
1E
100
AcDbEntity
  8
0
100
AcDbLine
 10
128.0
 20
175.1722
 30
0.0
 11
133.289855072464
 21
175.1722
 31
0.0
  0
LINE
  5
258
330
1E
100
AcDbEntity
  8
0
100
AcDbLine
 10
128.0
 20
175.2442
 30
0.0
 11
128.0
 21
175.4362
 31
0.0
  0
LINE
  5
259
330
1E
100
AcDbEntity
  8
0
100
AcDbLine
 10
128.0
 20
175.2442
 30
0.0
 11
128.0
 21
175.1722
 31
0.0
  0
LINE
  5
25A
330
1E
100
AcDbEntity
  8
0
100
AcDbLine
 10
128.0
 20
175.4362
 30
0.0
 11
128.0
 21
175.7562
 31
0.0
  0
LINE
  5
25B
330
1E
100
AcDbEntity
  8
0
100
AcDbLine
 10
128.0
 20
175.4362
 30
0.0
 11
128.0
 21
175.2442
 31
0.0
  0
LINE
  5
25C
330
1E
100
AcDbEntity
  8
0
100
AcDbLine
 10
128.0
 20
175.7562
 30
0.0
 11
128.0
 21
176.1802
 31
0.0
  0
LINE
  5
25D
330
1E
100
AcDbEntity
  8
0
100
AcDbLine
 10
128.0
 20
175.7562
 30
0.0
 11
128.0
 21
175.4362
 31
0.0
  0
LINE
  5
25E
330
1E
100
AcDbEntity
  8
0
100
AcDbLine
 10
128.0
 20
176.1802
 30
0.0
 11
128.0
 21
176.6602
 31
0.0
  0
LINE
  5
25F
330
1E
100
AcDbEntity
  8
0
100
AcDbLine
 10
128.0
 20
176.1802
 30
0.0
 11
128.0
 21
175.7562
 31
0.0
  0
LINE
  5
260
330
1E
100
AcDbEntity
  8
0
100
AcDbLine
 10
128.0
 20
177.1722
 30
0.0
 11
128.0
 21
176.6602
 31
0.0
  0
LINE
  5
261
330
1E
100
AcDbEntity
  8
0
100
AcDbLine
 10
128.0
 20
177.1722
 30
0.0
 11
128.0
 21
177.6842
 31
0.0
  0
LINE
  5
262
330
1E
100
AcDbEntity
  8
0
100
AcDbLine
 10
128.0
 20
176.6602
 30
0.0
 11
128.0
 21
177.1722
 31
0.0
  0
LINE
  5
263
330
1E
100
AcDbEntity
  8
0
100
AcDbLine
 10
128.0
 20
176.6602
 30
0.0
 11
128.0
 21
176.1802
 31
0.0
  0
LINE
  5
264
330
1E
100
AcDbEntity
  8
0
100
AcDbLine
 10
192.0
 20
175.2442
 30
0.0
 11
192.0
 21
175.4362
 31
0.0
  0
LINE
  5
265
330
1E
100
AcDbEntity
  8
0
100
AcDbLine
 10
192.0
 20
175.2442
 30
0.0
 11
192.0
 21
175.1722
 31
0.0
  0
LINE
  5
266
330
1E
100
AcDbEntity
  8
0
100
AcDbLine
 10
192.0
 20
175.4362
 30
0.0
 11
192.0
 21
175.7562
 31
0.0
  0
LINE
  5
267
330
1E
100
AcDbEntity
  8
0
100
AcDbLine
 10
192.0
 20
175.4362
 30
0.0
 11
192.0
 21
175.2442
 31
0.0
  0
LINE
  5
268
330
1E
100
AcDbEntity
  8
0
100
AcDbLine
 10
192.0
 20
175.7562
 30
0.0
 11
192.0
 21
176.1802
 31
0.0
  0
LINE
  5
269
330
1E
100
AcDbEntity
  8
0
100
AcDbLine
 10
192.0
 20
175.7562
 30
0.0
 11
192.0
 21
175.4362
 31
0.0
  0
LINE
  5
26A
330
1E
100
AcDbEntity
  8
0
100
AcDbLine
 10
192.0
 20
177.1722
 30
0.0
 11
192.0
 21
176.6602
 31
0.0
  0
LINE
  5
26B
330
1E
100
AcDbEntity
  8
0
100
AcDbLine
 10
192.0
 20
177.1722
 30
0.0
 11
192.0
 21
177.6842
 31
0.0
  0
LINE
  5
26C
330
1E
100
AcDbEntity
  8
0
100
AcDbLine
 10
192.0
 20
176.1802
 30
0.0
 11
192.0
 21
176.6602
 31
0.0
  0
LINE
  5
26D
330
1E
100
AcDbEntity
  8
0
100
AcDbLine
 10
192.0
 20
176.1802
 30
0.0
 11
192.0
 21
175.7562
 31
0.0
  0
LINE
  5
26E
330
1E
100
AcDbEntity
  8
0
100
AcDbLine
 10
238.0
 20
175.2442
 30
0.0
 11
238.0
 21
175.4362
 31
0.0
  0
LINE
  5
26F
330
1E
100
AcDbEntity
  8
0
100
AcDbLine
 10
238.0
 20
175.2442
 30
0.0
 11
238.0
 21
175.1722
 31
0.0
  0
LINE
  5
270
330
1E
100
AcDbEntity
  8
0
100
AcDbLine
 10
238.0
 20
175.4362
 30
0.0
 11
238.0
 21
175.7562
 31
0.0
  0
LINE
  5
271
330
1E
100
AcDbEntity
  8
0
100
AcDbLine
 10
238.0
 20
175.4362
 30
0.0
 11
238.0
 21
175.2442
 31
0.0
  0
LINE
  5
272
330
1E
100
AcDbEntity
  8
0
100
AcDbLine
 10
238.0
 20
175.7562
 30
0.0
 11
238.0
 21
176.1802
 31
0.0
  0
LINE
  5
273
330
1E
100
AcDbEntity
  8
0
100
AcDbLine
 10
238.0
 20
175.7562
 30
0.0
 11
238.0
 21
175.4362
 31
0.0
  0
LINE
  5
274
330
1E
100
AcDbEntity
  8
0
100
AcDbLine
 10
238.0
 20
176.1802
 30
0.0
 11
238.0
 21
176.6602
 31
0.0
  0
LINE
  5
275
330
1E
100
AcDbEntity
  8
0
100
AcDbLine
 10
238.0
 20
176.1802
 30
0.0
 11
238.0
 21
175.7562
 31
0.0
  0
LINE
  5
276
330
1E
100
AcDbEntity
  8
0
100
AcDbLine
 10
238.0
 20
177.1722
 30
0.0
 11
238.0
 21
176.6602
 31
0.0
  0
LINE
  5
277
330
1E
100
AcDbEntity
  8
0
100
AcDbLine
 10
238.0
 20
177.1722
 30
0.0
 11
238.0
 21
177.6842
 31
0.0
  0
LINE
  5
278
330
1E
100
AcDbEntity
  8
0
100
AcDbLine
 10
238.0
 20
176.6602
 30
0.0
 11
238.0
 21
177.1722
 31
0.0
  0
LINE
  5
279
330
1E
100
AcDbEntity
  8
0
100
AcDbLine
 10
238.0
 20
176.6602
 30
0.0
 11
238.0
 21
176.1802
 31
0.0
  0
LINE
  5
27A
330
1E
100
AcDbEntity
  8
0
100
AcDbLine
 10
236.0
 20
177.1722
 30
0.0
 11
237.2
 21
168.4722
 31
0.0
  0
LINE
  5
27B
330
1E
100
AcDbEntity
  8
0
100
AcDbLine
 10
236.0
 20
177.1722
 30
0.0
 11
237.2
 21
185.8722
 31
0.0
  0
LINE
  5
27C
330
1E
100
AcDbEntity
  8
0
100
AcDbLine
 10
235.0
 20
177.1722
 30
0.0
 11
236.3
 21
168.1722
 31
0.0
  0
LINE
  5
27D
330
1E
100
AcDbEntity
  8
0
100
AcDbLine
 10
235.0
 20
177.1722
 30
0.0
 11
236.3
 21
186.1722
 31
0.0
  0
LINE
  5
27E
330
1E
100
AcDbEntity
  8
0
100
AcDbLine
 10
235.0
 20
177.1722
 30
0.0
 11
236.3
 21
186.1722
 31
0.0
  0
LINE
  5
27F
330
1E
100
AcDbEntity
  8
0
100
AcDbLine
 10
302.0
 20
175.2442
 30
0.0
 11
302.0
 21
175.4362
 31
0.0
  0
LINE
  5
280
330
1E
100
AcDbEntity
  8
0
100
AcDbLine
 10
302.0
 20
175.2442
 30
0.0
 11
302.0
 21
175.1722
 31
0.0
  0
LINE
  5
281
330
1E
100
AcDbEntity
  8
0
100
AcDbLine
 10
302.0
 20
175.4362
 30
0.0
 11
302.0
 21
175.7562
 31
0.0
  0
LINE
  5
282
330
1E
100
AcDbEntity
  8
0
100
AcDbLine
 10
302.0
 20
175.4362
 30
0.0
 11
302.0
 21
175.2442
 31
0.0
  0
LINE
  5
283
330
1E
100
AcDbEntity
  8
0
100
AcDbLine
 10
302.0
 20
175.7562
 30
0.0
 11
302.0
 21
176.1802
 31
0.0
  0
LINE
  5
284
330
1E
100
AcDbEntity
  8
0
100
AcDbLine
 10
302.0
 20
175.7562
 30
0.0
 11
302.0
 21
175.4362
 31
0.0
  0
LINE
  5
285
330
1E
100
AcDbEntity
  8
0
100
AcDbLine
 10
302.0
 20
176.1802
 30
0.0
 11
302.0
 21
176.6602
 31
0.0
  0
LINE
  5
286
330
1E
100
AcDbEntity
  8
0
100
AcDbLine
 10
302.0
 20
176.1802
 30
0.0
 11
302.0
 21
175.7562
 31
0.0
  0
LINE
  5
287
330
1E
100
AcDbEntity
  8
0
100
AcDbLine
 10
302.0
 20
177.1722
 30
0.0
 11
302.0
 21
176.6602
 31
0.0
  0
LINE
  5
288
330
1E
100
AcDbEntity
  8
0
100
AcDbLine
 10
302.0
 20
177.1722
 30
0.0
 11
302.0
 21
177.6842
 31
0.0
  0
LINE
  5
289
330
1E
100
AcDbEntity
  8
0
100
AcDbLine
 10
302.0
 20
176.6602
 30
0.0
 11
302.0
 21
177.1722
 31
0.0
  0
LINE
  5
28A
330
1E
100
AcDbEntity
  8
0
100
AcDbLine
 10
302.0
 20
176.6602
 30
0.0
 11
302.0
 21
176.1802
 31
0.0
  0
LINE
  5
28B
330
1E
100
AcDbEntity
  8
0
100
AcDbLine
 10
243.5
 20
177.1722
 30
0.0
 11
244.5
 21
170.3722
 31
0.0
  0
LINE
  5
28C
330
1E
100
AcDbEntity
  8
0
100
AcDbLine
 10
243.5
 20
177.1722
 30
0.0
 11
244.5
 21
183.9722
 31
0.0
  0
LINE
  5
28D
330
1E
100
AcDbEntity
  8
0
100
AcDbLine
 10
243.0
 20
177.1722
 30
0.0
 11
244.0
 21
170.2722
 31
0.0
  0
LINE
  5
28E
330
1E
100
AcDbEntity
  8
0
100
AcDbLine
 10
243.0
 20
177.1722
 30
0.0
 11
244.0
 21
184.0722
 31
0.0
  0
LINE
  5
28F
330
1E
100
AcDbEntity
  8
0
100
AcDbLine
 10
192.0
 20
176.6602
 30
0.0
 11
192.0
 21
177.1722
 31
0.0
  0
LINE
  5
290
330
1E
100
AcDbEntity
  8
0
100
AcDbLine
 10
192.0
 20
176.6602
 30
0.0
 11
192.0
 21
176.1802
 31
0.0
  0
LINE
  5
291
330
1E
100
AcDbEntity
  8
0
100
AcDbLine
 10
133.5
 20
177.1722
 30
0.0
 11
134.5
 21
170.3722
 31
0.0
  0
LINE
  5
292
330
1E
100
AcDbEntity
  8
0
100
AcDbLine
 10
133.5
 20
177.1722
 30
0.0
 11
134.5
 21
183.9722
 31
0.0
  0
LINE
  5
293
330
1E
100
AcDbEntity
  8
0
100
AcDbLine
 10
133.0
 20
177.1722
 30
0.0
 11
134.0
 21
170.2722
 31
0.0
  0
LINE
  5
294
330
1E
100
AcDbEntity
  8
0
100
AcDbLine
 10
133.0
 20
177.1722
 30
0.0
 11
134.0
 21
184.0722
 31
0.0
  0
LINE
  5
295
330
1E
100
AcDbEntity
  8
0
100
AcDbLine
 10
133.289855072464
 20
175.1722
 30
0.0
 11
134.0
 21
170.2722
 31
0.0
  0
LINE
  5
296
330
1E
100
AcDbEntity
  8
0
100
AcDbLine
 10
347.504
 20
176.5212
 30
0.0
 11
347.504
 21
177.0212
 31
0.0
  0
LINE
  5
297
330
1E
100
AcDbEntity
  8
0
100
AcDbLine
 10
347.504
 20
176.5212
 30
0.0
 11
349.987
 21
164.4832
 31
0.0
  0
LINE
  5
298
330
1E
100
AcDbEntity
  8
0
100
AcDbLine
 10
412.504
 20
177.0722
 30
0.0
 11
412.504
 21
176.5722
 31
0.0
  0
LINE
  5
299
330
1E
100
AcDbEntity
  8
0
100
AcDbLine
 10
412.504
 20
176.5722
 30
0.0
 11
412.504
 21
177.0722
 31
0.0
  0
LINE
  5
29A
330
1E
100
AcDbEntity
  8
0
100
AcDbLine
 10
347.504
 20
177.0212
 30
0.0
 11
349.967
 21
189.4602
 31
0.0
  0
LINE
  5
29B
330
1E
100
AcDbEntity
  8
0
100
AcDbLine
 10
347.504
 20
177.0212
 30
0.0
 11
347.504
 21
176.5212
 31
0.0
  0
LINE
  5
29C
330
1E
100
AcDbEntity
  8
0
100
AcDbLine
 10
346.0
 20
177.1722
 30
0.0
 11
347.2
 21
168.4722
 31
0.0
  0
LINE
  5
29D
330
1E
100
AcDbEntity
  8
0
100
AcDbLine
 10
346.0
 20
177.1722
 30
0.0
 11
347.2
 21
185.8722
 31
0.0
  0
LINE
  5
29E
330
1E
100
AcDbEntity
  8
0
100
AcDbLine
 10
345.0
 20
177.1722
 30
0.0
 11
346.3
 21
168.1722
 31
0.0
  0
LINE
  5
29F
330
1E
100
AcDbEntity
  8
0
100
AcDbLine
 10
345.0
 20
177.1722
 30
0.0
 11
346.3
 21
186.1722
 31
0.0
  0
LINE
  5
2A0
330
1E
100
AcDbEntity
  8
0
100
AcDbLine
 10
345.0
 20
177.1722
 30
0.0
 11
346.3
 21
186.1722
 31
0.0
  0
LINE
  5
2A1
330
1E
100
AcDbEntity
  8
0
100
AcDbLine
 10
128.0
 20
179.1722
 30
0.0
 11
128.0
 21
179.1002
 31
0.0
  0
LINE
  5
2A2
330
1E
100
AcDbEntity
  8
0
100
AcDbLine
 10
128.0
 20
179.1722
 30
0.0
 11
133.289855072464
 21
179.1722
 31
0.0
  0
LINE
  5
2A3
330
1E
100
AcDbEntity
  8
0
100
AcDbLine
 10
128.0
 20
179.1002
 30
0.0
 11
128.0
 21
178.9082
 31
0.0
  0
LINE
  5
2A4
330
1E
100
AcDbEntity
  8
0
100
AcDbLine
 10
128.0
 20
179.1002
 30
0.0
 11
128.0
 21
179.1722
 31
0.0
  0
LINE
  5
2A5
330
1E
100
AcDbEntity
  8
0
100
AcDbLine
 10
128.0
 20
178.9082
 30
0.0
 11
128.0
 21
178.5882
 31
0.0
  0
LINE
  5
2A6
330
1E
100
AcDbEntity
  8
0
100
AcDbLine
 10
128.0
 20
178.9082
 30
0.0
 11
128.0
 21
179.1002
 31
0.0
  0
LINE
  5
2A7
330
1E
100
AcDbEntity
  8
0
100
AcDbLine
 10
128.0
 20
178.5882
 30
0.0
 11
128.0
 21
178.1642
 31
0.0
  0
LINE
  5
2A8
330
1E
100
AcDbEntity
  8
0
100
AcDbLine
 10
128.0
 20
178.5882
 30
0.0
 11
128.0
 21
178.9082
 31
0.0
  0
LINE
  5
2A9
330
1E
100
AcDbEntity
  8
0
100
AcDbLine
 10
128.0
 20
178.1642
 30
0.0
 11
128.0
 21
177.6842
 31
0.0
  0
LINE
  5
2AA
330
1E
100
AcDbEntity
  8
0
100
AcDbLine
 10
128.0
 20
178.1642
 30
0.0
 11
128.0
 21
178.5882
 31
0.0
  0
LINE
  5
2AB
330
1E
100
AcDbEntity
  8
0
100
AcDbLine
 10
128.0
 20
177.6842
 30
0.0
 11
128.0
 21
177.1722
 31
0.0
  0
LINE
  5
2AC
330
1E
100
AcDbEntity
  8
0
100
AcDbLine
 10
128.0
 20
177.6842
 30
0.0
 11
128.0
 21
178.1642
 31
0.0
  0
LINE
  5
2AD
330
1E
100
AcDbEntity
  8
0
100
AcDbLine
 10
192.0
 20
179.1722
 30
0.0
 11
192.0
 21
179.1002
 31
0.0
  0
LINE
  5
2AE
330
1E
100
AcDbEntity
  8
0
100
AcDbLine
 10
192.0
 20
179.1002
 30
0.0
 11
192.0
 21
179.1722
 31
0.0
  0
LINE
  5
2AF
330
1E
100
AcDbEntity
  8
0
100
AcDbLine
 10
192.0
 20
179.1002
 30
0.0
 11
192.0
 21
178.9082
 31
0.0
  0
LINE
  5
2B0
330
1E
100
AcDbEntity
  8
0
100
AcDbLine
 10
192.0
 20
178.9082
 30
0.0
 11
192.0
 21
179.1002
 31
0.0
  0
LINE
  5
2B1
330
1E
100
AcDbEntity
  8
0
100
AcDbLine
 10
192.0
 20
178.9082
 30
0.0
 11
192.0
 21
178.5882
 31
0.0
  0
LINE
  5
2B2
330
1E
100
AcDbEntity
  8
0
100
AcDbLine
 10
192.0
 20
178.5882
 30
0.0
 11
192.0
 21
178.9082
 31
0.0
  0
LINE
  5
2B3
330
1E
100
AcDbEntity
  8
0
100
AcDbLine
 10
192.0
 20
178.5882
 30
0.0
 11
192.0
 21
178.1642
 31
0.0
  0
LINE
  5
2B4
330
1E
100
AcDbEntity
  8
0
100
AcDbLine
 10
192.0
 20
178.1642
 30
0.0
 11
192.0
 21
178.5882
 31
0.0
  0
LINE
  5
2B5
330
1E
100
AcDbEntity
  8
0
100
AcDbLine
 10
192.0
 20
178.1642
 30
0.0
 11
192.0
 21
177.6842
 31
0.0
  0
LINE
  5
2B6
330
1E
100
AcDbEntity
  8
0
100
AcDbLine
 10
238.0
 20
179.1722
 30
0.0
 11
238.0
 21
179.1002
 31
0.0
  0
LINE
  5
2B7
330
1E
100
AcDbEntity
  8
0
100
AcDbLine
 10
238.0
 20
179.1722
 30
0.0
 11
243.289855072464
 21
179.1722
 31
0.0
  0
LINE
  5
2B8
330
1E
100
AcDbEntity
  8
0
100
AcDbLine
 10
238.0
 20
179.1002
 30
0.0
 11
238.0
 21
178.9082
 31
0.0
  0
LINE
  5
2B9
330
1E
100
AcDbEntity
  8
0
100
AcDbLine
 10
238.0
 20
179.1002
 30
0.0
 11
238.0
 21
179.1722
 31
0.0
  0
LINE
  5
2BA
330
1E
100
AcDbEntity
  8
0
100
AcDbLine
 10
238.0
 20
178.9082
 30
0.0
 11
238.0
 21
178.5882
 31
0.0
  0
LINE
  5
2BB
330
1E
100
AcDbEntity
  8
0
100
AcDbLine
 10
238.0
 20
178.9082
 30
0.0
 11
238.0
 21
179.1002
 31
0.0
  0
LINE
  5
2BC
330
1E
100
AcDbEntity
  8
0
100
AcDbLine
 10
238.0
 20
178.5882
 30
0.0
 11
238.0
 21
178.1642
 31
0.0
  0
LINE
  5
2BD
330
1E
100
AcDbEntity
  8
0
100
AcDbLine
 10
238.0
 20
178.5882
 30
0.0
 11
238.0
 21
178.9082
 31
0.0
  0
LINE
  5
2BE
330
1E
100
AcDbEntity
  8
0
100
AcDbLine
 10
238.0
 20
178.1642
 30
0.0
 11
238.0
 21
177.6842
 31
0.0
  0
LINE
  5
2BF
330
1E
100
AcDbEntity
  8
0
100
AcDbLine
 10
238.0
 20
178.1642
 30
0.0
 11
238.0
 21
178.5882
 31
0.0
  0
LINE
  5
2C0
330
1E
100
AcDbEntity
  8
0
100
AcDbLine
 10
302.0
 20
179.1722
 30
0.0
 11
302.0
 21
179.1002
 31
0.0
  0
LINE
  5
2C1
330
1E
100
AcDbEntity
  8
0
100
AcDbLine
 10
302.0
 20
179.1002
 30
0.0
 11
302.0
 21
179.1722
 31
0.0
  0
LINE
  5
2C2
330
1E
100
AcDbEntity
  8
0
100
AcDbLine
 10
302.0
 20
179.1002
 30
0.0
 11
302.0
 21
178.9082
 31
0.0
  0
LINE
  5
2C3
330
1E
100
AcDbEntity
  8
0
100
AcDbLine
 10
302.0
 20
178.9082
 30
0.0
 11
302.0
 21
179.1002
 31
0.0
  0
LINE
  5
2C4
330
1E
100
AcDbEntity
  8
0
100
AcDbLine
 10
302.0
 20
178.9082
 30
0.0
 11
302.0
 21
178.5882
 31
0.0
  0
LINE
  5
2C5
330
1E
100
AcDbEntity
  8
0
100
AcDbLine
 10
302.0
 20
178.5882
 30
0.0
 11
302.0
 21
178.9082
 31
0.0
  0
LINE
  5
2C6
330
1E
100
AcDbEntity
  8
0
100
AcDbLine
 10
302.0
 20
178.5882
 30
0.0
 11
302.0
 21
178.1642
 31
0.0
  0
LINE
  5
2C7
330
1E
100
AcDbEntity
  8
0
100
AcDbLine
 10
302.0
 20
178.1642
 30
0.0
 11
302.0
 21
178.5882
 31
0.0
  0
LINE
  5
2C8
330
1E
100
AcDbEntity
  8
0
100
AcDbLine
 10
302.0
 20
178.1642
 30
0.0
 11
302.0
 21
177.6842
 31
0.0
  0
LINE
  5
2C9
330
1E
100
AcDbEntity
  8
0
100
AcDbLine
 10
302.0
 20
177.6842
 30
0.0
 11
302.0
 21
178.1642
 31
0.0
  0
LINE
  5
2CA
330
1E
100
AcDbEntity
  8
0
100
AcDbLine
 10
302.0
 20
177.6842
 30
0.0
 11
302.0
 21
177.1722
 31
0.0
  0
LINE
  5
2CB
330
1E
100
AcDbEntity
  8
0
100
AcDbLine
 10
296.710144927536
 20
179.1722
 30
0.0
 11
302.0
 21
179.1722
 31
0.0
  0
LINE
  5
2CC
330
1E
100
AcDbEntity
  8
0
100
AcDbLine
 10
238.0
 20
177.6842
 30
0.0
 11
238.0
 21
177.1722
 31
0.0
  0
LINE
  5
2CD
330
1E
100
AcDbEntity
  8
0
100
AcDbLine
 10
238.0
 20
177.6842
 30
0.0
 11
238.0
 21
178.1642
 31
0.0
  0
LINE
  5
2CE
330
1E
100
AcDbEntity
  8
0
100
AcDbLine
 10
243.289855072464
 20
179.1722
 30
0.0
 11
244.0
 21
184.0722
 31
0.0
  0
LINE
  5
2CF
330
1E
100
AcDbEntity
  8
0
100
AcDbLine
 10
192.0
 20
177.6842
 30
0.0
 11
192.0
 21
178.1642
 31
0.0
  0
LINE
  5
2D0
330
1E
100
AcDbEntity
  8
0
100
AcDbLine
 10
192.0
 20
177.6842
 30
0.0
 11
192.0
 21
177.1722
 31
0.0
  0
LINE
  5
2D1
330
1E
100
AcDbEntity
  8
0
100
AcDbLine
 10
186.710144927536
 20
179.1722
 30
0.0
 11
192.0
 21
179.1722
 31
0.0
  0
LINE
  5
2D2
330
1E
100
AcDbEntity
  8
0
100
AcDbLine
 10
133.289855072464
 20
179.1722
 30
0.0
 11
134.0
 21
184.0722
 31
0.0
  0
LINE
  5
2D3
330
1E
100
AcDbEntity
  8
0
100
AcDbLine
 10
126.0
 20
177.1722
 30
0.0
 11
127.2
 21
168.4722
 31
0.0
  0
LINE
  5
2D4
330
1E
100
AcDbEntity
  8
0
100
AcDbLine
 10
126.0
 20
177.1722
 30
0.0
 11
127.2
 21
185.8722
 31
0.0
  0
LINE
  5
2D5
330
1E
100
AcDbEntity
  8
0
100
AcDbLine
 10
125.0
 20
177.1722
 30
0.0
 11
126.3
 21
168.1722
 31
0.0
  0
LINE
  5
2D6
330
1E
100
AcDbEntity
  8
0
100
AcDbLine
 10
125.0
 20
177.1722
 30
0.0
 11
126.3
 21
186.1722
 31
0.0
  0
LINE
  5
2DF
330
1E
100
AcDbEntity
  8
0
100
AcDbLine
 10
134.5
 20
183.9722
 30
0.0
 11
137.0
 21
190.3722
 31
0.0
  0
LINE
  5
2E0
330
1E
100
AcDbEntity
  8
0
100
AcDbLine
 10
244.5
 20
183.9722
 30
0.0
 11
247.0
 21
190.3722
 31
0.0
  0
LINE
  5
2E1
330
1E
100
AcDbEntity
  8
0
100
AcDbLine
 10
295.5
 20
183.9722
 30
0.0
 11
296.5
 21
177.1722
 31
0.0
  0
LINE
  5
2E2
330
1E
100
AcDbEntity
  8
0
100
AcDbLine
 10
185.5
 20
183.9722
 30
0.0
 11
186.5
 21
177.1722
 31
0.0
  0
LINE
  5
2E3
330
1E
100
AcDbEntity
  8
0
100
AcDbLine
 10
244.0
 20
184.0722
 30
0.0
 11
246.6
 21
190.5722
 31
0.0
  0
LINE
  5
2E4
330
1E
100
AcDbEntity
  8
0
100
AcDbLine
 10
296.0
 20
184.0722
 30
0.0
 11
296.710144927536
 21
179.1722
 31
0.0
  0
LINE
  5
2E5
330
1E
100
AcDbEntity
  8
0
100
AcDbLine
 10
296.0
 20
184.0722
 30
0.0
 11
297.0
 21
177.1722
 31
0.0
  0
LINE
  5
2E6
330
1E
100
AcDbEntity
  8
0
100
AcDbLine
 10
134.0
 20
184.0722
 30
0.0
 11
136.6
 21
190.5722
 31
0.0
  0
LINE
  5
2E7
330
1E
100
AcDbEntity
  8
0
100
AcDbLine
 10
186.0
 20
184.0722
 30
0.0
 11
186.710144927536
 21
179.1722
 31
0.0
  0
LINE
  5
2E8
330
1E
100
AcDbEntity
  8
0
100
AcDbLine
 10
186.0
 20
184.0722
 30
0.0
 11
187.0
 21
177.1722
 31
0.0
  0
LINE
  5
2EA
330
1E
100
AcDbEntity
  8
0
100
AcDbLine
 10
137.0
 20
190.3722
 30
0.0
 11
141.3
 21
195.8722
 31
0.0
  0
LINE
  5
2EB
330
1E
100
AcDbEntity
  8
0
100
AcDbLine
 10
136.6
 20
190.5722
 30
0.0
 11
141.0
 21
196.1722
 31
0.0
  0
LINE
  5
2EC
330
1E
100
AcDbEntity
  8
0
100
AcDbLine
 10
183.0
 20
190.3722
 30
0.0
 11
185.5
 21
183.9722
 31
0.0
  0
LINE
  5
2ED
330
1E
100
AcDbEntity
  8
0
100
AcDbLine
 10
183.4
 20
190.5722
 30
0.0
 11
186.0
 21
184.0722
 31
0.0
  0
LINE
  5
2EE
330
1E
100
AcDbEntity
  8
0
100
AcDbLine
 10
130.6
 20
194.0722
 30
0.0
 11
136.0
 21
201.1722
 31
0.0
  0
LINE
  5
2EF
330
1E
100
AcDbEntity
  8
0
100
AcDbLine
 10
127.2
 20
185.8722
 30
0.0
 11
130.6
 21
194.0722
 31
0.0
  0
LINE
  5
2F0
330
1E
100
AcDbEntity
  8
0
100
AcDbLine
 10
126.3
 20
186.1722
 30
0.0
 11
129.7
 21
194.5722
 31
0.0
  0
LINE
  5
2F1
330
1E
100
AcDbEntity
  8
0
100
AcDbLine
 10
129.7
 20
194.5722
 30
0.0
 11
135.3
 21
201.8722
 31
0.0
  0
LINE
  5
2F2
330
1E
100
AcDbEntity
  8
0
100
AcDbLine
 10
189.4
 20
194.0722
 30
0.0
 11
192.8
 21
185.8722
 31
0.0
  0
LINE
  5
2F3
330
1E
100
AcDbEntity
  8
0
100
AcDbLine
 10
192.8
 20
185.8722
 30
0.0
 11
194.0
 21
177.1722
 31
0.0
  0
LINE
  5
2F4
330
1E
100
AcDbEntity
  8
0
100
AcDbLine
 10
141.3
 20
195.8722
 30
0.0
 11
146.8
 21
200.1722
 31
0.0
  0
LINE
  5
2F5
330
1E
100
AcDbEntity
  8
0
100
AcDbLine
 10
141.0
 20
196.1722
 30
0.0
 11
146.6
 21
200.5722
 31
0.0
  0
LINE
  5
2F6
330
1E
100
AcDbEntity
  8
0
100
AcDbLine
 10
178.7
 20
195.8722
 30
0.0
 11
183.0
 21
190.3722
 31
0.0
  0
LINE
  5
2F7
330
1E
100
AcDbEntity
  8
0
100
AcDbLine
 10
146.8
 20
200.1722
 30
0.0
 11
153.2
 21
202.6722
 31
0.0
  0
LINE
  5
2F8
330
1E
100
AcDbEntity
  8
0
100
AcDbLine
 10
146.6
 20
200.5722
 30
0.0
 11
153.1
 21
203.1722
 31
0.0
  0
LINE
  5
2F9
330
1E
100
AcDbEntity
  8
0
100
AcDbLine
 10
173.2
 20
200.1722
 30
0.0
 11
178.7
 21
195.8722
 31
0.0
  0
LINE
  5
2FA
330
1E
100
AcDbEntity
  8
0
100
AcDbLine
 10
173.4
 20
200.5722
 30
0.0
 11
179.0
 21
196.1722
 31
0.0
  0
LINE
  5
2FB
330
1E
100
AcDbEntity
  8
0
100
AcDbLine
 10
179.0
 20
196.1722
 30
0.0
 11
183.4
 21
190.5722
 31
0.0
  0
LINE
  5
2FC
330
1E
100
AcDbEntity
  8
0
100
AcDbLine
 10
136.0
 20
201.1722
 30
0.0
 11
143.1
 21
206.5722
 31
0.0
  0
LINE
  5
2FD
330
1E
100
AcDbEntity
  8
0
100
AcDbLine
 10
153.2
 20
202.6722
 30
0.0
 11
160.0
 21
203.6722
 31
0.0
  0
LINE
  5
2FE
330
1E
100
AcDbEntity
  8
0
100
AcDbLine
 10
153.1
 20
203.1722
 30
0.0
 11
160.0
 21
204.1722
 31
0.0
  0
LINE
  5
2FF
330
1E
100
AcDbEntity
  8
0
100
AcDbLine
 10
162.0
 20
203.882344927536
 30
0.0
 11
162.0
 21
209.1722
 31
0.0
  0
LINE
  5
300
330
1E
100
AcDbEntity
  8
0
100
AcDbLine
 10
158.0
 20
203.882344927536
 30
0.0
 11
158.0
 21
209.1722
 31
0.0
  0
LINE
  5
301
330
1E
100
AcDbEntity
  8
0
100
AcDbLine
 10
160.0
 20
203.6722
 30
0.0
 11
166.8
 21
202.6722
 31
0.0
  0
LINE
  5
302
330
1E
100
AcDbEntity
  8
0
100
AcDbLine
 10
166.8
 20
202.6722
 30
0.0
 11
173.2
 21
200.1722
 31
0.0
  0
LINE
  5
303
330
1E
100
AcDbEntity
  8
0
100
AcDbLine
 10
160.0
 20
204.1722
 30
0.0
 11
166.9
 21
203.1722
 31
0.0
  0
LINE
  5
304
330
1E
100
AcDbEntity
  8
0
100
AcDbLine
 10
166.9
 20
203.1722
 30
0.0
 11
173.4
 21
200.5722
 31
0.0
  0
LINE
  5
305
330
1E
100
AcDbEntity
  8
0
100
AcDbLine
 10
143.1
 20
206.5722
 30
0.0
 11
151.3
 21
209.9722
 31
0.0
  0
LINE
  5
306
330
1E
100
AcDbEntity
  8
0
100
AcDbLine
 10
135.3
 20
201.8722
 30
0.0
 11
142.6
 21
207.4722
 31
0.0
  0
LINE
  5
307
330
1E
100
AcDbEntity
  8
0
100
AcDbLine
 10
142.6
 20
207.4722
 30
0.0
 11
151.0
 21
210.8722
 31
0.0
  0
LINE
  5
308
330
1E
100
AcDbEntity
  8
0
100
AcDbLine
 10
176.9
 20
206.5722
 30
0.0
 11
184.0
 21
201.1722
 31
0.0
  0
LINE
  5
309
330
1E
100
AcDbEntity
  8
0
100
AcDbLine
 10
184.0
 20
201.1722
 30
0.0
 11
189.4
 21
194.0722
 31
0.0
  0
LINE
  5
30A
330
1E
100
AcDbEntity
  8
0
100
AcDbLine
 10
184.7
 20
201.8722
 30
0.0
 11
190.3
 21
194.5722
 31
0.0
  0
LINE
  5
30B
330
1E
100
AcDbEntity
  8
0
100
AcDbLine
 10
190.3
 20
194.5722
 30
0.0
 11
193.7
 21
186.1722
 31
0.0
  0
LINE
  5
30C
330
1E
100
AcDbEntity
  8
0
100
AcDbLine
 10
193.7
 20
186.1722
 30
0.0
 11
195.0
 21
177.1722
 31
0.0
  0
LINE
  5
30D
330
1E
100
AcDbEntity
  8
0
100
AcDbLine
 10
158.0
 20
209.1722
 30
0.0
 11
158.072
 21
209.1722
 31
0.0
  0
LINE
  5
30E
330
1E
100
AcDbEntity
  8
0
100
AcDbLine
 10
158.0
 20
209.1722
 30
0.0
 11
158.0
 21
203.882344927536
 31
0.0
  0
LINE
  5
30F
330
1E
100
AcDbEntity
  8
0
100
AcDbLine
 10
158.072
 20
209.1722
 30
0.0
 11
158.264
 21
209.1722
 31
0.0
  0
LINE
  5
310
330
1E
100
AcDbEntity
  8
0
100
AcDbLine
 10
158.264
 20
209.1722
 30
0.0
 11
158.584
 21
209.1722
 31
0.0
  0
LINE
  5
311
330
1E
100
AcDbEntity
  8
0
100
AcDbLine
 10
158.584
 20
209.1722
 30
0.0
 11
159.008
 21
209.1722
 31
0.0
  0
LINE
  5
312
330
1E
100
AcDbEntity
  8
0
100
AcDbLine
 10
159.008
 20
209.1722
 30
0.0
 11
159.488
 21
209.1722
 31
0.0
  0
LINE
  5
313
330
1E
100
AcDbEntity
  8
0
100
AcDbLine
 10
160.0
 20
209.1722
 30
0.0
 11
160.512
 21
209.1722
 31
0.0
  0
LINE
  5
314
330
1E
100
AcDbEntity
  8
0
100
AcDbLine
 10
159.488
 20
209.1722
 30
0.0
 11
160.0
 21
209.1722
 31
0.0
  0
LINE
  5
315
330
1E
100
AcDbEntity
  8
0
100
AcDbLine
 10
151.3
 20
209.9722
 30
0.0
 11
160.0
 21
211.1722
 31
0.0
  0
LINE
  5
316
330
1E
100
AcDbEntity
  8
0
100
AcDbLine
 10
151.0
 20
210.8722
 30
0.0
 11
160.0
 21
212.1722
 31
0.0
  0
LINE
  5
317
330
1E
100
AcDbEntity
  8
0
100
AcDbLine
 10
160.0
 20
211.1722
 30
0.0
 11
168.7
 21
209.9722
 31
0.0
  0
LINE
  5
318
330
1E
100
AcDbEntity
  8
0
100
AcDbLine
 10
161.928
 20
209.1722
 30
0.0
 11
162.0
 21
209.1722
 31
0.0
  0
LINE
  5
319
330
1E
100
AcDbEntity
  8
0
100
AcDbLine
 10
161.736
 20
209.1722
 30
0.0
 11
161.928
 21
209.1722
 31
0.0
  0
LINE
  5
31A
330
1E
100
AcDbEntity
  8
0
100
AcDbLine
 10
161.416
 20
209.1722
 30
0.0
 11
161.736
 21
209.1722
 31
0.0
  0
LINE
  5
31B
330
1E
100
AcDbEntity
  8
0
100
AcDbLine
 10
160.992
 20
209.1722
 30
0.0
 11
161.416
 21
209.1722
 31
0.0
  0
LINE
  5
31C
330
1E
100
AcDbEntity
  8
0
100
AcDbLine
 10
160.512
 20
209.1722
 30
0.0
 11
160.992
 21
209.1722
 31
0.0
  0
LINE
  5
31D
330
1E
100
AcDbEntity
  8
0
100
AcDbLine
 10
162.0
 20
209.1722
 30
0.0
 11
162.0
 21
203.882344927536
 31
0.0
  0
LINE
  5
31E
330
1E
100
AcDbEntity
  8
0
100
AcDbLine
 10
168.7
 20
209.9722
 30
0.0
 11
176.9
 21
206.5722
 31
0.0
  0
LINE
  5
31F
330
1E
100
AcDbEntity
  8
0
100
AcDbLine
 10
169.0
 20
210.8722
 30
0.0
 11
177.4
 21
207.4722
 31
0.0
  0
LINE
  5
320
330
1E
100
AcDbEntity
  8
0
100
AcDbLine
 10
160.0
 20
212.1722
 30
0.0
 11
169.0
 21
210.8722
 31
0.0
  0
LINE
  5
321
330
1E
100
AcDbEntity
  8
0
100
AcDbLine
 10
177.4
 20
207.4722
 30
0.0
 11
184.7
 21
201.8722
 31
0.0
  0
LINE
  5
322
330
1E
100
AcDbEntity
  8
0
100
AcDbLine
 10
237.2
 20
185.8722
 30
0.0
 11
240.6
 21
194.0722
 31
0.0
  0
LINE
  5
323
330
1E
100
AcDbEntity
  8
0
100
AcDbLine
 10
302.8
 20
185.8722
 30
0.0
 11
304.0
 21
177.1722
 31
0.0
  0
LINE
  5
324
330
1E
100
AcDbEntity
  8
0
100
AcDbLine
 10
347.2
 20
185.8722
 30
0.0
 11
350.6
 21
194.0722
 31
0.0
  0
LINE
  5
325
330
1E
100
AcDbEntity
  8
0
100
AcDbLine
 10
412.8
 20
185.8722
 30
0.0
 11
414.0
 21
177.1722
 31
0.0
  0
LINE
  5
326
330
1E
100
AcDbEntity
  8
0
100
AcDbLine
 10
236.3
 20
186.1722
 30
0.0
 11
239.7
 21
194.5722
 31
0.0
  0
LINE
  5
327
330
1E
100
AcDbEntity
  8
0
100
AcDbLine
 10
303.7
 20
186.1722
 30
0.0
 11
305.0
 21
177.1722
 31
0.0
  0
LINE
  5
328
330
1E
100
AcDbEntity
  8
0
100
AcDbLine
 10
240.6
 20
194.0722
 30
0.0
 11
246.0
 21
201.1722
 31
0.0
  0
LINE
  5
329
330
1E
100
AcDbEntity
  8
0
100
AcDbLine
 10
239.7
 20
194.5722
 30
0.0
 11
245.3
 21
201.8722
 31
0.0
  0
LINE
  5
32A
330
1E
100
AcDbEntity
  8
0
100
AcDbLine
 10
246.6
 20
190.5722
 30
0.0
 11
251.0
 21
196.1722
 31
0.0
  0
LINE
  5
32B
330
1E
100
AcDbEntity
  8
0
100
AcDbLine
 10
251.3
 20
195.8722
 30
0.0
 11
256.8
 21
200.1722
 31
0.0
  0
LINE
  5
32C
330
1E
100
AcDbEntity
  8
0
100
AcDbLine
 10
247.0
 20
190.3722
 30
0.0
 11
251.3
 21
195.8722
 31
0.0
  0
LINE
  5
32D
330
1E
100
AcDbEntity
  8
0
100
AcDbLine
 10
246.6
 20
190.5722
 30
0.0
 11
251.0
 21
196.1722
 31
0.0
  0
LINE
  5
32E
330
1E
100
AcDbEntity
  8
0
100
AcDbLine
 10
251.0
 20
196.1722
 30
0.0
 11
256.6
 21
200.5722
 31
0.0
  0
LINE
  5
32F
330
1E
100
AcDbEntity
  8
0
100
AcDbLine
 10
251.0
 20
196.1722
 30
0.0
 11
256.6
 21
200.5722
 31
0.0
  0
LINE
  5
330
330
1E
100
AcDbEntity
  8
0
100
AcDbLine
 10
288.7
 20
195.8722
 30
0.0
 11
293.0
 21
190.3722
 31
0.0
  0
LINE
  5
331
330
1E
100
AcDbEntity
  8
0
100
AcDbLine
 10
293.0
 20
190.3722
 30
0.0
 11
295.5
 21
183.9722
 31
0.0
  0
LINE
  5
332
330
1E
100
AcDbEntity
  8
0
100
AcDbLine
 10
256.8
 20
200.1722
 30
0.0
 11
263.2
 21
202.6722
 31
0.0
  0
LINE
  5
333
330
1E
100
AcDbEntity
  8
0
100
AcDbLine
 10
246.0
 20
201.1722
 30
0.0
 11
253.1
 21
206.5722
 31
0.0
  0
LINE
  5
334
330
1E
100
AcDbEntity
  8
0
100
AcDbLine
 10
256.6
 20
200.5722
 30
0.0
 11
263.1
 21
203.1722
 31
0.0
  0
LINE
  5
335
330
1E
100
AcDbEntity
  8
0
100
AcDbLine
 10
283.2
 20
200.1722
 30
0.0
 11
288.7
 21
195.8722
 31
0.0
  0
LINE
  5
336
330
1E
100
AcDbEntity
  8
0
100
AcDbLine
 10
283.4
 20
200.5722
 30
0.0
 11
289.0
 21
196.1722
 31
0.0
  0
LINE
  5
337
330
1E
100
AcDbEntity
  8
0
100
AcDbLine
 10
289.0
 20
196.1722
 30
0.0
 11
293.4
 21
190.5722
 31
0.0
  0
LINE
  5
338
330
1E
100
AcDbEntity
  8
0
100
AcDbLine
 10
299.4
 20
194.0722
 30
0.0
 11
302.8
 21
185.8722
 31
0.0
  0
LINE
  5
339
330
1E
100
AcDbEntity
  8
0
100
AcDbLine
 10
294.0
 20
201.1722
 30
0.0
 11
299.4
 21
194.0722
 31
0.0
  0
LINE
  5
33A
330
1E
100
AcDbEntity
  8
0
100
AcDbLine
 10
300.3
 20
194.5722
 30
0.0
 11
303.7
 21
186.1722
 31
0.0
  0
LINE
  5
33B
330
1E
100
AcDbEntity
  8
0
100
AcDbLine
 10
293.4
 20
190.5722
 30
0.0
 11
296.0
 21
184.0722
 31
0.0
  0
LINE
  5
33C
330
1E
100
AcDbEntity
  8
0
100
AcDbLine
 10
346.3
 20
186.1722
 30
0.0
 11
349.7
 21
194.5722
 31
0.0
  0
LINE
  5
33D
330
1E
100
AcDbEntity
  8
0
100
AcDbLine
 10
349.967
 20
189.4602
 30
0.0
 11
357.005
 21
200.0092
 31
0.0
  0
LINE
  5
33E
330
1E
100
AcDbEntity
  8
0
100
AcDbLine
 10
402.966
 20
200.0452
 30
0.0
 11
410.02
 21
189.5082
 31
0.0
  0
LINE
  5
33F
330
1E
100
AcDbEntity
  8
0
100
AcDbLine
 10
357.005
 20
200.0092
 30
0.0
 11
367.542
 21
207.0632
 31
0.0
  0
LINE
  5
340
330
1E
100
AcDbEntity
  8
0
100
AcDbLine
 10
356.0
 20
201.1722
 30
0.0
 11
363.1
 21
206.5722
 31
0.0
  0
LINE
  5
341
330
1E
100
AcDbEntity
  8
0
100
AcDbLine
 10
350.6
 20
194.0722
 30
0.0
 11
356.0
 21
201.1722
 31
0.0
  0
LINE
  5
342
330
1E
100
AcDbEntity
  8
0
100
AcDbLine
 10
349.7
 20
194.5722
 30
0.0
 11
355.3
 21
201.8722
 31
0.0
  0
LINE
  5
343
330
1E
100
AcDbEntity
  8
0
100
AcDbLine
 10
245.3
 20
201.8722
 30
0.0
 11
252.6
 21
207.4722
 31
0.0
  0
LINE
  5
344
330
1E
100
AcDbEntity
  8
0
100
AcDbLine
 10
294.7
 20
201.8722
 30
0.0
 11
300.3
 21
194.5722
 31
0.0
  0
LINE
  5
345
330
1E
100
AcDbEntity
  8
0
100
AcDbLine
 10
355.3
 20
201.8722
 30
0.0
 11
362.6
 21
207.4722
 31
0.0
  0
LINE
  5
346
330
1E
100
AcDbEntity
  8
0
100
AcDbLine
 10
404.0
 20
201.1722
 30
0.0
 11
409.4
 21
194.0722
 31
0.0
  0
LINE
  5
347
330
1E
100
AcDbEntity
  8
0
100
AcDbLine
 10
410.02
 20
189.5082
 30
0.0
 11
412.504
 21
177.0722
 31
0.0
  0
LINE
  5
348
330
1E
100
AcDbEntity
  8
0
100
AcDbLine
 10
409.4
 20
194.0722
 30
0.0
 11
412.8
 21
185.8722
 31
0.0
  0
LINE
  5
349
330
1E
100
AcDbEntity
  8
0
100
AcDbLine
 10
263.2
 20
202.6722
 30
0.0
 11
270.0
 21
203.6722
 31
0.0
  0
LINE
  5
34A
330
1E
100
AcDbEntity
  8
0
100
AcDbLine
 10
263.1
 20
203.1722
 30
0.0
 11
268.0
 21
203.882344927536
 31
0.0
  0
LINE
  5
34B
330
1E
100
AcDbEntity
  8
0
100
AcDbLine
 10
263.1
 20
203.1722
 30
0.0
 11
270.0
 21
204.1722
 31
0.0
  0
LINE
  5
34C
330
1E
100
AcDbEntity
  8
0
100
AcDbLine
 10
276.8
 20
202.6722
 30
0.0
 11
283.2
 21
200.1722
 31
0.0
  0
LINE
  5
34D
330
1E
100
AcDbEntity
  8
0
100
AcDbLine
 10
268.0
 20
203.882344927536
 30
0.0
 11
268.0
 21
209.1722
 31
0.0
  0
LINE
  5
34E
330
1E
100
AcDbEntity
  8
0
100
AcDbLine
 10
268.0
 20
209.1722
 30
0.0
 11
268.072
 21
209.1722
 31
0.0
  0
LINE
  5
34F
330
1E
100
AcDbEntity
  8
0
100
AcDbLine
 10
268.0
 20
209.1722
 30
0.0
 11
268.0
 21
203.882344927536
 31
0.0
  0
LINE
  5
350
330
1E
100
AcDbEntity
  8
0
100
AcDbLine
 10
268.072
 20
209.1722
 30
0.0
 11
268.264
 21
209.1722
 31
0.0
  0
LINE
  5
351
330
1E
100
AcDbEntity
  8
0
100
AcDbLine
 10
268.264
 20
209.1722
 30
0.0
 11
268.584
 21
209.1722
 31
0.0
  0
LINE
  5
352
330
1E
100
AcDbEntity
  8
0
100
AcDbLine
 10
268.584
 20
209.1722
 30
0.0
 11
269.008
 21
209.1722
 31
0.0
  0
LINE
  5
353
330
1E
100
AcDbEntity
  8
0
100
AcDbLine
 10
270.0
 20
209.1722
 30
0.0
 11
270.512
 21
209.1722
 31
0.0
  0
LINE
  5
354
330
1E
100
AcDbEntity
  8
0
100
AcDbLine
 10
269.008
 20
209.1722
 30
0.0
 11
269.488
 21
209.1722
 31
0.0
  0
LINE
  5
355
330
1E
100
AcDbEntity
  8
0
100
AcDbLine
 10
269.488
 20
209.1722
 30
0.0
 11
270.0
 21
209.1722
 31
0.0
  0
LINE
  5
356
330
1E
100
AcDbEntity
  8
0
100
AcDbLine
 10
261.3
 20
209.9722
 30
0.0
 11
270.0
 21
211.1722
 31
0.0
  0
LINE
  5
357
330
1E
100
AcDbEntity
  8
0
100
AcDbLine
 10
253.1
 20
206.5722
 30
0.0
 11
261.3
 21
209.9722
 31
0.0
  0
LINE
  5
358
330
1E
100
AcDbEntity
  8
0
100
AcDbLine
 10
252.6
 20
207.4722
 30
0.0
 11
261.0
 21
210.8722
 31
0.0
  0
LINE
  5
359
330
1E
100
AcDbEntity
  8
0
100
AcDbLine
 10
261.0
 20
210.8722
 30
0.0
 11
270.0
 21
212.1722
 31
0.0
  0
LINE
  5
35A
330
1E
100
AcDbEntity
  8
0
100
AcDbLine
 10
270.0
 20
211.1722
 30
0.0
 11
278.7
 21
209.9722
 31
0.0
  0
LINE
  5
35B
330
1E
100
AcDbEntity
  8
0
100
AcDbLine
 10
270.0
 20
203.6722
 30
0.0
 11
276.8
 21
202.6722
 31
0.0
  0
LINE
  5
35C
330
1E
100
AcDbEntity
  8
0
100
AcDbLine
 10
272.0
 20
203.882344927536
 30
0.0
 11
272.0
 21
209.1722
 31
0.0
  0
LINE
  5
35D
330
1E
100
AcDbEntity
  8
0
100
AcDbLine
 10
286.9
 20
206.5722
 30
0.0
 11
294.0
 21
201.1722
 31
0.0
  0
LINE
  5
35E
330
1E
100
AcDbEntity
  8
0
100
AcDbLine
 10
271.928
 20
209.1722
 30
0.0
 11
272.0
 21
209.1722
 31
0.0
  0
LINE
  5
35F
330
1E
100
AcDbEntity
  8
0
100
AcDbLine
 10
271.736
 20
209.1722
 30
0.0
 11
271.928
 21
209.1722
 31
0.0
  0
LINE
  5
360
330
1E
100
AcDbEntity
  8
0
100
AcDbLine
 10
271.416
 20
209.1722
 30
0.0
 11
271.736
 21
209.1722
 31
0.0
  0
LINE
  5
361
330
1E
100
AcDbEntity
  8
0
100
AcDbLine
 10
270.992
 20
209.1722
 30
0.0
 11
271.416
 21
209.1722
 31
0.0
  0
LINE
  5
362
330
1E
100
AcDbEntity
  8
0
100
AcDbLine
 10
270.512
 20
209.1722
 30
0.0
 11
270.992
 21
209.1722
 31
0.0
  0
LINE
  5
363
330
1E
100
AcDbEntity
  8
0
100
AcDbLine
 10
272.0
 20
209.1722
 30
0.0
 11
272.0
 21
203.882344927536
 31
0.0
  0
LINE
  5
364
330
1E
100
AcDbEntity
  8
0
100
AcDbLine
 10
278.7
 20
209.9722
 30
0.0
 11
286.9
 21
206.5722
 31
0.0
  0
LINE
  5
365
330
1E
100
AcDbEntity
  8
0
100
AcDbLine
 10
279.0
 20
210.8722
 30
0.0
 11
287.4
 21
207.4722
 31
0.0
  0
LINE
  5
366
330
1E
100
AcDbEntity
  8
0
100
AcDbLine
 10
287.4
 20
207.4722
 30
0.0
 11
294.7
 21
201.8722
 31
0.0
  0
LINE
  5
367
330
1E
100
AcDbEntity
  8
0
100
AcDbLine
 10
270.0
 20
204.1722
 30
0.0
 11
276.9
 21
203.1722
 31
0.0
  0
LINE
  5
368
330
1E
100
AcDbEntity
  8
0
100
AcDbLine
 10
276.9
 20
203.1722
 30
0.0
 11
283.4
 21
200.5722
 31
0.0
  0
LINE
  5
369
330
1E
100
AcDbEntity
  8
0
100
AcDbLine
 10
379.978
 20
209.5462
 30
0.0
 11
392.417
 21
207.0832
 31
0.0
  0
LINE
  5
36A
330
1E
100
AcDbEntity
  8
0
100
AcDbLine
 10
367.542
 20
207.0632
 30
0.0
 11
379.978
 21
209.5462
 31
0.0
  0
LINE
  5
36B
330
1E
100
AcDbEntity
  8
0
100
AcDbLine
 10
371.3
 20
209.9722
 30
0.0
 11
380.0
 21
211.1722
 31
0.0
  0
LINE
  5
36C
330
1E
100
AcDbEntity
  8
0
100
AcDbLine
 10
363.1
 20
206.5722
 30
0.0
 11
371.3
 21
209.9722
 31
0.0
  0
LINE
  5
36D
330
1E
100
AcDbEntity
  8
0
100
AcDbLine
 10
371.0
 20
210.8722
 30
0.0
 11
380.0
 21
212.1722
 31
0.0
  0
LINE
  5
36E
330
1E
100
AcDbEntity
  8
0
100
AcDbLine
 10
362.6
 20
207.4722
 30
0.0
 11
371.0
 21
210.8722
 31
0.0
  0
LINE
  5
36F
330
1E
100
AcDbEntity
  8
0
100
AcDbLine
 10
270.0
 20
212.1722
 30
0.0
 11
279.0
 21
210.8722
 31
0.0
  0
LINE
  5
370
330
1E
100
AcDbEntity
  8
0
100
AcDbLine
 10
380.0
 20
211.1722
 30
0.0
 11
388.7
 21
209.9722
 31
0.0
  0
LINE
  5
371
330
1E
100
AcDbEntity
  8
0
100
AcDbLine
 10
392.417
 20
207.0832
 30
0.0
 11
402.966
 21
200.0452
 31
0.0
  0
LINE
  5
372
330
1E
100
AcDbEntity
  8
0
100
AcDbLine
 10
396.9
 20
206.5722
 30
0.0
 11
404.0
 21
201.1722
 31
0.0
  0
LINE
  5
373
330
1E
100
AcDbEntity
  8
0
100
AcDbLine
 10
388.7
 20
209.9722
 30
0.0
 11
396.9
 21
206.5722
 31
0.0
  0
LINE
  5
374
330
1E
100
AcDbEntity
  8
0
100
AcDbLine
 10
389.0
 20
210.8722
 30
0.0
 11
397.4
 21
207.4722
 31
0.0
  0
LINE
  5
375
330
1E
100
AcDbEntity
  8
0
100
AcDbLine
 10
397.4
 20
207.4722
 30
0.0
 11
404.7
 21
201.8722
 31
0.0
  0
LINE
  5
376
330
1E
100
AcDbEntity
  8
0
100
AcDbLine
 10
380.0
 20
212.1722
 30
0.0
 11
389.0
 21
210.8722
 31
0.0
  0
LINE
  5
377
330
1E
100
AcDbEntity
  8
0
100
AcDbLine
 10
404.7
 20
201.8722
 30
0.0
 11
410.3
 21
194.5722
 31
0.0
  0
LINE
  5
378
330
1E
100
AcDbEntity
  8
0
100
AcDbLine
 10
413.7
 20
186.1722
 30
0.0
 11
415.0
 21
177.1722
 31
0.0
  0
LINE
  5
379
330
1E
100
AcDbEntity
  8
0
100
AcDbLine
 10
410.3
 20
194.5722
 30
0.0
 11
413.7
 21
186.1722
 31
0.0
  0
LINE
  5
37A
330
1E
100
AcDbEntity
  8
0
100
AcDbLine
 10
410.3
 20
194.5722
 30
0.0
 11
413.7
 21
186.1722
 31
0.0
  0
LINE
  5
37B
330
1E
100
AcDbEntity
  8
0
100
AcDbLine
 10
413.7
 20
186.1722
 30
0.0
 11
415.0
 21
177.1722
 31
0.0
  0
LINE
  5
37C
330
1E
100
AcDbEntity
  8
0
100
AcDbLine
 10
193.7
 20
186.1722
 30
0.0
 11
195.0
 21
177.1722
 31
0.0
  0
LINE
  5
58B
330
1E
100
AcDbEntity
  8
0
100
AcDbLine
 10
18.789
 20
-28.03348
 30
0.0
 11
24.263
 21
-31.34152
 31
0.0
  0
LINE
  5
58C
330
1E
100
AcDbEntity
  8
0
100
AcDbLine
 10
24.263
 20
-31.34152
 30
0.0
 11
30.03
 21
-33.9212
 31
0.0
  0
LINE
  5
58D
330
1E
100
AcDbEntity
  8
0
100
AcDbLine
 10
30.03
 20
-33.9212
 30
0.0
 11
36.234
 21
-35.7735
 31
0.0
  0
LINE
  5
58E
330
1E
100
AcDbEntity
  8
0
100
AcDbLine
 10
36.234
 20
-35.7735
 30
0.0
 11
42.731
 21
-36.9644
 31
0.0
  0
LINE
  5
58F
330
1E
100
AcDbEntity
  8
0
100
AcDbLine
 10
42.731
 20
-36.9644
 30
0.0
 11
49.154
 21
-37.4271
 31
0.0
  0
LINE
  5
590
330
1E
100
AcDbEntity
  8
0
100
AcDbLine
 10
42.731
 20
-28.08948
 30
0.0
 11
49.154
 21
-28.55203
 31
0.0
  0
LINE
  5
591
330
1E
100
AcDbEntity
  8
0
100
AcDbLine
 10
49.154
 20
-37.4271
 30
0.0
 11
55.577
 21
-36.9644
 31
0.0
  0
LINE
  5
592
330
1E
100
AcDbEntity
  8
0
100
AcDbLine
 10
74.045
 20
-31.34152
 30
0.0
 11
79.519
 21
-28.03348
 31
0.0
  0
LINE
  5
593
330
1E
100
AcDbEntity
  8
0
100
AcDbLine
 10
68.278
 20
-33.9212
 30
0.0
 11
74.045
 21
-31.34152
 31
0.0
  0
LINE
  5
594
330
1E
100
AcDbEntity
  8
0
100
AcDbLine
 10
62.074
 20
-35.7735
 30
0.0
 11
68.278
 21
-33.9212
 31
0.0
  0
LINE
  5
595
330
1E
100
AcDbEntity
  8
0
100
AcDbLine
 10
55.577
 20
-36.9644
 30
0.0
 11
62.074
 21
-35.7735
 31
0.0
  0
LINE
  5
596
330
1E
100
AcDbEntity
  8
0
100
AcDbLine
 10
79.519
 20
-28.03348
 30
0.0
 11
84.482
 21
-24.13003
 31
0.0
  0
LINE
  5
597
330
1E
100
AcDbEntity
  8
0
100
AcDbLine
 10
55.577
 20
-28.08948
 30
0.0
 11
62.074
 21
-26.89855
 31
0.0
  0
LINE
  5
598
330
1E
100
AcDbEntity
  8
0
100
AcDbLine
 10
49.154
 20
-28.55203
 30
0.0
 11
55.577
 21
-28.08948
 31
0.0
  0
LINE
  5
599
330
1E
100
AcDbEntity
  8
0
100
AcDbLine
 10
-0.335
 20
2.0664
 30
0.0
 11
0.979
 21
-3.8213
 31
0.0
  0
LINE
  5
59A
330
1E
100
AcDbEntity
  8
0
100
AcDbLine
 10
-0.335
 20
10.9413
 30
0.0
 11
0.979
 21
5.0536
 31
0.0
  0
LINE
  5
59B
330
1E
100
AcDbEntity
  8
0
100
AcDbLine
 10
-0.846
 20
7.8881
 30
0.0
 11
-0.846
 21
16.7631
 31
0.0
  0
LINE
  5
59C
330
1E
100
AcDbEntity
  8
0
100
AcDbLine
 10
-0.846
 20
7.8881
 30
0.0
 11
-0.335
 21
2.0664
 31
0.0
  0
LINE
  5
59D
330
1E
100
AcDbEntity
  8
0
100
AcDbLine
 10
-0.335
 20
22.5846
 30
0.0
 11
0.979
 21
28.4722
 31
0.0
  0
LINE
  5
59E
330
1E
100
AcDbEntity
  8
0
100
AcDbLine
 10
-0.846
 20
16.7631
 30
0.0
 11
-0.335
 21
22.5846
 31
0.0
  0
LINE
  5
59F
330
1E
100
AcDbEntity
  8
0
100
AcDbLine
 10
-0.846
 20
16.7631
 30
0.0
 11
-0.335
 21
10.9413
 31
0.0
  0
LINE
  5
5A0
330
1E
100
AcDbEntity
  8
0
100
AcDbLine
 10
-0.846
 20
16.7631
 30
0.0
 11
-0.846
 21
7.8881
 31
0.0
  0
LINE
  5
5A1
330
1E
100
AcDbEntity
  8
0
100
AcDbLine
 10
3.023
 20
-9.4443
 30
0.0
 11
5.869
 21
-14.6706
 31
0.0
  0
LINE
  5
5A2
330
1E
100
AcDbEntity
  8
0
100
AcDbLine
 10
0.979
 20
-3.8213
 30
0.0
 11
3.023
 21
-9.4443
 31
0.0
  0
LINE
  5
5A3
330
1E
100
AcDbEntity
  8
0
100
AcDbLine
 10
3.023
 20
-0.5693
 30
0.0
 11
5.869
 21
-5.7955
 31
0.0
  0
LINE
  5
5A4
330
1E
100
AcDbEntity
  8
0
100
AcDbLine
 10
0.979
 20
5.0536
 30
0.0
 11
3.023
 21
-0.5693
 31
0.0
  0
LINE
  5
5A5
330
1E
100
AcDbEntity
  8
0
100
AcDbLine
 10
9.519
 20
-19.6321
 30
0.0
 11
13.826
 21
-24.13003
 31
0.0
  0
LINE
  5
5A6
330
1E
100
AcDbEntity
  8
0
100
AcDbLine
 10
5.869
 20
-14.6706
 30
0.0
 11
9.519
 21
-19.6321
 31
0.0
  0
LINE
  5
5A7
330
1E
100
AcDbEntity
  8
0
100
AcDbLine
 10
9.519
 20
-10.7571
 30
0.0
 11
13.826
 21
-15.255
 31
0.0
  0
LINE
  5
5A8
330
1E
100
AcDbEntity
  8
0
100
AcDbLine
 10
5.869
 20
-5.7955
 30
0.0
 11
9.519
 21
-10.7571
 31
0.0
  0
LINE
  5
5A9
330
1E
100
AcDbEntity
  8
0
100
AcDbLine
 10
13.826
 20
-24.13003
 30
0.0
 11
18.789
 21
-28.03348
 31
0.0
  0
LINE
  5
5AA
330
1E
100
AcDbEntity
  8
0
100
AcDbLine
 10
13.826
 20
-15.255
 30
0.0
 11
18.789
 21
-19.1585
 31
0.0
  0
LINE
  5
5AB
330
1E
100
AcDbEntity
  8
0
100
AcDbLine
 10
14.336
 20
-14.3698
 30
0.0
 11
19.227
 21
-18.2064
 31
0.0
  0
LINE
  5
5AC
330
1E
100
AcDbEntity
  8
0
100
AcDbLine
 10
10.103
 20
-9.9379
 30
0.0
 11
14.336
 21
-14.3698
 31
0.0
  0
LINE
  5
5AD
330
1E
100
AcDbEntity
  8
0
100
AcDbLine
 10
6.453
 20
-5.0423
 30
0.0
 11
10.103
 21
-9.9379
 31
0.0
  0
LINE
  5
5AE
330
1E
100
AcDbEntity
  8
0
100
AcDbLine
 10
3.753
 20
0.1181
 30
0.0
 11
6.453
 21
-5.0423
 31
0.0
  0
LINE
  5
5AF
330
1E
100
AcDbEntity
  8
0
100
AcDbLine
 10
1.636
 20
5.9398
 30
0.0
 11
3.753
 21
0.1181
 31
0.0
  0
LINE
  5
5B0
330
1E
100
AcDbEntity
  8
0
100
AcDbLine
 10
0.395
 20
11.4299
 30
0.0
 11
1.636
 21
5.9398
 31
0.0
  0
LINE
  5
5B1
330
1E
100
AcDbEntity
  8
0
100
AcDbLine
 10
0.979
 20
28.4722
 30
0.0
 11
3.023
 21
34.0954
 31
0.0
  0
LINE
  5
5B2
330
1E
100
AcDbEntity
  8
0
100
AcDbLine
 10
3.023
 20
34.0954
 30
0.0
 11
5.869
 21
39.3214
 31
0.0
  0
LINE
  5
5B3
330
1E
100
AcDbEntity
  8
0
100
AcDbLine
 10
5.869
 20
39.3214
 30
0.0
 11
9.519
 21
44.283
 31
0.0
  0
LINE
  5
5B4
330
1E
100
AcDbEntity
  8
0
100
AcDbLine
 10
9.519
 20
44.283
 30
0.0
 11
13.826
 21
48.7815
 31
0.0
  0
LINE
  5
5B5
330
1E
100
AcDbEntity
  8
0
100
AcDbLine
 10
10.103
 20
44.3086
 30
0.0
 11
14.336
 21
48.741
 31
0.0
  0
LINE
  5
5B6
330
1E
100
AcDbEntity
  8
0
100
AcDbLine
 10
6.453
 20
39.4133
 30
0.0
 11
10.103
 21
44.3086
 31
0.0
  0
LINE
  5
5B7
330
1E
100
AcDbEntity
  8
0
100
AcDbLine
 10
3.753
 20
34.2533
 30
0.0
 11
6.453
 21
39.4133
 31
0.0
  0
LINE
  5
5B8
330
1E
100
AcDbEntity
  8
0
100
AcDbLine
 10
1.636
 20
28.4317
 30
0.0
 11
3.753
 21
34.2533
 31
0.0
  0
LINE
  5
5B9
330
1E
100
AcDbEntity
  8
0
100
AcDbLine
 10
0.395
 20
22.941
 30
0.0
 11
1.636
 21
28.4317
 31
0.0
  0
LINE
  5
5BA
330
1E
100
AcDbEntity
  8
0
100
AcDbLine
 10
-0.116
 20
17.1857
 30
0.0
 11
0.395
 21
22.941
 31
0.0
  0
LINE
  5
5BB
330
1E
100
AcDbEntity
  8
0
100
AcDbLine
 10
-0.116
 20
17.1857
 30
0.0
 11
0.395
 21
11.4299
 31
0.0
  0
LINE
  5
5BC
330
1E
100
AcDbEntity
  8
0
100
AcDbLine
 10
13.826
 20
48.7815
 30
0.0
 11
18.789
 21
52.6844
 31
0.0
  0
LINE
  5
5BD
330
1E
100
AcDbEntity
  8
0
100
AcDbLine
 10
18.789
 20
-19.1585
 30
0.0
 11
24.263
 21
-22.46657
 31
0.0
  0
LINE
  5
5BE
330
1E
100
AcDbEntity
  8
0
100
AcDbLine
 10
24.263
 20
-22.46657
 30
0.0
 11
30.03
 21
-25.04621
 31
0.0
  0
LINE
  5
5BF
330
1E
100
AcDbEntity
  8
0
100
AcDbLine
 10
19.227
 20
-18.2064
 30
0.0
 11
24.628
 21
-21.5144
 31
0.0
  0
LINE
  5
5C0
330
1E
100
AcDbEntity
  8
0
100
AcDbLine
 10
24.628
 20
-21.5144
 30
0.0
 11
30.322
 21
-23.96219
 31
0.0
  0
LINE
  5
5C1
330
1E
100
AcDbEntity
  8
0
100
AcDbLine
 10
14.336
 20
48.741
 30
0.0
 11
19.227
 21
52.5778
 31
0.0
  0
LINE
  5
5C2
330
1E
100
AcDbEntity
  8
0
100
AcDbLine
 10
18.789
 20
52.6844
 30
0.0
 11
24.263
 21
55.9922
 31
0.0
  0
LINE
  5
5C3
330
1E
100
AcDbEntity
  8
0
100
AcDbLine
 10
24.263
 20
55.9922
 30
0.0
 11
30.03
 21
58.5722
 31
0.0
  0
LINE
  5
5C4
330
1E
100
AcDbEntity
  8
0
100
AcDbLine
 10
19.227
 20
52.5778
 30
0.0
 11
24.628
 21
55.8856
 31
0.0
  0
LINE
  5
5C5
330
1E
100
AcDbEntity
  8
0
100
AcDbLine
 10
30.03
 20
-25.04621
 30
0.0
 11
36.234
 21
-26.89855
 31
0.0
  0
LINE
  5
5C6
330
1E
100
AcDbEntity
  8
0
100
AcDbLine
 10
36.234
 20
-26.89855
 30
0.0
 11
42.731
 21
-28.08948
 31
0.0
  0
LINE
  5
5C7
330
1E
100
AcDbEntity
  8
0
100
AcDbLine
 10
30.322
 20
-23.96219
 30
0.0
 11
36.745
 21
-25.88042
 31
0.0
  0
LINE
  5
5C8
330
1E
100
AcDbEntity
  8
0
100
AcDbLine
 10
36.745
 20
-25.88042
 30
0.0
 11
42.804
 21
-27.00546
 31
0.0
  0
LINE
  5
5C9
330
1E
100
AcDbEntity
  8
0
100
AcDbLine
 10
24.628
 20
55.8856
 30
0.0
 11
30.322
 21
58.3333
 31
0.0
  0
LINE
  5
5CA
330
1E
100
AcDbEntity
  8
0
100
AcDbLine
 10
30.03
 20
58.5722
 30
0.0
 11
36.234
 21
60.4245
 31
0.0
  0
LINE
  5
5CB
330
1E
100
AcDbEntity
  8
0
100
AcDbLine
 10
36.234
 20
60.4245
 30
0.0
 11
42.731
 21
61.6153
 31
0.0
  0
LINE
  5
5CC
330
1E
100
AcDbEntity
  8
0
100
AcDbLine
 10
30.322
 20
58.3333
 30
0.0
 11
36.745
 21
60.2518
 31
0.0
  0
LINE
  5
5CD
330
1E
100
AcDbEntity
  8
0
100
AcDbLine
 10
40.514
 20
61.208958057565
 30
0.0
 11
40.514
 21
70.7182
 31
0.0
  0
LINE
  5
5CE
330
1E
100
AcDbEntity
  8
0
100
AcDbLine
 10
42.804
 20
-27.00546
 30
0.0
 11
49.154
 21
-27.468
 31
0.0
  0
LINE
  5
5CF
330
1E
100
AcDbEntity
  8
0
100
AcDbLine
 10
36.745
 20
60.2518
 30
0.0
 11
42.804
 21
61.3763
 31
0.0
  0
LINE
  5
5D0
330
1E
100
AcDbEntity
  8
0
100
AcDbLine
 10
42.731
 20
61.6153
 30
0.0
 11
49.154
 21
62.0784
 31
0.0
  0
LINE
  5
5D1
330
1E
100
AcDbEntity
  8
0
100
AcDbLine
 10
42.804
 20
61.3763
 30
0.0
 11
49.154
 21
61.8394
 31
0.0
  0
LINE
  5
5D2
330
1E
100
AcDbEntity
  8
0
100
AcDbLine
 10
55.504
 20
61.3763
 30
0.0
 11
61.563
 21
60.2518
 31
0.0
  0
LINE
  5
5D3
330
1E
100
AcDbEntity
  8
0
100
AcDbLine
 10
37.538
 20
69.3382
 30
0.0
 11
38.786
 21
68.0362
 31
0.0
  0
LINE
  5
5D4
330
1E
100
AcDbEntity
  8
0
100
AcDbLine
 10
37.154
 20
70.7182
 30
0.0
 11
37.538
 21
72.1382
 31
0.0
  0
LINE
  5
5D5
330
1E
100
AcDbEntity
  8
0
100
AcDbLine
 10
37.154
 20
70.7182
 30
0.0
 11
37.538
 21
69.3382
 31
0.0
  0
LINE
  5
5D6
330
1E
100
AcDbEntity
  8
0
100
AcDbLine
 10
37.154
 20
70.7182
 30
0.0
 11
37.154
 21
131.1992
 31
0.0
  0
LINE
  5
5D7
330
1E
100
AcDbEntity
  8
0
100
AcDbLine
 10
38.786
 20
68.0362
 30
0.0
 11
40.514
 21
67.00696
 31
0.0
  0
LINE
  5
5D8
330
1E
100
AcDbEntity
  8
0
100
AcDbLine
 10
37.538
 20
72.1382
 30
0.0
 11
38.786
 21
73.4402
 31
0.0
  0
LINE
  5
5D9
330
1E
100
AcDbEntity
  8
0
100
AcDbLine
 10
38.786
 20
73.4402
 30
0.0
 11
40.706
 21
74.5832
 31
0.0
  0
LINE
  5
5DA
330
1E
100
AcDbEntity
  8
0
100
AcDbLine
 10
40.706
 20
74.5832
 30
0.0
 11
43.202
 21
75.4512
 31
0.0
  0
LINE
  5
5DB
330
1E
100
AcDbEntity
  8
0
100
AcDbLine
 10
46.946
 20
74.5042
 30
0.0
 11
49.154
 21
74.6622
 31
0.0
  0
LINE
  5
5DC
330
1E
100
AcDbEntity
  8
0
100
AcDbLine
 10
44.834
 20
74.1092
 30
0.0
 11
46.946
 21
74.5042
 31
0.0
  0
LINE
  5
5DD
330
1E
100
AcDbEntity
  8
0
100
AcDbLine
 10
43.01
 20
73.4792
 30
0.0
 11
44.834
 21
74.1092
 31
0.0
  0
LINE
  5
5DE
330
1E
100
AcDbEntity
  8
0
100
AcDbLine
 10
41.666
 20
72.6902
 30
0.0
 11
43.01
 21
73.4792
 31
0.0
  0
LINE
  5
5DF
330
1E
100
AcDbEntity
  8
0
100
AcDbLine
 10
40.802
 20
71.7432
 30
0.0
 11
41.666
 21
72.6902
 31
0.0
  0
LINE
  5
5E0
330
1E
100
AcDbEntity
  8
0
100
AcDbLine
 10
40.514
 20
70.7182
 30
0.0
 11
40.514
 21
61.208958057565
 31
0.0
  0
LINE
  5
5E1
330
1E
100
AcDbEntity
  8
0
100
AcDbLine
 10
40.514
 20
70.7182
 30
0.0
 11
40.802
 21
71.7432
 31
0.0
  0
LINE
  5
5E2
330
1E
100
AcDbEntity
  8
0
100
AcDbLine
 10
33.757
 20
130.2342
 30
0.0
 11
35.219
 21
127.3792
 31
0.0
  0
LINE
  5
5E3
330
1E
100
AcDbEntity
  8
0
100
AcDbLine
 10
36.803
 20
125.6052
 30
0.0
 11
37.154
 21
125.330441803279
 31
0.0
  0
LINE
  5
5E4
330
1E
100
AcDbEntity
  8
0
100
AcDbLine
 10
35.219
 20
127.3792
 30
0.0
 11
35.676
 21
127.1742
 31
0.0
  0
LINE
  5
5E5
330
1E
100
AcDbEntity
  8
0
100
AcDbLine
 10
35.328049608484
 20
127.330282779564
 30
0.0
 11
36.803
 21
125.6052
 31
0.0
  0
LINE
  5
5E6
330
1E
100
AcDbEntity
  8
0
100
AcDbLine
 10
35.676
 20
127.1742
 30
0.0
 11
37.154
 21
125.594558841779
 31
0.0
  0
LINE
  5
5E7
330
1E
100
AcDbEntity
  8
0
100
AcDbLine
 10
34.094
 20
129.5582
 30
0.0
 11
34.153767041061
 21
129.459391585343
 31
0.0
  0
LINE
  5
5E8
330
1E
100
AcDbEntity
  8
0
100
AcDbLine
 10
33.121
 20
134.2852
 30
0.0
 11
33.644
 21
136.9572
 31
0.0
  0
LINE
  5
5E9
330
1E
100
AcDbEntity
  8
0
100
AcDbLine
 10
33.121
 20
134.2852
 30
0.0
 11
33.304
 21
131.8832
 31
0.0
  0
LINE
  5
5EA
330
1E
100
AcDbEntity
  8
0
100
AcDbLine
 10
33.304
 20
131.8832
 30
0.0
 11
33.757
 21
130.2342
 31
0.0
  0
LINE
  5
5EB
330
1E
100
AcDbEntity
  8
0
100
AcDbLine
 10
37.154
 20
131.1992
 30
0.0
 11
37.154
 21
70.7182
 31
0.0
  0
LINE
  5
5EC
330
1E
100
AcDbEntity
  8
0
100
AcDbLine
 10
37.154
 20
131.1992
 30
0.0
 11
37.538
 21
133.5932
 31
0.0
  0
LINE
  5
5ED
330
1E
100
AcDbEntity
  8
0
100
AcDbLine
 10
37.538
 20
133.5932
 30
0.0
 11
38.786
 21
135.8192
 31
0.0
  0
LINE
  5
5EE
330
1E
100
AcDbEntity
  8
0
100
AcDbLine
 10
33.644
 20
136.9572
 30
0.0
 11
34.949
 21
139.4732
 31
0.0
  0
LINE
  5
5EF
330
1E
100
AcDbEntity
  8
0
100
AcDbLine
 10
38.786
 20
135.8192
 30
0.0
 11
40.706
 21
137.7492
 31
0.0
  0
LINE
  5
5F0
330
1E
100
AcDbEntity
  8
0
100
AcDbLine
 10
40.706
 20
137.7492
 30
0.0
 11
43.202
 21
139.1732
 31
0.0
  0
LINE
  5
5F1
330
1E
100
AcDbEntity
  8
0
100
AcDbLine
 10
34.949
 20
139.4732
 30
0.0
 11
36.883
 21
141.7392
 31
0.0
  0
LINE
  5
5F2
330
1E
100
AcDbEntity
  8
0
100
AcDbLine
 10
43.202
 20
139.1732
 30
0.0
 11
46.082
 21
140.0532
 31
0.0
  0
LINE
  5
5F3
330
1E
100
AcDbEntity
  8
0
100
AcDbLine
 10
43.202
 20
75.4512
 30
0.0
 11
46.082
 21
75.9632
 31
0.0
  0
LINE
  5
5F4
330
1E
100
AcDbEntity
  8
0
100
AcDbLine
 10
46.082
 20
140.0532
 30
0.0
 11
49.154
 21
140.3902
 31
0.0
  0
LINE
  5
5F5
330
1E
100
AcDbEntity
  8
0
100
AcDbLine
 10
46.082
 20
75.9632
 30
0.0
 11
49.154
 21
76.1602
 31
0.0
  0
LINE
  5
5F6
330
1E
100
AcDbEntity
  8
0
100
AcDbLine
 10
36.883
 20
141.7392
 30
0.0
 11
39.768
 21
143.7762
 31
0.0
  0
LINE
  5
5F7
330
1E
100
AcDbEntity
  8
0
100
AcDbLine
 10
39.768
 20
143.7762
 30
0.0
 11
43.582
 21
145.3292
 31
0.0
  0
LINE
  5
5F8
330
1E
100
AcDbEntity
  8
0
100
AcDbLine
 10
49.154
 20
140.3902
 30
0.0
 11
52.226
 21
140.0532
 31
0.0
  0
LINE
  5
5F9
330
1E
100
AcDbEntity
  8
0
100
AcDbLine
 10
49.154
 20
76.1602
 30
0.0
 11
52.226
 21
75.9632
 31
0.0
  0
LINE
  5
5FA
330
1E
100
AcDbEntity
  8
0
100
AcDbLine
 10
49.154
 20
74.6622
 30
0.0
 11
51.362
 21
74.5042
 31
0.0
  0
LINE
  5
5FB
330
1E
100
AcDbEntity
  8
0
100
AcDbLine
 10
55.298
 20
73.4792
 30
0.0
 11
56.642
 21
72.6902
 31
0.0
  0
LINE
  5
5FC
330
1E
100
AcDbEntity
  8
0
100
AcDbLine
 10
53.474
 20
74.1092
 30
0.0
 11
55.298
 21
73.4792
 31
0.0
  0
LINE
  5
5FD
330
1E
100
AcDbEntity
  8
0
100
AcDbLine
 10
52.226
 20
140.0532
 30
0.0
 11
55.106
 21
139.1732
 31
0.0
  0
LINE
  5
5FE
330
1E
100
AcDbEntity
  8
0
100
AcDbLine
 10
55.106
 20
139.1732
 30
0.0
 11
57.602
 21
137.7492
 31
0.0
  0
LINE
  5
5FF
330
1E
100
AcDbEntity
  8
0
100
AcDbLine
 10
55.106
 20
75.4512
 30
0.0
 11
57.602
 21
74.5832
 31
0.0
  0
LINE
  5
600
330
1E
100
AcDbEntity
  8
0
100
AcDbLine
 10
52.226
 20
75.9632
 30
0.0
 11
55.106
 21
75.4512
 31
0.0
  0
LINE
  5
601
330
1E
100
AcDbEntity
  8
0
100
AcDbLine
 10
51.362
 20
74.5042
 30
0.0
 11
53.474
 21
74.1092
 31
0.0
  0
LINE
  5
602
330
1E
100
AcDbEntity
  8
0
100
AcDbLine
 10
49.154
 20
62.0784
 30
0.0
 11
55.577
 21
61.6153
 31
0.0
  0
LINE
  5
603
330
1E
100
AcDbEntity
  8
0
100
AcDbLine
 10
49.154
 20
61.8394
 30
0.0
 11
55.504
 21
61.3763
 31
0.0
  0
LINE
  5
604
330
1E
100
AcDbEntity
  8
0
100
AcDbLine
 10
62.074
 20
-26.89855
 30
0.0
 11
68.278
 21
-25.04621
 31
0.0
  0
LINE
  5
605
330
1E
100
AcDbEntity
  8
0
100
AcDbLine
 10
67.986
 20
58.3333
 30
0.0
 11
73.68
 21
55.8856
 31
0.0
  0
LINE
  5
606
330
1E
100
AcDbEntity
  8
0
100
AcDbLine
 10
57.794
 20
67.00696
 30
0.0
 11
59.522
 21
68.0362
 31
0.0
  0
LINE
  5
607
330
1E
100
AcDbEntity
  8
0
100
AcDbLine
 10
59.522
 20
68.0362
 30
0.0
 11
60.77
 21
69.3382
 31
0.0
  0
LINE
  5
608
330
1E
100
AcDbEntity
  8
0
100
AcDbLine
 10
61.154
 20
70.7182
 30
0.0
 11
61.154
 21
131.1992
 31
0.0
  0
LINE
  5
609
330
1E
100
AcDbEntity
  8
0
100
AcDbLine
 10
60.77
 20
69.3382
 30
0.0
 11
61.154
 21
70.7182
 31
0.0
  0
LINE
  5
60A
330
1E
100
AcDbEntity
  8
0
100
AcDbLine
 10
57.602
 20
137.7492
 30
0.0
 11
59.522
 21
135.8192
 31
0.0
  0
LINE
  5
60B
330
1E
100
AcDbEntity
  8
0
100
AcDbLine
 10
60.77
 20
72.1382
 30
0.0
 11
61.154
 21
70.7182
 31
0.0
  0
LINE
  5
60C
330
1E
100
AcDbEntity
  8
0
100
AcDbLine
 10
61.154
 20
125.377763492063
 30
0.0
 11
61.875
 21
126.1192
 31
0.0
  0
LINE
  5
60D
330
1E
100
AcDbEntity
  8
0
100
AcDbLine
 10
61.154
 20
126.065529273793
 30
0.0
 11
61.378
 21
126.2672
 31
0.0
  0
LINE
  5
60E
330
1E
100
AcDbEntity
  8
0
100
AcDbLine
 10
61.875
 20
126.1192
 30
0.0
 11
63.765
 21
128.5322
 31
0.0
  0
LINE
  5
60F
330
1E
100
AcDbEntity
  8
0
100
AcDbLine
 10
64.753
 20
130.9112
 30
0.0
 11
65.141
 21
133.0012
 31
0.0
  0
LINE
  5
610
330
1E
100
AcDbEntity
  8
0
100
AcDbLine
 10
63.765
 20
128.5322
 30
0.0
 11
64.753
 21
130.9112
 31
0.0
  0
LINE
  5
611
330
1E
100
AcDbEntity
  8
0
100
AcDbLine
 10
61.154
 20
131.1992
 30
0.0
 11
61.154
 21
70.7182
 31
0.0
  0
LINE
  5
612
330
1E
100
AcDbEntity
  8
0
100
AcDbLine
 10
60.085
 20
142.7742
 30
0.0
 11
61.94
 21
141.2112
 31
0.0
  0
LINE
  5
613
330
1E
100
AcDbEntity
  8
0
100
AcDbLine
 10
61.94
 20
141.2112
 30
0.0
 11
63.169
 21
139.6712
 31
0.0
  0
LINE
  5
614
330
1E
100
AcDbEntity
  8
0
100
AcDbLine
 10
64.912
 20
136.0032
 30
0.0
 11
65.141
 21
133.0012
 31
0.0
  0
LINE
  5
615
330
1E
100
AcDbEntity
  8
0
100
AcDbLine
 10
64.162
 20
138.0312
 30
0.0
 11
64.221989660265
 21
137.854496279193
 31
0.0
  0
LINE
  5
616
330
1E
100
AcDbEntity
  8
0
100
AcDbLine
 10
64.335
 20
137.7602
 30
0.0
 11
64.912
 21
136.0032
 31
0.0
  0
LINE
  5
617
330
1E
100
AcDbEntity
  8
0
100
AcDbLine
 10
63.169
 20
139.6712
 30
0.0
 11
64.162
 21
138.0312
 31
0.0
  0
LINE
  5
618
330
1E
100
AcDbEntity
  8
0
100
AcDbLine
 10
60.77
 20
133.5932
 30
0.0
 11
61.154
 21
131.1992
 31
0.0
  0
LINE
  5
619
330
1E
100
AcDbEntity
  8
0
100
AcDbLine
 10
59.522
 20
135.8192
 30
0.0
 11
60.77
 21
133.5932
 31
0.0
  0
LINE
  5
61A
330
1E
100
AcDbEntity
  8
0
100
AcDbLine
 10
59.522
 20
73.4402
 30
0.0
 11
60.77
 21
72.1382
 31
0.0
  0
LINE
  5
61B
330
1E
100
AcDbEntity
  8
0
100
AcDbLine
 10
57.602
 20
74.5832
 30
0.0
 11
59.522
 21
73.4402
 31
0.0
  0
LINE
  5
61C
330
1E
100
AcDbEntity
  8
0
100
AcDbLine
 10
57.794
 20
70.7182
 30
0.0
 11
57.794
 21
61.208958057565
 31
0.0
  0
LINE
  5
61D
330
1E
100
AcDbEntity
  8
0
100
AcDbLine
 10
57.506
 20
71.7432
 30
0.0
 11
57.794
 21
70.7182
 31
0.0
  0
LINE
  5
61E
330
1E
100
AcDbEntity
  8
0
100
AcDbLine
 10
57.794
 20
61.208958057565
 30
0.0
 11
57.794
 21
70.7182
 31
0.0
  0
LINE
  5
61F
330
1E
100
AcDbEntity
  8
0
100
AcDbLine
 10
56.642
 20
72.6902
 30
0.0
 11
57.506
 21
71.7432
 31
0.0
  0
LINE
  5
620
330
1E
100
AcDbEntity
  8
0
100
AcDbLine
 10
62.074
 20
60.4245
 30
0.0
 11
68.278
 21
58.5722
 31
0.0
  0
LINE
  5
621
330
1E
100
AcDbEntity
  8
0
100
AcDbLine
 10
55.577
 20
61.6153
 30
0.0
 11
62.074
 21
60.4245
 31
0.0
  0
LINE
  5
622
330
1E
100
AcDbEntity
  8
0
100
AcDbLine
 10
61.563
 20
60.2518
 30
0.0
 11
67.986
 21
58.3333
 31
0.0
  0
LINE
  5
623
330
1E
100
AcDbEntity
  8
0
100
AcDbLine
 10
84.482
 20
-24.13003
 30
0.0
 11
88.789
 21
-19.6321
 31
0.0
  0
LINE
  5
624
330
1E
100
AcDbEntity
  8
0
100
AcDbLine
 10
74.045
 20
-22.46657
 30
0.0
 11
79.519
 21
-19.1585
 31
0.0
  0
LINE
  5
625
330
1E
100
AcDbEntity
  8
0
100
AcDbLine
 10
68.278
 20
-25.04621
 30
0.0
 11
74.045
 21
-22.46657
 31
0.0
  0
LINE
  5
626
330
1E
100
AcDbEntity
  8
0
100
AcDbLine
 10
79.081
 20
52.5778
 30
0.0
 11
83.972
 21
48.741
 31
0.0
  0
LINE
  5
627
330
1E
100
AcDbEntity
  8
0
100
AcDbLine
 10
74.045
 20
55.9922
 30
0.0
 11
79.519
 21
52.6844
 31
0.0
  0
LINE
  5
628
330
1E
100
AcDbEntity
  8
0
100
AcDbLine
 10
68.278
 20
58.5722
 30
0.0
 11
74.045
 21
55.9922
 31
0.0
  0
LINE
  5
629
330
1E
100
AcDbEntity
  8
0
100
AcDbLine
 10
73.68
 20
55.8856
 30
0.0
 11
79.081
 21
52.5778
 31
0.0
  0
LINE
  5
62A
330
1E
100
AcDbEntity
  8
0
100
AcDbLine
 10
88.789
 20
-19.6321
 30
0.0
 11
92.439
 21
-14.6706
 31
0.0
  0
LINE
  5
62B
330
1E
100
AcDbEntity
  8
0
100
AcDbLine
 10
84.482
 20
-15.255
 30
0.0
 11
88.789
 21
-10.7571
 31
0.0
  0
LINE
  5
62C
330
1E
100
AcDbEntity
  8
0
100
AcDbLine
 10
83.972
 20
-14.3698
 30
0.0
 11
88.205
 21
-9.9379
 31
0.0
  0
LINE
  5
62D
330
1E
100
AcDbEntity
  8
0
100
AcDbLine
 10
92.439
 20
-14.6706
 30
0.0
 11
95.285
 21
-9.4443
 31
0.0
  0
LINE
  5
62E
330
1E
100
AcDbEntity
  8
0
100
AcDbLine
 10
88.789
 20
-10.7571
 30
0.0
 11
92.439
 21
-5.7955
 31
0.0
  0
LINE
  5
62F
330
1E
100
AcDbEntity
  8
0
100
AcDbLine
 10
92.439
 20
-5.7955
 30
0.0
 11
95.285
 21
-0.5693
 31
0.0
  0
LINE
  5
630
330
1E
100
AcDbEntity
  8
0
100
AcDbLine
 10
88.205
 20
-9.9379
 30
0.0
 11
91.855
 21
-5.0423
 31
0.0
  0
LINE
  5
631
330
1E
100
AcDbEntity
  8
0
100
AcDbLine
 10
91.855
 20
-5.0423
 30
0.0
 11
94.555
 21
0.1181
 31
0.0
  0
LINE
  5
632
330
1E
100
AcDbEntity
  8
0
100
AcDbLine
 10
95.285
 20
-9.4443
 30
0.0
 11
97.329
 21
-3.8213
 31
0.0
  0
LINE
  5
633
330
1E
100
AcDbEntity
  8
0
100
AcDbLine
 10
97.329
 20
-3.8213
 30
0.0
 11
98.643
 21
2.0664
 31
0.0
  0
LINE
  5
634
330
1E
100
AcDbEntity
  8
0
100
AcDbLine
 10
95.285
 20
-0.5693
 30
0.0
 11
97.329
 21
5.0536
 31
0.0
  0
LINE
  5
635
330
1E
100
AcDbEntity
  8
0
100
AcDbLine
 10
97.329
 20
5.0536
 30
0.0
 11
98.643
 21
10.9413
 31
0.0
  0
LINE
  5
636
330
1E
100
AcDbEntity
  8
0
100
AcDbLine
 10
94.555
 20
0.1181
 30
0.0
 11
96.672
 21
5.9398
 31
0.0
  0
LINE
  5
637
330
1E
100
AcDbEntity
  8
0
100
AcDbLine
 10
92.439
 20
39.3214
 30
0.0
 11
95.285
 21
34.0954
 31
0.0
  0
LINE
  5
638
330
1E
100
AcDbEntity
  8
0
100
AcDbLine
 10
79.519
 20
52.6844
 30
0.0
 11
84.482
 21
48.7815
 31
0.0
  0
LINE
  5
639
330
1E
100
AcDbEntity
  8
0
100
AcDbLine
 10
84.482
 20
48.7815
 30
0.0
 11
88.789
 21
44.283
 31
0.0
  0
LINE
  5
63A
330
1E
100
AcDbEntity
  8
0
100
AcDbLine
 10
83.972
 20
48.741
 30
0.0
 11
88.205
 21
44.3086
 31
0.0
  0
LINE
  5
63B
330
1E
100
AcDbEntity
  8
0
100
AcDbLine
 10
88.789
 20
44.283
 30
0.0
 11
92.439
 21
39.3214
 31
0.0
  0
LINE
  5
63C
330
1E
100
AcDbEntity
  8
0
100
AcDbLine
 10
88.205
 20
44.3086
 30
0.0
 11
91.855
 21
39.4133
 31
0.0
  0
LINE
  5
63D
330
1E
100
AcDbEntity
  8
0
100
AcDbLine
 10
91.855
 20
39.4133
 30
0.0
 11
94.555
 21
34.2533
 31
0.0
  0
LINE
  5
63E
330
1E
100
AcDbEntity
  8
0
100
AcDbLine
 10
95.285
 20
34.0954
 30
0.0
 11
97.329
 21
28.4722
 31
0.0
  0
LINE
  5
63F
330
1E
100
AcDbEntity
  8
0
100
AcDbLine
 10
97.329
 20
28.4722
 30
0.0
 11
98.643
 21
22.5846
 31
0.0
  0
LINE
  5
640
330
1E
100
AcDbEntity
  8
0
100
AcDbLine
 10
94.555
 20
34.2533
 30
0.0
 11
96.672
 21
28.4317
 31
0.0
  0
LINE
  5
641
330
1E
100
AcDbEntity
  8
0
100
AcDbLine
 10
96.672
 20
28.4317
 30
0.0
 11
97.913
 21
22.941
 31
0.0
  0
LINE
  5
642
330
1E
100
AcDbEntity
  8
0
100
AcDbLine
 10
97.913
 20
22.941
 30
0.0
 11
98.424
 21
17.1857
 31
0.0
  0
LINE
  5
643
330
1E
100
AcDbEntity
  8
0
100
AcDbLine
 10
96.672
 20
5.9398
 30
0.0
 11
97.913
 21
11.4299
 31
0.0
  0
LINE
  5
644
330
1E
100
AcDbEntity
  8
0
100
AcDbLine
 10
99.154
 20
7.8881
 30
0.0
 11
99.154
 21
16.7631
 31
0.0
  0
LINE
  5
645
330
1E
100
AcDbEntity
  8
0
100
AcDbLine
 10
98.643
 20
2.0664
 30
0.0
 11
99.154
 21
7.8881
 31
0.0
  0
LINE
  5
646
330
1E
100
AcDbEntity
  8
0
100
AcDbLine
 10
99.154
 20
16.7631
 30
0.0
 11
99.154
 21
7.8881
 31
0.0
  0
LINE
  5
647
330
1E
100
AcDbEntity
  8
0
100
AcDbLine
 10
98.643
 20
22.5846
 30
0.0
 11
99.154
 21
16.7631
 31
0.0
  0
LINE
  5
648
330
1E
100
AcDbEntity
  8
0
100
AcDbLine
 10
98.643
 20
10.9413
 30
0.0
 11
99.154
 21
16.7631
 31
0.0
  0
LINE
  5
649
330
1E
100
AcDbEntity
  8
0
100
AcDbLine
 10
97.913
 20
11.4299
 30
0.0
 11
98.424
 21
17.1857
 31
0.0
  0
LINE
  5
64A
330
1E
100
AcDbEntity
  8
0
100
AcDbLine
 10
79.519
 20
-19.1585
 30
0.0
 11
84.482
 21
-15.255
 31
0.0
  0
LINE
  5
64B
330
1E
100
AcDbEntity
  8
0
100
AcDbLine
 10
79.081
 20
-18.2064
 30
0.0
 11
83.972
 21
-14.3698
 31
0.0
  0
LINE
  5
64C
330
1E
100
AcDbEntity
  8
0
100
AcDbLine
 10
73.68
 20
-21.5144
 30
0.0
 11
79.081
 21
-18.2064
 31
0.0
  0
LINE
  5
64D
330
1E
100
AcDbEntity
  8
0
100
AcDbLine
 10
67.986
 20
-23.96219
 30
0.0
 11
73.68
 21
-21.5144
 31
0.0
  0
LINE
  5
64E
330
1E
100
AcDbEntity
  8
0
100
AcDbLine
 10
61.563
 20
-25.88042
 30
0.0
 11
67.986
 21
-23.96219
 31
0.0
  0
LINE
  5
64F
330
1E
100
AcDbEntity
  8
0
100
AcDbLine
 10
55.504
 20
-27.00546
 30
0.0
 11
61.563
 21
-25.88042
 31
0.0
  0
LINE
  5
650
330
1E
100
AcDbEntity
  8
0
100
AcDbLine
 10
49.154
 20
-27.468
 30
0.0
 11
55.504
 21
-27.00546
 31
0.0
  0
LINE
  5
651
330
1E
100
AcDbEntity
  8
0
100
AcDbLine
 10
26.809
 20
150.1612
 30
0.0
 11
29.528
 21
148.1842
 31
0.0
  0
LINE
  5
652
330
1E
100
AcDbEntity
  8
0
100
AcDbLine
 10
29.528
 20
148.1842
 30
0.0
 11
32.375
 21
146.5142
 31
0.0
  0
LINE
  5
653
330
1E
100
AcDbEntity
  8
0
100
AcDbLine
 10
24.368
 20
152.4332
 30
0.0
 11
25.402810987608
 21
151.470033034066
 31
0.0
  0
LINE
  5
654
330
1E
100
AcDbEntity
  8
0
100
AcDbLine
 10
25.402810987608
 20
151.470033034066
 30
0.0
 11
26.809
 21
150.1612
 31
0.0
  0
LINE
  5
655
330
1E
100
AcDbEntity
  8
0
100
AcDbLine
 10
33.136
 20
145.1002
 30
0.0
 11
33.163707367469
 21
134.503391368792
 31
0.0
  0
LINE
  5
656
330
1E
100
AcDbEntity
  8
0
100
AcDbLine
 10
33.136
 20
145.1002
 30
0.0
 11
33.358
 21
148.1052
 31
0.0
  0
LINE
  5
657
330
1E
100
AcDbEntity
  8
0
100
AcDbLine
 10
33.377618492412
 20
148.150843349202
 30
0.0
 11
33.521
 21
149.1972
 31
0.0
  0
LINE
  5
658
330
1E
100
AcDbEntity
  8
0
100
AcDbLine
 10
33.358
 20
148.1052
 30
0.0
 11
34.586
 21
150.9622
 31
0.0
  0
LINE
  5
659
330
1E
100
AcDbEntity
  8
0
100
AcDbLine
 10
43.582
 20
145.3292
 30
0.0
 11
47.407
 21
146.0232
 31
0.0
  0
LINE
  5
65A
330
1E
100
AcDbEntity
  8
0
100
AcDbLine
 10
56.578
 20
144.7192
 30
0.0
 11
60.085
 21
142.7742
 31
0.0
  0
LINE
  5
65B
330
1E
100
AcDbEntity
  8
0
100
AcDbLine
 10
47.407
 20
146.0232
 30
0.0
 11
52.5
 21
145.8212
 31
0.0
  0
LINE
  5
65C
330
1E
100
AcDbEntity
  8
0
100
AcDbLine
 10
52.5
 20
145.8212
 30
0.0
 11
56.578
 21
144.7192
 31
0.0
  0
LINE
  5
65D
330
1E
100
AcDbEntity
  8
0
100
AcDbLine
 10
65.107107158879
 20
146.125892505437
 30
0.0
 11
68.757
 21
148.2052
 31
0.0
  0
LINE
  5
65E
330
1E
100
AcDbEntity
  8
0
100
AcDbLine
 10
64.931
 20
148.2462
 30
0.0
 11
65.128
 21
146.3292
 31
0.0
  0
LINE
  5
65F
330
1E
100
AcDbEntity
  8
0
100
AcDbLine
 10
64.841
 20
148.3242
 30
0.0
 11
65.115
 21
144.7232
 31
0.0
  0
LINE
  5
660
330
1E
100
AcDbEntity
  8
0
100
AcDbLine
 10
65.128
 20
146.137794948335
 30
0.0
 11
65.128
 21
172.1482
 31
0.0
  0
LINE
  5
661
330
1E
100
AcDbEntity
  8
0
100
AcDbLine
 10
65.115
 20
144.7232
 30
0.0
 11
65.134
 21
133.3042
 31
0.0
  0
LINE
  5
662
330
1E
100
AcDbEntity
  8
0
100
AcDbLine
 10
33.521
 20
149.1972
 30
0.0
 11
34.871
 21
151.8942
 31
0.0
  0
LINE
  5
663
330
1E
100
AcDbEntity
  8
0
100
AcDbLine
 10
34.586
 20
150.9622
 30
0.0
 11
36.627
 21
153.5272
 31
0.0
  0
LINE
  5
664
330
1E
100
AcDbEntity
  8
0
100
AcDbLine
 10
64.176
 20
150.0622
 30
0.0
 11
64.841
 21
148.3242
 31
0.0
  0
LINE
  5
665
330
1E
100
AcDbEntity
  8
0
100
AcDbLine
 10
68.757
 20
148.2052
 30
0.0
 11
72.655
 21
151.2922
 31
0.0
  0
LINE
  5
666
330
1E
100
AcDbEntity
  8
0
100
AcDbLine
 10
63.953
 20
151.0372
 30
0.0
 11
64.931
 21
148.2462
 31
0.0
  0
LINE
  5
667
330
1E
100
AcDbEntity
  8
0
100
AcDbLine
 10
34.871
 20
151.8932
 30
0.0
 11
36.183
 21
153.5332
 31
0.0
  0
LINE
  5
668
330
1E
100
AcDbEntity
  8
0
100
AcDbLine
 10
72.655
 20
151.2922
 30
0.0
 11
75.009
 21
153.6462
 31
0.0
  0
LINE
  5
669
330
1E
100
AcDbEntity
  8
0
100
AcDbLine
 10
63.212
 20
151.7112
 30
0.0
 11
64.176
 21
150.0622
 31
0.0
  0
LINE
  5
66A
330
1E
100
AcDbEntity
  8
0
100
AcDbLine
 10
32.373
 20
146.5162
 30
0.0
 11
33.147088335217
 21
146.138602246379
 31
0.0
  0
LINE
  5
66B
330
1E
100
AcDbEntity
  8
0
100
AcDbLine
 10
30.713
 20
155.4952
 30
0.0
 11
33.017
 21
153.7342
 31
0.0
  0
LINE
  5
66C
330
1E
100
AcDbEntity
  8
0
100
AcDbLine
 10
22.098
 20
154.8752
 30
0.0
 11
24.368
 21
152.4332
 31
0.0
  0
LINE
  5
66D
330
1E
100
AcDbEntity
  8
0
100
AcDbLine
 10
36.627
 20
153.5272
 30
0.0
 11
40.089
 21
155.9762
 31
0.0
  0
LINE
  5
66E
330
1E
100
AcDbEntity
  8
0
100
AcDbLine
 10
65.128
 20
153.666579603399
 30
0.0
 11
65.238
 21
153.7342
 31
0.0
  0
LINE
  5
66F
330
1E
100
AcDbEntity
  8
0
100
AcDbLine
 10
65.238
 20
153.7342
 30
0.0
 11
67.542
 21
155.4962
 31
0.0
  0
LINE
  5
670
330
1E
100
AcDbEntity
  8
0
100
AcDbLine
 10
36.183
 20
153.5332
 30
0.0
 11
37.814
 21
154.9962
 31
0.0
  0
LINE
  5
671
330
1E
100
AcDbEntity
  8
0
100
AcDbLine
 10
75.009
 20
153.6462
 30
0.0
 11
76.13
 21
154.8802
 31
0.0
  0
LINE
  5
672
330
1E
100
AcDbEntity
  8
0
100
AcDbLine
 10
37.814
 20
154.9962
 30
0.0
 11
39.723
 21
156.2452
 31
0.0
  0
LINE
  5
673
330
1E
100
AcDbEntity
  8
0
100
AcDbLine
 10
61.33
 20
154.3142
 30
0.0
 11
63.953
 21
151.0372
 31
0.0
  0
LINE
  5
674
330
1E
100
AcDbEntity
  8
0
100
AcDbLine
 10
58.553
 20
155.7372
 30
0.0
 11
60.9
 21
154.1372
 31
0.0
  0
LINE
  5
675
330
1E
100
AcDbEntity
  8
0
100
AcDbLine
 10
67.542
 20
155.4962
 30
0.0
 11
69.654
 21
157.4832
 31
0.0
  0
LINE
  5
676
330
1E
100
AcDbEntity
  8
0
100
AcDbLine
 10
76.13
 20
154.8802
 30
0.0
 11
79.863
 21
160.3912
 31
0.0
  0
LINE
  5
677
330
1E
100
AcDbEntity
  8
0
100
AcDbLine
 10
60.9
 20
154.1372
 30
0.0
 11
63.212
 21
151.7112
 31
0.0
  0
LINE
  5
678
330
1E
100
AcDbEntity
  8
0
100
AcDbLine
 10
33.017
 20
153.7342
 30
0.0
 11
33.128
 21
153.665964872521
 31
0.0
  0
LINE
  5
679
330
1E
100
AcDbEntity
  8
0
100
AcDbLine
 10
40.089
 20
155.9762
 30
0.0
 11
43.593
 21
157.3302
 31
0.0
  0
LINE
  5
67A
330
1E
100
AcDbEntity
  8
0
100
AcDbLine
 10
41.601
 20
156.5622
 30
0.0
 11
41.712777742498
 21
156.603652929036
 31
0.0
  0
LINE
  5
67B
330
1E
100
AcDbEntity
  8
0
100
AcDbLine
 10
39.723
 20
156.2452
 30
0.0
 11
41.864
 21
157.2502
 31
0.0
  0
LINE
  5
67C
330
1E
100
AcDbEntity
  8
0
100
AcDbLine
 10
55.844
 20
156.9562
 30
0.0
 11
58.553
 21
155.7372
 31
0.0
  0
LINE
  5
67D
330
1E
100
AcDbEntity
  8
0
100
AcDbLine
 10
43.593
 20
157.3302
 30
0.0
 11
46.632
 21
157.9362
 31
0.0
  0
LINE
  5
67E
330
1E
100
AcDbEntity
  8
0
100
AcDbLine
 10
41.864
 20
157.2502
 30
0.0
 11
44.184
 21
157.9862
 31
0.0
  0
LINE
  5
67F
330
1E
100
AcDbEntity
  8
0
100
AcDbLine
 10
57.515
 20
156.8102
 30
0.0
 11
61.33
 21
154.3142
 31
0.0
  0
LINE
  5
680
330
1E
100
AcDbEntity
  8
0
100
AcDbLine
 10
28.601
 20
157.4832
 30
0.0
 11
30.713
 21
155.4952
 31
0.0
  0
LINE
  5
681
330
1E
100
AcDbEntity
  8
0
100
AcDbLine
 10
69.654
 20
157.4832
 30
0.0
 11
71.553
 21
159.6752
 31
0.0
  0
LINE
  5
682
330
1E
100
AcDbEntity
  8
0
100
AcDbLine
 10
20.131
 20
157.5302
 30
0.0
 11
22.098
 21
154.8752
 31
0.0
  0
LINE
  5
683
330
1E
100
AcDbEntity
  8
0
100
AcDbLine
 10
52.877
 20
157.7452
 30
0.0
 11
55.844
 21
156.9562
 31
0.0
  0
LINE
  5
684
330
1E
100
AcDbEntity
  8
0
100
AcDbLine
 10
46.632
 20
157.9362
 30
0.0
 11
49.766
 21
158.0762
 31
0.0
  0
LINE
  5
685
330
1E
100
AcDbEntity
  8
0
100
AcDbLine
 10
44.184
 20
157.9862
 30
0.0
 11
46.625
 21
158.4352
 31
0.0
  0
LINE
  5
686
330
1E
100
AcDbEntity
  8
0
100
AcDbLine
 10
49.766
 20
158.0762
 30
0.0
 11
52.877
 21
157.7452
 31
0.0
  0
LINE
  5
687
330
1E
100
AcDbEntity
  8
0
100
AcDbLine
 10
51.63
 20
158.4352
 30
0.0
 11
54.072
 21
157.9862
 31
0.0
  0
LINE
  5
688
330
1E
100
AcDbEntity
  8
0
100
AcDbLine
 10
54.072
 20
157.9862
 30
0.0
 11
57.515
 21
156.8102
 31
0.0
  0
LINE
  5
689
330
1E
100
AcDbEntity
  8
0
100
AcDbLine
 10
49.128
 20
158.5862
 30
0.0
 11
51.63
 21
158.4352
 31
0.0
  0
LINE
  5
68A
330
1E
100
AcDbEntity
  8
0
100
AcDbLine
 10
65.128
 20
158.717529842932
 30
0.0
 11
65.995
 21
159.8932
 31
0.0
  0
LINE
  5
68B
330
1E
100
AcDbEntity
  8
0
100
AcDbLine
 10
46.625
 20
158.4352
 30
0.0
 11
49.128
 21
158.5862
 31
0.0
  0
LINE
  5
68C
330
1E
100
AcDbEntity
  8
0
100
AcDbLine
 10
32.468
 20
159.6012
 30
0.0
 11
33.128
 21
158.667207326007
 31
0.0
  0
LINE
  5
68D
330
1E
100
AcDbEntity
  8
0
100
AcDbLine
 10
26.702
 20
159.6742
 30
0.0
 11
28.601
 21
157.4832
 31
0.0
  0
LINE
  5
68E
330
1E
100
AcDbEntity
  8
0
100
AcDbLine
 10
71.553
 20
159.6752
 30
0.0
 11
73.219
 21
162.0492
 31
0.0
  0
LINE
  5
68F
330
1E
100
AcDbEntity
  8
0
100
AcDbLine
 10
65.995
 20
159.8932
 30
0.0
 11
67.446
 21
162.4682
 31
0.0
  0
LINE
  5
690
330
1E
100
AcDbEntity
  8
0
100
AcDbLine
 10
18.45
 20
160.4392
 30
0.0
 11
20.131
 21
157.5302
 31
0.0
  0
LINE
  5
691
330
1E
100
AcDbEntity
  8
0
100
AcDbLine
 10
79.863
 20
160.3912
 30
0.0
 11
82.483
 21
166.4162
 31
0.0
  0
LINE
  5
692
330
1E
100
AcDbEntity
  8
0
100
AcDbLine
 10
25.037
 20
162.0492
 30
0.0
 11
26.702
 21
159.6742
 31
0.0
  0
LINE
  5
693
330
1E
100
AcDbEntity
  8
0
100
AcDbLine
 10
31.058
 20
161.9842
 30
0.0
 11
32.468
 21
159.6012
 31
0.0
  0
LINE
  5
694
330
1E
100
AcDbEntity
  8
0
100
AcDbLine
 10
73.219
 20
162.0492
 30
0.0
 11
74.634
 21
164.5802
 31
0.0
  0
LINE
  5
695
330
1E
100
AcDbEntity
  8
0
100
AcDbLine
 10
67.446
 20
162.4682
 30
0.0
 11
68.452
 21
164.6882
 31
0.0
  0
LINE
  5
696
330
1E
100
AcDbEntity
  8
0
100
AcDbLine
 10
23.621
 20
164.5792
 30
0.0
 11
25.037
 21
162.0492
 31
0.0
  0
LINE
  5
697
330
1E
100
AcDbEntity
  8
0
100
AcDbLine
 10
29.883
 20
164.5212
 30
0.0
 11
31.058
 21
161.9842
 31
0.0
  0
LINE
  5
698
330
1E
100
AcDbEntity
  8
0
100
AcDbLine
 10
74.634
 20
164.5802
 30
0.0
 11
75.784
 21
167.2422
 31
0.0
  0
LINE
  5
699
330
1E
100
AcDbEntity
  8
0
100
AcDbLine
 10
68.452
 20
164.6882
 30
0.0
 11
69.847
 21
169.0532
 31
0.0
  0
LINE
  5
69A
330
1E
100
AcDbEntity
  8
0
100
AcDbLine
 10
16.998
 20
163.4312
 30
0.0
 11
18.45
 21
160.4392
 31
0.0
  0
LINE
  5
69B
330
1E
100
AcDbEntity
  8
0
100
AcDbLine
 10
15.815
 20
166.5422
 30
0.0
 11
16.998
 21
163.4312
 31
0.0
  0
LINE
  5
69C
330
1E
100
AcDbEntity
  8
0
100
AcDbLine
 10
82.483
 20
166.4162
 30
0.0
 11
83.592
 21
171.3792
 31
0.0
  0
LINE
  5
69D
330
1E
100
AcDbEntity
  8
0
100
AcDbLine
 10
29.049
 20
166.8612
 30
0.0
 11
29.883
 21
164.5212
 31
0.0
  0
LINE
  5
69E
330
1E
100
AcDbEntity
  8
0
100
AcDbLine
 10
22.471
 20
167.2422
 30
0.0
 11
23.621
 21
164.5792
 31
0.0
  0
LINE
  5
69F
330
1E
100
AcDbEntity
  8
0
100
AcDbLine
 10
75.784
 20
167.2422
 30
0.0
 11
76.658
 21
170.0082
 31
0.0
  0
LINE
  5
6A0
330
1E
100
AcDbEntity
  8
0
100
AcDbLine
 10
69.847
 20
169.0532
 30
0.0
 11
70.431
 21
172.7612
 31
0.0
  0
LINE
  5
6A1
330
1E
100
AcDbEntity
  8
0
100
AcDbLine
 10
28.409
 20
169.2612
 30
0.0
 11
29.049
 21
166.8612
 31
0.0
  0
LINE
  5
6A2
330
1E
100
AcDbEntity
  8
0
100
AcDbLine
 10
14.975
 20
169.7592
 30
0.0
 11
15.815
 21
166.5422
 31
0.0
  0
LINE
  5
6A3
330
1E
100
AcDbEntity
  8
0
100
AcDbLine
 10
21.597
 20
170.0072
 30
0.0
 11
22.471
 21
167.2422
 31
0.0
  0
LINE
  5
6A4
330
1E
100
AcDbEntity
  8
0
100
AcDbLine
 10
76.658
 20
170.0082
 30
0.0
 11
77.245
 21
172.8482
 31
0.0
  0
LINE
  5
6A5
330
1E
100
AcDbEntity
  8
0
100
AcDbLine
 10
27.96
 20
171.6932
 30
0.0
 11
28.409
 21
169.2582
 31
0.0
  0
LINE
  5
6A6
330
1E
100
AcDbEntity
  8
0
100
AcDbLine
 10
27.961
 20
171.6942
 30
0.0
 11
28.409
 21
169.2612
 31
0.0
  0
LINE
  5
6A7
330
1E
100
AcDbEntity
  8
0
100
AcDbLine
 10
83.592
 20
171.3792
 30
0.0
 11
84.009
 21
174.6812
 31
0.0
  0
LINE
  5
6A8
330
1E
100
AcDbEntity
  8
0
100
AcDbLine
 10
21.01
 20
172.8482
 30
0.0
 11
21.597
 21
170.0072
 31
0.0
  0
LINE
  5
6A9
330
1E
100
AcDbEntity
  8
0
100
AcDbLine
 10
70.431
 20
172.7612
 30
0.0
 11
70.578
 21
174.5492
 31
0.0
  0
LINE
  5
6AA
330
1E
100
AcDbEntity
  8
0
100
AcDbLine
 10
77.245
 20
172.8482
 30
0.0
 11
77.541
 21
175.7322
 31
0.0
  0
LINE
  5
6AB
330
1E
100
AcDbEntity
  8
0
100
AcDbLine
 10
33.128
 20
172.1482
 30
0.0
 11
33.137
 21
172.8872
 31
0.0
  0
LINE
  5
6AC
330
1E
100
AcDbEntity
  8
0
100
AcDbLine
 10
33.128
 20
172.1482
 30
0.0
 11
33.147088335217
 21
146.138602246379
 31
0.0
  0
LINE
  5
6AD
330
1E
100
AcDbEntity
  8
0
100
AcDbLine
 10
27.749
 20
173.5362
 30
0.0
 11
27.961
 21
171.6942
 31
0.0
  0
LINE
  5
6AE
330
1E
100
AcDbEntity
  8
0
100
AcDbLine
 10
27.749
 20
173.5362
 30
0.0
 11
27.96
 21
171.6932
 31
0.0
  0
LINE
  5
6AF
330
1E
100
AcDbEntity
  8
0
100
AcDbLine
 10
33.219
 20
174.3702
 30
0.0
 11
33.912
 21
178.9112
 31
0.0
  0
LINE
  5
6B0
330
1E
100
AcDbEntity
  8
0
100
AcDbLine
 10
70.578
 20
174.5492
 30
0.0
 11
70.628
 21
176.3442
 31
0.0
  0
LINE
  5
6B1
330
1E
100
AcDbEntity
  8
0
100
AcDbLine
 10
84.009
 20
174.6812
 30
0.0
 11
84.067
 21
178.0082
 31
0.0
  0
LINE
  5
6B2
330
1E
100
AcDbEntity
  8
0
100
AcDbLine
 10
33.137
 20
172.8872
 30
0.0
 11
33.219
 21
174.3702
 31
0.0
  0
LINE
  5
6B3
330
1E
100
AcDbEntity
  8
0
100
AcDbLine
 10
27.641
 20
175.3862
 30
0.0
 11
27.749
 21
173.5362
 31
0.0
  0
LINE
  5
6B4
330
1E
100
AcDbEntity
  8
0
100
AcDbLine
 10
27.642
 20
175.3862
 30
0.0
 11
27.749
 21
173.5362
 31
0.0
  0
LINE
  5
6B5
330
1E
100
AcDbEntity
  8
0
100
AcDbLine
 10
20.714
 20
175.7332
 30
0.0
 11
21.01
 21
172.8482
 31
0.0
  0
LINE
  5
6B6
330
1E
100
AcDbEntity
  8
0
100
AcDbLine
 10
20.714
 20
175.7332
 30
0.0
 11
20.714
 21
178.6332
 31
0.0
  0
LINE
  5
6B7
330
1E
100
AcDbEntity
  8
0
100
AcDbLine
 10
77.541
 20
175.7322
 30
0.0
 11
77.541
 21
178.6322
 31
0.0
  0
LINE
  5
6B8
330
1E
100
AcDbEntity
  8
0
100
AcDbLine
 10
64.827
 20
176.3512
 30
0.0
 11
65.128
 21
172.1482
 31
0.0
  0
LINE
  5
6B9
330
1E
100
AcDbEntity
  8
0
100
AcDbLine
 10
27.628
 20
176.3442
 30
0.0
 11
27.67
 21
177.9992
 31
0.0
  0
LINE
  5
6BA
330
1E
100
AcDbEntity
  8
0
100
AcDbLine
 10
27.628
 20
176.3442
 30
0.0
 11
27.642
 21
175.3862
 31
0.0
  0
LINE
  5
6BB
330
1E
100
AcDbEntity
  8
0
100
AcDbLine
 10
27.628
 20
176.3442
 30
0.0
 11
27.641
 21
175.3862
 31
0.0
  0
LINE
  5
6BC
330
1E
100
AcDbEntity
  8
0
100
AcDbLine
 10
27.628
 20
176.3442
 30
0.0
 11
27.669
 21
177.9992
 31
0.0
  0
LINE
  5
6BD
330
1E
100
AcDbEntity
  8
0
100
AcDbLine
 10
14.206
 20
174.6932
 30
0.0
 11
14.366
 21
181.3432
 31
0.0
  0
LINE
  5
6BE
330
1E
100
AcDbEntity
  8
0
100
AcDbLine
 10
14.206
 20
174.6932
 30
0.0
 11
14.975
 21
169.7592
 31
0.0
  0
LINE
  5
6BF
330
1E
100
AcDbEntity
  8
0
100
AcDbLine
 10
14.366
 20
181.3432
 30
0.0
 11
15.716
 21
187.5342
 31
0.0
  0
LINE
  5
6C0
330
1E
100
AcDbEntity
  8
0
100
AcDbLine
 10
27.669
 20
177.9992
 30
0.0
 11
27.795
 21
179.6512
 31
0.0
  0
LINE
  5
6C1
330
1E
100
AcDbEntity
  8
0
100
AcDbLine
 10
20.714
 20
178.6332
 30
0.0
 11
21.01
 21
181.5172
 31
0.0
  0
LINE
  5
6C2
330
1E
100
AcDbEntity
  8
0
100
AcDbLine
 10
27.795
 20
179.6512
 30
0.0
 11
28.001
 21
181.2672
 31
0.0
  0
LINE
  5
6C3
330
1E
100
AcDbEntity
  8
0
100
AcDbLine
 10
70.614
 20
177.3012
 30
0.0
 11
70.628
 21
176.3442
 31
0.0
  0
LINE
  5
6C4
330
1E
100
AcDbEntity
  8
0
100
AcDbLine
 10
33.912
 20
178.9112
 30
0.0
 11
35.436
 21
182.9572
 31
0.0
  0
LINE
  5
6C5
330
1E
100
AcDbEntity
  8
0
100
AcDbLine
 10
28.001
 20
181.2672
 30
0.0
 11
28.289
 21
182.8722
 31
0.0
  0
LINE
  5
6C6
330
1E
100
AcDbEntity
  8
0
100
AcDbLine
 10
28.289
 20
182.8722
 30
0.0
 11
29.57
 21
187.4912
 31
0.0
  0
LINE
  5
6C7
330
1E
100
AcDbEntity
  8
0
100
AcDbLine
 10
21.01
 20
181.5172
 30
0.0
 11
21.597
 21
184.3572
 31
0.0
  0
LINE
  5
6C8
330
1E
100
AcDbEntity
  8
0
100
AcDbLine
 10
70.295
 20
180.9932
 30
0.0
 11
70.507
 21
179.1512
 31
0.0
  0
LINE
  5
6C9
330
1E
100
AcDbEntity
  8
0
100
AcDbLine
 10
77.245
 20
181.5172
 30
0.0
 11
77.541
 21
178.6322
 31
0.0
  0
LINE
  5
6CA
330
1E
100
AcDbEntity
  8
0
100
AcDbLine
 10
70.234520079663
 20
181.287239997313
 30
0.0
 11
70.304
 21
180.9032
 31
0.0
  0
LINE
  5
6CB
330
1E
100
AcDbEntity
  8
0
100
AcDbLine
 10
62.87
 20
182.9072
 30
0.0
 11
64.019
 21
179.7862
 31
0.0
  0
LINE
  5
6CC
330
1E
100
AcDbEntity
  8
0
100
AcDbLine
 10
64.019
 20
179.7872
 30
0.0
 11
64.827
 21
176.3512
 31
0.0
  0
LINE
  5
6CD
330
1E
100
AcDbEntity
  8
0
100
AcDbLine
 10
83.65
 20
182.9162
 30
0.0
 11
84.067
 21
178.0082
 31
0.0
  0
LINE
  5
6CE
330
1E
100
AcDbEntity
  8
0
100
AcDbLine
 10
21.597
 20
184.3572
 30
0.0
 11
22.471
 21
187.1232
 31
0.0
  0
LINE
  5
6CF
330
1E
100
AcDbEntity
  8
0
100
AcDbLine
 10
35.436
 20
182.9572
 30
0.0
 11
36.47
 21
184.9242
 31
0.0
  0
LINE
  5
6D0
330
1E
100
AcDbEntity
  8
0
100
AcDbLine
 10
76.658
 20
184.3582
 30
0.0
 11
77.245
 21
181.5172
 31
0.0
  0
LINE
  5
6D1
330
1E
100
AcDbEntity
  8
0
100
AcDbLine
 10
15.716
 20
187.5342
 30
0.0
 11
16.967
 21
190.9912
 31
0.0
  0
LINE
  5
6D2
330
1E
100
AcDbEntity
  8
0
100
AcDbLine
 10
22.471
 20
187.1232
 30
0.0
 11
23.621
 21
189.7852
 31
0.0
  0
LINE
  5
6D3
330
1E
100
AcDbEntity
  8
0
100
AcDbLine
 10
16.967
 20
190.9912
 30
0.0
 11
19.259
 21
195.3962
 31
0.0
  0
LINE
  5
6D4
330
1E
100
AcDbEntity
  8
0
100
AcDbLine
 10
29.57
 20
187.4912
 30
0.0
 11
31.46
 21
191.4932
 31
0.0
  0
LINE
  5
6D5
330
1E
100
AcDbEntity
  8
0
100
AcDbLine
 10
36.47
 20
184.9242
 30
0.0
 11
37.57
 21
186.5912
 31
0.0
  0
LINE
  5
6D6
330
1E
100
AcDbEntity
  8
0
100
AcDbLine
 10
60.128
 20
187.3152
 30
0.0
 11
61.022
 21
186.1172
 31
0.0
  0
LINE
  5
6D7
330
1E
100
AcDbEntity
  8
0
100
AcDbLine
 10
61.438
 20
185.4962
 30
0.0
 11
62.87
 21
182.9072
 31
0.0
  0
LINE
  5
6D8
330
1E
100
AcDbEntity
  8
0
100
AcDbLine
 10
69.207
 20
185.8252
 30
0.0
 11
69.847
 21
183.4292
 31
0.0
  0
LINE
  5
6D9
330
1E
100
AcDbEntity
  8
0
100
AcDbLine
 10
61.022623970016
 20
186.052771044129
 30
0.0
 11
61.438
 21
185.4962
 31
0.0
  0
LINE
  5
6DA
330
1E
100
AcDbEntity
  8
0
100
AcDbLine
 10
38.832
 20
188.1352
 30
0.0
 11
40.255
 21
189.5292
 31
0.0
  0
LINE
  5
6DB
330
1E
100
AcDbEntity
  8
0
100
AcDbLine
 10
38.831
 20
188.1352
 30
0.0
 11
40.255
 21
189.5292
 31
0.0
  0
LINE
  5
6DC
330
1E
100
AcDbEntity
  8
0
100
AcDbLine
 10
37.57
 20
186.5912
 30
0.0
 11
38.832
 21
188.1352
 31
0.0
  0
LINE
  5
6DD
330
1E
100
AcDbEntity
  8
0
100
AcDbLine
 10
37.57
 20
186.5912
 30
0.0
 11
38.831
 21
188.1352
 31
0.0
  0
LINE
  5
6DE
330
1E
100
AcDbEntity
  8
0
100
AcDbLine
 10
23.621
 20
189.7852
 30
0.0
 11
25.037
 21
192.3162
 31
0.0
  0
LINE
  5
6DF
330
1E
100
AcDbEntity
  8
0
100
AcDbLine
 10
57.289
 20
190.1142
 30
0.0
 11
58.147
 21
189.4002
 31
0.0
  0
LINE
  5
6E0
330
1E
100
AcDbEntity
  8
0
100
AcDbLine
 10
41.796
 20
190.7132
 30
0.0
 11
42.698759554752
 21
191.237557346173
 31
0.0
  0
LINE
  5
6E1
330
1E
100
AcDbEntity
  8
0
100
AcDbLine
 10
40.255
 20
189.5292
 30
0.0
 11
41.796
 21
190.7132
 31
0.0
  0
LINE
  5
6E2
330
1E
100
AcDbEntity
  8
0
100
AcDbLine
 10
67.2
 20
190.7012
 30
0.0
 11
68.372
 21
188.1652
 31
0.0
  0
LINE
  5
6E3
330
1E
100
AcDbEntity
  8
0
100
AcDbLine
 10
58.147
 20
189.4002
 30
0.0
 11
59.179
 21
188.3982
 31
0.0
  0
LINE
  5
6E4
330
1E
100
AcDbEntity
  8
0
100
AcDbLine
 10
67.199
 20
190.7012
 30
0.0
 11
68.372
 21
188.1652
 31
0.0
  0
LINE
  5
6E5
330
1E
100
AcDbEntity
  8
0
100
AcDbLine
 10
59.179
 20
188.3982
 30
0.0
 11
60.128
 21
187.3152
 31
0.0
  0
LINE
  5
6E6
330
1E
100
AcDbEntity
  8
0
100
AcDbLine
 10
75.784
 20
187.1232
 30
0.0
 11
76.658
 21
184.3582
 31
0.0
  0
LINE
  5
6E7
330
1E
100
AcDbEntity
  8
0
100
AcDbLine
 10
74.634
 20
189.7862
 30
0.0
 11
75.784
 21
187.1232
 31
0.0
  0
LINE
  5
6E8
330
1E
100
AcDbEntity
  8
0
100
AcDbLine
 10
82.42
 20
187.8162
 30
0.0
 11
83.65
 21
182.9162
 31
0.0
  0
LINE
  5
6E9
330
1E
100
AcDbEntity
  8
0
100
AcDbLine
 10
31.46
 20
191.4932
 30
0.0
 11
33.211
 21
194.1442
 31
0.0
  0
LINE
  5
6EA
330
1E
100
AcDbEntity
  8
0
100
AcDbLine
 10
25.037
 20
192.3162
 30
0.0
 11
26.702
 21
194.6902
 31
0.0
  0
LINE
  5
6EB
330
1E
100
AcDbEntity
  8
0
100
AcDbLine
 10
53.645
 20
192.1842
 30
0.0
 11
54.591
 21
191.7792
 31
0.0
  0
LINE
  5
6EC
330
1E
100
AcDbEntity
  8
0
100
AcDbLine
 10
52.672
 20
192.5152
 30
0.0
 11
53.645
 21
192.1842
 31
0.0
  0
LINE
  5
6ED
330
1E
100
AcDbEntity
  8
0
100
AcDbLine
 10
54.591
 20
191.7792
 30
0.0
 11
55.504
 21
191.3042
 31
0.0
  0
LINE
  5
6EE
330
1E
100
AcDbEntity
  8
0
100
AcDbLine
 10
45.255
 20
192.4132
 30
0.0
 11
46.85
 21
192.8222
 31
0.0
  0
LINE
  5
6EF
330
1E
100
AcDbEntity
  8
0
100
AcDbLine
 10
43.466
 20
191.6832
 30
0.0
 11
45.255
 21
192.4132
 31
0.0
  0
LINE
  5
6F0
330
1E
100
AcDbEntity
  8
0
100
AcDbLine
 10
42.708595267995
 20
191.243270305362
 30
0.0
 11
43.466
 21
191.6832
 31
0.0
  0
LINE
  5
6F1
330
1E
100
AcDbEntity
  8
0
100
AcDbLine
 10
56.382
 20
190.7642
 30
0.0
 11
57.289
 21
190.1142
 31
0.0
  0
LINE
  5
6F2
330
1E
100
AcDbEntity
  8
0
100
AcDbLine
 10
55.504
 20
191.3042
 30
0.0
 11
56.382
 21
190.7642
 31
0.0
  0
LINE
  5
6F3
330
1E
100
AcDbEntity
  8
0
100
AcDbLine
 10
33.211
 20
194.1442
 30
0.0
 11
34.862
 21
196.1392
 31
0.0
  0
LINE
  5
6F4
330
1E
100
AcDbEntity
  8
0
100
AcDbLine
 10
33.212
 20
194.1442
 30
0.0
 11
34.862
 21
196.1402
 31
0.0
  0
LINE
  5
6F5
330
1E
100
AcDbEntity
  8
0
100
AcDbLine
 10
50.662
 20
192.9382
 30
0.0
 11
51.676
 21
192.7682
 31
0.0
  0
LINE
  5
6F6
330
1E
100
AcDbEntity
  8
0
100
AcDbLine
 10
48.753
 20
193.0292
 30
0.0
 11
50.662
 21
192.9382
 31
0.0
  0
LINE
  5
6F7
330
1E
100
AcDbEntity
  8
0
100
AcDbLine
 10
46.85
 20
192.8222
 30
0.0
 11
48.753
 21
193.0292
 31
0.0
  0
LINE
  5
6F8
330
1E
100
AcDbEntity
  8
0
100
AcDbLine
 10
65.776
 20
193.1032
 30
0.0
 11
67.199
 21
190.7012
 31
0.0
  0
LINE
  5
6F9
330
1E
100
AcDbEntity
  8
0
100
AcDbLine
 10
64.971
 20
194.2422
 30
0.0
 11
65.776
 21
193.1032
 31
0.0
  0
LINE
  5
6FA
330
1E
100
AcDbEntity
  8
0
100
AcDbLine
 10
51.676
 20
192.7682
 30
0.0
 11
52.672
 21
192.5152
 31
0.0
  0
LINE
  5
6FB
330
1E
100
AcDbEntity
  8
0
100
AcDbLine
 10
73.219
 20
192.3162
 30
0.0
 11
74.634
 21
189.7862
 31
0.0
  0
LINE
  5
6FC
330
1E
100
AcDbEntity
  8
0
100
AcDbLine
 10
81.258
 20
190.9342
 30
0.0
 11
82.42
 21
187.8162
 31
0.0
  0
LINE
  5
6FD
330
1E
100
AcDbEntity
  8
0
100
AcDbLine
 10
19.259
 20
195.3962
 30
0.0
 11
22.124
 21
199.4852
 31
0.0
  0
LINE
  5
6FE
330
1E
100
AcDbEntity
  8
0
100
AcDbLine
 10
26.702
 20
194.6902
 30
0.0
 11
28.601
 21
196.8822
 31
0.0
  0
LINE
  5
6FF
330
1E
100
AcDbEntity
  8
0
100
AcDbLine
 10
34.862
 20
196.1402
 30
0.0
 11
36.72
 21
197.9392
 31
0.0
  0
LINE
  5
700
330
1E
100
AcDbEntity
  8
0
100
AcDbLine
 10
63.176
 20
196.3722
 30
0.0
 11
64.104
 21
195.3342
 31
0.0
  0
LINE
  5
701
330
1E
100
AcDbEntity
  8
0
100
AcDbLine
 10
71.553
 20
194.6912
 30
0.0
 11
73.219
 21
192.3162
 31
0.0
  0
LINE
  5
702
330
1E
100
AcDbEntity
  8
0
100
AcDbLine
 10
79.024
 20
195.4012
 30
0.0
 11
81.258
 21
190.9342
 31
0.0
  0
LINE
  5
703
330
1E
100
AcDbEntity
  8
0
100
AcDbLine
 10
64.104
 20
195.3342
 30
0.0
 11
64.971
 21
194.2422
 31
0.0
  0
LINE
  5
704
330
1E
100
AcDbEntity
  8
0
100
AcDbLine
 10
28.601
 20
196.8822
 30
0.0
 11
30.713
 21
198.8692
 31
0.0
  0
LINE
  5
705
330
1E
100
AcDbEntity
  8
0
100
AcDbLine
 10
69.654
 20
196.8832
 30
0.0
 11
71.553
 21
194.6912
 31
0.0
  0
LINE
  5
706
330
1E
100
AcDbEntity
  8
0
100
AcDbLine
 10
22.124
 20
199.4852
 30
0.0
 11
26.506
 21
203.9152
 31
0.0
  0
LINE
  5
707
330
1E
100
AcDbEntity
  8
0
100
AcDbLine
 10
33.017
 20
200.6312
 30
0.0
 11
35.488
 21
202.1502
 31
0.0
  0
LINE
  5
708
330
1E
100
AcDbEntity
  8
0
100
AcDbLine
 10
30.713
 20
198.8692
 30
0.0
 11
33.017
 21
200.6312
 31
0.0
  0
LINE
  5
709
330
1E
100
AcDbEntity
  8
0
100
AcDbLine
 10
39.004
 20
199.6552
 30
0.0
 11
40.825
 21
200.7112
 31
0.0
  0
LINE
  5
70A
330
1E
100
AcDbEntity
  8
0
100
AcDbLine
 10
37.833
 20
198.8362
 30
0.0
 11
39.004
 21
199.6552
 31
0.0
  0
LINE
  5
70B
330
1E
100
AcDbEntity
  8
0
100
AcDbLine
 10
36.72
 20
197.9392
 30
0.0
 11
37.833
 21
198.8362
 31
0.0
  0
LINE
  5
70C
330
1E
100
AcDbEntity
  8
0
100
AcDbLine
 10
35.488
 20
202.1502
 30
0.0
 11
38.049
 21
203.3872
 31
0.0
  0
LINE
  5
70D
330
1E
100
AcDbEntity
  8
0
100
AcDbLine
 10
40.825
 20
200.7112
 30
0.0
 11
42.824
 21
201.5852
 31
0.0
  0
LINE
  5
70E
330
1E
100
AcDbEntity
  8
0
100
AcDbLine
 10
54.375
 20
201.9422
 30
0.0
 11
55.624
 21
201.5122
 31
0.0
  0
LINE
  5
70F
330
1E
100
AcDbEntity
  8
0
100
AcDbLine
 10
45.231
 20
202.2992
 30
0.0
 11
46.533
 21
202.5402
 31
0.0
  0
LINE
  5
710
330
1E
100
AcDbEntity
  8
0
100
AcDbLine
 10
47.848
 20
202.6842
 30
0.0
 11
49.17
 21
202.7302
 31
0.0
  0
LINE
  5
711
330
1E
100
AcDbEntity
  8
0
100
AcDbLine
 10
46.533
 20
202.5402
 30
0.0
 11
47.848
 21
202.6842
 31
0.0
  0
LINE
  5
712
330
1E
100
AcDbEntity
  8
0
100
AcDbLine
 10
53.099
 20
202.2822
 30
0.0
 11
54.375
 21
201.9422
 31
0.0
  0
LINE
  5
713
330
1E
100
AcDbEntity
  8
0
100
AcDbLine
 10
51.843317971249
 20
202.496979524006
 30
0.0
 11
53.099
 21
202.2822
 31
0.0
  0
LINE
  5
714
330
1E
100
AcDbEntity
  8
0
100
AcDbLine
 10
44.181
 20
202.0322
 30
0.0
 11
45.231
 21
202.2992
 31
0.0
  0
LINE
  5
715
330
1E
100
AcDbEntity
  8
0
100
AcDbLine
 10
42.824
 20
201.5852
 30
0.0
 11
44.181
 21
202.0322
 31
0.0
  0
LINE
  5
716
330
1E
100
AcDbEntity
  8
0
100
AcDbLine
 10
55.624
 20
201.5122
 30
0.0
 11
56.841
 21
200.9952
 31
0.0
  0
LINE
  5
717
330
1E
100
AcDbEntity
  8
0
100
AcDbLine
 10
56.841
 20
200.9952
 30
0.0
 11
57.9012062358
 21
200.436936121021
 31
0.0
  0
LINE
  5
718
330
1E
100
AcDbEntity
  8
0
100
AcDbLine
 10
57.9012062358
 20
200.436936121021
 30
0.0
 11
60.248
 21
198.9662
 31
0.0
  0
LINE
  5
719
330
1E
100
AcDbEntity
  8
0
100
AcDbLine
 10
62.189
 20
197.3522
 30
0.0
 11
63.176
 21
196.3722
 31
0.0
  0
LINE
  5
71A
330
1E
100
AcDbEntity
  8
0
100
AcDbLine
 10
60.248
 20
198.9662
 30
0.0
 11
62.189
 21
197.3522
 31
0.0
  0
LINE
  5
71B
330
1E
100
AcDbEntity
  8
0
100
AcDbLine
 10
49.17
 20
202.7302
 30
0.0
 11
51.843317971249
 21
202.496979524006
 31
0.0
  0
LINE
  5
71C
330
1E
100
AcDbEntity
  8
0
100
AcDbLine
 10
38.049
 20
203.3872
 30
0.0
 11
40.72
 21
204.3612
 31
0.0
  0
LINE
  5
71D
330
1E
100
AcDbEntity
  8
0
100
AcDbLine
 10
26.506
 20
203.9152
 30
0.0
 11
30.877
 21
207.0822
 31
0.0
  0
LINE
  5
71E
330
1E
100
AcDbEntity
  8
0
100
AcDbLine
 10
40.72
 20
204.3612
 30
0.0
 11
43.475
 21
205.0662
 31
0.0
  0
LINE
  5
71F
330
1E
100
AcDbEntity
  8
0
100
AcDbLine
 10
46.288
 20
205.4912
 30
0.0
 11
49.127
 21
205.6322
 31
0.0
  0
LINE
  5
720
330
1E
100
AcDbEntity
  8
0
100
AcDbLine
 10
43.475
 20
205.0662
 30
0.0
 11
46.288
 21
205.4912
 31
0.0
  0
LINE
  5
721
330
1E
100
AcDbEntity
  8
0
100
AcDbLine
 10
57.535
 20
204.3612
 30
0.0
 11
60.206
 21
203.3872
 31
0.0
  0
LINE
  5
722
330
1E
100
AcDbEntity
  8
0
100
AcDbLine
 10
54.78
 20
205.0662
 30
0.0
 11
57.535
 21
204.3612
 31
0.0
  0
LINE
  5
723
330
1E
100
AcDbEntity
  8
0
100
AcDbLine
 10
49.127
 20
205.6322
 30
0.0
 11
51.967
 21
205.4912
 31
0.0
  0
LINE
  5
724
330
1E
100
AcDbEntity
  8
0
100
AcDbLine
 10
30.877
 20
207.0822
 30
0.0
 11
33.863
 21
208.6222
 31
0.0
  0
LINE
  5
725
330
1E
100
AcDbEntity
  8
0
100
AcDbLine
 10
51.967
 20
205.4912
 30
0.0
 11
54.78
 21
205.0662
 31
0.0
  0
LINE
  5
726
330
1E
100
AcDbEntity
  8
0
100
AcDbLine
 10
60.206
 20
203.3872
 30
0.0
 11
62.767
 21
202.1502
 31
0.0
  0
LINE
  5
727
330
1E
100
AcDbEntity
  8
0
100
AcDbLine
 10
67.542
 20
198.8702
 30
0.0
 11
69.654
 21
196.8832
 31
0.0
  0
LINE
  5
728
330
1E
100
AcDbEntity
  8
0
100
AcDbLine
 10
72.659
 20
203.0912
 30
0.0
 11
76.084
 21
199.4262
 31
0.0
  0
LINE
  5
729
330
1E
100
AcDbEntity
  8
0
100
AcDbLine
 10
65.238
 20
200.6312
 30
0.0
 11
67.542
 21
198.8702
 31
0.0
  0
LINE
  5
72A
330
1E
100
AcDbEntity
  8
0
100
AcDbLine
 10
76.084
 20
199.4262
 30
0.0
 11
79.024
 21
195.4012
 31
0.0
  0
LINE
  5
72B
330
1E
100
AcDbEntity
  8
0
100
AcDbLine
 10
68.795
 20
206.1702
 30
0.0
 11
72.659
 21
203.0912
 31
0.0
  0
LINE
  5
72C
330
1E
100
AcDbEntity
  8
0
100
AcDbLine
 10
62.767
 20
202.1502
 30
0.0
 11
65.238
 21
200.6312
 31
0.0
  0
LINE
  5
72D
330
1E
100
AcDbEntity
  8
0
100
AcDbLine
 10
65.881521434841
 20
207.850322630543
 30
0.0
 11
68.795
 21
206.1702
 31
0.0
  0
LINE
  5
72E
330
1E
100
AcDbEntity
  8
0
100
AcDbLine
 10
33.863
 20
208.6222
 30
0.0
 11
36.924
 21
210.0172
 31
0.0
  0
LINE
  5
72F
330
1E
100
AcDbEntity
  8
0
100
AcDbLine
 10
61.378
 20
209.9932
 30
0.0
 11
65.881521434841
 21
207.850322630543
 31
0.0
  0
LINE
  5
730
330
1E
100
AcDbEntity
  8
0
100
AcDbLine
 10
36.924
 20
210.0172
 30
0.0
 11
41.692
 21
211.4072
 31
0.0
  0
LINE
  5
731
330
1E
100
AcDbEntity
  8
0
100
AcDbLine
 10
41.692
 20
211.4072
 30
0.0
 11
44.098
 21
211.8482
 31
0.0
  0
LINE
  5
732
330
1E
100
AcDbEntity
  8
0
100
AcDbLine
 10
44.098
 20
211.8482
 30
0.0
 11
49.967
 21
212.1432
 31
0.0
  0
LINE
  5
733
330
1E
100
AcDbEntity
  8
0
100
AcDbLine
 10
55.066
 20
211.7112
 30
0.0
 11
61.378
 21
209.9932
 31
0.0
  0
LINE
  5
734
330
1E
100
AcDbEntity
  8
0
100
AcDbLine
 10
49.967
 20
212.1432
 30
0.0
 11
55.066
 21
211.7112
 31
0.0
  0
LINE
  5
735
330
1E
100
AcDbEntity
  8
0
100
AcDbLine
 10
68.372
 20
188.1652
 30
0.0
 11
69.207
 21
185.8252
 31
0.0
  0
LINE
  5
736
330
1E
100
AcDbEntity
  8
0
100
AcDbLine
 10
69.847
 20
183.4292
 30
0.0
 11
70.234520079663
 21
181.287239997313
 31
0.0
  0
LINE
  5
737
330
1E
100
AcDbEntity
  8
0
100
AcDbLine
 10
70.507
 20
179.1512
 30
0.0
 11
70.614
 21
177.3012
 31
0.0
  0
ENDSEC
  0
SECTION
  2
OBJECTS
  0
DICTIONARY
  5
C
330
0
100
AcDbDictionary
281
     1
  3
ACAD_GROUP
350
D
  3
ACAD_LAYOUT
350
19
  3
ACAD_MLEADERSTYLE
350
73A
  3
ACAD_MLINESTYLE
350
16
  3
ACAD_PLOTSETTINGS
350
18
  3
ACAD_PLOTSTYLENAME
350
E
  3
ACAD_SCALELIST
350
3B9
  3
ACDBVARIABLEDICTIONARY
350
390
  3
DWGPROPS
350
73D
  0
DICTIONARY
  5
D
102
{ACAD_REACTORS
330
C
102
}
330
C
100
AcDbDictionary
281
     1
  0
DICTIONARY
  5
19
102
{ACAD_REACTORS
330
C
102
}
330
C
100
AcDbDictionary
281
     1
  3
Layout1
350
3B8
  3
Model
350
3B7
  0
DICTIONARY
  5
73A
102
{ACAD_REACTORS
330
C
102
}
330
C
100
AcDbDictionary
281
     1
  0
DICTIONARY
  5
16
102
{ACAD_REACTORS
330
C
102
}
330
C
100
AcDbDictionary
281
     1
  3
STANDARD
350
17
  0
DICTIONARY
  5
18
102
{ACAD_REACTORS
330
C
102
}
330
C
100
AcDbDictionary
281
     1
  0
ACDBDICTIONARYWDFLT
  5
E
102
{ACAD_REACTORS
330
C
102
}
330
C
100
AcDbDictionary
281
     1
  3
Normal
350
F
100
AcDbDictionaryWithDefault
340
F
  0
DICTIONARY
  5
3B9
102
{ACAD_REACTORS
330
C
102
}
330
C
100
AcDbDictionary
281
     1
  3
A0
350
3BA
  3
A1
350
3BB
  3
A2
350
3BC
  3
A3
350
3BD
  3
A4
350
3BE
  3
A5
350
3BF
  3
A6
350
3C0
  3
A7
350
3C1
  3
A8
350
3C2
  3
A9
350
3C3
  3
B0
350
3C4
  3
B1
350
3C5
  3
B2
350
3C6
  3
B3
350
3C7
  3
B4
350
3C8
  3
B5
350
3C9
  3
B6
350
3CA
  3
B7
350
3CB
  3
B8
350
3CC
  3
B9
350
3CD
  3
C0
350
3CE
  3
C1
350
3CF
  3
C2
350
3D0
  3
C3
350
3D1
  3
C4
350
3D2
  3
C5
350
3D3
  3
C6
350
3D4
  3
C7
350
3D5
  3
C8
350
3D6
  3
C9
350
3D7
  3
D0
350
3D8
  3
D1
350
3D9
  3
D2
350
3DA
  0
DICTIONARY
  5
390
102
{ACAD_REACTORS
330
C
102
}
330
C
100
AcDbDictionary
281
     1
  3
CANNOSCALE
350
73B
  3
DIMASSOC
350
391
  0
XRECORD
  5
73D
102
{ACAD_REACTORS
330
C
102
}
330
C
100
AcDbXrecord
280
     1
  1
DWGPROPS COOKIE
  2

  3

  4

  6

  7

  8
MARTIN
  9

300
=
301
=
302
=
303
=
304
=
305
=
306
=
307
=
308
=
309
=
 40
0.0
 41
2454691.610731875
 42
2456209.655737662
  1

 90
        0
  0
LAYOUT
  5
3B8
102
{ACAD_REACTORS
330
19
102
}
330
19
100
AcDbPlotSettings
  1

  2
none_device
  4

  6

 40
0.0
 41
0.0
 42
0.0
 43
0.0
 44
0.0
 45
0.0
 46
0.0
 47
0.0
 48
0.0
 49
0.0
140
0.0
141
0.0
142
1.0
143
1.0
 70
   688
 72
     0
 73
     0
 74
     5
  7

 75
    16
147
1.0
148
0.0
149
0.0
100
AcDbLayout
  1
Layout1
 70
     1
 71
     1
 10
0.0
 20
0.0
 11
0.0
 21
0.0
 12
0.0
 22
0.0
 32
0.0
 14
0.0
 24
0.0
 34
0.0
 15
0.0
 25
0.0
 35
0.0
146
0.0
 13
0.0
 23
0.0
 33
0.0
 16
1.0
 26
0.0
 36
0.0
 17
0.0
 27
1.0
 37
0.0
 76
     0
330
1A
  0
LAYOUT
  5
3B7
102
{ACAD_REACTORS
330
19
102
}
330
19
100
AcDbPlotSettings
  1

  2
none_device
  4

  6

 40
0.0
 41
0.0
 42
0.0
 43
0.0
 44
0.0
 45
0.0
 46
0.0
 47
0.0
 48
0.0
 49
0.0
140
0.0
141
0.0
142
1.0
143
1.0
 70
   688
 72
     0
 73
     0
 74
     5
  7

 75
    16
147
1.0
148
0.0
149
0.0
100
AcDbLayout
  1
Model
 70
     1
 71
     0
 10
0.0
 20
0.0
 11
0.0
 21
0.0
 12
0.0
 22
0.0
 32
0.0
 14
-0.846
 24
-37.4271
 34
0.0
 15
415.0
 25
212.1722
 35
0.0
146
0.0
 13
0.0
 23
0.0
 33
0.0
 16
1.0
 26
0.0
 36
0.0
 17
0.0
 27
1.0
 37
0.0
 76
     0
330
1E
331
392
  0
MLINESTYLE
  5
17
102
{ACAD_REACTORS
330
16
102
}
330
16
100
AcDbMlineStyle
  2
STANDARD
 70
     0
  3

 62
   256
 51
90.0
 52
90.0
 71
     2
 49
0.5
 62
   256
  6
BYLAYER
 49
-0.5
 62
   256
  6
BYLAYER
  0
ACDBPLACEHOLDER
  5
F
102
{ACAD_REACTORS
330
E
102
}
330
E
  0
SCALE
  5
3BA
102
{ACAD_REACTORS
330
3B9
102
}
330
3B9
100
AcDbScale
 70
     0
300
1:1
140
1.0
141
1.0
290
     1
  0
SCALE
  5
3BB
102
{ACAD_REACTORS
330
3B9
102
}
330
3B9
100
AcDbScale
 70
     0
300
1:2
140
1.0
141
2.0
290
     0
  0
SCALE
  5
3BC
102
{ACAD_REACTORS
330
3B9
102
}
330
3B9
100
AcDbScale
 70
     0
300
1:4
140
1.0
141
4.0
290
     0
  0
SCALE
  5
3BD
102
{ACAD_REACTORS
330
3B9
102
}
330
3B9
100
AcDbScale
 70
     0
300
1:5
140
1.0
141
5.0
290
     0
  0
SCALE
  5
3BE
102
{ACAD_REACTORS
330
3B9
102
}
330
3B9
100
AcDbScale
 70
     0
300
1:8
140
1.0
141
8.0
290
     0
  0
SCALE
  5
3BF
102
{ACAD_REACTORS
330
3B9
102
}
330
3B9
100
AcDbScale
 70
     0
300
1:10
140
1.0
141
10.0
290
     0
  0
SCALE
  5
3C0
102
{ACAD_REACTORS
330
3B9
102
}
330
3B9
100
AcDbScale
 70
     0
300
1:16
140
1.0
141
16.0
290
     0
  0
SCALE
  5
3C1
102
{ACAD_REACTORS
330
3B9
102
}
330
3B9
100
AcDbScale
 70
     0
300
1:20
140
1.0
141
20.0
290
     0
  0
SCALE
  5
3C2
102
{ACAD_REACTORS
330
3B9
102
}
330
3B9
100
AcDbScale
 70
     0
300
1:30
140
1.0
141
30.0
290
     0
  0
SCALE
  5
3C3
102
{ACAD_REACTORS
330
3B9
102
}
330
3B9
100
AcDbScale
 70
     0
300
1:40
140
1.0
141
40.0
290
     0
  0
SCALE
  5
3C4
102
{ACAD_REACTORS
330
3B9
102
}
330
3B9
100
AcDbScale
 70
     0
300
1:50
140
1.0
141
50.0
290
     0
  0
SCALE
  5
3C5
102
{ACAD_REACTORS
330
3B9
102
}
330
3B9
100
AcDbScale
 70
     0
300
1:100
140
1.0
141
100.0
290
     0
  0
SCALE
  5
3C6
102
{ACAD_REACTORS
330
3B9
102
}
330
3B9
100
AcDbScale
 70
     0
300
2:1
140
2.0
141
1.0
290
     0
  0
SCALE
  5
3C7
102
{ACAD_REACTORS
330
3B9
102
}
330
3B9
100
AcDbScale
 70
     0
300
4:1
140
4.0
141
1.0
290
     0
  0
SCALE
  5
3C8
102
{ACAD_REACTORS
330
3B9
102
}
330
3B9
100
AcDbScale
 70
     0
300
8:1
140
8.0
141
1.0
290
     0
  0
SCALE
  5
3C9
102
{ACAD_REACTORS
330
3B9
102
}
330
3B9
100
AcDbScale
 70
     0
300
10:1
140
10.0
141
1.0
290
     0
  0
SCALE
  5
3CA
102
{ACAD_REACTORS
330
3B9
102
}
330
3B9
100
AcDbScale
 70
     0
300
100:1
140
100.0
141
1.0
290
     0
  0
SCALE
  5
3CB
102
{ACAD_REACTORS
330
3B9
102
}
330
3B9
100
AcDbScale
 70
     0
300
1/128" = 1'-0"
140
0.0078125
141
12.0
290
     0
  0
SCALE
  5
3CC
102
{ACAD_REACTORS
330
3B9
102
}
330
3B9
100
AcDbScale
 70
     0
300
1/64" = 1'-0"
140
0.015625
141
12.0
290
     0
  0
SCALE
  5
3CD
102
{ACAD_REACTORS
330
3B9
102
}
330
3B9
100
AcDbScale
 70
     0
300
1/32" = 1'-0"
140
0.03125
141
12.0
290
     0
  0
SCALE
  5
3CE
102
{ACAD_REACTORS
330
3B9
102
}
330
3B9
100
AcDbScale
 70
     0
300
1/16" = 1'-0"
140
0.0625
141
12.0
290
     0
  0
SCALE
  5
3CF
102
{ACAD_REACTORS
330
3B9
102
}
330
3B9
100
AcDbScale
 70
     0
300
3/32" = 1'-0"
140
0.09375
141
12.0
290
     0
  0
SCALE
  5
3D0
102
{ACAD_REACTORS
330
3B9
102
}
330
3B9
100
AcDbScale
 70
     0
300
1/8" = 1'-0"
140
0.125
141
12.0
290
     0
  0
SCALE
  5
3D1
102
{ACAD_REACTORS
330
3B9
102
}
330
3B9
100
AcDbScale
 70
     0
300
3/16" = 1'-0"
140
0.1875
141
12.0
290
     0
  0
SCALE
  5
3D2
102
{ACAD_REACTORS
330
3B9
102
}
330
3B9
100
AcDbScale
 70
     0
300
1/4" = 1'-0"
140
0.25
141
12.0
290
     0
  0
SCALE
  5
3D3
102
{ACAD_REACTORS
330
3B9
102
}
330
3B9
100
AcDbScale
 70
     0
300
3/8" = 1'-0"
140
0.375
141
12.0
290
     0
  0
SCALE
  5
3D4
102
{ACAD_REACTORS
330
3B9
102
}
330
3B9
100
AcDbScale
 70
     0
300
1/2" = 1'-0"
140
0.5
141
12.0
290
     0
  0
SCALE
  5
3D5
102
{ACAD_REACTORS
330
3B9
102
}
330
3B9
100
AcDbScale
 70
     0
300
3/4" = 1'-0"
140
0.75
141
12.0
290
     0
  0
SCALE
  5
3D6
102
{ACAD_REACTORS
330
3B9
102
}
330
3B9
100
AcDbScale
 70
     0
300
1" = 1'-0"
140
1.0
141
12.0
290
     0
  0
SCALE
  5
3D7
102
{ACAD_REACTORS
330
3B9
102
}
330
3B9
100
AcDbScale
 70
     0
300
1-1/2" = 1'-0"
140
1.5
141
12.0
290
     0
  0
SCALE
  5
3D8
102
{ACAD_REACTORS
330
3B9
102
}
330
3B9
100
AcDbScale
 70
     0
300
3" = 1'-0"
140
3.0
141
12.0
290
     0
  0
SCALE
  5
3D9
102
{ACAD_REACTORS
330
3B9
102
}
330
3B9
100
AcDbScale
 70
     0
300
6" = 1'-0"
140
6.0
141
12.0
290
     0
  0
SCALE
  5
3DA
102
{ACAD_REACTORS
330
3B9
102
}
330
3B9
100
AcDbScale
 70
     0
300
1'-0" = 1'-0"
140
12.0
141
12.0
290
     0
  0
DICTIONARYVAR
  5
73B
102
{ACAD_REACTORS
330
390
102
}
330
390
100
DictionaryVariables
280
     0
  1
1:1
  0
DICTIONARYVAR
  5
391
102
{ACAD_REACTORS
330
390
102
}
330
390
100
DictionaryVariables
280
     0
  1
1
  0
ENDSEC
  0
SECTION
  2
THUMBNAILIMAGE
 90
    16364
310
28000000B40000005500000001000800000000000000000000000000000000000000000000000000FFFFFF000000FF0000FFFF0000FF0000FFFF0000FF000000FF00FF000000000080808000C0C0C0000000FF007F7FFF000000A5005252A50000007F003F3F7F0000004C0026264C000000260013132600003FFF007F9FFF
310
000029A5005267A500001F7F003F4F7F0000134C00262F4C000009260013172600007FFF007FBFFF000052A500527CA500003F7F003F5F7F0000264C0026394C0000132600131C260000BFFF007FDFFF00007CA5005291A500005F7F003F6F7F0000394C0026424C00001C26001321260000FFFF007FFFFF0000A5A50052A5
310
A500007F7F003F7F7F00004C4C00264C4C00002626001326260000FFBF007FFFDF0000A57C0052A59100007F5F003F7F6F00004C3900264C420000261C001326210000FF7F007FFFBF0000A5520052A57C00007F3F003F7F5F00004C2600264C39000026130013261C0000FF3F007FFF9F0000A5290052A56700007F1F003F
310
7F4F00004C1300264C2F00002609001326170000FF00007FFF7F0000A5000052A55200007F00003F7F3F00004C0000264C260000260000132613003FFF00009FFF7F0029A5000067A552001F7F00004F7F3F00134C00002F4C260009260000172613007FFF0000BFFF7F0052A500007CA552003F7F00005F7F3F00264C0000
310
394C2600132600001C261300BFFF0000DFFF7F007CA5000091A552005F7F00006F7F3F00394C0000424C26001C26000021261300FFFF0000FFFF7F00A5A50000A5A552007F7F00007F7F3F004C4C00004C4C26002626000026261300FFBF0000FFDF7F00A57C0000A59152007F5F00007F6F3F004C3900004C422600261C00
310
0026211300FF7F0000FFBF7F00A5520000A57C52007F3F00007F5F3F004C2600004C39260026130000261C1300FF3F0000FF9F7F00A5290000A56752007F1F00007F4F3F004C1300004C2F26002609000026171300FF000000FF7F7F00A5000000A55252007F0000007F3F3F004C0000004C2626002600000026131300FF00
310
3F00FF7F9F00A5002900A55267007F001F007F3F4F004C0013004C262F002600090026131700FF007F00FF7FBF00A5005200A5527C007F003F007F3F5F004C0026004C2639002600130026131C00FF00BF00FF7FDF00A5007C00A55291007F005F007F3F6F004C0039004C26420026001C0026132100FF00FF00FF7FFF00A5
310
00A500A552A5007F007F007F3F7F004C004C004C264C002600260026132600BF00FF00DF7FFF007C00A5009152A5005F007F006F3F7F0039004C0042264C001C002600211326007F00FF00BF7FFF005200A5007C52A5003F007F005F3F7F0026004C0039264C00130026001C1326003F00FF009F7FFF002900A5006752A500
310
1F007F004F3F7F0013004C002F264C000900260017132600000000002D2D2D005B5B5B0089898900B7B7B700B3B3B30000000000000000000000000000000000000000000000000000000000000000000000000000000000000000000000000000000000000000000000000000000000000000000000000000000000000000
310
00000000000000000000000000000000000000000000000000000000000000000000000000000000000000000000000000000000000000000000000000000000000000000000000000000000000000000000000000000000000000000000000000000000000000000000000000000000000000000000000000000000000000
310
00000000000000000000000000000000000000000000000000000000000000000000000000000000000000000000000000000000000000000000000000000000000000000000000000000000000000000000000000000000000000000000000000000000000000000000000000000000000000000000000000000000000000
310
00000000000000000000000000000000000000000000000000000000000000000000000000000000000000000000000000000000000000000000000000000000000000000000000000000000000000000000000000000000000000000000000000000000000000000000000000000000000000000000000000000000000000
310
00000000000000000000000000000000000000000000000000000000000000000000000000000000000000000000000000000000000000000000000000000000000000000000000000000000000000000000000000000000000000000000000000000000000000000000000000000000000000000007070707070707070700
310
00000000000000000000000000000000000000000000000000000000000000000000000000000000000000000000000000000000000000000000000000000000000000000000000000000000000000000000000000000000000000000000000000000000000000000000000000000000000000000000000000000000000000
310
00000000000000000000000000000000000000000000000000000000000000000000000000000000000707000000000000000000070700000000000000000000000000000000000000000000000000000000000000000000000000000000000000000000000000000000000000000000000000000000000000000000000000
310
00000000000000000000000000000000000000000000000000000000000000000000000000000000000000000000000000000000000000000000000000000000000000000000000000000000000000000000000000000000000000000707000000000000070000000000000707000000000000000000000000000000000000
310
00000000000000000000000000000000000000000000000000000000000000000000000000000000000000000000000000000000000000000000000000000000000000000000000000000000000000000000000000000000000000000000000000000000000000000000000000000000000000000000000000000000000000
310
00000000000000000000000000000000070700000000070707070707070707000000000700000000000000000000000000000000000000000000000000000000000000000000000000000000000000000000000000000000000000000000000000000000000000000000000000000000000000000000000000000000000000
310
00000000000000000000000000000000000000000000000000000000000000000000000000000000000000000000000000000000000000000000000000000000000000000700000707070700000000000000000007070707000707000000000000000000000000000000000000000000000000000000000000000000000000
310
00000000000000000000000000000000000000000000000000000000000000000000000000000000000000000000000000000000000000000000000000000000000000000000000000000000000000000000000000000000000000000000000000000000000000000000000000000000000000000000000007000707070700
310
00000000000000000000000007000700000700000000000000000000000000000000000000000000000000000000000000000000000000000000000000000000000000000000000000000000000000000000000000000000000000000000000000000000000000000000000000000000000000000000000000000000000000
310
00000000000000000000000000000000000000000000000000000000000000000000000000000000000000000007000700070000000000000000000000000000000007070700070000000000000000000000000000000000000000000000000000000000000000000000000000000000000000000000000000000000000000
310
00000000000000000000000000000000000000000000000000000000000000000000000000000000000000000000000000000000000000000000000000000000000000000000000000000000000000000000000000000000000000000000000000070000070700000000000000000000000000000000000000070700070000
310
00000000000000000000000000000000000000000000000000000000000000000000000000000000000000000000000000000000000000000000000000000000000000000000000000000000000000000000000000000000000000000000000000000000000000000000000000000000000000000000000000000000000000
310
00000000000000000000000000000000000000000000070000070000000000000000000000000000000000000000000000070007000000000000000000000000000000000000000000000000000000000000000000000000000000000000000000000000000000000000000000000000000000000000000000000000000000
310
00000000000000000000000000000000000000000000000000000000000000000000000000000000000000000000000000000000000000000000000000000000000000000000000000000007000700000000000000000000000000000000000000000000000007000700000000000000000000000000000000000000000000
310
00000000000000000000000000000000000000000000000000000000000000000000000000000000000000000000000000000000000000000000000000000000000000000000000000000000000000000000000000000000000000000000000000000000000000000000000000000000000000000000000000000000000000
310
00070707000000000000000000000000000000000000000000000000000700070000000000000000000000000000000000000000000000000000000000000000000000000000000000000000000000000000000000000000000000000000000000000000000000000000000000000000000000000000000000000000000000
310
00000000000000000000000000000000000000000000000000000000000000000000000000000000000000000000000000000000000707070000000000000000000000000000000000000000000000000000000707000000000000000000000000000000000000000000000000000000000000000000000000000000000000
310
00000000000000000000000000000000000000000000000000000000000000000000000000000000000000000000000000000000000000000000000000000000000000000000000000000000000000000000000000000000000000000000000000000000000000000000070700000000000000000000000000000000000000
310
00000000000000000007070000000000000000000000000000000000000000000000000000000000000000000000000000000000000000000000000000000000000000000000000000000000000000000000000000000000000000000000000000000000000000000000000000000000000000000000000000000000000000
310
00000000000000000000000000000000000000000000000000000000000000000707000000000000000000000000000000000000000000000000000000000007000000000000000000000000000000000000000000000000000000000000000000000000000000000000000000000000000000000000000000000000000000
310
00000000000000000000000000000000000000000000000000000000000000000000000000000000000000000000000000000000000000000000000000000000000000000000000000000000000000000000000000070700000000000000000000000000000000000000000000000000000000000700000000000000000000
310
00000000000000000000000000000000000000000000000000000000000000000000000000000000000000000000000000000000000000000000000000000000000000000000000000000000000000000000000000000000000000000000000000000000000000000000000000000000000000000000000000000000000000
310
00000000000000000000000707000000000000000000000000000000000000000000000000000000000007000000000000000000000000000000000000000000000000000000000000000000000000000000000000000000000000000000000000000000000000000000000000000000000000000000000000000000000000
310
00000000000000000000000000000000000000000000000000000000000000000000000000000000000000000000000000000000000000000000000000000000070700000000000000000000000000000000000000000000000000000000000700000000000000000000000000000000000000000000000000000000000000
310
00000000000000000000000000000000000000000000000000000000000000000000000000000000000000000000000000000000000000000000000000000000000000000000000000000000000000000000000000000000000000000000000000000000000000000000000000000000000000000007070000000000000000
310
00000000000000000000000000000000000000000007000000000000000000000000000000000000000000000000000000000000000000000000000000000000000000000000000000000000000000000000000000000000000000000000000000000000000000000000000000000000000000000000000000000000000000
310
00000000000000000000000000000000000000000000000000000000000000000000000000000000000000070700000000000000000000000000000000000000000000000000000000000700000000000000000000000000000000000000000000000000000000000000000000000000000000000000000000000000000000
310
00000000000000000000000000000000000000000000000000000000000000000000000000000000000000000000000000000000000000000000000000000000000000000000000000000000000000000000000000000000000000000000000007070000000000000000000000000000000000000000000000000000000000
310
07000000000000000000000000000000000000000000000000000000000000000000000000000000000000000000000000000000000000000000000000000000000000000000000000000000000000000000000000000707070700000000000000000000000000000000000000000000000000000000000000000000000000
310
00000000000000000000000000000000000000000000000700000000000000000000000000000000000000000000000000000000000700000000000000000000000000000000000000000000000000000000000000000000000000000000000000000000000000000000000000000000000000000000000000000000000000
310
00000000000000000000000707070707070700000000000000000000000000000000000000000000000000000000000000000000000000000000000000000000000000000000000000000000070000000000000000000000000000000000000000000000000000000007000000000000000000000000000000000000000000
310
00000000000000000000000000000000000000000000000000000000000000000000000000000000000000000000000000000000000000000000000000000007070000000000070700000000000000000000000000000000000000000000000000000000000000000000000000000000000000000000000000000000000000
310
00000707000000000000000000000000000000000000000000000000000000070000000000000000000000000000000000000000000000000000000000000000000000000000000000000000000000000000000000000000000000000000000000000000000000000000000000000000000000070700000000000000070000
310
00000000000000000000000000000000000000000000000000000000000000000000000000000000000000000000000000000000000000070700000000000000000000000000000000000000000000000000000700000000000000000000000000000000000000000000000000000000000000000000000000000000000000
310
00000000000000000000000000000000000000000000000000000000000000000000000000000000000700000000000000000700000000000000000000000000000000000000000000000000000000000000000000000000000000000000000000000000000000000000000000070700000000000000000000000000000000
310
00000000000000000007000000000000000000000000000000000000000000000000000000000000000000000000000000000000000000000000000000000000000000000000000000000000000000000000000000000000000000000000070000000000000000000000000000000000000000000000000000000000000000
310
00000000000000000000000000000000000000000000000000000000000000000000000007070000000000000000000000000000000000000000000000070000000000000000000000000000000000000000000000000000000000000000000000000000000000000000000000000000000000000000000000000000000000
310
00000000000000000000000000000000000000000700000000000000000700000000000000000000000000000000000000000000000000000000000000000000000000000000000000000000000000000000000000000000000000070000000000000000000000000000000000000000000700000000000000000000000000
310
00000000000000000000000000000000000000000000000000000000000000000000000000000000000000000000000000000000000000000000000000000000000000000000000000070000000000000000070000000000000000000000000000000000000000000000000000000000000000000000000000000000000000
310
00000000000000000000000000000000000707000000000000000000000000000000000000000700000000000000000000000000000000000000000000000000000000000000000000000000000000000000000000000000000000000000000000000000000000000000000000000000000000000000000000000000000007
310
00000000000000000700000000000000000000000000000000000000000000000000000000000000000000000000000000000000000000000000000000000000000000000000000707000000000000000000000000000000000007000000000000000000000000000000000000000000000000000000000000000000000000
310
00000000000000000000000000000000000000000000000000000000000000000000000000000000000000000000000000000000070000000000000000070000000000000000000000000000000000000000000000000000000000000000000000000000000000000000000000000000000000000000000000000000000707
310
07070000000000000000000000070707000000000000000000000000000000000000000000000000000000000000000000000000000000000000000000000000000000000000000000000000000000000000000000000000000000000000000000000000000000000007000000000000000007000000000000000000000000
310
00000000000000000000000000000000000000000000000000000000000000000000000000000000000000000000000000000000000707070707070000000707070707070000000000000000000000000000000000000000000000000000000000000000000000000000000000000000000000000000000000000000000000
310
00000000000000000000000000000000000000000000000000000000000000070000000000000000000700000000000000000000000000000000000000000000000000000000000000000000000000000000000000000000000000000000000000000000000000000000000000000700070707000700000000000000000000
310
00000000000000000000000000000000000000000000000000000000000000000000000000000000000000000000000000000000000000000000000000000000000000000000000000000000000000000000000007000000000000000000070000000000000000000000000000000000000000000000000000000000000000
310
00000000000000000000000000000000000000000000000000000000000000000000000007000000000007000000000000000000000000000000000000000000000000000000000000000000000000000000000000000000000000000000000000000000000000000000000000000000000000000000000000000000000000
310
00000000000000000000070000000000000000000700000000000000000000000000000000000000000000000000000000000000000000000000000000000000000000000000000000000000000000000000000000000000070700000000000707000000000000000000000000000000000000000000000000000000000000
310
00000000000000000000000000000000000000000000000000000000000000000000000000000000000000000000000000000000000000000000000000000007000000000000000000070000000000000000000000000000000000000000000000000000000000000000000000000000000000000000000000000000000000
310
00000000000000000000000000000707070700070707070000000000000000000000000000000000000000000000000000000000000000000000000000000000000000000000000000000000000000000000000000000000000000000000000000000000000000000000000000000000000000000700000000000000000007
310
00000000000000000000000000000000000000000000000000000000000000000000000000000000000000000000000000000000000000000000000000000000000000070707070707070007000000000000000000000000000000000000000000000000000000000000000000000000000000000000000000000000000000
310
00000000000000000000000000000000000000000000000000000000000000000000000000000000000007000000000000000000070000000000000000000000000000000000000000000000000000000000000000000000000000000000000000000000000000000000000000000000000000000000000007000000000000
310
00070000000000000000000000000000000000000000000000000000000000000000000000000000000000000000000000000000000000000000000000000000000000000000000000000000000000000000000000000000000000000000000700000000000000000007000000000000000000000000000000000000000000
310
00000000000000000000000000000000000000000000000000000000000000000000000000000000000000000000070000000000000007000000000000000000000000000000000000000000000000000000000000000000000000000000000000000000000000000000000000000000000000000000000000000000000000
310
00000000000000000000000000000000000000000007000000000000000000070000000000000000000000000000000000000000000000000000000000000000000000000000000000000000000000000000000000000000000000000000000000000007000000000000000700000000000000000000000000000000000000
310
00000000000000000000000000000000000000000000000000000000000000000000000000000000000000000000000000000000000000000000000000000000000000000000000000000700000000000000000007000000000000000000000000000000000000000000000000000000000000000000000000000000000000
310
00000000000000000000000000000000000000000000000000070000000000000007000000000000000000000000000000000000000000000000000000000000000000000000000000000000000000000000000000000000000000000000000000000000000000000000000000000000000000000000000000000000000000
310
07000000000000000000070000000000000000000000000000000000000000000000000000000000000000000000000000000000000000000000000000000000000000000000000000000000000007000000000000000700000000000000000000000000000000000000000000000000000000000000000000000000000000
310
00000000000000000000000000000000000000000000000000000000000000000000000000000000000000000000000000000000070000000000000000000007000000000000000000000000000000000000000000000000000000000000000000000000000000000000000000000000000000000000000000000000000000
310
00000000070000000000000007000000000000000000000000000000000000000000000000000000000000000000000000000000000000000000000000000000000000000000000000000000000000000000000000000000000000000000000000000000000000000007000000000000000000000700000000000000000000
310
00000000000000000000000000000000000000000000000000000000000000000000000000000000000000000000000000000000000000000007000000000000000700000000000000000000000000000000000000000000000000000000000000000000000000000000000000000000000000000000000000000000000000
310
00000000000000000000000000000000000000000000000000000000000000070000000000000000000007000000000000000000000000000000000000000000000000000000000000000000000000000000000000000000000000000000000000000000000000000000000000000700000000000000070000000000000000
310
00000000000000000000000000000000000000000000000000000000000000000000000000000000000000000000000000000000000000000000000000000000000000000000000000000000000000000000000007000000000000000000000700000000000000000000000000000000000000000000000000000000000000
310
00000000000000000000000000000000000000000000000000000000000000000000000007000000000000000700000000000000000000000000000000000000000000000000000000000000000000000000000000000000000000000000000000000000000000000000000000000000000000000000000000000000000000
310
00000000000000000000070000000000000000000000070000000000000000000000000000000000000000000000000000000000000000000000000000000000000000000000000000000000000000000000000000000000000700000000000000070000000000000000000000000000000000000000000000000000000000
310
00000000000000000000000000000000000000000000000000000000000000000000000000000000000000000000000000000000000000000000000000000007000000000000000000000007000000000000000000000000000000000000000000000000000000000000000000000000000000000000000000000000000000
310
00000000000000000000000000000007000000000000000700000000000000000000000000000000000000000000000000000000000000000000000000000000000000000000000000000000000000000000000000000000000000000000000000000000000000000000000000000000000000000700000000000000000000
310
00070000000000000000000000000000000000000000000000000000000000000000000000000000000000000000000000000000000000000000000000000000000000000700000000000000070000000000000000000000000000000000000000000000000000000000000000000000000000000000000000000000000000
310
00000000000000000000000000000000000000000000000000000000000000000000000000000000000007000000000000000000000007000000000000000000000000000000000000000000000000000000000000000000000000000000000000000000000000000000000000000000000000000000000000070000000000
310
00000700000000000000000000000000000000000000000000000000000000000000000000000000000000000000000000000000000000000000000000000000000000000000000000000000000000000000000000000000000000000000070000000000000000000000000700000000000000000000000000000000000000
310
00000000000000000000000000000000000000000000000000000000000000000000000000000000000000000000000700000000000000070000000000000000000000000000000000000000000000000000000000000000000000000000000000000000000000000000000000000000000000000000000000000000000000
310
00000000000000000000000000000000000000000700000000000000000000000007000000000000000000000000000000000000000000000000000000000000000000000000000000000000000000000000000000000000000000000000000000000000070000000000000007000000000000000000000000000000000000
310
00000000000000000000000000000000000000000000000000000000000000000000000000000000000000000000000000000000000000000000000000000000000000000000000000070000000000000000000000000700000000000000000000000000000000000000000000000000000000000000000000000000000000
310
00000000000000000000000000000000000000000000000000000700000000000000070000000000000000000000000000000000000000000000000000000000000000000000000000000000000000000000000000000000000000000000000000000000000000000000000000000000000000000000000000000000000007
310
00000000000000000000000000070000000000000000000000000000000000000000000000000000000000000000000000000000000000000000000000000000000000000000000000000000000007070000000000000007070000000000000000000000000000000000000000000000000000000000000000000000000000
310
00000000000000000000000000000000000000000000000000000000000000000000000000000000000000000000000000000000070000000000000000000000000007000000000000000000000000000000000000000000000000000000000000000000000000000000000000000000000000000000000000000000000000
310
00000000070700000000000007000000000000000000000000000000000000000000000000000000000000000000000000000000000000000000000000000000000000000000000000000000000000000000000000000000000000000000000000000000000000000007000000000000000000000000000700000000000000
310
00000000000000000000000000000000000000000000000000000000000000000000000000000000000000000000000000000000000000000007000700000000070700070000000000000000000000000000000000000000000000000000000000000000000000000000000000000000000000000000000000000000000000
310
00000000000000000000000000000000000000000000000000000000000000070000000000000000000000000007000000000000000000000000000000000000000000000000000000000000000000000000000000000000000000000000000000000000000000000000000000000707000707070707000707000000000000
310
00000000000000000000000000000000000000000000000000000000000000000000000000000000000000000000000000000000000000000000000000000000000000000000000000000000000000000000000007000000000000000000000000000700000000000000000000000000000000000000000000000000000000
310
00000000000000000000000000000000000000000000000000000000000000000000000007000700000000070700070000000000000000000000000000000000000000000000000007070707070707070000000000000000000000000000000000000000000000000000070707070707070700000000000000000000000000
310
00000000000000000007000000000000000000000000000007000000000000000000000000000000000000000000000000000000000000000000000000000000000000000000000000000000000000000000000000000000070700000707070700000007070000000000000000000000000000000000000000000007070000
310
00070700000007070000000000000000000000000000000000000000000007070000000707000000070700000000000000000000000000000000000000000700000000000000000000000000000700000000000000000000000000000000000000000000000000000000000000000000000000000000000000000000000000
310
00000000000000000000000007070007000000000000000007070007000000000000000000000000000000000000000007000000070707070707000000070000000000000000000000000000000000000000070000000707070707070000000700000000000000000000000000000000000000070000000000000000000000
310
00000007000000000000000000000000000000000000000000000000000000000000000000000000000000000000000000000000000000000000000000000000000700000707000000000000000707000007000000000000000000000000000000000000070000070707070007070707070000070000000000000000000000
310
00000000000000070000070707070000070707070000070000000000000000000000000000000000000700000000000000000000000000000007000000000000000000000000000000000000000000000000000000000000000000000000000000000000000000000000000000000000000000000007000707070707070700
310
07070700070700070000000000000000000000000000000000070000070000000000000000000700000707000000000000000000000000000000000700000700000000000000000007000000070000000000000000000000000000000007070000000000000000000000000000000700000000000000000000000000000000
310
00000000000000000000000000000000000000000000000000000000000000000000000000000000000007000007000700000007070700000007000700070000000000000000000000000000000700000707000000000000000000000700000707000000000000000000000000000007000000070000000000000000000007
310
00000007000000000000000000000000000007070700000000000000000000000000000007070000000000000000000000000000000000000000000000000000000000000000000000000000000000000000000000000000000000000000000700070007070000000000000000000707070007000000000000000000000000
310
00000007000707000000000000000000000000070700070000000000000000000000000000070007070000000000000000000000000707000700000000000000000000000000000707000000000000000000000000000000000707000000000000000000000000000000000000000000000000000000000000000000000000
310
00000000000000000000000000000000000000000700000700070700000000000000000007070007000700000000000000000000000000070007000000000000000000000000000000070007070000000000000000000000000700070700000000000000000000000000000700000700000000000000000000000007070000
310
00000000000000000000000000000000070700000000000000000000000000000000000000000000000000000000000000000000000000000000000000000000000000000000000000070007000700070000000000000000000707000700070000000000000000000000000007000700000000000000000000000000000007
310
00000700000000000000000000000007000707000000000000000000000000000000070007000000000000000000000000070700000000000000000000000000000000000007070000000000000000000000000000000000000000000000000000000000000000000000000000000000000000000000000000000000000007
310
00070007000700000000000000000000070000070007000000000000000000000007070007000000000000000000000000000000070000070000000000000000000000000700070000000000000000000000000000000007000700000000000000000000000007070000000000000000000000000000000000000007000000
310
00000000000000000000000000000000000000000000000000000000000000000000000000000000000000000000000000000000070007000700070000000000000000000700070007000700000000000000000000000707070700000000000000000000000000000000070700000000000000000000000000070707000000
310
00000000000000000000000000070707000000000000000000000000070700000000000000000000000000000000000000070000000000000000000000000000000000000000000000000000000000000000000000000000000000000000000000000000000000000007000700070007000000000000000007000700000000
310
00000000000000000000000007070707000000000000000000000000000000000707070000000000000000000000000707070000000000000000000000000000000007070700000000000000000000000007070000000000000000000000000000000000000007070000000000000000000000000000000000000000000000
310
00000000000000000000000000000000000000000000000000000000000000070007000700000700000000000000070007000007000700000000000000000000000007000700000000000000000000000000000007000007000000000000000000000000070007070000000000000000000000000000000700070000000000
310
00000000000000070700000000000000000000000000000000000007070000000000000000000000000000000000000000000000000000000000000000000000000000000000000000000000000000000000000007000700070000070000000000000007000700070007000000000000000000000000000700070000000000
310
00000000000000000000070000070000000000000000000000000700070700000000000000000000000000000007000700000000000000000000000007070000000000000000000000000000000000000707000000000000000000000000000000000000000000000000000000000000000000000000000000000000000000
310
00000000000000000000070000070007000007000000000707000007000700070000000000000000000000000007000700000000000000000000000000000007000707000000000000000000000000070007070000000000000000000000000000070000070000000000000000000000000707000000000000000000000000
310
00000000000007070000000000000000000000000000000000000000000000000000000000000000000000000000000000000000000000000000000000000000070007000700000007070707070000070007000007000000000000000000000000000007000700000000000000000000000000000700070000000000000000
310
00000000000007000700000000000000000000000000000700070000000000000000000000000000070700000000000000000000000000000000070700000000000000000000000000000000000000000000000000000000000000000000000000000000000000000000000000000000000000000000070007000700000000
310
00000000070700070007000000000000000000000000000000070000070700000000000000000000070700070700000000000000000000000000000700000707000000000000000000000707000007000000000000000000000000000007070000000000000000000000000000000007070000000000000000000000000000
310
00000000000000000000000000000000000000000000000000000000000000000000000000000000000000000700070700070700000000000707000700070000000000000000000000000000000000070000070000000000000000000700000707000000000000000000000000000000000700000700000000000000000007
310
00000007000000000000000000000000000000000707000000000000000000000000000007070000000000000000000000000000000000000000000000000000000000000000000000000000000000000000000000000000000000000000000000000700000707070707070707070707000700000000000000000000000000
310
00000000000007000007070700000007070707000007000000000000000000000000000000000000070000070707070000000707070000070000000000000000000000000000000000000707000000000000000000000000000707000000000000000000000000000000000000000000000000000000000000000000000000
310
00000000000000000000000000000000000000000000000000070000070707070707070700000707000000000000000000000000000000000000000007000007070707070707000000070000000000000000000000000000000000000000070000070707070707070700000700000000000000000000000000000000000000
310
00070707000000000000000000070707000000000000000000000000000000000000000000000000000000000000000000000000000000000000000000000000000000000000000000000000000000070700000000000000000007000000000000000000000000000000000000000000000007070000000707000000070700
310
00000000000000000000000000000000000000000007070000000707000000070700000000000000000000000000000000000000000000070707070000000000070707000000000000000000000000000000000000000000000000000000000000000000000000000000000000000000000000000000000000000000000000
310
00000000000000070707070707070707000000000000000000000000000000000000000000000000000007070707070707070000000000000000000000000000000000000000000000000000070707070707070700000000000000000000000000000000000000000000000000000707070707070707070000000000000000
310
00000000000000000000000000000000000000000000000000000000000000000000000000000000000000000000000000000000000000000000000000000000000000000000000000000000000000000000000000000000000000000000000000000000000000000000000000000000000000000000000000000000000000
310
00000000000000000000000000000000000000000000000000000000000000000000000000000000000000000000000000000000000000000000000000000000000000000000000000000000000000000000000000000000000000000000000000000000000000000000000000000000000000000000000000000000000000
310
00000000000000000000000000000000000000000000000000000000000000000000000000000000000000000000000000000000000000000000000000000000000000000000000000000000000000000000000000000000000000000000000000000000000000000000000000000000000000000000000000000000000000
310
00000000000000000000000000000000000000000000000000000000000000000000000000000000000000000000000000000000000000000000000000000000000000000000000000000000000000000000000000000000000000000000000000000000000000000000000000000000000000000000000000000000000000
310
00000000000000000000000000000000000000000000000000000000000000000000000000000000000000000000000000000000000000000000000000000000000000000000000000000000000000000000000000000000000000000000000000000000000000000000000000000000000000000000000000000000000000
310
000000000000000000000000000000000000000000000000000000000000000000000000000000000000000000000000000000000000000000000000000000000000000000000000000000000000000000000000000000000000000000000000000000000000000000000000
  0
ENDSEC
  0
EOF
