  0
SECTION
  2
HEADER
  9
$ACADVER
  1
AC1015
  9
$ACADMAINTVER
 70
     6
  9
$DWGCODEPAGE
  3
ANSI_1252
  9
$INSBASE
 10
0.0
 20
0.0
 30
0.0
  9
$EXTMIN
 10
-37.5381
 20
0.148
 30
0.0
  9
$EXTMAX
 10
212.1722
 20
202.078388
 30
0.0
  9
$LIMMIN
 10
0.0
 20
0.0
  9
$LIMMAX
 10
12.0
 20
9.0
  9
$ORTHOMODE
 70
     0
  9
$REGENMODE
 70
     1
  9
$FILLMODE
 70
     1
  9
$QTEXTMODE
 70
     0
  9
$MIRRTEXT
 70
     1
  9
$LTSCALE
 40
1.0
  9
$ATTMODE
 70
     1
  9
$TEXTSIZE
 40
0.2
  9
$TRACEWID
 40
0.05
  9
$TEXTSTYLE
  7
Standard
  9
$CLAYER
  8
0
  9
$CELTYPE
  6
Continuous
  9
$CECOLOR
 62
   256
  9
$CELTSCALE
 40
1.0
  9
$DISPSILH
 70
     0
  9
$DIMSCALE
 40
1.0
  9
$DIMASZ
 40
0.18
  9
$DIMEXO
 40
0.0625
  9
$DIMDLI
 40
0.38
  9
$DIMRND
 40
0.0
  9
$DIMDLE
 40
0.0
  9
$DIMEXE
 40
0.18
  9
$DIMTP
 40
0.0
  9
$DIMTM
 40
0.0
  9
$DIMTXT
 40
0.18
  9
$DIMCEN
 40
0.09
  9
$DIMTSZ
 40
0.0
  9
$DIMTOL
 70
     0
  9
$DIMLIM
 70
     0
  9
$DIMTIH
 70
     1
  9
$DIMTOH
 70
     1
  9
$DIMSE1
 70
     0
  9
$DIMSE2
 70
     0
  9
$DIMTAD
 70
     0
  9
$DIMZIN
 70
     0
  9
$DIMBLK
  1

  9
$DIMASO
 70
     1
  9
$DIMSHO
 70
     1
  9
$DIMPOST
  1

  9
$DIMAPOST
  1

  9
$DIMALT
 70
     0
  9
$DIMALTD
 70
     2
  9
$DIMALTF
 40
25.4
  9
$DIMLFAC
 40
1.0
  9
$DIMTOFL
 70
     0
  9
$DIMTVP
 40
0.0
  9
$DIMTIX
 70
     0
  9
$DIMSOXD
 70
     0
  9
$DIMSAH
 70
     0
  9
$DIMBLK1
  1

  9
$DIMBLK2
  1

  9
$DIMSTYLE
  2
Standard
  9
$DIMCLRD
 70
     0
  9
$DIMCLRE
 70
     0
  9
$DIMCLRT
 70
     0
  9
$DIMTFAC
 40
1.0
  9
$DIMGAP
 40
0.09
  9
$DIMJUST
 70
     0
  9
$DIMSD1
 70
     0
  9
$DIMSD2
 70
     0
  9
$DIMTOLJ
 70
     1
  9
$DIMTZIN
 70
     0
  9
$DIMALTZ
 70
     0
  9
$DIMALTTZ
 70
     0
  9
$DIMUPT
 70
     0
  9
$DIMDEC
 70
     4
  9
$DIMTDEC
 70
     4
  9
$DIMALTU
 70
     2
  9
$DIMALTTD
 70
     2
  9
$DIMTXSTY
  7
Standard
  9
$DIMAUNIT
 70
     0
  9
$DIMADEC
 70
     0
  9
$DIMALTRND
 40
0.0
  9
$DIMAZIN
 70
     0
  9
$DIMDSEP
 70
    46
  9
$DIMATFIT
 70
     3
  9
$DIMFRAC
 70
     0
  9
$DIMLDRBLK
  1

  9
$DIMLUNIT
 70
     2
  9
$DIMLWD
 70
    -2
  9
$DIMLWE
 70
    -2
  9
$DIMTMOVE
 70
     0
  9
$LUNITS
 70
     2
  9
$LUPREC
 70
     4
  9
$SKETCHINC
 40
0.1
  9
$FILLETRAD
 40
0.0
  9
$AUNITS
 70
     0
  9
$AUPREC
 70
     0
  9
$MENU
  1
.
  9
$ELEVATION
 40
0.0
  9
$PELEVATION
 40
0.0
  9
$THICKNESS
 40
0.0
  9
$LIMCHECK
 70
     0
  9
$CHAMFERA
 40
0.0
  9
$CHAMFERB
 40
0.0
  9
$CHAMFERC
 40
0.0
  9
$CHAMFERD
 40
0.0
  9
$SKPOLY
 70
     0
  9
$TDCREATE
 40
2454691.694070451
  9
$TDUCREATE
 40
2454691.610737118
  9
$TDUPDATE
 40
2456209.731949687
  9
$TDUUPDATE
 40
2456209.648616354
  9
$TDINDWG
 40
0.0018355903
  9
$TDUSRTIMER
 40
0.0018355903
  9
$USRTIMER
 70
     1
  9
$ANGBASE
 50
0.0
  9
$ANGDIR
 70
     0
  9
$PDMODE
 70
     0
  9
$PDSIZE
 40
0.0
  9
$PLINEWID
 40
0.0
  9
$SPLFRAME
 70
     0
  9
$SPLINETYPE
 70
     6
  9
$SPLINESEGS
 70
     8
  9
$HANDSEED
  5
76F
  9
$SURFTAB1
 70
     6
  9
$SURFTAB2
 70
     6
  9
$SURFTYPE
 70
     6
  9
$SURFU
 70
     6
  9
$SURFV
 70
     6
  9
$UCSBASE
  2

  9
$UCSNAME
  2

  9
$UCSORG
 10
0.0
 20
0.0
 30
0.0
  9
$UCSXDIR
 10
1.0
 20
0.0
 30
0.0
  9
$UCSYDIR
 10
0.0
 20
1.0
 30
0.0
  9
$UCSORTHOREF
  2

  9
$UCSORTHOVIEW
 70
     1
  9
$UCSORGTOP
 10
0.0
 20
0.0
 30
0.0
  9
$UCSORGBOTTOM
 10
0.0
 20
0.0
 30
0.0
  9
$UCSORGLEFT
 10
0.0
 20
0.0
 30
0.0
  9
$UCSORGRIGHT
 10
0.0
 20
0.0
 30
0.0
  9
$UCSORGFRONT
 10
0.0
 20
0.0
 30
0.0
  9
$UCSORGBACK
 10
0.0
 20
0.0
 30
0.0
  9
$PUCSBASE
  2

  9
$PUCSNAME
  2

  9
$PUCSORG
 10
0.0
 20
0.0
 30
0.0
  9
$PUCSXDIR
 10
1.0
 20
0.0
 30
0.0
  9
$PUCSYDIR
 10
0.0
 20
1.0
 30
0.0
  9
$PUCSORTHOREF
  2

  9
$PUCSORTHOVIEW
 70
     0
  9
$PUCSORGTOP
 10
0.0
 20
0.0
 30
0.0
  9
$PUCSORGBOTTOM
 10
0.0
 20
0.0
 30
0.0
  9
$PUCSORGLEFT
 10
0.0
 20
0.0
 30
0.0
  9
$PUCSORGRIGHT
 10
0.0
 20
0.0
 30
0.0
  9
$PUCSORGFRONT
 10
0.0
 20
0.0
 30
0.0
  9
$PUCSORGBACK
 10
0.0
 20
0.0
 30
0.0
  9
$USERI1
 70
     0
  9
$USERI2
 70
     0
  9
$USERI3
 70
     0
  9
$USERI4
 70
     0
  9
$USERI5
 70
     0
  9
$USERR1
 40
0.0
  9
$USERR2
 40
0.0
  9
$USERR3
 40
0.0
  9
$USERR4
 40
0.0
  9
$USERR5
 40
0.0
  9
$WORLDVIEW
 70
     1
  9
$SHADEDGE
 70
     3
  9
$SHADEDIF
 70
    70
  9
$TILEMODE
 70
     1
  9
$MAXACTVP
 70
    64
  9
$PINSBASE
 10
0.0
 20
0.0
 30
0.0
  9
$PLIMCHECK
 70
     0
  9
$PEXTMIN
 10
1.000000000000E+20
 20
1.000000000000E+20
 30
1.000000000000E+20
  9
$PEXTMAX
 10
-1.000000000000E+20
 20
-1.000000000000E+20
 30
-1.000000000000E+20
  9
$PLIMMIN
 10
0.0
 20
0.0
  9
$PLIMMAX
 10
12.0
 20
9.0
  9
$UNITMODE
 70
     0
  9
$VISRETAIN
 70
     1
  9
$PLINEGEN
 70
     0
  9
$PSLTSCALE
 70
     1
  9
$TREEDEPTH
 70
  3020
  9
$CMLSTYLE
  2
Standard
  9
$CMLJUST
 70
     0
  9
$CMLSCALE
 40
1.0
  9
$PROXYGRAPHICS
 70
     1
  9
$MEASUREMENT
 70
     0
  9
$CELWEIGHT
370
    -1
  9
$ENDCAPS
280
     0
  9
$JOINSTYLE
280
     0
  9
$LWDISPLAY
290
     0
  9
$INSUNITS
 70
     0
  9
$HYPERLINKBASE
  1

  9
$STYLESHEET
  1

  9
$XEDIT
290
     1
  9
$CEPSNTYPE
380
     0
  9
$PSTYLEMODE
290
     1
  9
$FINGERPRINTGUID
  2
{167D9108-3BA5-402E-89B7-269444766544}
  9
$VERSIONGUID
  2
{6A0D48B6-C3D8-466F-8585-D3976FF8E0BB}
  9
$EXTNAMES
290
     1
  9
$PSVPSCALE
 40
0.0
  9
$OLESTARTUP
290
     0
  0
ENDSEC
  0
SECTION
  2
CLASSES
  0
CLASS
  1
ACDBDICTIONARYWDFLT
  2
AcDbDictionaryWithDefault
  3
ObjectDBX Classes
 90
        0
280
     0
281
     0
  0
CLASS
  1
ACDBPLACEHOLDER
  2
AcDbPlaceHolder
  3
ObjectDBX Classes
 90
        0
280
     0
281
     0
  0
CLASS
  1
LAYOUT
  2
AcDbLayout
  3
ObjectDBX Classes
 90
        0
280
     0
281
     0
  0
CLASS
  1
DICTIONARYVAR
  2
AcDbDictionaryVar
  3
ObjectDBX Classes
 90
        0
280
     0
281
     0
  0
CLASS
  1
SCALE
  2
AcDbScale
  3
ObjectDBX Classes
 90
     1153
280
     0
281
     0
  0
ENDSEC
  0
SECTION
  2
TABLES
  0
TABLE
  2
VPORT
  5
8
330
0
100
AcDbSymbolTable
 70
     1
  0
VPORT
  5
2EF
330
8
100
AcDbSymbolTableRecord
100
AcDbViewportTableRecord
  2
*Active
 70
     0
 10
0.0
 20
0.0
 11
1.0
 21
1.0
 12
87.31705
 22
101.039194
 13
0.0
 23
0.0
 14
1.0
 24
1.0
 15
0.0
 25
0.0
 16
0.0
 26
0.0
 36
1.0
 17
0.0
 27
0.0
 37
0.0
 40
206.11995576
 41
2.271724137931
 42
50.0
 43
0.0
 44
0.0
 50
0.0
 51
0.0
 71
    16
 72
   100
 73
     1
 74
     3
 75
     0
 76
     0
 77
     0
 78
     0
281
     0
 65
     1
110
0.0
120
0.0
130
0.0
111
1.0
121
0.0
131
0.0
112
0.0
122
1.0
132
0.0
 79
     1
146
0.0
  0
ENDTAB
  0
TABLE
  2
LTYPE
  5
5
330
0
100
AcDbSymbolTable
 70
     1
  0
LTYPE
  5
13
330
5
100
AcDbSymbolTableRecord
100
AcDbLinetypeTableRecord
  2
ByBlock
 70
     0
  3

 72
    65
 73
     0
 40
0.0
  0
LTYPE
  5
14
330
5
100
AcDbSymbolTableRecord
100
AcDbLinetypeTableRecord
  2
ByLayer
 70
     0
  3

 72
    65
 73
     0
 40
0.0
  0
LTYPE
  5
15
330
5
100
AcDbSymbolTableRecord
100
AcDbLinetypeTableRecord
  2
Continuous
 70
     0
  3
Solid line
 72
    65
 73
     0
 40
0.0
  0
ENDTAB
  0
TABLE
  2
LAYER
  5
2
330
0
100
AcDbSymbolTable
 70
     1
  0
LAYER
  5
10
330
2
100
AcDbSymbolTableRecord
100
AcDbLayerTableRecord
  2
0
 70
     0
 62
     7
  6
Continuous
370
    -3
390
F
  0
ENDTAB
  0
TABLE
  2
STYLE
  5
3
330
0
100
AcDbSymbolTable
 70
     1
  0
STYLE
  5
11
330
3
100
AcDbSymbolTableRecord
100
AcDbTextStyleTableRecord
  2
Standard
 70
     0
 40
0.0
 41
1.0
 50
0.0
 71
     0
 42
0.2
  3
txt
  4

  0
ENDTAB
  0
TABLE
  2
VIEW
  5
6
330
0
100
AcDbSymbolTable
 70
     0
  0
ENDTAB
  0
TABLE
  2
UCS
  5
7
330
0
100
AcDbSymbolTable
 70
     0
  0
ENDTAB
  0
TABLE
  2
APPID
  5
9
330
0
100
AcDbSymbolTable
 70
     1
  0
APPID
  5
12
330
9
100
AcDbSymbolTableRecord
100
AcDbRegAppTableRecord
  2
ACAD
 70
     0
  0
ENDTAB
  0
TABLE
  2
DIMSTYLE
  5
A
330
0
100
AcDbSymbolTable
 70
     1
100
AcDbDimStyleTable
  0
DIMSTYLE
105
2E9
330
A
100
AcDbSymbolTableRecord
100
AcDbDimStyleTableRecord
  2
Standard
 70
     0
340
11
  0
ENDTAB
  0
TABLE
  2
BLOCK_RECORD
  5
1
330
0
100
AcDbSymbolTable
 70
     1
  0
BLOCK_RECORD
  5
1E
330
1
100
AcDbSymbolTableRecord
100
AcDbBlockTableRecord
  2
*Model_Space
340
21
  0
BLOCK_RECORD
  5
1A
330
1
100
AcDbSymbolTableRecord
100
AcDbBlockTableRecord
  2
*Paper_Space
340
1D
  0
ENDTAB
  0
ENDSEC
  0
SECTION
  2
BLOCKS
  0
BLOCK
  5
1F
330
1E
100
AcDbEntity
  8
0
100
AcDbBlockBegin
  2
*Model_Space
 70
     0
 10
0.0
 20
0.0
 30
0.0
  3
*Model_Space
  1
*Model_Space
  0
ENDBLK
  5
20
330
1E
100
AcDbEntity
  8
0
100
AcDbBlockEnd
  0
BLOCK
  5
1B
330
1A
100
AcDbEntity
 67
     1
  8
0
100
AcDbBlockBegin
  2
*Paper_Space
 70
     0
 10
0.0
 20
0.0
 30
0.0
  3
*Paper_Space
  1
*Paper_Space
  0
ENDBLK
  5
1C
330
1A
100
AcDbEntity
 67
     1
  8
0
100
AcDbBlockEnd
  0
ENDSEC
  0
SECTION
  2
ENTITIES
  0
LINE
  5
6E
330
1E
100
AcDbEntity
  8
0
100
AcDbLine
 10
23.5472
 20
74.8513
 30
0.0
 11
27.1022
 21
83.4814
 31
0.0
  0
LINE
  5
6F
330
1E
100
AcDbEntity
  8
0
100
AcDbLine
 10
23.5472
 20
74.8513
 30
0.0
 11
24.5302
 21
74.4414
 31
0.0
  0
LINE
  5
70
330
1E
100
AcDbEntity
  8
0
100
AcDbLine
 10
24.5302
 20
74.4414
 30
0.0
 11
27.3352
 21
73.2821
 31
0.0
  0
LINE
  5
71
330
1E
100
AcDbEntity
  8
0
100
AcDbLine
 10
27.3352
 20
73.2821
 30
0.0
 11
31.5342
 21
71.5497
 31
0.0
  0
LINE
  5
72
330
1E
100
AcDbEntity
  8
0
100
AcDbLine
 10
30.8972
 20
81.9267
 30
0.0
 11
35.0972
 21
80.1987
 31
0.0
  0
LINE
  5
73
330
1E
100
AcDbEntity
  8
0
100
AcDbLine
 10
30.8902
 20
81.9122
 30
0.0
 11
35.0892
 21
80.1798
 31
0.0
  0
LINE
  5
74
330
1E
100
AcDbEntity
  8
0
100
AcDbLine
 10
31.5342
 20
71.5497
 30
0.0
 11
36.4972
 21
69.5038
 31
0.0
  0
LINE
  5
75
330
1E
100
AcDbEntity
  8
0
100
AcDbLine
 10
30.9172
 20
81.956
 30
0.0
 11
35.1122
 21
80.2091
 31
0.0
  0
LINE
  5
76
330
1E
100
AcDbEntity
  8
0
100
AcDbLine
 10
27.1022
 20
83.4814
 30
0.0
 11
28.0862
 21
83.0715
 31
0.0
  0
LINE
  5
77
330
1E
100
AcDbEntity
  8
0
100
AcDbLine
 10
27.1022
 20
83.4814
 30
0.0
 11
28.0892
 21
83.0794
 31
0.0
  0
LINE
  5
78
330
1E
100
AcDbEntity
  8
0
100
AcDbLine
 10
28.0892
 20
83.0794
 30
0.0
 11
30.8972
 21
81.9267
 31
0.0
  0
LINE
  5
79
330
1E
100
AcDbEntity
  8
0
100
AcDbLine
 10
28.0862
 20
83.0715
 30
0.0
 11
30.8902
 21
81.9122
 31
0.0
  0
LINE
  5
7A
330
1E
100
AcDbEntity
  8
0
100
AcDbLine
 10
27.1242
 20
83.5331
 30
0.0
 11
32.7282
 21
96.8005
 31
0.0
  0
LINE
  5
7B
330
1E
100
AcDbEntity
  8
0
100
AcDbLine
 10
27.1242
 20
83.5331
 30
0.0
 11
28.1032
 21
83.1233
 31
0.0
  0
LINE
  5
7C
330
1E
100
AcDbEntity
  8
0
100
AcDbLine
 10
27.1242
 20
83.5331
 30
0.0
 11
28.1122
 21
83.1233
 31
0.0
  0
LINE
  5
7D
330
1E
100
AcDbEntity
  8
0
100
AcDbLine
 10
28.1122
 20
83.1233
 30
0.0
 11
30.9172
 21
81.956
 31
0.0
  0
LINE
  5
7E
330
1E
100
AcDbEntity
  8
0
100
AcDbLine
 10
28.1032
 20
83.1233
 30
0.0
 11
30.9012
 21
81.956
 31
0.0
  0
LINE
  5
7F
330
1E
100
AcDbEntity
  8
0
100
AcDbLine
 10
30.9012
 20
81.956
 30
0.0
 11
35.0912
 21
80.2091
 31
0.0
  0
LINE
  5
80
330
1E
100
AcDbEntity
  8
0
100
AcDbLine
 10
36.4972
 20
69.5038
 30
0.0
 11
41.4412
 21
67.468
 31
0.0
  0
LINE
  5
81
330
1E
100
AcDbEntity
  8
0
100
AcDbLine
 10
40.0532
 20
78.1339
 30
0.0
 11
43.459289601552
 21
76.731084460684
 31
0.0
  0
LINE
  5
82
330
1E
100
AcDbEntity
  8
0
100
AcDbLine
 10
40.0582
 20
78.1484
 30
0.0
 11
45.0032
 21
76.0877
 31
0.0
  0
LINE
  5
83
330
1E
100
AcDbEntity
  8
0
100
AcDbLine
 10
35.0892
 20
80.1798
 30
0.0
 11
40.0532
 21
78.1339
 31
0.0
  0
LINE
  5
84
330
1E
100
AcDbEntity
  8
0
100
AcDbLine
 10
35.0972
 20
80.1987
 30
0.0
 11
36.697775522841
 21
79.5396014803
 31
0.0
  0
LINE
  5
A3
330
1E
100
AcDbEntity
  8
0
100
AcDbLine
 10
35.1122
 20
80.2091
 30
0.0
 11
40.0582
 21
78.1484
 31
0.0
  0
LINE
  5
A4
330
1E
100
AcDbEntity
  8
0
100
AcDbLine
 10
35.0912
 20
80.2091
 30
0.0
 11
40.0362
 21
78.1484
 31
0.0
  0
LINE
  5
A5
330
1E
100
AcDbEntity
  8
0
100
AcDbLine
 10
40.0362
 20
78.1484
 30
0.0
 11
41.603420856384
 21
77.495433558684
 31
0.0
  0
LINE
  5
A6
330
1E
100
AcDbEntity
  8
0
100
AcDbLine
 10
32.7282
 20
96.8005
 30
0.0
 11
42.7542
 21
112.064
 31
0.0
  0
LINE
  5
EF
330
1E
100
AcDbEntity
  8
0
100
AcDbLine
 10
41.4412
 20
67.468
 30
0.0
 11
45.6412
 21
65.7401
 31
0.0
  0
LINE
  5
F0
330
1E
100
AcDbEntity
  8
0
100
AcDbLine
 10
45.6412
 20
65.7401
 30
0.0
 11
48.4292
 21
64.5955
 31
0.0
  0
LINE
  5
F1
330
1E
100
AcDbEntity
  8
0
100
AcDbLine
 10
48.4292
 20
64.5955
 30
0.0
 11
49.4362
 21
64.1854
 31
0.0
  0
LINE
  5
F2
330
1E
100
AcDbEntity
  8
0
100
AcDbLine
 10
49.4362
 20
64.1854
 30
0.0
 11
52.9912
 21
72.8154
 31
0.0
  0
LINE
  5
F3
330
1E
100
AcDbEntity
  8
0
100
AcDbLine
 10
51.9912
 20
73.1736
 30
0.0
 11
52.9702
 21
72.7638
 31
0.0
  0
LINE
  5
F4
330
1E
100
AcDbEntity
  8
0
100
AcDbLine
 10
49.1932
 20
74.3409
 30
0.0
 11
51.9912
 21
73.1736
 31
0.0
  0
LINE
  5
F5
330
1E
100
AcDbEntity
  8
0
100
AcDbLine
 10
45.0032
 20
76.0877
 30
0.0
 11
49.1932
 21
74.3409
 31
0.0
  0
LINE
  5
F6
330
1E
100
AcDbEntity
  8
0
100
AcDbLine
 10
52.9702
 20
72.7638
 30
0.0
 11
57.3662
 21
83.4963
 31
0.0
  0
LINE
  5
F7
330
1E
100
AcDbEntity
  8
0
100
AcDbLine
 10
42.7542
 20
112.064
 30
0.0
 11
55.6892
 21
124.379
 31
0.0
  0
LINE
  5
107
330
1E
100
AcDbEntity
  8
0
100
AcDbLine
 10
55.6892
 20
124.379
 30
0.0
 11
69.4242
 21
131.969
 31
0.0
  0
LINE
  5
10F
330
1E
100
AcDbEntity
  8
0
100
AcDbLine
 10
57.3662
 20
83.4963
 30
0.0
 11
64.3412
 21
94.2321
 31
0.0
  0
LINE
  5
13B
330
1E
100
AcDbEntity
  8
0
100
AcDbLine
 10
64.3412
 20
94.2321
 30
0.0
 11
72.4052
 21
101.917
 31
0.0
  0
LINE
  5
13C
330
1E
100
AcDbEntity
  8
0
100
AcDbLine
 10
72.4052
 20
101.917
 30
0.0
 11
80.6702
 21
106.327
 31
0.0
  0
LINE
  5
13D
330
1E
100
AcDbEntity
  8
0
100
AcDbLine
 10
69.4242
 20
131.969
 30
0.0
 11
83.7442
 21
136.8
 31
0.0
  0
LINE
  5
13E
330
1E
100
AcDbEntity
  8
0
100
AcDbLine
 10
80.6702
 20
106.327
 30
0.0
 11
89.9492
 21
109.496
 31
0.0
  0
LINE
  5
185
330
1E
100
AcDbEntity
  8
0
100
AcDbLine
 10
89.9492
 20
109.496
 30
0.0
 11
97.8422
 21
109.67
 31
0.0
  0
LINE
  5
186
330
1E
100
AcDbEntity
  8
0
100
AcDbLine
 10
83.7442
 20
136.8
 30
0.0
 11
96.2512
 21
138.626
 31
0.0
  0
LINE
  5
187
330
1E
100
AcDbEntity
  8
0
100
AcDbLine
 10
96.2512
 20
138.626
 30
0.0
 11
106.0452
 21
138.614
 31
0.0
  0
LINE
  5
188
330
1E
100
AcDbEntity
  8
0
100
AcDbLine
 10
97.8422
 20
109.67
 30
0.0
 11
104.0492
 21
109.682
 31
0.0
  0
LINE
  5
18D
330
1E
100
AcDbEntity
  8
0
100
AcDbLine
 10
106.0452
 20
138.614
 30
0.0
 11
115.1852
 21
137.7
 31
0.0
  0
LINE
  5
18E
330
1E
100
AcDbEntity
  8
0
100
AcDbLine
 10
104.0492
 20
109.682
 30
0.0
 11
107.9092
 21
108.596
 31
0.0
  0
LINE
  5
18F
330
1E
100
AcDbEntity
  8
0
100
AcDbLine
 10
115.1852
 20
137.7
 30
0.0
 11
126.5782
 21
135.161
 31
0.0
  0
LINE
  5
190
330
1E
100
AcDbEntity
  8
0
100
AcDbLine
 10
107.9092
 20
108.596
 30
0.0
 11
115.5152
 21
105.135
 31
0.0
  0
LINE
  5
191
330
1E
100
AcDbEntity
  8
0
100
AcDbLine
 10
126.5782
 20
135.161
 30
0.0
 11
138.4652
 21
131.192
 31
0.0
  0
LINE
  5
192
330
1E
100
AcDbEntity
  8
0
100
AcDbLine
 10
115.5152
 20
105.135
 30
0.0
 11
122.6292
 21
101.105
 31
0.0
  0
LINE
  5
193
330
1E
100
AcDbEntity
  8
0
100
AcDbLine
 10
122.6292
 20
101.105
 30
0.0
 11
129.8672
 21
95.3031
 31
0.0
  0
LINE
  5
194
330
1E
100
AcDbEntity
  8
0
100
AcDbLine
 10
129.8672
 20
95.3031
 30
0.0
 11
135.0382
 21
90.3001
 31
0.0
  0
LINE
  5
23B
330
1E
100
AcDbEntity
  8
0
100
AcDbLine
 10
210.8722
 20
0.148
 30
0.0
 11
212.1722
 21
0.148
 31
0.0
  0
LINE
  5
23C
330
1E
100
AcDbEntity
  8
0
100
AcDbLine
 10
207.4722
 20
0.148
 30
0.0
 11
210.8722
 21
0.148
 31
0.0
  0
LINE
  5
23D
330
1E
100
AcDbEntity
  8
0
100
AcDbLine
 10
201.8722
 20
0.148
 30
0.0
 11
207.4722
 21
0.148
 31
0.0
  0
LINE
  5
23E
330
1E
100
AcDbEntity
  8
0
100
AcDbLine
 10
194.5722
 20
0.148
 30
0.0
 11
201.8722
 21
0.148
 31
0.0
  0
LINE
  5
23F
330
1E
100
AcDbEntity
  8
0
100
AcDbLine
 10
186.1722
 20
0.148
 30
0.0
 11
194.5722
 21
0.148
 31
0.0
  0
LINE
  5
240
330
1E
100
AcDbEntity
  8
0
100
AcDbLine
 10
177.1722
 20
0.148
 30
0.0
 11
186.1722
 21
0.148
 31
0.0
  0
LINE
  5
241
330
1E
100
AcDbEntity
  8
0
100
AcDbLine
 10
142.1722
 20
0.148
 30
0.0
 11
142.1722
 21
7.148
 31
0.0
  0
LINE
  5
242
330
1E
100
AcDbEntity
  8
0
100
AcDbLine
 10
143.4722
 20
7.148
 30
0.0
 11
146.8722
 21
7.148
 31
0.0
  0
LINE
  5
243
330
1E
100
AcDbEntity
  8
0
100
AcDbLine
 10
143.1722
 20
8.148
 30
0.0
 11
144.3722
 21
8.148
 31
0.0
  0
LINE
  5
244
330
1E
100
AcDbEntity
  8
0
100
AcDbLine
 10
144.5462
 20
8.14815
 30
0.0
 11
145.0572
 21
17.3484
 31
0.0
  0
LINE
  5
245
330
1E
100
AcDbEntity
  8
0
100
AcDbLine
 10
144.5462
 20
8.14815
 30
0.0
 11
147.0102
 21
8.14815
 31
0.0
  0
LINE
  5
246
330
1E
100
AcDbEntity
  8
0
100
AcDbLine
 10
144.5462
 20
8.14815
 30
0.0
 11
147.0302
 21
8.14815
 31
0.0
  0
LINE
  5
247
330
1E
100
AcDbEntity
  8
0
100
AcDbLine
 10
144.3722
 20
8.148
 30
0.0
 11
147.7722
 21
8.148
 31
0.0
  0
LINE
  5
248
330
1E
100
AcDbEntity
  8
0
100
AcDbLine
 10
142.1722
 20
7.148
 30
0.0
 11
143.4722
 21
7.148
 31
0.0
  0
LINE
  5
249
330
1E
100
AcDbEntity
  8
0
100
AcDbLine
 10
142.1722
 20
7.148
 30
0.0
 11
143.1722
 21
8.148
 31
0.0
  0
LINE
  5
24A
330
1E
100
AcDbEntity
  8
0
100
AcDbLine
 10
146.8722
 20
7.148
 30
0.0
 11
152.4722
 21
7.148
 31
0.0
  0
LINE
  5
24B
330
1E
100
AcDbEntity
  8
0
100
AcDbLine
 10
142.1722
 20
0.148
 30
0.0
 11
143.4722
 21
0.148
 31
0.0
  0
LINE
  5
24C
330
1E
100
AcDbEntity
  8
0
100
AcDbLine
 10
142.1722
 20
0.148
 30
0.0
 11
142.1722
 21
7.148
 31
0.0
  0
LINE
  5
24D
330
1E
100
AcDbEntity
  8
0
100
AcDbLine
 10
143.4722
 20
0.148
 30
0.0
 11
146.8722
 21
0.148
 31
0.0
  0
LINE
  5
24E
330
1E
100
AcDbEntity
  8
0
100
AcDbLine
 10
152.4722
 20
7.148
 30
0.0
 11
159.7722
 21
7.148
 31
0.0
  0
LINE
  5
24F
330
1E
100
AcDbEntity
  8
0
100
AcDbLine
 10
147.0302
 20
8.14815
 30
0.0
 11
154.0842
 21
8.14813
 31
0.0
  0
LINE
  5
250
330
1E
100
AcDbEntity
  8
0
100
AcDbLine
 10
147.0102
 20
8.14815
 30
0.0
 11
154.0472
 21
8.14813
 31
0.0
  0
LINE
  5
251
330
1E
100
AcDbEntity
  8
0
100
AcDbLine
 10
147.7722
 20
8.148
 30
0.0
 11
153.1722
 21
8.148
 31
0.0
  0
LINE
  5
252
330
1E
100
AcDbEntity
  8
0
100
AcDbLine
 10
154.0842
 20
8.14813
 30
0.0
 11
164.6332
 21
8.1481
 31
0.0
  0
LINE
  5
253
330
1E
100
AcDbEntity
  8
0
100
AcDbLine
 10
154.0472
 20
8.14813
 30
0.0
 11
164.5852
 21
8.1481
 31
0.0
  0
LINE
  5
254
330
1E
100
AcDbEntity
  8
0
100
AcDbLine
 10
153.1722
 20
8.148
 30
0.0
 11
160.2722
 21
8.148
 31
0.0
  0
LINE
  5
255
330
1E
100
AcDbEntity
  8
0
100
AcDbLine
 10
159.7722
 20
7.148
 30
0.0
 11
168.1722
 21
7.148
 31
0.0
  0
LINE
  5
256
330
1E
100
AcDbEntity
  8
0
100
AcDbLine
 10
146.8722
 20
0.148
 30
0.0
 11
152.4722
 21
0.148
 31
0.0
  0
LINE
  5
257
330
1E
100
AcDbEntity
  8
0
100
AcDbLine
 10
152.4722
 20
0.148
 30
0.0
 11
159.7722
 21
0.148
 31
0.0
  0
LINE
  5
258
330
1E
100
AcDbEntity
  8
0
100
AcDbLine
 10
168.4722
 20
8.148
 30
0.0
 11
177.1722
 21
8.148
 31
0.0
  0
LINE
  5
259
330
1E
100
AcDbEntity
  8
0
100
AcDbLine
 10
168.1722
 20
7.148
 30
0.0
 11
177.1722
 21
7.148
 31
0.0
  0
LINE
  5
25A
330
1E
100
AcDbEntity
  8
0
100
AcDbLine
 10
177.1722
 20
8.148
 30
0.0
 11
185.8722
 21
8.148
 31
0.0
  0
LINE
  5
25B
330
1E
100
AcDbEntity
  8
0
100
AcDbLine
 10
210.8722
 20
7.148
 30
0.0
 11
212.1722
 21
7.148
 31
0.0
  0
LINE
  5
25C
330
1E
100
AcDbEntity
  8
0
100
AcDbLine
 10
207.4722
 20
7.148
 30
0.0
 11
210.8722
 21
7.148
 31
0.0
  0
LINE
  5
25D
330
1E
100
AcDbEntity
  8
0
100
AcDbLine
 10
201.8722
 20
7.148
 30
0.0
 11
207.4722
 21
7.148
 31
0.0
  0
LINE
  5
25E
330
1E
100
AcDbEntity
  8
0
100
AcDbLine
 10
194.5722
 20
7.148
 30
0.0
 11
201.8722
 21
7.148
 31
0.0
  0
LINE
  5
25F
330
1E
100
AcDbEntity
  8
0
100
AcDbLine
 10
209.9722
 20
8.148
 30
0.0
 11
211.1722
 21
8.148
 31
0.0
  0
LINE
  5
260
330
1E
100
AcDbEntity
  8
0
100
AcDbLine
 10
206.5722
 20
8.148
 30
0.0
 11
209.9722
 21
8.148
 31
0.0
  0
LINE
  5
261
330
1E
100
AcDbEntity
  8
0
100
AcDbLine
 10
201.1722
 20
8.148
 30
0.0
 11
206.5722
 21
8.148
 31
0.0
  0
LINE
  5
262
330
1E
100
AcDbEntity
  8
0
100
AcDbLine
 10
194.0722
 20
8.148
 30
0.0
 11
201.1722
 21
8.148
 31
0.0
  0
LINE
  5
263
330
1E
100
AcDbEntity
  8
0
100
AcDbLine
 10
185.8722
 20
8.148
 30
0.0
 11
194.0722
 21
8.148
 31
0.0
  0
LINE
  5
264
330
1E
100
AcDbEntity
  8
0
100
AcDbLine
 10
186.1722
 20
7.148
 30
0.0
 11
194.5722
 21
7.148
 31
0.0
  0
LINE
  5
265
330
1E
100
AcDbEntity
  8
0
100
AcDbLine
 10
177.1722
 20
7.148
 30
0.0
 11
186.1722
 21
7.148
 31
0.0
  0
LINE
  5
266
330
1E
100
AcDbEntity
  8
0
100
AcDbLine
 10
177.0722
 20
8.14807
 30
0.0
 11
189.5082
 21
8.14803
 31
0.0
  0
LINE
  5
267
330
1E
100
AcDbEntity
  8
0
100
AcDbLine
 10
200.0452
 20
8.14801
 30
0.0
 11
203.5642
 21
8.148
 31
0.0
  0
LINE
  5
268
330
1E
100
AcDbEntity
  8
0
100
AcDbLine
 10
189.5082
 20
8.14803
 30
0.0
 11
200.0452
 21
8.14801
 31
0.0
  0
LINE
  5
269
330
1E
100
AcDbEntity
  8
0
100
AcDbLine
 10
200.0092
 20
8.14801
 30
0.0
 11
203.5362
 21
8.148
 31
0.0
  0
LINE
  5
26A
330
1E
100
AcDbEntity
  8
0
100
AcDbLine
 10
189.4602
 20
8.14803
 30
0.0
 11
200.0092
 21
8.14801
 31
0.0
  0
LINE
  5
26B
330
1E
100
AcDbEntity
  8
0
100
AcDbLine
 10
164.6332
 20
8.1481
 30
0.0
 11
177.0722
 21
8.14807
 31
0.0
  0
LINE
  5
26C
330
1E
100
AcDbEntity
  8
0
100
AcDbLine
 10
177.0212
 20
8.14807
 30
0.0
 11
189.4602
 21
8.14803
 31
0.0
  0
LINE
  5
26D
330
1E
100
AcDbEntity
  8
0
100
AcDbLine
 10
164.5852
 20
8.1481
 30
0.0
 11
177.0212
 21
8.14807
 31
0.0
  0
LINE
  5
26E
330
1E
100
AcDbEntity
  8
0
100
AcDbLine
 10
160.2722
 20
8.148
 30
0.0
 11
168.4722
 21
8.148
 31
0.0
  0
LINE
  5
26F
330
1E
100
AcDbEntity
  8
0
100
AcDbLine
 10
189.5722
 20
8.148
 30
0.0
 11
194.0722
 21
8.148
 31
0.0
  0
LINE
  5
270
330
1E
100
AcDbEntity
  8
0
100
AcDbLine
 10
159.7722
 20
0.148
 30
0.0
 11
168.1722
 21
0.148
 31
0.0
  0
LINE
  5
271
330
1E
100
AcDbEntity
  8
0
100
AcDbLine
 10
168.1722
 20
0.148
 30
0.0
 11
177.1722
 21
0.148
 31
0.0
  0
LINE
  5
277
330
1E
100
AcDbEntity
  8
0
100
AcDbLine
 10
145.0572
 20
17.3484
 30
0.0
 11
145.0862
 21
26.5752
 31
0.0
  0
LINE
  5
278
330
1E
100
AcDbEntity
  8
0
100
AcDbLine
 10
207.0082
 20
39.6961
 30
0.0
 11
208.0072
 21
29.721
 31
0.0
  0
LINE
  5
279
330
1E
100
AcDbEntity
  8
0
100
AcDbLine
 10
145.0852
 20
36.6
 30
0.0
 11
145.0862
 21
26.5752
 31
0.0
  0
LINE
  5
27A
330
1E
100
AcDbEntity
  8
0
100
AcDbLine
 10
145.0852
 20
36.6
 30
0.0
 11
145.7782
 21
44.4271
 31
0.0
  0
LINE
  5
27B
330
1E
100
AcDbEntity
  8
0
100
AcDbLine
 10
208.0072
 20
29.721
 30
0.0
 11
209.0372
 21
18.9477
 31
0.0
  0
LINE
  5
27C
330
1E
100
AcDbEntity
  8
0
100
AcDbLine
 10
209.0372
 20
18.9477
 30
0.0
 11
209.546199057383
 21
8.148
 31
0.0
  0
LINE
  5
282
330
1E
100
AcDbEntity
  8
0
100
AcDbLine
 10
211.1722
 20
8.148
 30
0.0
 11
212.1722
 21
7.148
 31
0.0
  0
LINE
  5
283
330
1E
100
AcDbEntity
  8
0
100
AcDbLine
 10
212.1722
 20
0.148
 30
0.0
 11
212.1722
 21
7.148
 31
0.0
  0
LINE
  5
28C
330
1E
100
AcDbEntity
  8
0
100
AcDbLine
 10
212.1722
 20
7.148
 30
0.0
 11
212.1722
 21
0.148
 31
0.0
  0
LINE
  5
294
330
1E
100
AcDbEntity
  8
0
100
AcDbLine
 10
135.0382
 20
90.3001
 30
0.0
 11
140.5342
 21
81.0617
 31
0.0
  0
LINE
  5
296
330
1E
100
AcDbEntity
  8
0
100
AcDbLine
 10
209.1722
 20
50.148
 30
0.0
 11
209.1722
 21
50.22
 31
0.0
  0
LINE
  5
297
330
1E
100
AcDbEntity
  8
0
100
AcDbLine
 10
205.554555699957
 20
50.148
 30
0.0
 11
209.1722
 21
50.148
 31
0.0
  0
LINE
  5
29C
330
1E
100
AcDbEntity
  8
0
100
AcDbLine
 10
209.1722
 20
50.732
 30
0.0
 11
209.1722
 21
50.412
 31
0.0
  0
LINE
  5
29D
330
1E
100
AcDbEntity
  8
0
100
AcDbLine
 10
209.1722
 20
50.732
 30
0.0
 11
209.1722
 21
51.156
 31
0.0
  0
LINE
  5
29E
330
1E
100
AcDbEntity
  8
0
100
AcDbLine
 10
209.1722
 20
50.412
 30
0.0
 11
209.1722
 21
50.22
 31
0.0
  0
LINE
  5
29F
330
1E
100
AcDbEntity
  8
0
100
AcDbLine
 10
209.1722
 20
50.412
 30
0.0
 11
209.1722
 21
50.732
 31
0.0
  0
LINE
  5
2A0
330
1E
100
AcDbEntity
  8
0
100
AcDbLine
 10
209.1722
 20
50.22
 30
0.0
 11
209.1722
 21
50.148
 31
0.0
  0
LINE
  5
2A1
330
1E
100
AcDbEntity
  8
0
100
AcDbLine
 10
209.1722
 20
50.22
 30
0.0
 11
209.1722
 21
50.412
 31
0.0
  0
LINE
  5
2A7
330
1E
100
AcDbEntity
  8
0
100
AcDbLine
 10
138.4652
 20
131.192
 30
0.0
 11
150.2262
 21
124.993
 31
0.0
  0
LINE
  5
2A8
330
1E
100
AcDbEntity
  8
0
100
AcDbLine
 10
140.5342
 20
81.0617
 30
0.0
 11
143.1312
 21
75.4636
 31
0.0
  0
LINE
  5
2A9
330
1E
100
AcDbEntity
  8
0
100
AcDbLine
 10
143.1312
 20
75.4636
 30
0.0
 11
144.3482
 21
67.8717
 31
0.0
  0
LINE
  5
2AA
330
1E
100
AcDbEntity
  8
0
100
AcDbLine
 10
144.3482
 20
67.8717
 30
0.0
 11
145.3452
 21
59.8777
 31
0.0
  0
LINE
  5
2B4
330
1E
100
AcDbEntity
  8
0
100
AcDbLine
 10
145.2542
 20
51.7823
 30
0.0
 11
145.7782
 21
44.4271
 31
0.0
  0
LINE
  5
2B5
330
1E
100
AcDbEntity
  8
0
100
AcDbLine
 10
145.2542
 20
51.7823
 30
0.0
 11
145.3452
 21
59.8777
 31
0.0
  0
LINE
  5
2B6
330
1E
100
AcDbEntity
  8
0
100
AcDbLine
 10
205.3152
 20
51.869
 30
0.0
 11
207.0082
 21
39.6961
 31
0.0
  0
LINE
  5
2B7
330
1E
100
AcDbEntity
  8
0
100
AcDbLine
 10
209.1722
 20
52.66
 30
0.0
 11
209.1722
 21
52.148
 31
0.0
  0
LINE
  5
2B8
330
1E
100
AcDbEntity
  8
0
100
AcDbLine
 10
209.1722
 20
52.66
 30
0.0
 11
209.1722
 21
53.14
 31
0.0
  0
LINE
  5
2B9
330
1E
100
AcDbEntity
  8
0
100
AcDbLine
 10
209.1722
 20
53.14
 30
0.0
 11
209.1722
 21
52.66
 31
0.0
  0
LINE
  5
2BA
330
1E
100
AcDbEntity
  8
0
100
AcDbLine
 10
209.1722
 20
53.14
 30
0.0
 11
209.1722
 21
53.564
 31
0.0
  0
LINE
  5
2BB
330
1E
100
AcDbEntity
  8
0
100
AcDbLine
 10
209.1722
 20
53.564
 30
0.0
 11
209.1722
 21
53.14
 31
0.0
  0
LINE
  5
2BC
330
1E
100
AcDbEntity
  8
0
100
AcDbLine
 10
209.1722
 20
53.564
 30
0.0
 11
209.1722
 21
53.884
 31
0.0
  0
LINE
  5
2BD
330
1E
100
AcDbEntity
  8
0
100
AcDbLine
 10
209.1722
 20
52.148
 30
0.0
 11
209.1722
 21
51.636
 31
0.0
  0
LINE
  5
2BE
330
1E
100
AcDbEntity
  8
0
100
AcDbLine
 10
209.1722
 20
52.148
 30
0.0
 11
209.1722
 21
52.66
 31
0.0
  0
LINE
  5
2BF
330
1E
100
AcDbEntity
  8
0
100
AcDbLine
 10
209.1722
 20
51.636
 30
0.0
 11
209.1722
 21
51.156
 31
0.0
  0
LINE
  5
2C0
330
1E
100
AcDbEntity
  8
0
100
AcDbLine
 10
209.1722
 20
51.636
 30
0.0
 11
209.1722
 21
52.148
 31
0.0
  0
LINE
  5
2C1
330
1E
100
AcDbEntity
  8
0
100
AcDbLine
 10
209.1722
 20
51.156
 30
0.0
 11
209.1722
 21
50.732
 31
0.0
  0
LINE
  5
2C2
330
1E
100
AcDbEntity
  8
0
100
AcDbLine
 10
209.1722
 20
51.156
 30
0.0
 11
209.1722
 21
51.636
 31
0.0
  0
LINE
  5
2CA
330
1E
100
AcDbEntity
  8
0
100
AcDbLine
 10
201.8392
 20
64.5139
 30
0.0
 11
205.3152
 21
51.869
 31
0.0
  0
LINE
  5
2CB
330
1E
100
AcDbEntity
  8
0
100
AcDbLine
 10
203.1722
 20
64.648
 30
0.0
 11
204.1722
 21
64.648
 31
0.0
  0
LINE
  5
2CC
330
1E
100
AcDbEntity
  8
0
100
AcDbLine
 10
150.2262
 20
124.993
 30
0.0
 11
161.0562
 21
117.996
 31
0.0
  0
LINE
  5
2CD
330
1E
100
AcDbEntity
  8
0
100
AcDbLine
 10
161.0562
 20
117.996
 30
0.0
 11
172.5592
 21
108.235
 31
0.0
  0
LINE
  5
2CE
330
1E
100
AcDbEntity
  8
0
100
AcDbLine
 10
172.5592
 20
108.235
 30
0.0
 11
180.9622
 21
99.8327
 31
0.0
  0
LINE
  5
2CF
330
1E
100
AcDbEntity
  8
0
100
AcDbLine
 10
180.9622
 20
99.8327
 30
0.0
 11
189.7462
 21
88.8245
 31
0.0
  0
LINE
  5
2D0
330
1E
100
AcDbEntity
  8
0
100
AcDbLine
 10
189.7462
 20
88.8245
 30
0.0
 11
196.7492
 21
76.4185
 31
0.0
  0
LINE
  5
2D1
330
1E
100
AcDbEntity
  8
0
100
AcDbLine
 10
196.7492
 20
76.4185
 30
0.0
 11
201.8392
 21
64.5139
 31
0.0
  0
LINE
  5
2D2
330
1E
100
AcDbEntity
  8
0
100
AcDbLine
 10
202.6722
 20
65.148
 30
0.0
 11
203.6722
 21
65.148
 31
0.0
  0
LINE
  5
2D3
330
1E
100
AcDbEntity
  8
0
100
AcDbLine
 10
201.568080516775
 20
65.148
 30
0.0
 11
202.6722
 21
65.148
 31
0.0
  0
LINE
  5
2D4
330
1E
100
AcDbEntity
  8
0
100
AcDbLine
 10
201.781863424223
 20
64.648
 30
0.0
 11
203.1722
 21
64.648
 31
0.0
  0
LINE
  5
2D9
330
1E
100
AcDbEntity
  8
0
100
AcDbLine
 10
209.1722
 20
53.884
 30
0.0
 11
209.1722
 21
53.564
 31
0.0
  0
LINE
  5
2DA
330
1E
100
AcDbEntity
  8
0
100
AcDbLine
 10
209.1722
 20
53.884
 30
0.0
 11
209.1722
 21
54.076
 31
0.0
  0
LINE
  5
2DB
330
1E
100
AcDbEntity
  8
0
100
AcDbLine
 10
209.1722
 20
54.076
 30
0.0
 11
209.1722
 21
53.884
 31
0.0
  0
LINE
  5
2DC
330
1E
100
AcDbEntity
  8
0
100
AcDbLine
 10
209.1722
 20
54.076
 30
0.0
 11
209.1722
 21
54.148
 31
0.0
  0
LINE
  5
2DD
330
1E
100
AcDbEntity
  8
0
100
AcDbLine
 10
209.1722
 20
54.148
 30
0.0
 11
209.1722
 21
54.076
 31
0.0
  0
LINE
  5
2DE
330
1E
100
AcDbEntity
  8
0
100
AcDbLine
 10
204.688717860956
 20
54.148
 30
0.0
 11
209.1722
 21
54.148
 31
0.0
  0
LINE
  5
2DF
330
1E
100
AcDbEntity
  8
0
100
AcDbLine
 10
204.1722
 20
64.648
 30
0.0
 11
204.1722
 21
56.026974884925
 31
0.0
  0
LINE
  5
2E0
330
1E
100
AcDbEntity
  8
0
100
AcDbLine
 10
204.1722
 20
56.026974884925
 30
0.0
 11
204.1722
 21
64.648
 31
0.0
  0
LINE
  5
2E1
330
1E
100
AcDbEntity
  8
0
100
AcDbLine
 10
203.6722
 20
65.148
 30
0.0
 11
204.1722
 21
64.648
 31
0.0
  0
LINE
  5
53E
330
1E
100
AcDbEntity
  8
0
100
AcDbLine
 10
-36.8366
 20
181.017388
 30
0.0
 11
-35.7117
 21
180.493388
 31
0.0
  0
LINE
  5
53F
330
1E
100
AcDbEntity
  8
0
100
AcDbLine
 10
-37.2993
 20
181.234388
 30
0.0
 11
-36.8366
 21
181.017388
 31
0.0
  0
LINE
  5
540
330
1E
100
AcDbEntity
  8
0
100
AcDbLine
 10
-34.3426
 20
178.751388
 30
0.0
 11
-33.953764434094
 21
179.585461451239
 31
0.0
  0
LINE
  5
541
330
1E
100
AcDbEntity
  8
0
100
AcDbLine
 10
-34.3426
 20
178.751388
 30
0.0
 11
-33.6812
 21
178.442388
 31
0.0
  0
LINE
  5
542
330
1E
100
AcDbEntity
  8
0
100
AcDbLine
 10
-35.314688642761
 20
180.308158805021
 30
0.0
 11
-33.966926082978
 21
179.557228998061
 31
0.0
  0
LINE
  5
543
330
1E
100
AcDbEntity
  8
0
100
AcDbLine
 10
-35.314688642761
 20
180.308158805021
 30
0.0
 11
-33.966926082978
 21
179.557228998061
 31
0.0
  0
LINE
  5
544
330
1E
100
AcDbEntity
  8
0
100
AcDbLine
 10
-32.28836
 20
177.793388
 30
0.0
 11
-32.228243393377
 21
177.765349125723
 31
0.0
  0
LINE
  5
545
330
1E
100
AcDbEntity
  8
0
100
AcDbLine
 10
-32.28836
 20
177.793388
 30
0.0
 11
-32.228243393377
 21
177.765349125723
 31
0.0
  0
LINE
  5
546
330
1E
100
AcDbEntity
  8
0
100
AcDbLine
 10
-32.535282087106
 20
177.908447871842
 30
0.0
 11
-32.45784
 21
177.872388
 31
0.0
  0
LINE
  5
547
330
1E
100
AcDbEntity
  8
0
100
AcDbLine
 10
-32.535271758408
 20
177.908470026414
 30
0.0
 11
-32.45784
 21
177.872388
 31
0.0
  0
LINE
  5
548
330
1E
100
AcDbEntity
  8
0
100
AcDbLine
 10
-31.91368
 20
177.618388
 30
0.0
 11
-31.509563093701
 21
178.485189480178
 31
0.0
  0
LINE
  5
549
330
1E
100
AcDbEntity
  8
0
100
AcDbLine
 10
-31.91368
 20
177.618388
 30
0.0
 11
-30.76776
 21
177.084388
 31
0.0
  0
LINE
  5
54A
330
1E
100
AcDbEntity
  8
0
100
AcDbLine
 10
-33.288670761524
 20
178.259464147496
 30
0.0
 11
-33.1193
 21
178.180388
 31
0.0
  0
LINE
  5
54B
330
1E
100
AcDbEntity
  8
0
100
AcDbLine
 10
-33.288670761525
 20
178.259464147496
 30
0.0
 11
-33.1193
 21
178.180388
 31
0.0
  0
LINE
  5
54C
330
1E
100
AcDbEntity
  8
0
100
AcDbLine
 10
-33.6812
 20
178.442388
 30
0.0
 11
-33.314497362511
 21
179.228975808673
 31
0.0
  0
LINE
  5
54D
330
1E
100
AcDbEntity
  8
0
100
AcDbLine
 10
-33.6812
 20
178.442388
 30
0.0
 11
-32.53531
 21
177.908388
 31
0.0
  0
LINE
  5
54E
330
1E
100
AcDbEntity
  8
0
100
AcDbLine
 10
-33.1193
 20
178.180388
 30
0.0
 11
-32.728753184317
 21
177.998535100005
 31
0.0
  0
LINE
  5
54F
330
1E
100
AcDbEntity
  8
0
100
AcDbLine
 10
-33.1193
 20
178.180388
 30
0.0
 11
-32.728753184317
 21
177.998535100005
 31
0.0
  0
LINE
  5
550
330
1E
100
AcDbEntity
  8
0
100
AcDbLine
 10
-32.57508
 20
177.927388
 30
0.0
 11
-32.204414183266
 21
178.722010190055
 31
0.0
  0
LINE
  5
551
330
1E
100
AcDbEntity
  8
0
100
AcDbLine
 10
-32.57508
 20
177.927388
 30
0.0
 11
-31.91368
 21
177.618388
 31
0.0
  0
LINE
  5
552
330
1E
100
AcDbEntity
  8
0
100
AcDbLine
 10
-33.7934
 20
179.598388
 30
0.0
 11
-31.34561
 21
178.457388
 31
0.0
  0
LINE
  5
553
330
1E
100
AcDbEntity
  8
0
100
AcDbLine
 10
-35.7117
 20
180.493388
 30
0.0
 11
-33.7934
 21
179.598388
 31
0.0
  0
LINE
  5
554
330
1E
100
AcDbEntity
  8
0
100
AcDbLine
 10
-35.7117
 20
180.493388
 30
0.0
 11
-35.314688642761
 21
180.308158805021
 31
0.0
  0
LINE
  5
555
330
1E
100
AcDbEntity
  8
0
100
AcDbLine
 10
-35.7117
 20
180.493388
 30
0.0
 11
-35.314688642761
 21
180.308158805021
 31
0.0
  0
LINE
  5
556
330
1E
100
AcDbEntity
  8
0
100
AcDbLine
 10
-31.308788746114
 20
177.336508000022
 30
0.0
 11
-31.14344
 21
177.259388
 31
0.0
  0
LINE
  5
557
330
1E
100
AcDbEntity
  8
0
100
AcDbLine
 10
-31.308788746114
 20
177.336508000022
 30
0.0
 11
-31.14344
 21
177.259388
 31
0.0
  0
LINE
  5
558
330
1E
100
AcDbEntity
  8
0
100
AcDbLine
 10
-31.14344
 20
177.259388
 30
0.0
 11
-31.078245560109
 21
177.229074617825
 31
0.0
  0
LINE
  5
559
330
1E
100
AcDbEntity
  8
0
100
AcDbLine
 10
-31.14344
 20
177.259388
 30
0.0
 11
-31.078245560109
 21
177.229074617825
 31
0.0
  0
LINE
  5
55A
330
1E
100
AcDbEntity
  8
0
100
AcDbLine
 10
-30.76763719499
 20
177.084651410964
 30
0.0
 11
-30.48103
 21
176.951388
 31
0.0
  0
LINE
  5
55B
330
1E
100
AcDbEntity
  8
0
100
AcDbLine
 10
-30.767523879305
 20
177.084894467772
 30
0.0
 11
-30.48103
 21
176.951388
 31
0.0
  0
LINE
  5
55C
330
1E
100
AcDbEntity
  8
0
100
AcDbLine
 10
-30.76776
 20
177.084388
 30
0.0
 11
-30.405620007426
 21
177.861161231906
 31
0.0
  0
LINE
  5
55D
330
1E
100
AcDbEntity
  8
0
100
AcDbLine
 10
-30.512268487016
 20
177.632405264966
 30
0.0
 11
-29.002483329266
 21
176.791201694774
 31
0.0
  0
LINE
  5
55E
330
1E
100
AcDbEntity
  8
0
100
AcDbLine
 10
-30.48103
 20
176.951388
 30
0.0
 11
-30.23533302391
 21
177.478105761435
 31
0.0
  0
LINE
  5
55F
330
1E
100
AcDbEntity
  8
0
100
AcDbLine
 10
-30.512268487016
 20
177.632405264966
 30
0.0
 11
-29.002483329266
 21
176.791201694774
 31
0.0
  0
LINE
  5
560
330
1E
100
AcDbEntity
  8
0
100
AcDbLine
 10
-31.34561
 20
178.457388
 30
0.0
 11
-28.03758
 21
176.915388
 31
0.0
  0
LINE
  5
561
330
1E
100
AcDbEntity
  8
0
100
AcDbLine
 10
-31.45252
 20
179.610388
 30
0.0
 11
-28.14448
 21
178.068388
 31
0.0
  0
LINE
  5
562
330
1E
100
AcDbEntity
  8
0
100
AcDbLine
 10
-34.0322
 20
180.813388
 30
0.0
 11
-31.45252
 21
179.610388
 31
0.0
  0
LINE
  5
563
330
1E
100
AcDbEntity
  8
0
100
AcDbLine
 10
-35.8845
 20
181.677388
 30
0.0
 11
-34.0322
 21
180.813388
 31
0.0
  0
LINE
  5
564
330
1E
100
AcDbEntity
  8
0
100
AcDbLine
 10
-37.0754
 20
182.232388
 30
0.0
 11
-35.8845
 21
181.677388
 31
0.0
  0
LINE
  5
565
330
1E
100
AcDbEntity
  8
0
100
AcDbLine
 10
-37.5381
 20
182.449388
 30
0.0
 11
-37.0754
 21
182.232388
 31
0.0
  0
LINE
  5
566
330
1E
100
AcDbEntity
  8
0
100
AcDbLine
 10
-37.5381
 20
182.449388
 30
0.0
 11
-28.66303
 21
201.481388
 31
0.0
  0
LINE
  5
567
330
1E
100
AcDbEntity
  8
0
100
AcDbLine
 10
-37.5381
 20
182.449388
 30
0.0
 11
-37.2993
 21
181.234388
 31
0.0
  0
LINE
  5
568
330
1E
100
AcDbEntity
  8
0
100
AcDbLine
 10
-29.730816527332
 20
177.704670662233
 30
0.0
 11
-28.782565694591
 21
177.262654482184
 31
0.0
  0
LINE
  5
569
330
1E
100
AcDbEntity
  8
0
100
AcDbLine
 10
-29.20531
 20
176.356388
 30
0.0
 11
-28.815258830424
 21
177.192567924367
 31
0.0
  0
LINE
  5
56A
330
1E
100
AcDbEntity
  8
0
100
AcDbLine
 10
-29.20531
 20
176.356388
 30
0.0
 11
-28.54391
 21
176.047388
 31
0.0
  0
LINE
  5
56B
330
1E
100
AcDbEntity
  8
0
100
AcDbLine
 10
-29.20531
 20
176.356388
 30
0.0
 11
-28.06039
 21
175.821388
 31
0.0
  0
LINE
  5
56C
330
1E
100
AcDbEntity
  8
0
100
AcDbLine
 10
-29.62516
 20
177.655388
 30
0.0
 11
-26.45001
 21
176.174388
 31
0.0
  0
LINE
  5
56D
330
1E
100
AcDbEntity
  8
0
100
AcDbLine
 10
-29.730816527332
 20
177.704670662233
 30
0.0
 11
-29.62516
 21
177.655388
 31
0.0
  0
LINE
  5
56E
330
1E
100
AcDbEntity
  8
0
100
AcDbLine
 10
-29.730816527332
 20
177.704670662233
 30
0.0
 11
-28.782565694591
 21
177.262654482184
 31
0.0
  0
LINE
  5
56F
330
1E
100
AcDbEntity
  8
0
100
AcDbLine
 10
-29.730816527332
 20
177.704670662233
 30
0.0
 11
-29.62516
 21
177.655388
 31
0.0
  0
LINE
  5
570
330
1E
100
AcDbEntity
  8
0
100
AcDbLine
 10
121.0422
 20
51.666788
 30
0.0
 11
121.4782
 21
52.121188
 31
0.0
  0
LINE
  5
571
330
1E
100
AcDbEntity
  8
0
100
AcDbLine
 10
121.4782
 20
52.121188
 30
0.0
 11
122.4232
 21
52.912888
 31
0.0
  0
LINE
  5
572
330
1E
100
AcDbEntity
  8
0
100
AcDbLine
 10
120.9952
 20
50.817688
 30
0.0
 11
121.3932
 21
49.610188
 31
0.0
  0
LINE
  5
573
330
1E
100
AcDbEntity
  8
0
100
AcDbLine
 10
120.9952
 20
50.817688
 30
0.0
 11
121.0422
 21
51.666788
 31
0.0
  0
LINE
  5
574
330
1E
100
AcDbEntity
  8
0
100
AcDbLine
 10
121.3932
 20
49.610188
 30
0.0
 11
133.4572
 21
35.316788
 31
0.0
  0
LINE
  5
575
330
1E
100
AcDbEntity
  8
0
100
AcDbLine
 10
121.9482
 20
53.387288
 30
0.0
 11
122.3242
 21
53.741788
 31
0.0
  0
LINE
  5
576
330
1E
100
AcDbEntity
  8
0
100
AcDbLine
 10
121.9482
 20
53.387288
 30
0.0
 11
122.891528535095
 21
53.302325959753
 31
0.0
  0
LINE
  5
577
330
1E
100
AcDbEntity
  8
0
100
AcDbLine
 10
122.3242
 20
53.741788
 30
0.0
 11
123.2042
 21
54.495888
 31
0.0
  0
LINE
  5
578
330
1E
100
AcDbEntity
  8
0
100
AcDbLine
 10
123.2042
 20
54.495888
 30
0.0
 11
124.6282
 21
55.737588
 31
0.0
  0
LINE
  5
579
330
1E
100
AcDbEntity
  8
0
100
AcDbLine
 10
124.6282
 20
55.737588
 30
0.0
 11
126.5182
 21
57.290588
 31
0.0
  0
LINE
  5
57A
330
1E
100
AcDbEntity
  8
0
100
AcDbLine
 10
126.5182
 20
57.290588
 30
0.0
 11
128.7842
 21
59.198088
 31
0.0
  0
LINE
  5
57B
330
1E
100
AcDbEntity
  8
0
100
AcDbLine
 10
128.7842
 20
59.198088
 30
0.0
 11
131.0882
 21
61.193888
 31
0.0
  0
LINE
  5
57C
330
1E
100
AcDbEntity
  8
0
100
AcDbLine
 10
131.0882
 20
61.193888
 30
0.0
 11
133.4822
 21
63.146388
 31
0.0
  0
LINE
  5
57D
330
1E
100
AcDbEntity
  8
0
100
AcDbLine
 10
133.9612
 20
34.696088
 30
0.0
 11
145.070173698335
 21
21.476183441253
 31
0.0
  0
LINE
  5
57E
330
1E
100
AcDbEntity
  8
0
100
AcDbLine
 10
133.4822
 20
63.146388
 30
0.0
 11
135.7082
 21
64.965688
 31
0.0
  0
LINE
  5
57F
330
1E
100
AcDbEntity
  8
0
100
AcDbLine
 10
135.7082
 20
64.965688
 30
0.0
 11
137.6382
 21
66.606888
 31
0.0
  0
LINE
  5
580
330
1E
100
AcDbEntity
  8
0
100
AcDbLine
 10
137.715788653744
 20
65.66115144926
 30
0.0
 11
138.0222
 21
65.914088
 31
0.0
  0
LINE
  5
581
330
1E
100
AcDbEntity
  8
0
100
AcDbLine
 10
137.6382
 20
66.606888
 30
0.0
 11
139.0622
 21
67.848588
 31
0.0
  0
LINE
  5
582
330
1E
100
AcDbEntity
  8
0
100
AcDbLine
 10
139.0622
 20
67.848588
 30
0.0
 11
139.9422
 21
68.602588
 31
0.0
  0
LINE
  5
583
330
1E
100
AcDbEntity
  8
0
100
AcDbLine
 10
140.227513101317
 20
67.816481027107
 30
0.0
 11
140.2792
 21
68.868888
 31
0.0
  0
LINE
  5
584
330
1E
100
AcDbEntity
  8
0
100
AcDbLine
 10
139.9422
 20
68.602588
 30
0.0
 11
140.2792
 21
68.868888
 31
0.0
  0
LINE
  5
585
330
1E
100
AcDbEntity
  8
0
100
AcDbLine
 10
-28.54391
 20
176.047388
 30
0.0
 11
-28.169480766018
 21
176.85052107606
 31
0.0
  0
LINE
  5
586
330
1E
100
AcDbEntity
  8
0
100
AcDbLine
 10
-28.54391
 20
176.047388
 30
0.0
 11
-28.169480766018
 21
176.85052107606
 31
0.0
  0
LINE
  5
587
330
1E
100
AcDbEntity
  8
0
100
AcDbLine
 10
-28.54391
 20
176.047388
 30
0.0
 11
-27.39799
 21
175.513388
 31
0.0
  0
LINE
  5
588
330
1E
100
AcDbEntity
  8
0
100
AcDbLine
 10
-28.06039
 20
175.821388
 30
0.0
 11
-27.39799
 21
175.513388
 31
0.0
  0
LINE
  5
589
330
1E
100
AcDbEntity
  8
0
100
AcDbLine
 10
-28.03758
 20
176.915388
 30
0.0
 11
-24.20102
 21
175.125388
 31
0.0
  0
LINE
  5
58A
330
1E
100
AcDbEntity
  8
0
100
AcDbLine
 10
-28.14448
 20
178.068388
 30
0.0
 11
-24.24103
 21
176.248388
 31
0.0
  0
LINE
  5
58B
330
1E
100
AcDbEntity
  8
0
100
AcDbLine
 10
-28.66303
 20
201.481388
 30
0.0
 11
-27.579
 21
202.078388
 31
0.0
  0
LINE
  5
58C
330
1E
100
AcDbEntity
  8
0
100
AcDbLine
 10
-27.39799
 20
175.513388
 30
0.0
 11
-27.060477468655
 21
176.237336487208
 31
0.0
  0
LINE
  5
58D
330
1E
100
AcDbEntity
  8
0
100
AcDbLine
 10
-27.39799
 20
175.513388
 30
0.0
 11
-27.255937945994
 21
175.818082967008
 31
0.0
  0
LINE
  5
58E
330
1E
100
AcDbEntity
  8
0
100
AcDbLine
 10
-26.58686
 20
174.583388
 30
0.0
 11
-26.259766193474
 21
175.284988813061
 31
0.0
  0
LINE
  5
58F
330
1E
100
AcDbEntity
  8
0
100
AcDbLine
 10
-26.58686
 20
174.583388
 30
0.0
 11
-25.92546
 21
174.275388
 31
0.0
  0
LINE
  5
590
330
1E
100
AcDbEntity
  8
0
100
AcDbLine
 10
-26.58686
 20
174.583388
 30
0.0
 11
-25.709748161971
 21
174.174649336835
 31
0.0
  0
LINE
  5
591
330
1E
100
AcDbEntity
  8
0
100
AcDbLine
 10
-27.255937945994
 20
175.818082967008
 30
0.0
 11
-25.420365606511
 21
174.795361292078
 31
0.0
  0
LINE
  5
592
330
1E
100
AcDbEntity
  8
0
100
AcDbLine
 10
-27.255937945994
 20
175.818082967008
 30
0.0
 11
-25.420365606511
 21
174.795361292078
 31
0.0
  0
LINE
  5
593
330
1E
100
AcDbEntity
  8
0
100
AcDbLine
 10
-26.975403976627
 20
176.419815121735
 30
0.0
 11
-25.953072529765
 21
175.942832280366
 31
0.0
  0
LINE
  5
594
330
1E
100
AcDbEntity
  8
0
100
AcDbLine
 10
-26.45001
 20
176.174388
 30
0.0
 11
-22.74533
 21
174.446388
 31
0.0
  0
LINE
  5
595
330
1E
100
AcDbEntity
  8
0
100
AcDbLine
 10
-25.92546
 20
174.275388
 30
0.0
 11
-25.620052648715
 21
174.930111061531
 31
0.0
  0
LINE
  5
596
330
1E
100
AcDbEntity
  8
0
100
AcDbLine
 10
-25.92546
 20
174.275388
 30
0.0
 11
-25.620052648715
 21
174.930111061531
 31
0.0
  0
LINE
  5
597
330
1E
100
AcDbEntity
  8
0
100
AcDbLine
 10
-25.92546
 20
174.275388
 30
0.0
 11
-25.709737264492
 21
174.174672711414
 31
0.0
  0
LINE
  5
598
330
1E
100
AcDbEntity
  8
0
100
AcDbLine
 10
-25.04846
 20
173.865388
 30
0.0
 11
-24.836991832732
 21
174.318977261342
 31
0.0
  0
LINE
  5
599
330
1E
100
AcDbEntity
  8
0
100
AcDbLine
 10
-25.04846
 20
173.865388
 30
0.0
 11
-23.90354
 21
173.331388
 31
0.0
  0
LINE
  5
59A
330
1E
100
AcDbEntity
  8
0
100
AcDbLine
 10
-25.70987
 20
174.174388
 30
0.0
 11
-25.380633256429
 21
174.880585312117
 31
0.0
  0
LINE
  5
59B
330
1E
100
AcDbEntity
  8
0
100
AcDbLine
 10
-25.70987
 20
174.174388
 30
0.0
 11
-25.04846
 21
173.865388
 31
0.0
  0
LINE
  5
59C
330
1E
100
AcDbEntity
  8
0
100
AcDbLine
 10
-24.85288
 20
174.326388
 30
0.0
 11
-24.43046865853
 21
175.232440437279
 31
0.0
  0
LINE
  5
59D
330
1E
100
AcDbEntity
  8
0
100
AcDbLine
 10
-24.85288
 20
174.326388
 30
0.0
 11
-23.53007
 21
173.709388
 31
0.0
  0
LINE
  5
59E
330
1E
100
AcDbEntity
  8
0
100
AcDbLine
 10
-24.85288
 20
174.326388
 30
0.0
 11
-24.498273580507
 21
175.087002072382
 31
0.0
  0
LINE
  5
59F
330
1E
100
AcDbEntity
  8
0
100
AcDbLine
 10
-24.85288
 20
174.326388
 30
0.0
 11
-24.43046865853
 21
175.232440437279
 31
0.0
  0
LINE
  5
5A0
330
1E
100
AcDbEntity
  8
0
100
AcDbLine
 10
-23.903075012965
 20
173.332385375294
 30
0.0
 11
-23.59385
 21
173.188388
 31
0.0
  0
LINE
  5
5A1
330
1E
100
AcDbEntity
  8
0
100
AcDbLine
 10
-23.59385
 20
173.188388
 30
0.0
 11
-23.375667340783
 21
173.656121399391
 31
0.0
  0
LINE
  5
5A2
330
1E
100
AcDbEntity
  8
0
100
AcDbLine
 10
-23.59385
 20
173.188388
 30
0.0
 11
-23.375667340783
 21
173.656121399391
 31
0.0
  0
LINE
  5
5A3
330
1E
100
AcDbEntity
  8
0
100
AcDbLine
 10
-23.903036013369
 20
173.332469027593
 30
0.0
 11
-23.59385
 21
173.188388
 31
0.0
  0
LINE
  5
5A4
330
1E
100
AcDbEntity
  8
0
100
AcDbLine
 10
-23.90354
 20
173.331388
 30
0.0
 11
-23.692081993789
 21
173.784955466354
 31
0.0
  0
LINE
  5
5A5
330
1E
100
AcDbEntity
  8
0
100
AcDbLine
 10
-23.53007
 20
173.709388
 30
0.0
 11
-23.107549711556
 21
174.615663401301
 31
0.0
  0
LINE
  5
5A6
330
1E
100
AcDbEntity
  8
0
100
AcDbLine
 10
-23.53007
 20
173.709388
 30
0.0
 11
-23.219866029673
 21
174.374753037802
 31
0.0
  0
LINE
  5
5A7
330
1E
100
AcDbEntity
  8
0
100
AcDbLine
 10
-23.16795
 20
173.540388
 30
0.0
 11
-22.349813077223
 21
173.108981934635
 31
0.0
  0
LINE
  5
5A8
330
1E
100
AcDbEntity
  8
0
100
AcDbLine
 10
-23.16795
 20
173.540388
 30
0.0
 11
-22.349813077223
 21
173.108981934635
 31
0.0
  0
LINE
  5
5A9
330
1E
100
AcDbEntity
  8
0
100
AcDbLine
 10
-23.517945490904
 20
173.735394193423
 30
0.0
 11
-23.16795
 21
173.540388
 31
0.0
  0
LINE
  5
5AA
330
1E
100
AcDbEntity
  8
0
100
AcDbLine
 10
-22.960127918391
 20
174.546942270828
 30
0.0
 11
-21.908304505894
 21
174.056631493751
 31
0.0
  0
LINE
  5
5AB
330
1E
100
AcDbEntity
  8
0
100
AcDbLine
 10
-22.960127918391
 20
174.546942270828
 30
0.0
 11
-21.908304505894
 21
174.056631493751
 31
0.0
  0
LINE
  5
5AC
330
1E
100
AcDbEntity
  8
0
100
AcDbLine
 10
-22.74533
 20
174.446388
 30
0.0
 11
-18.5781
 21
172.503388
 31
0.0
  0
LINE
  5
5AD
330
1E
100
AcDbEntity
  8
0
100
AcDbLine
 10
-24.20102
 20
175.125388
 30
0.0
 11
-19.769
 21
173.059388
 31
0.0
  0
LINE
  5
5AE
330
1E
100
AcDbEntity
  8
0
100
AcDbLine
 10
-24.24103
 20
176.248388
 30
0.0
 11
-19.7431
 21
174.150388
 31
0.0
  0
LINE
  5
5AF
330
1E
100
AcDbEntity
  8
0
100
AcDbLine
 10
-21.8807
 20
172.389388
 30
0.0
 11
-21.571194111066
 21
173.052928784132
 31
0.0
  0
LINE
  5
5B0
330
1E
100
AcDbEntity
  8
0
100
AcDbLine
 10
-21.8807
 20
172.389388
 30
0.0
 11
-20.7347
 21
171.854388
 31
0.0
  0
LINE
  5
5B1
330
1E
100
AcDbEntity
  8
0
100
AcDbLine
 10
-22.54204
 20
172.696388
 30
0.0
 11
-22.206725082461
 21
173.416104568162
 31
0.0
  0
LINE
  5
5B2
330
1E
100
AcDbEntity
  8
0
100
AcDbLine
 10
-22.54204
 20
172.696388
 30
0.0
 11
-21.8807
 21
172.389388
 31
0.0
  0
LINE
  5
5B3
330
1E
100
AcDbEntity
  8
0
100
AcDbLine
 10
-22.54204
 20
172.696388
 30
0.0
 11
-21.3961
 21
172.162388
 31
0.0
  0
LINE
  5
5B4
330
1E
100
AcDbEntity
  8
0
100
AcDbLine
 10
-22.54204
 20
172.696388
 30
0.0
 11
-22.349813077223
 21
173.108981934635
 31
0.0
  0
LINE
  5
5B5
330
1E
100
AcDbEntity
  8
0
100
AcDbLine
 10
-21.3961
 20
172.162388
 30
0.0
 11
-20.7347
 21
171.854388
 31
0.0
  0
LINE
  5
5B6
330
1E
100
AcDbEntity
  8
0
100
AcDbLine
 10
-20.7347
 20
171.854388
 30
0.0
 11
-20.469345237218
 21
172.423274453102
 31
0.0
  0
LINE
  5
5B7
330
1E
100
AcDbEntity
  8
0
100
AcDbLine
 10
-20.58385250841
 20
172.177785603836
 30
0.0
 11
-17.906915941204
 21
170.766228883268
 31
0.0
  0
LINE
  5
5B8
330
1E
100
AcDbEntity
  8
0
100
AcDbLine
 10
-20.58385250841
 20
172.177785603836
 30
0.0
 11
-17.906915941204
 21
170.766228883268
 31
0.0
  0
LINE
  5
5B9
330
1E
100
AcDbEntity
  8
0
100
AcDbLine
 10
-20.100543447268
 20
173.213938016032
 30
0.0
 11
-19.769
 21
173.059388
 31
0.0
  0
LINE
  5
5BA
330
1E
100
AcDbEntity
  8
0
100
AcDbLine
 10
-20.100543447268
 20
173.213938016032
 30
0.0
 11
-19.769
 21
173.059388
 31
0.0
  0
LINE
  5
5BB
330
1E
100
AcDbEntity
  8
0
100
AcDbLine
 10
-19.769
 20
173.059388
 30
0.0
 11
-14.8734
 21
170.776388
 31
0.0
  0
LINE
  5
5BC
330
1E
100
AcDbEntity
  8
0
100
AcDbLine
 10
-19.7431
 20
174.150388
 30
0.0
 11
-14.7816
 21
171.837388
 31
0.0
  0
LINE
  5
5BD
330
1E
100
AcDbEntity
  8
0
100
AcDbLine
 10
-4.801
 20
162.627388
 30
0.0
 11
-4.3373
 21
162.411388
 31
0.0
  0
LINE
  5
5BE
330
1E
100
AcDbEntity
  8
0
100
AcDbLine
 10
-5.186
 20
162.806388
 30
0.0
 11
-4.801
 21
162.627388
 31
0.0
  0
LINE
  5
5BF
330
1E
100
AcDbEntity
  8
0
100
AcDbLine
 10
-5.4173
 20
162.915388
 30
0.0
 11
-5.186
 21
162.806388
 31
0.0
  0
LINE
  5
5C0
330
1E
100
AcDbEntity
  8
0
100
AcDbLine
 10
-5.4979
 20
162.952388
 30
0.0
 11
-5.4173
 21
162.915388
 31
0.0
  0
LINE
  5
5C1
330
1E
100
AcDbEntity
  8
0
100
AcDbLine
 10
-2.0172
 20
161.329388
 30
0.0
 11
-1.5536
 21
161.113388
 31
0.0
  0
LINE
  5
5C2
330
1E
100
AcDbEntity
  8
0
100
AcDbLine
 10
-2.5614
 20
161.583388
 30
0.0
 11
-2.0172
 21
161.329388
 31
0.0
  0
LINE
  5
5C3
330
1E
100
AcDbEntity
  8
0
100
AcDbLine
 10
-1.5536
 20
161.113388
 30
0.0
 11
-1.1695
 21
160.933388
 31
0.0
  0
LINE
  5
5C4
330
1E
100
AcDbEntity
  8
0
100
AcDbLine
 10
-1.1695
 20
160.933388
 30
0.0
 11
-0.9372
 21
160.825388
 31
0.0
  0
LINE
  5
5C5
330
1E
100
AcDbEntity
  8
0
100
AcDbLine
 10
-0.8576
 20
160.788388
 30
0.0
 11
0.110347969856
 21
161.582219707244
 31
0.0
  0
LINE
  5
5C6
330
1E
100
AcDbEntity
  8
0
100
AcDbLine
 10
-0.9372
 20
160.825388
 30
0.0
 11
-0.8576
 21
160.788388
 31
0.0
  0
LINE
  5
5C7
330
1E
100
AcDbEntity
  8
0
100
AcDbLine
 10
-1.6493
 20
161.851388
 30
0.0
 11
-1.43803166904
 21
162.304570068187
 31
0.0
  0
LINE
  5
5C8
330
1E
100
AcDbEntity
  8
0
100
AcDbLine
 10
0.7832
 20
160.575388
 30
0.0
 11
0.9789
 21
160.484388
 31
0.0
  0
LINE
  5
5C9
330
1E
100
AcDbEntity
  8
0
100
AcDbLine
 10
0.7832
 20
160.575388
 30
0.0
 11
1.048644043887
 21
161.144779920926
 31
0.0
  0
LINE
  5
5CA
330
1E
100
AcDbEntity
  8
0
100
AcDbLine
 10
0.9789
 20
160.484388
 30
0.0
 11
1.5011
 21
160.241388
 31
0.0
  0
LINE
  5
5CB
330
1E
100
AcDbEntity
  8
0
100
AcDbLine
 10
1.5011
 20
160.241388
 30
0.0
 11
2.3707
 21
159.835388
 31
0.0
  0
LINE
  5
5CC
330
1E
100
AcDbEntity
  8
0
100
AcDbLine
 10
0.110347969856
 20
161.582219707244
 30
0.0
 11
0.7534
 21
161.282388
 31
0.0
  0
LINE
  5
5CD
330
1E
100
AcDbEntity
  8
0
100
AcDbLine
 10
-3.7932
 20
162.157388
 30
0.0
 11
-3.1768
 21
161.870388
 31
0.0
  0
LINE
  5
5CE
330
1E
100
AcDbEntity
  8
0
100
AcDbLine
 10
-4.3373
 20
162.411388
 30
0.0
 11
-3.7932
 21
162.157388
 31
0.0
  0
LINE
  5
5CF
330
1E
100
AcDbEntity
  8
0
100
AcDbLine
 10
-3.1768
 20
161.870388
 30
0.0
 11
-2.5614
 21
161.583388
 31
0.0
  0
LINE
  5
5D0
330
1E
100
AcDbEntity
  8
0
100
AcDbLine
 10
-2.2459
 20
162.681388
 30
0.0
 11
-2.034593505222
 21
163.134651931653
 31
0.0
  0
LINE
  5
5D1
330
1E
100
AcDbEntity
  8
0
100
AcDbLine
 10
-2.2459
 20
162.681388
 30
0.0
 11
-0.9231
 21
162.064388
 31
0.0
  0
LINE
  5
5D2
330
1E
100
AcDbEntity
  8
0
100
AcDbLine
 10
-2.9721
 20
162.468388
 30
0.0
 11
-2.600604617274
 21
163.26526581458
 31
0.0
  0
LINE
  5
5D3
330
1E
100
AcDbEntity
  8
0
100
AcDbLine
 10
-2.9721
 20
162.468388
 30
0.0
 11
-1.6493
 21
161.851388
 31
0.0
  0
LINE
  5
5D4
330
1E
100
AcDbEntity
  8
0
100
AcDbLine
 10
-2.9721
 20
162.468388
 30
0.0
 11
-2.642775655332
 21
163.174806642787
 31
0.0
  0
LINE
  5
5D5
330
1E
100
AcDbEntity
  8
0
100
AcDbLine
 10
-1.3732
 20
162.826388
 30
0.0
 11
-1.103972008867
 21
163.403578156097
 31
0.0
  0
LINE
  5
5D6
330
1E
100
AcDbEntity
  8
0
100
AcDbLine
 10
-2.697
 20
163.443388
 30
0.0
 11
-2.485827457602
 21
163.896114747309
 31
0.0
  0
LINE
  5
5D7
330
1E
100
AcDbEntity
  8
0
100
AcDbLine
 10
-2.697
 20
163.443388
 30
0.0
 11
-1.3732
 21
162.826388
 31
0.0
  0
LINE
  5
5D8
330
1E
100
AcDbEntity
  8
0
100
AcDbLine
 10
-0.9231
 20
162.064388
 30
0.0
 11
-0.527787959526
 21
162.912353841671
 31
0.0
  0
LINE
  5
5D9
330
1E
100
AcDbEntity
  8
0
100
AcDbLine
 10
-1.3094
 20
163.347388
 30
0.0
 11
-0.886618704808
 21
164.254276888054
 31
0.0
  0
LINE
  5
5DA
330
1E
100
AcDbEntity
  8
0
100
AcDbLine
 10
-0.5034
 20
161.868388
 30
0.0
 11
0.7534
 21
161.282388
 31
0.0
  0
LINE
  5
5DB
330
1E
100
AcDbEntity
  8
0
100
AcDbLine
 10
-4.6706
 20
163.811388
 30
0.0
 11
-4.1421
 21
163.564388
 31
0.0
  0
LINE
  5
5DC
330
1E
100
AcDbEntity
  8
0
100
AcDbLine
 10
-2.6322
 20
163.964388
 30
0.0
 11
-2.25929291355
 21
164.764293995899
 31
0.0
  0
LINE
  5
5DD
330
1E
100
AcDbEntity
  8
0
100
AcDbLine
 10
-2.6322
 20
163.964388
 30
0.0
 11
-1.3094
 21
163.347388
 31
0.0
  0
LINE
  5
5DE
330
1E
100
AcDbEntity
  8
0
100
AcDbLine
 10
-4.9354
 20
163.935388
 30
0.0
 11
-4.6706
 21
163.811388
 31
0.0
  0
LINE
  5
5DF
330
1E
100
AcDbEntity
  8
0
100
AcDbLine
 10
-0.077981065453
 20
163.877214110191
 30
0.0
 11
1.5987
 21
163.095388
 31
0.0
  0
LINE
  5
5E0
330
1E
100
AcDbEntity
  8
0
100
AcDbLine
 10
2.3707
 20
159.835388
 30
0.0
 11
3.524
 21
159.297388
 31
0.0
  0
LINE
  5
5E1
330
1E
100
AcDbEntity
  8
0
100
AcDbLine
 10
4.829
 20
158.689388
 30
0.0
 11
6.2208
 21
158.040388
 31
0.0
  0
LINE
  5
5E2
330
1E
100
AcDbEntity
  8
0
100
AcDbLine
 10
3.524
 20
159.297388
 30
0.0
 11
4.829
 21
158.689388
 31
0.0
  0
LINE
  5
5E3
330
1E
100
AcDbEntity
  8
0
100
AcDbLine
 10
6.2208
 20
158.040388
 30
0.0
 11
7.6127
 21
157.390388
 31
0.0
  0
LINE
  5
5E4
330
1E
100
AcDbEntity
  8
0
100
AcDbLine
 10
7.6127
 20
157.390388
 30
0.0
 11
8.277265427228
 21
157.080766712832
 31
0.0
  0
LINE
  5
5E5
330
1E
100
AcDbEntity
  8
0
100
AcDbLine
 10
7.1706
 20
158.290388
 30
0.0
 11
7.381824794227
 21
158.743423078592
 31
0.0
  0
LINE
  5
5E6
330
1E
100
AcDbEntity
  8
0
100
AcDbLine
 10
6.9593
 20
157.837388
 30
0.0
 11
7.170504269183
 21
158.290432652188
 31
0.0
  0
LINE
  5
5E7
330
1E
100
AcDbEntity
  8
0
100
AcDbLine
 10
5.8478
 20
158.907388
 30
0.0
 11
6.270355763783
 21
159.813793110907
 31
0.0
  0
LINE
  5
5E8
330
1E
100
AcDbEntity
  8
0
100
AcDbLine
 10
5.6366
 20
158.453388
 30
0.0
 11
6.9593
 21
157.837388
 31
0.0
  0
LINE
  5
5E9
330
1E
100
AcDbEntity
  8
0
100
AcDbLine
 10
5.6366
 20
158.453388
 30
0.0
 11
5.848052968041
 21
158.907270006894
 31
0.0
  0
LINE
  5
5EA
330
1E
100
AcDbEntity
  8
0
100
AcDbLine
 10
6.0591
 20
159.360388
 30
0.0
 11
7.3819
 21
158.743388
 31
0.0
  0
LINE
  5
5EB
330
1E
100
AcDbEntity
  8
0
100
AcDbLine
 10
6.0591
 20
159.360388
 30
0.0
 11
6.27068719245
 21
159.814254043437
 31
0.0
  0
LINE
  5
5EC
330
1E
100
AcDbEntity
  8
0
100
AcDbLine
 10
7.3819
 20
158.743388
 30
0.0
 11
7.643002434163
 21
159.30340067377
 31
0.0
  0
LINE
  5
5ED
330
1E
100
AcDbEntity
  8
0
100
AcDbLine
 10
7.5932
 20
159.197388
 30
0.0
 11
8.015682610513
 21
160.103029180942
 31
0.0
  0
LINE
  5
5EE
330
1E
100
AcDbEntity
  8
0
100
AcDbLine
 10
6.2704
 20
159.814388
 30
0.0
 11
7.5932
 21
159.197388
 31
0.0
  0
LINE
  5
5EF
330
1E
100
AcDbEntity
  8
0
100
AcDbLine
 10
6.2704
 20
159.814388
 30
0.0
 11
6.692820476942
 21
160.719895990321
 31
0.0
  0
LINE
  5
5F0
330
1E
100
AcDbEntity
  8
0
100
AcDbLine
 10
7.3544
 20
160.411388
 30
0.0
 11
13.1103
 21
157.727388
 31
0.0
  0
LINE
  5
5F1
330
1E
100
AcDbEntity
  8
0
100
AcDbLine
 10
7.3544
 20
160.411388
 30
0.0
 11
12.9774
 21
157.788388
 31
0.0
  0
LINE
  5
5F2
330
1E
100
AcDbEntity
  8
0
100
AcDbLine
 10
8.5976
 20
156.379388
 30
0.0
 11
8.72639805985
 21
156.319711906609
 31
0.0
  0
LINE
  5
5F3
330
1E
100
AcDbEntity
  8
0
100
AcDbLine
 10
8.539671803853
 20
156.406568385289
 30
0.0
 11
8.5976
 21
156.379388
 31
0.0
  0
LINE
  5
5F4
330
1E
100
AcDbEntity
  8
0
100
AcDbLine
 10
8.3883
 20
156.476388
 30
0.0
 11
8.5986
 21
156.379388
 31
0.0
  0
LINE
  5
5F5
330
1E
100
AcDbEntity
  8
0
100
AcDbLine
 10
8.3506
 20
156.494388
 30
0.0
 11
8.5903
 21
156.383388
 31
0.0
  0
LINE
  5
5F6
330
1E
100
AcDbEntity
  8
0
100
AcDbLine
 10
8.2805
 20
156.527388
 30
0.0
 11
8.3506
 21
156.494388
 31
0.0
  0
LINE
  5
5F7
330
1E
100
AcDbEntity
  8
0
100
AcDbLine
 10
8.2731995371
 20
157.776369255966
 30
0.0
 11
8.2805
 21
156.527388
 31
0.0
  0
LINE
  5
5F8
330
1E
100
AcDbEntity
  8
0
100
AcDbLine
 10
8.5903
 20
156.383388
 30
0.0
 11
8.9451
 21
156.217388
 31
0.0
  0
LINE
  5
5F9
330
1E
100
AcDbEntity
  8
0
100
AcDbLine
 10
8.5903
 20
156.383388
 30
0.0
 11
8.967
 21
156.207388
 31
0.0
  0
LINE
  5
5FA
330
1E
100
AcDbEntity
  8
0
100
AcDbLine
 10
9.575495958728
 20
155.923602617368
 30
0.0
 11
10.0125
 21
155.719388
 31
0.0
  0
LINE
  5
5FB
330
1E
100
AcDbEntity
  8
0
100
AcDbLine
 10
8.967
 20
156.207388
 30
0.0
 11
9.4401
 21
155.986388
 31
0.0
  0
LINE
  5
5FC
330
1E
100
AcDbEntity
  8
0
100
AcDbLine
 10
9.4401
 20
155.986388
 30
0.0
 11
10.0051
 21
155.724388
 31
0.0
  0
LINE
  5
5FD
330
1E
100
AcDbEntity
  8
0
100
AcDbLine
 10
10.0125
 20
155.719388
 30
0.0
 11
10.462114918338
 21
155.510282595049
 31
0.0
  0
LINE
  5
5FE
330
1E
100
AcDbEntity
  8
0
100
AcDbLine
 10
10.0051
 20
155.724388
 30
0.0
 11
10.5985
 21
155.446388
 31
0.0
  0
LINE
  5
5FF
330
1E
100
AcDbEntity
  8
0
100
AcDbLine
 10
10.5985
 20
155.446388
 30
0.0
 11
11.1856
 21
155.172388
 31
0.0
  0
LINE
  5
600
330
1E
100
AcDbEntity
  8
0
100
AcDbLine
 10
8.9451
 20
156.217388
 30
0.0
 11
9.103806727656
 21
156.143481242841
 31
0.0
  0
LINE
  5
601
330
1E
100
AcDbEntity
  8
0
100
AcDbLine
 10
7.7771
 20
161.318388
 30
0.0
 11
13.5988
 21
158.603388
 31
0.0
  0
LINE
  5
602
330
1E
100
AcDbEntity
  8
0
100
AcDbLine
 10
1.7315
 20
163.033388
 30
0.0
 11
7.354399999996
 21
160.411388000002
 31
0.0
  0
LINE
  5
603
330
1E
100
AcDbEntity
  8
0
100
AcDbLine
 10
1.7315
 20
163.033388
 30
0.0
 11
7.3544
 21
160.411388
 31
0.0
  0
LINE
  5
604
330
1E
100
AcDbEntity
  8
0
100
AcDbLine
 10
1.5987
 20
163.095388
 30
0.0
 11
7.3544
 21
160.411388
 31
0.0
  0
LINE
  5
605
330
1E
100
AcDbEntity
  8
0
100
AcDbLine
 10
1.5987
 20
163.095388
 30
0.0
 11
6.692779531862
 21
160.719915083844
 31
0.0
  0
LINE
  5
606
330
1E
100
AcDbEntity
  8
0
100
AcDbLine
 10
-14.7329
 20
168.504388
 30
0.0
 11
-14.0715
 21
168.196388
 31
0.0
  0
LINE
  5
607
330
1E
100
AcDbEntity
  8
0
100
AcDbLine
 10
-14.0715
 20
168.196388
 30
0.0
 11
-13.786313003478
 21
168.807792209297
 31
0.0
  0
LINE
  5
608
330
1E
100
AcDbEntity
  8
0
100
AcDbLine
 10
-10.3751
 20
165.920388
 30
0.0
 11
-10.163968071703
 21
166.373277477049
 31
0.0
  0
LINE
  5
609
330
1E
100
AcDbEntity
  8
0
100
AcDbLine
 10
-10.3751
 20
165.920388
 30
0.0
 11
-9.2291
 21
165.385388
 31
0.0
  0
LINE
  5
60A
330
1E
100
AcDbEntity
  8
0
100
AcDbLine
 10
-11.0365
 20
166.229388
 30
0.0
 11
-10.689553736041
 21
166.973196128601
 31
0.0
  0
LINE
  5
60B
330
1E
100
AcDbEntity
  8
0
100
AcDbLine
 10
-11.0365
 20
166.229388
 30
0.0
 11
-10.3751
 21
165.920388
 31
0.0
  0
LINE
  5
60C
330
1E
100
AcDbEntity
  8
0
100
AcDbLine
 10
-11.0365
 20
166.229388
 30
0.0
 11
-9.8905
 21
165.693388
 31
0.0
  0
LINE
  5
60D
330
1E
100
AcDbEntity
  8
0
100
AcDbLine
 10
-10.4129
 20
166.489388
 30
0.0
 11
-10.201781194457
 21
166.942195753992
 31
0.0
  0
LINE
  5
60E
330
1E
100
AcDbEntity
  8
0
100
AcDbLine
 10
-10.4129
 20
166.489388
 30
0.0
 11
-9.0901
 21
165.872388
 31
0.0
  0
LINE
  5
60F
330
1E
100
AcDbEntity
  8
0
100
AcDbLine
 10
-10.1293
 20
166.908388
 30
0.0
 11
-9.846820036111
 21
167.51432289651
 31
0.0
  0
LINE
  5
610
330
1E
100
AcDbEntity
  8
0
100
AcDbLine
 10
-11.4521
 20
167.525388
 30
0.0
 11
-11.240453753765
 21
167.979380717019
 31
0.0
  0
LINE
  5
611
330
1E
100
AcDbEntity
  8
0
100
AcDbLine
 10
-11.4521
 20
167.525388
 30
0.0
 11
-10.1293
 21
166.908388
 31
0.0
  0
LINE
  5
612
330
1E
100
AcDbEntity
  8
0
100
AcDbLine
 10
-9.8905
 20
165.693388
 30
0.0
 11
-9.2291
 21
165.385388
 31
0.0
  0
LINE
  5
613
330
1E
100
AcDbEntity
  8
0
100
AcDbLine
 10
-10.0656
 20
167.431388
 30
0.0
 11
-9.642899553768
 21
168.337603343791
 31
0.0
  0
LINE
  5
614
330
1E
100
AcDbEntity
  8
0
100
AcDbLine
 10
-11.3884
 20
168.048388
 30
0.0
 11
-10.965785239967
 21
168.954419643611
 31
0.0
  0
LINE
  5
615
330
1E
100
AcDbEntity
  8
0
100
AcDbLine
 10
-11.3884
 20
168.048388
 30
0.0
 11
-10.0656
 21
167.431388
 31
0.0
  0
LINE
  5
616
330
1E
100
AcDbEntity
  8
0
100
AcDbLine
 10
-11.3884
 20
168.048388
 30
0.0
 11
-11.092709588136
 21
168.682310179718
 31
0.0
  0
LINE
  5
617
330
1E
100
AcDbEntity
  8
0
100
AcDbLine
 10
-13.866565975446
 20
168.635740168117
 30
0.0
 11
-10.302647014227
 21
166.756474957692
 31
0.0
  0
LINE
  5
618
330
1E
100
AcDbEntity
  8
0
100
AcDbLine
 10
-16.3446
 20
169.256388
 30
0.0
 11
-16.087749623464
 21
169.80697700069
 31
0.0
  0
LINE
  5
619
330
1E
100
AcDbEntity
  8
0
100
AcDbLine
 10
-16.398872406165
 20
169.281661512396
 30
0.0
 11
-16.3446
 21
169.256388
 31
0.0
  0
LINE
  5
61A
330
1E
100
AcDbEntity
  8
0
100
AcDbLine
 10
-16.3988655351
 20
169.281676241333
 30
0.0
 11
-16.3446
 21
169.256388
 31
0.0
  0
LINE
  5
61B
330
1E
100
AcDbEntity
  8
0
100
AcDbLine
 10
-16.399
 20
169.281388
 30
0.0
 11
-16.187773999598
 21
169.734175782714
 31
0.0
  0
LINE
  5
61C
330
1E
100
AcDbEntity
  8
0
100
AcDbLine
 10
-15.2174
 20
168.730388
 30
0.0
 11
-14.903377933435
 21
169.40361088762
 31
0.0
  0
LINE
  5
61D
330
1E
100
AcDbEntity
  8
0
100
AcDbLine
 10
-15.2174
 20
168.730388
 30
0.0
 11
-14.0715
 21
168.196388
 31
0.0
  0
LINE
  5
61E
330
1E
100
AcDbEntity
  8
0
100
AcDbLine
 10
-15.8789
 20
169.038388
 30
0.0
 11
-15.553290997722
 21
169.736754403797
 31
0.0
  0
LINE
  5
61F
330
1E
100
AcDbEntity
  8
0
100
AcDbLine
 10
-15.8789
 20
169.038388
 30
0.0
 11
-15.2174
 21
168.730388
 31
0.0
  0
LINE
  5
620
330
1E
100
AcDbEntity
  8
0
100
AcDbLine
 10
-15.8789
 20
169.038388
 30
0.0
 11
-14.7329
 21
168.504388
 31
0.0
  0
LINE
  5
621
330
1E
100
AcDbEntity
  8
0
100
AcDbLine
 10
-15.8789
 20
169.038388
 30
0.0
 11
-15.632479185384
 21
169.566911526439
 31
0.0
  0
LINE
  5
622
330
1E
100
AcDbEntity
  8
0
100
AcDbLine
 10
-13.866565975446
 20
168.635740168117
 30
0.0
 11
-10.302647014227
 21
166.756474957692
 31
0.0
  0
LINE
  5
623
330
1E
100
AcDbEntity
  8
0
100
AcDbLine
 10
-9.2291
 20
165.385388
 30
0.0
 11
-8.923558456192
 21
166.040868793898
 31
0.0
  0
LINE
  5
624
330
1E
100
AcDbEntity
  8
0
100
AcDbLine
 10
-8.0697
 20
164.845388
 30
0.0
 11
-7.4083
 21
164.536388
 31
0.0
  0
LINE
  5
625
330
1E
100
AcDbEntity
  8
0
100
AcDbLine
 10
-7.4083
 20
164.536388
 30
0.0
 11
-7.083636272066
 21
165.232726978759
 31
0.0
  0
LINE
  5
626
330
1E
100
AcDbEntity
  8
0
100
AcDbLine
 10
-9.0901
 20
165.872388
 30
0.0
 11
-8.768919528335
 21
166.560876128069
 31
0.0
  0
LINE
  5
627
330
1E
100
AcDbEntity
  8
0
100
AcDbLine
 10
-9.0901
 20
165.872388
 30
0.0
 11
-8.834793837885
 21
166.419666795401
 31
0.0
  0
LINE
  5
628
330
1E
100
AcDbEntity
  8
0
100
AcDbLine
 10
-8.5532
 20
165.071388
 30
0.0
 11
-8.200127793723
 21
165.828239813289
 31
0.0
  0
LINE
  5
629
330
1E
100
AcDbEntity
  8
0
100
AcDbLine
 10
-8.5532
 20
165.071388
 30
0.0
 11
-7.4083
 21
164.536388
 31
0.0
  0
LINE
  5
62A
330
1E
100
AcDbEntity
  8
0
100
AcDbLine
 10
-9.2146
 20
165.379388
 30
0.0
 11
-8.859439099845
 21
166.141137333943
 31
0.0
  0
LINE
  5
62B
330
1E
100
AcDbEntity
  8
0
100
AcDbLine
 10
-9.2146
 20
165.379388
 30
0.0
 11
-8.5532
 21
165.071388
 31
0.0
  0
LINE
  5
62C
330
1E
100
AcDbEntity
  8
0
100
AcDbLine
 10
-9.2146
 20
165.379388
 30
0.0
 11
-8.0697
 21
164.845388
 31
0.0
  0
LINE
  5
62D
330
1E
100
AcDbEntity
  8
0
100
AcDbLine
 10
-8.99848093189
 20
166.068784251527
 30
0.0
 11
-8.913954297297
 21
166.024213102331
 31
0.0
  0
LINE
  5
62E
330
1E
100
AcDbEntity
  8
0
100
AcDbLine
 10
-8.99848093189
 20
166.068784251527
 30
0.0
 11
-8.913954297297
 21
166.024213102331
 31
0.0
  0
LINE
  5
62F
330
1E
100
AcDbEntity
  8
0
100
AcDbLine
 10
-5.512257624448
 20
164.239930224797
 30
0.0
 11
-5.4979
 21
162.952388
 31
0.0
  0
LINE
  5
630
330
1E
100
AcDbEntity
  8
0
100
AcDbLine
 10
-7.148621058958
 20
165.093347564781
 30
0.0
 11
-5.512151711818
 21
164.230432345476
 31
0.0
  0
LINE
  5
631
330
1E
100
AcDbEntity
  8
0
100
AcDbLine
 10
-7.148621058958
 20
165.093347564781
 30
0.0
 11
-5.512151711818
 21
164.230432345476
 31
0.0
  0
LINE
  5
632
330
1E
100
AcDbEntity
  8
0
100
AcDbLine
 10
-8.9199
 20
168.000388
 30
0.0
 11
-2.9652
 21
165.223388
 31
0.0
  0
LINE
  5
633
330
1E
100
AcDbEntity
  8
0
100
AcDbLine
 10
-9.7132
 20
168.370388
 30
0.0
 11
-3.8914
 21
165.655388
 31
0.0
  0
LINE
  5
634
330
1E
100
AcDbEntity
  8
0
100
AcDbLine
 10
-18.1519
 20
170.098388
 30
0.0
 11
-17.765100000006
 21
169.918263415787
 31
0.0
  0
LINE
  5
635
330
1E
100
AcDbEntity
  8
0
100
AcDbLine
 10
-18.1519
 20
170.098388
 30
0.0
 11
-17.765100000006
 21
169.918263415787
 31
0.0
  0
LINE
  5
636
330
1E
100
AcDbEntity
  8
0
100
AcDbLine
 10
-18.1519
 20
170.098388
 30
0.0
 11
-17.656942858744
 21
169.867733393637
 31
0.0
  0
LINE
  5
637
330
1E
100
AcDbEntity
  8
0
100
AcDbLine
 10
-17.310800000024
 20
169.706295234499
 30
0.0
 11
-17.0604
 21
169.589388
 31
0.0
  0
LINE
  5
638
330
1E
100
AcDbEntity
  8
0
100
AcDbLine
 10
-17.310800000023
 20
169.706295234499
 30
0.0
 11
-17.0604
 21
169.589388
 31
0.0
  0
LINE
  5
639
330
1E
100
AcDbEntity
  8
0
100
AcDbLine
 10
-17.0604
 20
169.589388
 30
0.0
 11
-16.399
 21
169.281388
 31
0.0
  0
LINE
  5
63A
330
1E
100
AcDbEntity
  8
0
100
AcDbLine
 10
-17.5449
 20
169.815388
 30
0.0
 11
-17.333598405226
 21
170.268587800457
 31
0.0
  0
LINE
  5
63B
330
1E
100
AcDbEntity
  8
0
100
AcDbLine
 10
-17.5449
 20
169.815388
 30
0.0
 11
-16.399
 21
169.281388
 31
0.0
  0
LINE
  5
63C
330
1E
100
AcDbEntity
  8
0
100
AcDbLine
 10
-18.2063
 20
170.124388
 30
0.0
 11
-17.886543400628
 21
170.809904987769
 31
0.0
  0
LINE
  5
63D
330
1E
100
AcDbEntity
  8
0
100
AcDbLine
 10
-18.2063
 20
170.124388
 30
0.0
 11
-17.5449
 21
169.815388
 31
0.0
  0
LINE
  5
63E
330
1E
100
AcDbEntity
  8
0
100
AcDbLine
 10
-16.1625
 20
169.722388
 30
0.0
 11
-15.872776936706
 21
170.34385973894
 31
0.0
  0
LINE
  5
63F
330
1E
100
AcDbEntity
  8
0
100
AcDbLine
 10
-17.4854
 20
170.339388
 30
0.0
 11
-17.132662117181
 21
171.095940444754
 31
0.0
  0
LINE
  5
640
330
1E
100
AcDbEntity
  8
0
100
AcDbLine
 10
-17.4854
 20
170.339388
 30
0.0
 11
-16.1625
 21
169.722388
 31
0.0
  0
LINE
  5
641
330
1E
100
AcDbEntity
  8
0
100
AcDbLine
 10
-17.4854
 20
170.339388
 30
0.0
 11
-17.174335220511
 21
171.006559945124
 31
0.0
  0
LINE
  5
642
330
1E
100
AcDbEntity
  8
0
100
AcDbLine
 10
-16.116097113272
 20
169.821924717509
 30
0.0
 11
-15.632479185384
 21
169.566911526439
 31
0.0
  0
LINE
  5
643
330
1E
100
AcDbEntity
  8
0
100
AcDbLine
 10
-18.7465
 20
171.479388
 30
0.0
 11
-18.338167423269
 21
172.35469691877
 31
0.0
  0
LINE
  5
644
330
1E
100
AcDbEntity
  8
0
100
AcDbLine
 10
-18.7465
 20
171.479388
 30
0.0
 11
-17.4226
 21
170.862388
 31
0.0
  0
LINE
  5
645
330
1E
100
AcDbEntity
  8
0
100
AcDbLine
 10
-17.4226
 20
170.862388
 30
0.0
 11
-17.061403948704
 21
171.636745838321
 31
0.0
  0
LINE
  5
646
330
1E
100
AcDbEntity
  8
0
100
AcDbLine
 10
-15.499529035426
 20
171.067897035617
 30
0.0
 11
-15.033885938289
 21
170.850774719368
 31
0.0
  0
LINE
  5
647
330
1E
100
AcDbEntity
  8
0
100
AcDbLine
 10
-18.5781
 20
172.503388
 30
0.0
 11
-13.8814
 21
170.313388
 31
0.0
  0
LINE
  5
648
330
1E
100
AcDbEntity
  8
0
100
AcDbLine
 10
-18.5781
 20
172.503388
 30
0.0
 11
-18.32406185471
 21
172.384933864504
 31
0.0
  0
LINE
  5
649
330
1E
100
AcDbEntity
  8
0
100
AcDbLine
 10
-18.5781
 20
172.503388
 30
0.0
 11
-18.32406185471
 21
172.384933864504
 31
0.0
  0
LINE
  5
64A
330
1E
100
AcDbEntity
  8
0
100
AcDbLine
 10
-14.8734
 20
170.776388
 30
0.0
 11
-9.7132
 21
168.370388
 31
0.0
  0
LINE
  5
64B
330
1E
100
AcDbEntity
  8
0
100
AcDbLine
 10
-13.249434619005
 20
170.019196281331
 30
0.0
 11
-10.965785239967
 21
168.954419643611
 31
0.0
  0
LINE
  5
64C
330
1E
100
AcDbEntity
  8
0
100
AcDbLine
 10
-13.249434619005
 20
170.019196281331
 30
0.0
 11
-10.965785239967
 21
168.954419643611
 31
0.0
  0
LINE
  5
64D
330
1E
100
AcDbEntity
  8
0
100
AcDbLine
 10
-14.70558861787
 20
170.698144097553
 30
0.0
 11
-14.3722
 21
170.542388
 31
0.0
  0
LINE
  5
64E
330
1E
100
AcDbEntity
  8
0
100
AcDbLine
 10
-14.70558861787
 20
170.698144097553
 30
0.0
 11
-14.3722
 21
170.542388
 31
0.0
  0
LINE
  5
64F
330
1E
100
AcDbEntity
  8
0
100
AcDbLine
 10
-14.3722
 20
170.542388
 30
0.0
 11
-13.2263
 21
170.008388
 31
0.0
  0
LINE
  5
650
330
1E
100
AcDbEntity
  8
0
100
AcDbLine
 10
-13.8814
 20
170.313388
 30
0.0
 11
-8.9199
 21
168.000388
 31
0.0
  0
LINE
  5
651
330
1E
100
AcDbEntity
  8
0
100
AcDbLine
 10
-14.7816
 20
171.837388
 30
0.0
 11
-9.5553
 21
169.400388
 31
0.0
  0
LINE
  5
652
330
1E
100
AcDbEntity
  8
0
100
AcDbLine
 10
-9.5553
 20
169.400388
 30
0.0
 11
-3.9323
 21
166.777388
 31
0.0
  0
LINE
  5
653
330
1E
100
AcDbEntity
  8
0
100
AcDbLine
 10
-0.852028124784
 20
165.341284547469
 30
0.0
 11
1.9554
 21
164.032388
 31
0.0
  0
LINE
  5
654
330
1E
100
AcDbEntity
  8
0
100
AcDbLine
 10
-0.852028124783
 20
165.341284547468
 30
0.0
 11
1.9554
 21
164.032388
 31
0.0
  0
LINE
  5
655
330
1E
100
AcDbEntity
  8
0
100
AcDbLine
 10
-2.9652
 20
165.223388
 30
0.0
 11
1.7315
 21
163.033388
 31
0.0
  0
LINE
  5
656
330
1E
100
AcDbEntity
  8
0
100
AcDbLine
 10
-3.8914
 20
165.655388
 30
0.0
 11
1.5987
 21
163.095388
 31
0.0
  0
LINE
  5
657
330
1E
100
AcDbEntity
  8
0
100
AcDbLine
 10
-3.8914
 20
165.655388
 30
0.0
 11
-2.209490109647
 21
164.871123720788
 31
0.0
  0
LINE
  5
658
330
1E
100
AcDbEntity
  8
0
100
AcDbLine
 10
-3.9323
 20
166.777388
 30
0.0
 11
1.9554
 21
164.032388
 31
0.0
  0
LINE
  5
659
330
1E
100
AcDbEntity
  8
0
100
AcDbLine
 10
-3.9323
 20
166.777388
 30
0.0
 11
-1.787074701923
 21
165.77722776031
 31
0.0
  0
LINE
  5
65A
330
1E
100
AcDbEntity
  8
0
100
AcDbLine
 10
1.9554
 20
164.032388
 30
0.0
 11
7.7771
 21
161.318388
 31
0.0
  0
LINE
  5
65B
330
1E
100
AcDbEntity
  8
0
100
AcDbLine
 10
11.713790563277
 20
154.926482367228
 30
0.0
 11
11.7675
 21
154.901388
 31
0.0
  0
LINE
  5
65C
330
1E
100
AcDbEntity
  8
0
100
AcDbLine
 10
12.34992170133
 20
154.629621270318
 30
0.0
 11
12.6162
 21
154.505388
 31
0.0
  0
LINE
  5
65D
330
1E
100
AcDbEntity
  8
0
100
AcDbLine
 10
12.380163417723
 20
154.615638632911
 30
0.0
 11
12.6162
 21
154.505388
 31
0.0
  0
LINE
  5
65E
330
1E
100
AcDbEntity
  8
0
100
AcDbLine
 10
12.476491909718
 20
154.57109994476
 30
0.0
 11
12.6079
 21
154.509388
 31
0.0
  0
LINE
  5
65F
330
1E
100
AcDbEntity
  8
0
100
AcDbLine
 10
12.926
 20
154.361388
 30
0.0
 11
13.886517924951
 21
155.157997582376
 31
0.0
  0
LINE
  5
660
330
1E
100
AcDbEntity
  8
0
100
AcDbLine
 10
12.6162
 20
154.505388
 30
0.0
 11
12.8548
 21
154.394388
 31
0.0
  0
LINE
  5
661
330
1E
100
AcDbEntity
  8
0
100
AcDbLine
 10
12.6079
 20
154.509388
 30
0.0
 11
12.8474
 21
154.398388
 31
0.0
  0
LINE
  5
662
330
1E
100
AcDbEntity
  8
0
100
AcDbLine
 10
12.8474
 20
154.398388
 30
0.0
 11
12.9187
 21
154.364388
 31
0.0
  0
LINE
  5
663
330
1E
100
AcDbEntity
  8
0
100
AcDbLine
 10
12.8181
 20
154.412388
 30
0.0
 11
12.9187
 21
154.364388
 31
0.0
  0
LINE
  5
664
330
1E
100
AcDbEntity
  8
0
100
AcDbLine
 10
12.9187
 20
154.364388
 30
0.0
 11
13.879528294337
 21
155.161254988532
 31
0.0
  0
LINE
  5
665
330
1E
100
AcDbEntity
  8
0
100
AcDbLine
 10
12.6078
 20
154.510388
 30
0.0
 11
12.8181
 21
154.412388
 31
0.0
  0
LINE
  5
666
330
1E
100
AcDbEntity
  8
0
100
AcDbLine
 10
11.7675
 20
154.901388
 30
0.0
 11
11.840643976652
 21
154.867257112133
 31
0.0
  0
LINE
  5
667
330
1E
100
AcDbEntity
  8
0
100
AcDbLine
 10
12.2531
 20
154.674388
 30
0.0
 11
12.6078
 21
154.510388
 31
0.0
  0
LINE
  5
668
330
1E
100
AcDbEntity
  8
0
100
AcDbLine
 10
11.7591
 20
154.905388
 30
0.0
 11
12.2531
 21
154.674388
 31
0.0
  0
LINE
  5
669
330
1E
100
AcDbEntity
  8
0
100
AcDbLine
 10
11.1856
 20
155.172388
 30
0.0
 11
11.7591
 21
154.905388
 31
0.0
  0
LINE
  5
66A
330
1E
100
AcDbEntity
  8
0
100
AcDbLine
 10
15.568
 20
153.822388
 30
0.0
 11
15.939656243721
 21
154.619610870169
 31
0.0
  0
LINE
  5
66B
330
1E
100
AcDbEntity
  8
0
100
AcDbLine
 10
15.2643
 20
154.516388
 30
0.0
 11
15.475440387154
 21
154.969242042246
 31
0.0
  0
LINE
  5
66C
330
1E
100
AcDbEntity
  8
0
100
AcDbLine
 10
16.1381
 20
154.660388
 30
0.0
 11
16.349470069075
 21
155.113734664182
 31
0.0
  0
LINE
  5
66D
330
1E
100
AcDbEntity
  8
0
100
AcDbLine
 10
14.8143
 20
155.277388
 30
0.0
 11
16.1381
 21
154.660388
 31
0.0
  0
LINE
  5
66E
330
1E
100
AcDbEntity
  8
0
100
AcDbLine
 10
14.8143
 20
155.277388
 30
0.0
 11
15.083837254986
 21
155.855491683058
 31
0.0
  0
LINE
  5
66F
330
1E
100
AcDbEntity
  8
0
100
AcDbLine
 10
16.496
 20
155.045388
 30
0.0
 11
16.86855311763
 21
155.84409392658
 31
0.0
  0
LINE
  5
670
330
1E
100
AcDbEntity
  8
0
100
AcDbLine
 10
13.9406
 20
155.132388
 30
0.0
 11
14.456373437542
 21
154.892366516639
 31
0.0
  0
LINE
  5
671
330
1E
100
AcDbEntity
  8
0
100
AcDbLine
 10
13.9406
 20
155.132388
 30
0.0
 11
15.2643
 21
154.516388
 31
0.0
  0
LINE
  5
672
330
1E
100
AcDbEntity
  8
0
100
AcDbLine
 10
13.9406
 20
155.132388
 30
0.0
 11
14.336197502085
 21
155.981434224304
 31
0.0
  0
LINE
  5
673
330
1E
100
AcDbEntity
  8
0
100
AcDbLine
 10
13.9406
 20
155.132388
 30
0.0
 11
14.161426688362
 21
155.606334536547
 31
0.0
  0
LINE
  5
674
330
1E
100
AcDbEntity
  8
0
100
AcDbLine
 10
14.2452
 20
154.439388
 30
0.0
 11
15.568
 21
153.822388
 31
0.0
  0
LINE
  5
675
330
1E
100
AcDbEntity
  8
0
100
AcDbLine
 10
14.2452
 20
154.439388
 30
0.0
 11
14.456373437542
 21
154.892366516639
 31
0.0
  0
LINE
  5
676
330
1E
100
AcDbEntity
  8
0
100
AcDbLine
 10
13.886517924951
 20
155.157997582376
 30
0.0
 11
13.940755225679
 21
155.132721151186
 31
0.0
  0
LINE
  5
677
330
1E
100
AcDbEntity
  8
0
100
AcDbLine
 10
16.5642
 20
153.909388
 30
0.0
 11
18.0858
 21
153.200388
 31
0.0
  0
LINE
  5
678
330
1E
100
AcDbEntity
  8
0
100
AcDbLine
 10
18.0858
 20
153.200388
 30
0.0
 11
20.263179325247
 21
152.31189863214
 31
0.0
  0
LINE
  5
679
330
1E
100
AcDbEntity
  8
0
100
AcDbLine
 10
13.5209
 20
155.328388
 30
0.0
 11
13.940755225679
 21
155.132721151186
 31
0.0
  0
LINE
  5
67A
330
1E
100
AcDbEntity
  8
0
100
AcDbLine
 10
15.1732
 20
155.662388
 30
0.0
 11
16.496
 21
155.045388
 31
0.0
  0
LINE
  5
67B
330
1E
100
AcDbEntity
  8
0
100
AcDbLine
 10
15.1732
 20
155.662388
 30
0.0
 11
15.595810181389
 21
156.568409827588
 31
0.0
  0
LINE
  5
67C
330
1E
100
AcDbEntity
  8
0
100
AcDbLine
 10
17.6742
 20
155.598388
 30
0.0
 11
23.6282
 21
152.823388
 31
0.0
  0
LINE
  5
67D
330
1E
100
AcDbEntity
  8
0
100
AcDbLine
 10
18.6004
 20
155.167388
 30
0.0
 11
24.422
 21
152.453388
 31
0.0
  0
LINE
  5
67E
330
1E
100
AcDbEntity
  8
0
100
AcDbLine
 10
18.6004
 20
155.167388
 30
0.0
 11
24.204385319895
 21
152.554838845439
 31
0.0
  0
LINE
  5
67F
330
1E
100
AcDbEntity
  8
0
100
AcDbLine
 10
12.9774
 20
157.788388
 30
0.0
 11
17.6742
 21
155.598388
 31
0.0
  0
LINE
  5
680
330
1E
100
AcDbEntity
  8
0
100
AcDbLine
 10
13.1103
 20
157.727388
 30
0.0
 11
18.6004
 21
155.167388
 31
0.0
  0
LINE
  5
681
330
1E
100
AcDbEntity
  8
0
100
AcDbLine
 10
21.825
 20
150.905388
 30
0.0
 11
22.971
 21
150.370388
 31
0.0
  0
LINE
  5
682
330
1E
100
AcDbEntity
  8
0
100
AcDbLine
 10
22.1085
 20
151.325388
 30
0.0
 11
23.4312
 21
150.708388
 31
0.0
  0
LINE
  5
683
330
1E
100
AcDbEntity
  8
0
100
AcDbLine
 10
22.1085
 20
151.325388
 30
0.0
 11
22.429135193401
 21
152.012707259957
 31
0.0
  0
LINE
  5
684
330
1E
100
AcDbEntity
  8
0
100
AcDbLine
 10
22.1085
 20
151.325388
 30
0.0
 11
22.363241775298
 21
151.871456965858
 31
0.0
  0
LINE
  5
685
330
1E
100
AcDbEntity
  8
0
100
AcDbLine
 10
20.6645
 20
151.445388
 30
0.0
 11
21.8105
 21
150.911388
 31
0.0
  0
LINE
  5
686
330
1E
100
AcDbEntity
  8
0
100
AcDbLine
 10
21.149
 20
151.220388
 30
0.0
 11
21.8105
 21
150.911388
 31
0.0
  0
LINE
  5
687
330
1E
100
AcDbEntity
  8
0
100
AcDbLine
 10
20.0031
 20
151.754388
 30
0.0
 11
21.149
 21
151.220388
 31
0.0
  0
LINE
  5
688
330
1E
100
AcDbEntity
  8
0
100
AcDbLine
 10
20.0031
 20
151.754388
 30
0.0
 11
20.327771015981
 21
152.450358520476
 31
0.0
  0
LINE
  5
689
330
1E
100
AcDbEntity
  8
0
100
AcDbLine
 10
20.0031
 20
151.754388
 30
0.0
 11
20.6645
 21
151.445388
 31
0.0
  0
LINE
  5
68A
330
1E
100
AcDbEntity
  8
0
100
AcDbLine
 10
20.0031
 20
151.754388
 30
0.0
 11
20.263179325247
 21
152.31189863214
 31
0.0
  0
LINE
  5
68B
330
1E
100
AcDbEntity
  8
0
100
AcDbLine
 10
19.4865
 20
155.857388
 30
0.0
 11
25.1092
 21
153.235388
 31
0.0
  0
LINE
  5
68C
330
1E
100
AcDbEntity
  8
0
100
AcDbLine
 10
13.5988
 20
158.603388
 30
0.0
 11
19.4865
 21
155.857388
 31
0.0
  0
LINE
  5
68D
330
1E
100
AcDbEntity
  8
0
100
AcDbLine
 10
28.8969
 20
148.158388
 30
0.0
 11
29.222313996383
 21
148.856803747088
 31
0.0
  0
LINE
  5
68E
330
1E
100
AcDbEntity
  8
0
100
AcDbLine
 10
27.751
 20
148.693388
 30
0.0
 11
28.8969
 21
148.158388
 31
0.0
  0
LINE
  5
68F
330
1E
100
AcDbEntity
  8
0
100
AcDbLine
 10
23.632
 20
150.062388
 30
0.0
 11
23.979227350804
 21
150.80720956532
 31
0.0
  0
LINE
  5
690
330
1E
100
AcDbEntity
  8
0
100
AcDbLine
 10
22.971
 20
150.370388
 30
0.0
 11
23.632
 21
150.062388
 31
0.0
  0
LINE
  5
691
330
1E
100
AcDbEntity
  8
0
100
AcDbLine
 10
22.971
 20
150.370388
 30
0.0
 11
23.182544896002
 21
150.824378170989
 31
0.0
  0
LINE
  5
692
330
1E
100
AcDbEntity
  8
0
100
AcDbLine
 10
27.0895
 20
149.002388
 30
0.0
 11
28.2353
 21
148.467388
 31
0.0
  0
LINE
  5
693
330
1E
100
AcDbEntity
  8
0
100
AcDbLine
 10
27.0895
 20
149.002388
 30
0.0
 11
27.374460820573
 21
149.613572156748
 31
0.0
  0
LINE
  5
694
330
1E
100
AcDbEntity
  8
0
100
AcDbLine
 10
27.0895
 20
149.002388
 30
0.0
 11
27.751
 21
148.693388
 31
0.0
  0
LINE
  5
695
330
1E
100
AcDbEntity
  8
0
100
AcDbLine
 10
27.0895
 20
149.002388
 30
0.0
 11
27.294760359768
 21
149.442630555613
 31
0.0
  0
LINE
  5
696
330
1E
100
AcDbEntity
  8
0
100
AcDbLine
 10
28.2353
 20
148.467388
 30
0.0
 11
28.8969
 21
148.158388
 31
0.0
  0
LINE
  5
697
330
1E
100
AcDbEntity
  8
0
100
AcDbLine
 10
28.2353
 20
148.467388
 30
0.0
 11
28.549175171543
 21
149.140667325612
 31
0.0
  0
LINE
  5
698
330
1E
100
AcDbEntity
  8
0
100
AcDbLine
 10
29.3625
 20
147.942388
 30
0.0
 11
29.417541025285
 21
147.916690340058
 31
0.0
  0
LINE
  5
699
330
1E
100
AcDbEntity
  8
0
100
AcDbLine
 10
29.3625
 20
147.942388
 30
0.0
 11
29.619634410723
 21
148.493955305537
 31
0.0
  0
LINE
  5
69A
330
1E
100
AcDbEntity
  8
0
100
AcDbLine
 10
29.4174
 20
147.916388
 30
0.0
 11
30.5631
 21
147.382388
 31
0.0
  0
LINE
  5
69B
330
1E
100
AcDbEntity
  8
0
100
AcDbLine
 10
29.4174
 20
147.916388
 30
0.0
 11
29.628795547751
 21
148.369592842078
 31
0.0
  0
LINE
  5
69C
330
1E
100
AcDbEntity
  8
0
100
AcDbLine
 10
29.4174
 20
147.916388
 30
0.0
 11
30.0789
 21
147.607388
 31
0.0
  0
LINE
  5
69D
330
1E
100
AcDbEntity
  8
0
100
AcDbLine
 10
29.14373250825
 20
148.688149204408
 30
0.0
 11
29.650195272083
 21
148.481484809434
 31
0.0
  0
LINE
  5
69E
330
1E
100
AcDbEntity
  8
0
100
AcDbLine
 10
29.14373250825
 20
148.688149204408
 30
0.0
 11
29.650195272083
 21
148.481484809434
 31
0.0
  0
LINE
  5
69F
330
1E
100
AcDbEntity
  8
0
100
AcDbLine
 10
23.4312
 20
150.708388
 30
0.0
 11
23.642609937821
 21
151.161623692537
 31
0.0
  0
LINE
  5
6A0
330
1E
100
AcDbEntity
  8
0
100
AcDbLine
 10
24.8934
 20
150.578388
 30
0.0
 11
25.104529730142
 21
151.031022963343
 31
0.0
  0
LINE
  5
6A1
330
1E
100
AcDbEntity
  8
0
100
AcDbLine
 10
23.5702
 20
151.195388
 30
0.0
 11
24.8934
 21
150.578388
 31
0.0
  0
LINE
  5
6A2
330
1E
100
AcDbEntity
  8
0
100
AcDbLine
 10
23.5702
 20
151.195388
 30
0.0
 11
23.852175653505
 21
151.799835987876
 31
0.0
  0
LINE
  5
6A3
330
1E
100
AcDbEntity
  8
0
100
AcDbLine
 10
25.2517
 20
150.962388
 30
0.0
 11
25.674428670733
 21
151.869164005726
 31
0.0
  0
LINE
  5
6A4
330
1E
100
AcDbEntity
  8
0
100
AcDbLine
 10
25.2517
 20
150.962388
 30
0.0
 11
25.547306997984
 21
151.596481099082
 31
0.0
  0
LINE
  5
6A5
330
1E
100
AcDbEntity
  8
0
100
AcDbLine
 10
23.9287
 20
151.579388
 30
0.0
 11
25.2517
 21
150.962388
 31
0.0
  0
LINE
  5
6A6
330
1E
100
AcDbEntity
  8
0
100
AcDbLine
 10
23.9287
 20
151.579388
 30
0.0
 11
24.351476151944
 21
152.486265855508
 31
0.0
  0
LINE
  5
6A7
330
1E
100
AcDbEntity
  8
0
100
AcDbLine
 10
23.705222716987
 20
150.907357438139
 30
0.0
 11
27.294760359768
 21
149.442630555613
 31
0.0
  0
LINE
  5
6A8
330
1E
100
AcDbEntity
  8
0
100
AcDbLine
 10
25.674428670733
 20
151.869164005726
 30
0.0
 11
27.934560311792
 21
150.814873916573
 31
0.0
  0
LINE
  5
6A9
330
1E
100
AcDbEntity
  8
0
100
AcDbLine
 10
28.5898
 20
150.508388
 30
0.0
 11
33.2867
 21
148.318388
 31
0.0
  0
LINE
  5
6AA
330
1E
100
AcDbEntity
  8
0
100
AcDbLine
 10
29.6035
 20
148.381388
 30
0.0
 11
30.9267
 21
147.764388
 31
0.0
  0
LINE
  5
6AB
330
1E
100
AcDbEntity
  8
0
100
AcDbLine
 10
29.6035
 20
148.381388
 30
0.0
 11
29.893306416471
 21
149.002622149587
 31
0.0
  0
LINE
  5
6AC
330
1E
100
AcDbEntity
  8
0
100
AcDbLine
 10
29.6035
 20
148.381388
 30
0.0
 11
29.870165766011
 21
148.953017442816
 31
0.0
  0
LINE
  5
6AD
330
1E
100
AcDbEntity
  8
0
100
AcDbLine
 10
30.0789
 20
147.607388
 30
0.0
 11
31.2247
 21
147.073388
 31
0.0
  0
LINE
  5
6AE
330
1E
100
AcDbEntity
  8
0
100
AcDbLine
 10
29.74161114297
 20
149.971338796673
 30
0.0
 11
30.207175316403
 21
149.754262525129
 31
0.0
  0
LINE
  5
6AF
330
1E
100
AcDbEntity
  8
0
100
AcDbLine
 10
29.741845990744
 20
149.971842835791
 30
0.0
 11
30.20739401355
 21
149.754731642412
 31
0.0
  0
LINE
  5
6B0
330
1E
100
AcDbEntity
  8
0
100
AcDbLine
 10
29.582
 20
150.046388
 30
0.0
 11
34.4774
 21
147.763388
 31
0.0
  0
LINE
  5
6B1
330
1E
100
AcDbEntity
  8
0
100
AcDbLine
 10
23.6282
 20
152.823388
 30
0.0
 11
28.5898
 21
150.508388
 31
0.0
  0
LINE
  5
6B2
330
1E
100
AcDbEntity
  8
0
100
AcDbLine
 10
24.422
 20
152.453388
 30
0.0
 11
29.582
 21
150.046388
 31
0.0
  0
LINE
  5
6B3
330
1E
100
AcDbEntity
  8
0
100
AcDbLine
 10
31.2247
 20
147.073388
 30
0.0
 11
31.545181350213
 21
147.760837938401
 31
0.0
  0
LINE
  5
6B4
330
1E
100
AcDbEntity
  8
0
100
AcDbLine
 10
30.9267
 20
147.764388
 30
0.0
 11
31.279587972878
 21
148.520934387665
 31
0.0
  0
LINE
  5
6B5
330
1E
100
AcDbEntity
  8
0
100
AcDbLine
 10
31.2865
 20
148.147388
 30
0.0
 11
32.6096
 21
147.530388
 31
0.0
  0
LINE
  5
6B6
330
1E
100
AcDbEntity
  8
0
100
AcDbLine
 10
31.2865
 20
148.147388
 30
0.0
 11
31.648104202371
 21
148.923048694391
 31
0.0
  0
LINE
  5
6B7
330
1E
100
AcDbEntity
  8
0
100
AcDbLine
 10
31.2865
 20
148.147388
 30
0.0
 11
31.621606730766
 21
148.866210175674
 31
0.0
  0
LINE
  5
6B8
330
1E
100
AcDbEntity
  8
0
100
AcDbLine
 10
30.5631
 20
147.382388
 30
0.0
 11
31.2247
 21
147.073388
 31
0.0
  0
LINE
  5
6B9
330
1E
100
AcDbEntity
  8
0
100
AcDbLine
 10
30.5631
 20
147.382388
 30
0.0
 11
30.774406340896
 21
147.835401594065
 31
0.0
  0
LINE
  5
6BA
330
1E
100
AcDbEntity
  8
0
100
AcDbLine
 10
32.6096
 20
147.530388
 30
0.0
 11
33.018146771058
 21
148.406743059072
 31
0.0
  0
LINE
  5
6BB
330
1E
100
AcDbEntity
  8
0
100
AcDbLine
 10
31.524574837908
 20
147.716635847996
 30
0.0
 11
34.326685603721
 21
146.573222022888
 31
0.0
  0
LINE
  5
6BC
330
1E
100
AcDbEntity
  8
0
100
AcDbLine
 10
31.524574837908
 20
147.716635847996
 30
0.0
 11
34.326685603721
 21
146.573222022888
 31
0.0
  0
LINE
  5
6BD
330
1E
100
AcDbEntity
  8
0
100
AcDbLine
 10
31.560637766773
 20
149.123468967101
 30
0.0
 11
31.709278558194
 21
149.054271017044
 31
0.0
  0
LINE
  5
6BE
330
1E
100
AcDbEntity
  8
0
100
AcDbLine
 10
33.032262971326
 20
148.437023076922
 30
0.0
 11
33.2867
 21
148.318388
 31
0.0
  0
LINE
  5
6BF
330
1E
100
AcDbEntity
  8
0
100
AcDbLine
 10
33.032383019275
 20
148.437280586305
 30
0.0
 11
34.4774
 21
147.763388
 31
0.0
  0
LINE
  5
6C0
330
1E
100
AcDbEntity
  8
0
100
AcDbLine
 10
33.2867
 20
148.318388
 30
0.0
 11
35.233391101849
 21
147.410832079254
 31
0.0
  0
LINE
  5
6C1
330
1E
100
AcDbEntity
  8
0
100
AcDbLine
 10
30.3355
 20
150.798388
 30
0.0
 11
35.2971
 21
148.484388
 31
0.0
  0
LINE
  5
6C2
330
1E
100
AcDbEntity
  8
0
100
AcDbLine
 10
25.1092
 20
153.235388
 30
0.0
 11
30.3355
 21
150.798388
 31
0.0
  0
LINE
  5
6C3
330
1E
100
AcDbEntity
  8
0
100
AcDbLine
 10
34.1757
 20
146.249388
 30
0.0
 11
35.3215
 21
145.715388
 31
0.0
  0
LINE
  5
6C4
330
1E
100
AcDbEntity
  8
0
100
AcDbLine
 10
34.1757
 20
146.249388
 30
0.0
 11
34.440596927568
 21
146.817539105739
 31
0.0
  0
LINE
  5
6C5
330
1E
100
AcDbEntity
  8
0
100
AcDbLine
 10
34.1757
 20
146.249388
 30
0.0
 11
35.188186946205
 21
145.77751853825
 31
0.0
  0
LINE
  5
6C6
330
1E
100
AcDbEntity
  8
0
100
AcDbLine
 10
34.1757
 20
146.249388
 30
0.0
 11
34.326685603721
 21
146.573222022888
 31
0.0
  0
LINE
  5
6C7
330
1E
100
AcDbEntity
  8
0
100
AcDbLine
 10
34.1757
 20
146.249388
 30
0.0
 11
35.188186946205
 21
145.77751853825
 31
0.0
  0
LINE
  5
6C8
330
1E
100
AcDbEntity
  8
0
100
AcDbLine
 10
42.222022605326
 20
143.049001026838
 30
0.0
 11
43.0693
 21
142.653388
 31
0.0
  0
LINE
  5
6C9
330
1E
100
AcDbEntity
  8
0
100
AcDbLine
 10
42.222022605326
 20
143.049001026838
 30
0.0
 11
43.0693
 21
142.653388
 31
0.0
  0
LINE
  5
6CA
330
1E
100
AcDbEntity
  8
0
100
AcDbLine
 10
38.1807
 20
144.381388
 30
0.0
 11
38.42860477865
 21
144.265961436396
 31
0.0
  0
LINE
  5
6CB
330
1E
100
AcDbEntity
  8
0
100
AcDbLine
 10
38.1807
 20
144.381388
 30
0.0
 11
38.42860477865
 21
144.265961436396
 31
0.0
  0
LINE
  5
6CC
330
1E
100
AcDbEntity
  8
0
100
AcDbLine
 10
38.0055
 20
144.463388
 30
0.0
 11
38.155200000006
 21
144.393620326756
 31
0.0
  0
LINE
  5
6CD
330
1E
100
AcDbEntity
  8
0
100
AcDbLine
 10
38.0055
 20
144.463388
 30
0.0
 11
38.155200000006
 21
144.393620326756
 31
0.0
  0
LINE
  5
6CE
330
1E
100
AcDbEntity
  8
0
100
AcDbLine
 10
40.0275
 20
143.520388
 30
0.0
 11
40.346737713733
 21
144.205089259906
 31
0.0
  0
LINE
  5
6CF
330
1E
100
AcDbEntity
  8
0
100
AcDbLine
 10
39.3659
 20
143.829388
 30
0.0
 11
40.0275
 21
143.520388
 31
0.0
  0
LINE
  5
6D0
330
1E
100
AcDbEntity
  8
0
100
AcDbLine
 10
38.8817
 20
144.054388
 30
0.0
 11
40.0275
 21
143.520388
 31
0.0
  0
LINE
  5
6D1
330
1E
100
AcDbEntity
  8
0
100
AcDbLine
 10
38.532399999991
 20
144.217553079369
 30
0.0
 11
38.8817
 21
144.054388
 31
0.0
  0
LINE
  5
6D2
330
1E
100
AcDbEntity
  8
0
100
AcDbLine
 10
39.151308828742
 20
143.929406927687
 30
0.0
 11
39.3659
 21
143.829388
 31
0.0
  0
LINE
  5
6D3
330
1E
100
AcDbEntity
  8
0
100
AcDbLine
 10
38.4898
 20
144.237388
 30
0.0
 11
39.1513
 21
143.929388
 31
0.0
  0
LINE
  5
6D4
330
1E
100
AcDbEntity
  8
0
100
AcDbLine
 10
41.2619
 20
143.496388
 30
0.0
 11
42.4079
 21
142.962388
 31
0.0
  0
LINE
  5
6D5
330
1E
100
AcDbEntity
  8
0
100
AcDbLine
 10
41.2619
 20
143.496388
 30
0.0
 11
41.599515253302
 21
144.220505418948
 31
0.0
  0
LINE
  5
6D6
330
1E
100
AcDbEntity
  8
0
100
AcDbLine
 10
41.2619
 20
143.496388
 30
0.0
 11
41.404273593837
 21
143.801750978382
 31
0.0
  0
LINE
  5
6D7
330
1E
100
AcDbEntity
  8
0
100
AcDbLine
 10
42.4079
 20
142.962388
 30
0.0
 11
43.0693
 21
142.653388
 31
0.0
  0
LINE
  5
6D8
330
1E
100
AcDbEntity
  8
0
100
AcDbLine
 10
39.441025763746
 20
144.550522741963
 30
0.0
 11
41.404273593837
 21
143.801750978382
 31
0.0
  0
LINE
  5
6D9
330
1E
100
AcDbEntity
  8
0
100
AcDbLine
 10
42.786383506517
 20
142.785488125688
 30
0.0
 11
46.0903
 21
137.926388
 31
0.0
  0
LINE
  5
6DA
330
1E
100
AcDbEntity
  8
0
100
AcDbLine
 10
43.0693
 20
142.653388
 30
0.0
 11
43.459451594427
 21
143.490185398198
 31
0.0
  0
LINE
  5
6DB
330
1E
100
AcDbEntity
  8
0
100
AcDbLine
 10
42.7466
 20
143.907388
 30
0.0
 11
46.0544
 21
142.365388
 31
0.0
  0
LINE
  5
6DC
330
1E
100
AcDbEntity
  8
0
100
AcDbLine
 10
35.9831
 20
145.406388
 30
0.0
 11
36.318054219225
 21
146.124883030118
 31
0.0
  0
LINE
  5
6DD
330
1E
100
AcDbEntity
  8
0
100
AcDbLine
 10
38.7164
 20
144.683388
 30
0.0
 11
39.139074081655
 21
145.589439621861
 31
0.0
  0
LINE
  5
6DE
330
1E
100
AcDbEntity
  8
0
100
AcDbLine
 10
37.6964
 20
144.607388
 30
0.0
 11
37.829713053828
 21
144.545257461735
 31
0.0
  0
LINE
  5
6DF
330
1E
100
AcDbEntity
  8
0
100
AcDbLine
 10
37.3933
 20
145.300388
 30
0.0
 11
38.7164
 21
144.683388
 31
0.0
  0
LINE
  5
6E0
330
1E
100
AcDbEntity
  8
0
100
AcDbLine
 10
37.3933
 20
145.300388
 30
0.0
 11
37.815935576974
 21
146.206464272453
 31
0.0
  0
LINE
  5
6E1
330
1E
100
AcDbEntity
  8
0
100
AcDbLine
 10
37.3933
 20
145.300388
 30
0.0
 11
37.703742978708
 21
145.965937783978
 31
0.0
  0
LINE
  5
6E2
330
1E
100
AcDbEntity
  8
0
100
AcDbLine
 10
37.0348
 20
144.916388
 30
0.0
 11
38.1807
 21
144.381388
 31
0.0
  0
LINE
  5
6E3
330
1E
100
AcDbEntity
  8
0
100
AcDbLine
 10
37.0348
 20
144.916388
 30
0.0
 11
37.253231423329
 21
145.384935291169
 31
0.0
  0
LINE
  5
6E4
330
1E
100
AcDbEntity
  8
0
100
AcDbLine
 10
37.0348
 20
144.916388
 30
0.0
 11
37.6964
 21
144.607388
 31
0.0
  0
LINE
  5
6E5
330
1E
100
AcDbEntity
  8
0
100
AcDbLine
 10
37.344
 20
144.772388
 30
0.0
 11
38.4898
 21
144.237388
 31
0.0
  0
LINE
  5
6E6
330
1E
100
AcDbEntity
  8
0
100
AcDbLine
 10
37.344
 20
144.772388
 30
0.0
 11
38.0055
 21
144.463388
 31
0.0
  0
LINE
  5
6E7
330
1E
100
AcDbEntity
  8
0
100
AcDbLine
 10
37.0318
 20
145.469388
 30
0.0
 11
37.40562579922
 21
145.326812926866
 31
0.0
  0
LINE
  5
6E8
330
1E
100
AcDbEntity
  8
0
100
AcDbLine
 10
35.188186946205
 20
145.77751853825
 30
0.0
 11
35.9831
 21
145.406388
 31
0.0
  0
LINE
  5
6E9
330
1E
100
AcDbEntity
  8
0
100
AcDbLine
 10
35.188186946205
 20
145.77751853825
 30
0.0
 11
35.9831
 21
145.406388
 31
0.0
  0
LINE
  5
6EA
330
1E
100
AcDbEntity
  8
0
100
AcDbLine
 10
35.3215
 20
145.715388
 30
0.0
 11
35.9831
 21
145.406388
 31
0.0
  0
LINE
  5
6EB
330
1E
100
AcDbEntity
  8
0
100
AcDbLine
 10
36.175385853599
 20
145.818851621125
 30
0.0
 11
37.0318
 21
145.469388
 31
0.0
  0
LINE
  5
6EC
330
1E
100
AcDbEntity
  8
0
100
AcDbLine
 10
38.9097
 20
145.696388
 30
0.0
 11
42.7466
 21
143.907388
 31
0.0
  0
LINE
  5
6ED
330
1E
100
AcDbEntity
  8
0
100
AcDbLine
 10
39.7955
 20
146.386388
 30
0.0
 11
43.6985
 21
144.567388
 31
0.0
  0
LINE
  5
6EE
330
1E
100
AcDbEntity
  8
0
100
AcDbLine
 10
43.6985
 20
144.567388
 30
0.0
 11
47.0062
 21
143.024388
 31
0.0
  0
LINE
  5
6EF
330
1E
100
AcDbEntity
  8
0
100
AcDbLine
 10
34.4774
 20
147.763388
 30
0.0
 11
38.9097
 21
145.696388
 31
0.0
  0
LINE
  5
6F0
330
1E
100
AcDbEntity
  8
0
100
AcDbLine
 10
34.4774
 20
147.763388
 30
0.0
 11
34.809404539288
 21
147.608557915685
 31
0.0
  0
LINE
  5
6F1
330
1E
100
AcDbEntity
  8
0
100
AcDbLine
 10
35.2971
 20
148.484388
 30
0.0
 11
39.7955
 21
146.386388
 31
0.0
  0
LINE
  5
6F2
330
1E
100
AcDbEntity
  8
0
100
AcDbLine
 10
50.3016
 20
135.935388
 30
0.0
 11
50.543
 21
136.926388
 31
0.0
  0
LINE
  5
6F3
330
1E
100
AcDbEntity
  8
0
100
AcDbLine
 10
49.74
 20
135.204388
 30
0.0
 11
50.3016
 21
135.935388
 31
0.0
  0
LINE
  5
6F4
330
1E
100
AcDbEntity
  8
0
100
AcDbLine
 10
49.0755
 20
134.962388
 30
0.0
 11
49.74
 21
135.204388
 31
0.0
  0
LINE
  5
6F5
330
1E
100
AcDbEntity
  8
0
100
AcDbLine
 10
48.1269
 20
135.294388
 30
0.0
 11
49.0755
 21
134.962388
 31
0.0
  0
LINE
  5
6F6
330
1E
100
AcDbEntity
  8
0
100
AcDbLine
 10
47.4381
 20
135.946388
 30
0.0
 11
48.1269
 21
135.294388
 31
0.0
  0
LINE
  5
6F7
330
1E
100
AcDbEntity
  8
0
100
AcDbLine
 10
46.0903
 20
137.926388
 30
0.0
 11
47.4381
 21
135.946388
 31
0.0
  0
LINE
  5
6F8
330
1E
100
AcDbEntity
  8
0
100
AcDbLine
 10
50.278623190457
 20
140.395504486516
 30
0.0
 11
50.543
 21
136.926388
 31
0.0
  0
LINE
  5
6F9
330
1E
100
AcDbEntity
  8
0
100
AcDbLine
 10
48.206
 20
140.258388
 30
0.0
 11
48.594826312405
 21
141.092441601977
 31
0.0
  0
LINE
  5
6FA
330
1E
100
AcDbEntity
  8
0
100
AcDbLine
 10
50.4205
 20
140.329388
 30
0.0
 11
51.5451
 21
139.805388
 31
0.0
  0
LINE
  5
6FB
330
1E
100
AcDbEntity
  8
0
100
AcDbLine
 10
51.5451
 20
139.805388
 30
0.0
 11
52.0082
 21
139.589388
 31
0.0
  0
LINE
  5
6FC
330
1E
100
AcDbEntity
  8
0
100
AcDbLine
 10
52.0082
 20
139.589388
 30
0.0
 11
53.0924
 21
140.186388
 31
0.0
  0
LINE
  5
6FD
330
1E
100
AcDbEntity
  8
0
100
AcDbLine
 10
46.43855642782
 20
141.082723546188
 30
0.0
 11
47.0601
 21
140.792388
 31
0.0
  0
LINE
  5
6FE
330
1E
100
AcDbEntity
  8
0
100
AcDbLine
 10
47.0601
 20
140.792388
 30
0.0
 11
48.206
 21
140.258388
 31
0.0
  0
LINE
  5
6FF
330
1E
100
AcDbEntity
  8
0
100
AcDbLine
 10
47.5445
 20
140.567388
 30
0.0
 11
48.206
 21
140.258388
 31
0.0
  0
LINE
  5
700
330
1E
100
AcDbEntity
  8
0
100
AcDbLine
 10
45.627199999981
 20
141.46115567325
 30
0.0
 11
46.4384
 21
141.082388
 31
0.0
  0
LINE
  5
701
330
1E
100
AcDbEntity
  8
0
100
AcDbLine
 10
45.627199999981
 20
141.46115567325
 30
0.0
 11
46.4384
 21
141.082388
 31
0.0
  0
LINE
  5
702
330
1E
100
AcDbEntity
  8
0
100
AcDbLine
 10
45.7769
 20
141.391388
 30
0.0
 11
46.4384
 21
141.082388
 31
0.0
  0
LINE
  5
703
330
1E
100
AcDbEntity
  8
0
100
AcDbLine
 10
48.5021
 20
141.223388
 30
0.0
 11
50.4205
 21
140.329388
 31
0.0
  0
LINE
  5
704
330
1E
100
AcDbEntity
  8
0
100
AcDbLine
 10
44.6311
 20
141.925388
 30
0.0
 11
45.7769
 21
141.391388
 31
0.0
  0
LINE
  5
705
330
1E
100
AcDbEntity
  8
0
100
AcDbLine
 10
44.6311
 20
141.925388
 30
0.0
 11
44.992867112133
 21
142.701398144696
 31
0.0
  0
LINE
  5
706
330
1E
100
AcDbEntity
  8
0
100
AcDbLine
 10
46.7159
 20
142.056388
 30
0.0
 11
48.5021
 21
141.223388
 31
0.0
  0
LINE
  5
707
330
1E
100
AcDbEntity
  8
0
100
AcDbLine
 10
44.87883382344
 20
142.913402705924
 30
0.0
 11
46.7159
 21
142.056388
 31
0.0
  0
LINE
  5
708
330
1E
100
AcDbEntity
  8
0
100
AcDbLine
 10
44.878833823441
 20
142.913402705924
 30
0.0
 11
46.7159
 21
142.056388
 31
0.0
  0
LINE
  5
709
330
1E
100
AcDbEntity
  8
0
100
AcDbLine
 10
49.05099294193
 20
142.07094384917
 30
0.0
 11
49.5862
 21
141.821388
 31
0.0
  0
LINE
  5
70A
330
1E
100
AcDbEntity
  8
0
100
AcDbLine
 10
47.0062
 20
143.024388
 30
0.0
 11
49.5862
 21
141.821388
 31
0.0
  0
LINE
  5
70B
330
1E
100
AcDbEntity
  8
0
100
AcDbLine
 10
49.5862
 20
141.821388
 30
0.0
 11
51.4385
 21
140.958388
 31
0.0
  0
LINE
  5
70C
330
1E
100
AcDbEntity
  8
0
100
AcDbLine
 10
51.4385
 20
140.958388
 30
0.0
 11
52.6293
 21
140.402388
 31
0.0
  0
LINE
  5
70D
330
1E
100
AcDbEntity
  8
0
100
AcDbLine
 10
52.6293
 20
140.402388
 30
0.0
 11
53.0924
 21
140.186388
 31
0.0
  0
LINE
  5
70E
330
1E
100
AcDbEntity
  8
0
100
AcDbLine
 10
53.299159564881
 20
140.629796991366
 30
0.0
 11
63.302065187382
 21
128.585890918983
 31
0.0
  0
LINE
  5
70F
330
1E
100
AcDbEntity
  8
0
100
AcDbLine
 10
61.329660048768
 20
157.934292245797
 30
0.0
 11
74.551008615507
 21
142.05461786486
 31
0.0
  0
LINE
  5
710
330
1E
100
AcDbEntity
  8
0
100
AcDbLine
 10
61.354342418702
 20
157.904647161144
 30
0.0
 11
61.9674
 21
159.219388
 31
0.0
  0
LINE
  5
711
330
1E
100
AcDbEntity
  8
0
100
AcDbLine
 10
53.0924
 20
140.186388
 30
0.0
 11
53.302444603247
 21
140.63684196435
 31
0.0
  0
LINE
  5
713
330
1E
100
AcDbEntity
  8
0
100
AcDbLine
 10
78.494308446949
 20
105.165997973508
 30
0.0
 11
121.9482
 21
53.387288
 31
0.0
  0
LINE
  5
716
330
1E
100
AcDbEntity
  8
0
100
AcDbLine
 10
74.551008615507
 20
142.05461786486
 30
0.0
 11
75.3402
 21
143.819388
 31
0.0
  0
LINE
  5
717
330
1E
100
AcDbEntity
  8
0
100
AcDbLine
 10
74.551008615507
 20
142.05461786486
 30
0.0
 11
75.3402
 21
143.819388
 31
0.0
  0
LINE
  5
718
330
1E
100
AcDbEntity
  8
0
100
AcDbLine
 10
75.3402
 20
143.819388
 30
0.0
 11
75.8522
 21
144.967388
 31
0.0
  0
LINE
  5
719
330
1E
100
AcDbEntity
  8
0
100
AcDbLine
 10
75.8522
 20
144.967388
 30
0.0
 11
76.0492
 21
145.408388
 31
0.0
  0
LINE
  5
71A
330
1E
100
AcDbEntity
  8
0
100
AcDbLine
 10
61.7284
 20
160.433388
 30
0.0
 11
61.9674
 21
159.219388
 31
0.0
  0
LINE
  5
71B
330
1E
100
AcDbEntity
  8
0
100
AcDbLine
 10
48.63
 20
166.541388
 30
0.0
 11
52.4668
 21
164.753388
 31
0.0
  0
LINE
  5
71C
330
1E
100
AcDbEntity
  8
0
100
AcDbLine
 10
52.4668
 20
164.753388
 30
0.0
 11
55.7746
 21
163.210388
 31
0.0
  0
LINE
  5
71D
330
1E
100
AcDbEntity
  8
0
100
AcDbLine
 10
55.7746
 20
163.210388
 30
0.0
 11
58.2223
 21
162.068388
 31
0.0
  0
LINE
  5
71E
330
1E
100
AcDbEntity
  8
0
100
AcDbLine
 10
58.2223
 20
162.068388
 30
0.0
 11
60.1408
 21
161.174388
 31
0.0
  0
LINE
  5
71F
330
1E
100
AcDbEntity
  8
0
100
AcDbLine
 10
60.1408
 20
161.174388
 30
0.0
 11
61.2653
 21
160.650388
 31
0.0
  0
LINE
  5
720
330
1E
100
AcDbEntity
  8
0
100
AcDbLine
 10
61.2653
 20
160.650388
 30
0.0
 11
61.7284
 21
160.433388
 31
0.0
  0
LINE
  5
721
330
1E
100
AcDbEntity
  8
0
100
AcDbLine
 10
44.1976
 20
168.609388
 30
0.0
 11
48.63
 21
166.541388
 31
0.0
  0
LINE
  5
722
330
1E
100
AcDbEntity
  8
0
100
AcDbLine
 10
39.3023
 20
170.891388
 30
0.0
 11
44.1976
 21
168.609388
 31
0.0
  0
LINE
  5
723
330
1E
100
AcDbEntity
  8
0
100
AcDbLine
 10
34.1423
 20
173.297388
 30
0.0
 11
39.3023
 21
170.891388
 31
0.0
  0
LINE
  5
724
330
1E
100
AcDbEntity
  8
0
100
AcDbLine
 10
28.3207
 20
176.012388
 30
0.0
 11
34.1423
 21
173.297388
 31
0.0
  0
LINE
  5
725
330
1E
100
AcDbEntity
  8
0
100
AcDbLine
 10
22.83
 20
178.572388
 30
0.0
 11
28.3207
 21
176.012388
 31
0.0
  0
LINE
  5
726
330
1E
100
AcDbEntity
  8
0
100
AcDbLine
 10
17.92
 20
183.068388
 30
0.0
 11
61.7284
 21
160.433388
 31
0.0
  0
LINE
  5
727
330
1E
100
AcDbEntity
  8
0
100
AcDbLine
 10
17.0747
 20
181.256388
 30
0.0
 11
22.83
 21
178.572388
 31
0.0
  0
LINE
  5
728
330
1E
100
AcDbEntity
  8
0
100
AcDbLine
 10
-14.4808
 20
195.971388
 30
0.0
 11
-10.0489
 21
193.904388
 31
0.0
  0
LINE
  5
729
330
1E
100
AcDbEntity
  8
0
100
AcDbLine
 10
-10.0489
 20
193.904388
 30
0.0
 11
-5.1533
 21
191.621388
 31
0.0
  0
LINE
  5
72A
330
1E
100
AcDbEntity
  8
0
100
AcDbLine
 10
-5.1533
 20
191.621388
 30
0.0
 11
0.0071
 21
189.215388
 31
0.0
  0
LINE
  5
72B
330
1E
100
AcDbEntity
  8
0
100
AcDbLine
 10
0.0071
 20
189.215388
 30
0.0
 11
5.8288
 21
186.501388
 31
0.0
  0
LINE
  5
72C
330
1E
100
AcDbEntity
  8
0
100
AcDbLine
 10
5.8288
 20
186.501388
 30
0.0
 11
11.3189
 21
183.939388
 31
0.0
  0
LINE
  5
72D
330
1E
100
AcDbEntity
  8
0
100
AcDbLine
 10
11.3189
 20
183.939388
 30
0.0
 11
17.0747
 21
181.256388
 31
0.0
  0
LINE
  5
72E
330
1E
100
AcDbEntity
  8
0
100
AcDbLine
 10
-18.3174
 20
197.760388
 30
0.0
 11
-14.4808
 21
195.971388
 31
0.0
  0
LINE
  5
72F
330
1E
100
AcDbEntity
  8
0
100
AcDbLine
 10
-21.6254
 20
199.303388
 30
0.0
 11
-18.3174
 21
197.760388
 31
0.0
  0
LINE
  5
730
330
1E
100
AcDbEntity
  8
0
100
AcDbLine
 10
-24.07319
 20
200.444388
 30
0.0
 11
-21.6254
 21
199.303388
 31
0.0
  0
LINE
  5
731
330
1E
100
AcDbEntity
  8
0
100
AcDbLine
 10
-25.99142
 20
201.338388
 30
0.0
 11
-24.07319
 21
200.444388
 31
0.0
  0
LINE
  5
732
330
1E
100
AcDbEntity
  8
0
100
AcDbLine
 10
-27.11646
 20
201.863388
 30
0.0
 11
-25.99142
 21
201.338388
 31
0.0
  0
LINE
  5
733
330
1E
100
AcDbEntity
  8
0
100
AcDbLine
 10
-27.579
 20
202.078388
 30
0.0
 11
-27.11646
 21
201.863388
 31
0.0
  0
LINE
  5
734
330
1E
100
AcDbEntity
  8
0
100
AcDbLine
 10
-27.579
 20
202.078388
 30
0.0
 11
17.92
 21
183.068388
 31
0.0
  0
LINE
  5
735
330
1E
100
AcDbEntity
  8
0
100
AcDbLine
 10
-27.579
 20
202.078388
 30
0.0
 11
17.92
 21
183.068388
 31
0.0
  0
LINE
  5
753
330
1E
100
AcDbEntity
  8
0
100
AcDbLine
 10
143.5022
 20
70.588588
 30
0.0
 11
143.7812
 21
70.845388
 31
0.0
  0
LINE
  5
75E
330
1E
100
AcDbEntity
  8
0
100
AcDbLine
 10
122.4232
 20
52.912888
 30
0.0
 11
137.715788653744
 21
65.66115144926
 31
0.0
  0
LINE
  5
75F
330
1E
100
AcDbEntity
  8
0
100
AcDbLine
 10
138.0222
 20
65.914088
 30
0.0
 11
140.227513101317
 21
67.816481027107
 31
0.0
  0
LINE
  5
760
330
1E
100
AcDbEntity
  8
0
100
AcDbLine
 10
140.227513101317
 20
67.816481027107
 30
0.0
 11
143.5022
 21
70.588588
 31
0.0
  0
LINE
  5
761
330
1E
100
AcDbEntity
  8
0
100
AcDbLine
 10
133.4572
 20
35.316788
 30
0.0
 11
145.695612028319
 21
45.586357727681
 31
0.0
  0
LINE
  5
763
330
1E
100
AcDbEntity
  8
0
100
AcDbLine
 10
145.7782
 20
44.4271
 30
0.0
 11
133.9612
 21
34.696088
 31
0.0
  0
LINE
  5
764
330
1E
100
AcDbEntity
  8
0
100
AcDbLine
 10
133.9612
 20
34.696088
 30
0.0
 11
133.4572
 21
35.316788
 31
0.0
  0
LINE
  5
765
330
1E
100
AcDbEntity
  8
0
100
AcDbLine
 10
74.551008615507
 20
142.05461786486
 30
0.0
 11
70.154290823879
 21
132.215303685067
 31
0.0
  0
LINE
  5
766
330
1E
100
AcDbEntity
  8
0
100
AcDbLine
 10
61.354342418702
 20
157.904647161144
 30
0.0
 11
53.302444603247
 21
140.63684196435
 31
0.0
  0
LINE
  5
767
330
1E
100
AcDbEntity
  8
0
100
AcDbLine
 10
107.9092
 20
108.596
 30
0.0
 11
140.2792
 21
68.868888
 31
0.0
  0
LINE
  5
768
330
1E
100
AcDbEntity
  8
0
100
AcDbLine
 10
76.0492
 20
145.408388
 30
0.0
 11
83.377074769859
 21
136.676146509301
 31
0.0
  0
ENDSEC
  0
SECTION
  2
OBJECTS
  0
DICTIONARY
  5
C
330
0
100
AcDbDictionary
281
     1
  3
ACAD_GROUP
350
D
  3
ACAD_LAYOUT
350
19
  3
ACAD_MLEADERSTYLE
350
76B
  3
ACAD_MLINESTYLE
350
16
  3
ACAD_PLOTSETTINGS
350
18
  3
ACAD_PLOTSTYLENAME
350
E
  3
ACAD_SCALELIST
350
2F0
  3
AcDbVariableDictionary
350
2ED
  3
DWGPROPS
350
76E
  0
DICTIONARY
  5
D
102
{ACAD_REACTORS
330
C
102
}
330
C
100
AcDbDictionary
281
     1
  0
DICTIONARY
  5
19
102
{ACAD_REACTORS
330
C
102
}
330
C
100
AcDbDictionary
281
     1
  3
Layout1
350
1D
  3
Model
350
21
  0
DICTIONARY
  5
76B
102
{ACAD_REACTORS
330
C
102
}
330
C
100
AcDbDictionary
281
     1
  0
DICTIONARY
  5
16
102
{ACAD_REACTORS
330
C
102
}
330
C
100
AcDbDictionary
281
     1
  3
Standard
350
17
  0
DICTIONARY
  5
18
102
{ACAD_REACTORS
330
C
102
}
330
C
100
AcDbDictionary
281
     1
  0
ACDBDICTIONARYWDFLT
  5
E
102
{ACAD_REACTORS
330
C
102
}
330
C
100
AcDbDictionary
281
     1
  3
Normal
350
F
100
AcDbDictionaryWithDefault
340
F
  0
DICTIONARY
  5
2F0
102
{ACAD_REACTORS
330
C
102
}
330
C
100
AcDbDictionary
281
     1
  3
A0
350
2F1
  3
A1
350
2F2
  3
A2
350
2F3
  3
A3
350
2F4
  3
A4
350
2F5
  3
A5
350
2F6
  3
A6
350
2F7
  3
A7
350
2F8
  3
A8
350
2F9
  3
A9
350
2FA
  3
B0
350
2FB
  3
B1
350
2FC
  3
B2
350
2FD
  3
B3
350
2FE
  3
B4
350
2FF
  3
B5
350
300
  3
B6
350
301
  3
B7
350
302
  3
B8
350
303
  3
B9
350
304
  3
C0
350
305
  3
C1
350
306
  3
C2
350
307
  3
C3
350
308
  3
C4
350
309
  3
C5
350
30A
  3
C6
350
30B
  3
C7
350
30C
  3
C8
350
30D
  3
C9
350
30E
  3
D0
350
30F
  3
D1
350
310
  3
D2
350
311
  0
DICTIONARY
  5
2ED
102
{ACAD_REACTORS
330
C
102
}
330
C
100
AcDbDictionary
281
     1
  3
CANNOSCALE
350
76C
  3
DIMASSOC
350
2EE
  0
XRECORD
  5
76E
102
{ACAD_REACTORS
330
C
102
}
330
C
100
AcDbXrecord
280
     1
  1
DWGPROPS COOKIE
  2

  3

  4

  6

  7

  8
MARTIN
  9

300
=
301
=
302
=
303
=
304
=
305
=
306
=
307
=
308
=
309
=
 40
0.0
 41
2454691.610737118
 42
2456209.648616354
  1

 90
        0
  0
LAYOUT
  5
1D
102
{ACAD_REACTORS
330
19
102
}
330
19
100
AcDbPlotSettings
  1

  2
hp deskjet 980c series
  4

  6

 40
0.0
 41
0.0
 42
0.0
 43
0.0
 44
0.0
 45
0.0
 46
0.0
 47
0.0
 48
0.0
 49
0.0
140
0.0
141
0.0
142
1.0
143
1.0
 70
   688
 72
     0
 73
     0
 74
     5
  7

 75
    16
147
1.0
148
0.0
149
0.0
100
AcDbLayout
  1
Layout1
 70
     1
 71
     1
 10
0.0
 20
0.0
 11
12.0
 21
9.0
 12
0.0
 22
0.0
 32
0.0
 14
1.000000000000E+20
 24
1.000000000000E+20
 34
1.000000000000E+20
 15
-1.000000000000E+20
 25
-1.000000000000E+20
 35
-1.000000000000E+20
146
0.0
 13
0.0
 23
0.0
 33
0.0
 16
1.0
 26
0.0
 36
0.0
 17
0.0
 27
1.0
 37
0.0
 76
     0
330
1A
  0
LAYOUT
  5
21
102
{ACAD_REACTORS
330
19
102
}
330
19
100
AcDbPlotSettings
  1

  2
hp deskjet 980c series
  4

  6

 40
0.0
 41
0.0
 42
0.0
 43
0.0
 44
0.0
 45
0.0
 46
0.0
 47
0.0
 48
0.0
 49
0.0
140
0.0
141
0.0
142
1.0
143
1.0
 70
  1712
 72
     0
 73
     0
 74
     0
  7

 75
     0
147
1.0
148
0.0
149
0.0
100
AcDbLayout
  1
Model
 70
     1
 71
     0
 10
0.0
 20
0.0
 11
12.0
 21
9.0
 12
0.0
 22
0.0
 32
0.0
 14
-37.5381
 24
0.148
 34
0.0
 15
212.1722
 25
202.078388
 35
0.0
146
0.0
 13
0.0
 23
0.0
 33
0.0
 16
1.0
 26
0.0
 36
0.0
 17
0.0
 27
1.0
 37
0.0
 76
     0
330
1E
331
2EF
  0
MLINESTYLE
  5
17
102
{ACAD_REACTORS
330
16
102
}
330
16
100
AcDbMlineStyle
  2
STANDARD
 70
     0
  3

 62
   256
 51
90.0
 52
90.0
 71
     2
 49
0.5
 62
   256
  6
BYLAYER
 49
-0.5
 62
   256
  6
BYLAYER
  0
ACDBPLACEHOLDER
  5
F
102
{ACAD_REACTORS
330
E
102
}
330
E
  0
SCALE
  5
2F1
102
{ACAD_REACTORS
330
2F0
102
}
330
2F0
100
AcDbScale
 70
     0
300
1:1
140
1.0
141
1.0
290
     1
  0
SCALE
  5
2F2
102
{ACAD_REACTORS
330
2F0
102
}
330
2F0
100
AcDbScale
 70
     0
300
1:2
140
1.0
141
2.0
290
     0
  0
SCALE
  5
2F3
102
{ACAD_REACTORS
330
2F0
102
}
330
2F0
100
AcDbScale
 70
     0
300
1:4
140
1.0
141
4.0
290
     0
  0
SCALE
  5
2F4
102
{ACAD_REACTORS
330
2F0
102
}
330
2F0
100
AcDbScale
 70
     0
300
1:5
140
1.0
141
5.0
290
     0
  0
SCALE
  5
2F5
102
{ACAD_REACTORS
330
2F0
102
}
330
2F0
100
AcDbScale
 70
     0
300
1:8
140
1.0
141
8.0
290
     0
  0
SCALE
  5
2F6
102
{ACAD_REACTORS
330
2F0
102
}
330
2F0
100
AcDbScale
 70
     0
300
1:10
140
1.0
141
10.0
290
     0
  0
SCALE
  5
2F7
102
{ACAD_REACTORS
330
2F0
102
}
330
2F0
100
AcDbScale
 70
     0
300
1:16
140
1.0
141
16.0
290
     0
  0
SCALE
  5
2F8
102
{ACAD_REACTORS
330
2F0
102
}
330
2F0
100
AcDbScale
 70
     0
300
1:20
140
1.0
141
20.0
290
     0
  0
SCALE
  5
2F9
102
{ACAD_REACTORS
330
2F0
102
}
330
2F0
100
AcDbScale
 70
     0
300
1:30
140
1.0
141
30.0
290
     0
  0
SCALE
  5
2FA
102
{ACAD_REACTORS
330
2F0
102
}
330
2F0
100
AcDbScale
 70
     0
300
1:40
140
1.0
141
40.0
290
     0
  0
SCALE
  5
2FB
102
{ACAD_REACTORS
330
2F0
102
}
330
2F0
100
AcDbScale
 70
     0
300
1:50
140
1.0
141
50.0
290
     0
  0
SCALE
  5
2FC
102
{ACAD_REACTORS
330
2F0
102
}
330
2F0
100
AcDbScale
 70
     0
300
1:100
140
1.0
141
100.0
290
     0
  0
SCALE
  5
2FD
102
{ACAD_REACTORS
330
2F0
102
}
330
2F0
100
AcDbScale
 70
     0
300
2:1
140
2.0
141
1.0
290
     0
  0
SCALE
  5
2FE
102
{ACAD_REACTORS
330
2F0
102
}
330
2F0
100
AcDbScale
 70
     0
300
4:1
140
4.0
141
1.0
290
     0
  0
SCALE
  5
2FF
102
{ACAD_REACTORS
330
2F0
102
}
330
2F0
100
AcDbScale
 70
     0
300
8:1
140
8.0
141
1.0
290
     0
  0
SCALE
  5
300
102
{ACAD_REACTORS
330
2F0
102
}
330
2F0
100
AcDbScale
 70
     0
300
10:1
140
10.0
141
1.0
290
     0
  0
SCALE
  5
301
102
{ACAD_REACTORS
330
2F0
102
}
330
2F0
100
AcDbScale
 70
     0
300
100:1
140
100.0
141
1.0
290
     0
  0
SCALE
  5
302
102
{ACAD_REACTORS
330
2F0
102
}
330
2F0
100
AcDbScale
 70
     0
300
1/128" = 1'-0"
140
0.0078125
141
12.0
290
     0
  0
SCALE
  5
303
102
{ACAD_REACTORS
330
2F0
102
}
330
2F0
100
AcDbScale
 70
     0
300
1/64" = 1'-0"
140
0.015625
141
12.0
290
     0
  0
SCALE
  5
304
102
{ACAD_REACTORS
330
2F0
102
}
330
2F0
100
AcDbScale
 70
     0
300
1/32" = 1'-0"
140
0.03125
141
12.0
290
     0
  0
SCALE
  5
305
102
{ACAD_REACTORS
330
2F0
102
}
330
2F0
100
AcDbScale
 70
     0
300
1/16" = 1'-0"
140
0.0625
141
12.0
290
     0
  0
SCALE
  5
306
102
{ACAD_REACTORS
330
2F0
102
}
330
2F0
100
AcDbScale
 70
     0
300
3/32" = 1'-0"
140
0.09375
141
12.0
290
     0
  0
SCALE
  5
307
102
{ACAD_REACTORS
330
2F0
102
}
330
2F0
100
AcDbScale
 70
     0
300
1/8" = 1'-0"
140
0.125
141
12.0
290
     0
  0
SCALE
  5
308
102
{ACAD_REACTORS
330
2F0
102
}
330
2F0
100
AcDbScale
 70
     0
300
3/16" = 1'-0"
140
0.1875
141
12.0
290
     0
  0
SCALE
  5
309
102
{ACAD_REACTORS
330
2F0
102
}
330
2F0
100
AcDbScale
 70
     0
300
1/4" = 1'-0"
140
0.25
141
12.0
290
     0
  0
SCALE
  5
30A
102
{ACAD_REACTORS
330
2F0
102
}
330
2F0
100
AcDbScale
 70
     0
300
3/8" = 1'-0"
140
0.375
141
12.0
290
     0
  0
SCALE
  5
30B
102
{ACAD_REACTORS
330
2F0
102
}
330
2F0
100
AcDbScale
 70
     0
300
1/2" = 1'-0"
140
0.5
141
12.0
290
     0
  0
SCALE
  5
30C
102
{ACAD_REACTORS
330
2F0
102
}
330
2F0
100
AcDbScale
 70
     0
300
3/4" = 1'-0"
140
0.75
141
12.0
290
     0
  0
SCALE
  5
30D
102
{ACAD_REACTORS
330
2F0
102
}
330
2F0
100
AcDbScale
 70
     0
300
1" = 1'-0"
140
1.0
141
12.0
290
     0
  0
SCALE
  5
30E
102
{ACAD_REACTORS
330
2F0
102
}
330
2F0
100
AcDbScale
 70
     0
300
1-1/2" = 1'-0"
140
1.5
141
12.0
290
     0
  0
SCALE
  5
30F
102
{ACAD_REACTORS
330
2F0
102
}
330
2F0
100
AcDbScale
 70
     0
300
3" = 1'-0"
140
3.0
141
12.0
290
     0
  0
SCALE
  5
310
102
{ACAD_REACTORS
330
2F0
102
}
330
2F0
100
AcDbScale
 70
     0
300
6" = 1'-0"
140
6.0
141
12.0
290
     0
  0
SCALE
  5
311
102
{ACAD_REACTORS
330
2F0
102
}
330
2F0
100
AcDbScale
 70
     0
300
1'-0" = 1'-0"
140
12.0
141
12.0
290
     0
  0
DICTIONARYVAR
  5
76C
102
{ACAD_REACTORS
330
2ED
102
}
330
2ED
100
DictionaryVariables
280
     0
  1
1:1
  0
DICTIONARYVAR
  5
2EE
102
{ACAD_REACTORS
330
2ED
102
}
330
2ED
100
DictionaryVariables
280
     0
  1
1
  0
ENDSEC
  0
SECTION
  2
THUMBNAILIMAGE
 90
    16364
310
28000000B40000005500000001000800000000000000000000000000000000000000000000000000FFFFFF000000FF0000FFFF0000FF0000FFFF0000FF000000FF00FF000000000080808000C0C0C0000000FF007F7FFF000000A5005252A50000007F003F3F7F0000004C0026264C000000260013132600003FFF007F9FFF
310
000029A5005267A500001F7F003F4F7F0000134C00262F4C000009260013172600007FFF007FBFFF000052A500527CA500003F7F003F5F7F0000264C0026394C0000132600131C260000BFFF007FDFFF00007CA5005291A500005F7F003F6F7F0000394C0026424C00001C26001321260000FFFF007FFFFF0000A5A50052A5
310
A500007F7F003F7F7F00004C4C00264C4C00002626001326260000FFBF007FFFDF0000A57C0052A59100007F5F003F7F6F00004C3900264C420000261C001326210000FF7F007FFFBF0000A5520052A57C00007F3F003F7F5F00004C2600264C39000026130013261C0000FF3F007FFF9F0000A5290052A56700007F1F003F
310
7F4F00004C1300264C2F00002609001326170000FF00007FFF7F0000A5000052A55200007F00003F7F3F00004C0000264C260000260000132613003FFF00009FFF7F0029A5000067A552001F7F00004F7F3F00134C00002F4C260009260000172613007FFF0000BFFF7F0052A500007CA552003F7F00005F7F3F00264C0000
310
394C2600132600001C261300BFFF0000DFFF7F007CA5000091A552005F7F00006F7F3F00394C0000424C26001C26000021261300FFFF0000FFFF7F00A5A50000A5A552007F7F00007F7F3F004C4C00004C4C26002626000026261300FFBF0000FFDF7F00A57C0000A59152007F5F00007F6F3F004C3900004C422600261C00
310
0026211300FF7F0000FFBF7F00A5520000A57C52007F3F00007F5F3F004C2600004C39260026130000261C1300FF3F0000FF9F7F00A5290000A56752007F1F00007F4F3F004C1300004C2F26002609000026171300FF000000FF7F7F00A5000000A55252007F0000007F3F3F004C0000004C2626002600000026131300FF00
310
3F00FF7F9F00A5002900A55267007F001F007F3F4F004C0013004C262F002600090026131700FF007F00FF7FBF00A5005200A5527C007F003F007F3F5F004C0026004C2639002600130026131C00FF00BF00FF7FDF00A5007C00A55291007F005F007F3F6F004C0039004C26420026001C0026132100FF00FF00FF7FFF00A5
310
00A500A552A5007F007F007F3F7F004C004C004C264C002600260026132600BF00FF00DF7FFF007C00A5009152A5005F007F006F3F7F0039004C0042264C001C002600211326007F00FF00BF7FFF005200A5007C52A5003F007F005F3F7F0026004C0039264C00130026001C1326003F00FF009F7FFF002900A5006752A500
310
1F007F004F3F7F0013004C002F264C000900260017132600000000002D2D2D005B5B5B0089898900B7B7B700B3B3B30000000000000000000000000000000000000000000000000000000000000000000000000000000000000000000000000000000000000000000000000000000000000000000000000000000000000000
310
00000000000000000000000000000000000000000000000000000000000000000000000000000000000000000000000000000000000000000000000000000000000000000000000000000000000000000000000000000000000000000000000000000000000000000000000000000000000000000000000000000000000000
310
00000000000000000000000000000000000000000000000000000000000000000000000000000000000000000000000000000000000000000000000000000000000000000000000000000000000000000000000000000000000000000000000000000000000000000000000000000000000000000000000000000000000000
310
00000000000000000000000000000000000000000000000000000000000000000000000000000000000000000000000000000000000000000000000000000000000000000000000000000000000000000000000000000000000000000000000000000000000000000000000000000000000000000000000000000000000000
310
00000000000000000000000000000000000000000000000000000000000000000000000000000000000000000000000000000000000000000000000000000000000000000000000000000000000000000000000000000000000000000000000000000000000000000000000000000000000000000000000000000000000000
310
00000000000000000000000000000000000000000000000000000000000000000000000000000000000000000000000000000000000000000000000000000000070707070707070707070707070707070707070707070707070707070000000000000000000000000000000000000000000000000000000000000000000000
310
00000000000000000000000000000000000000000000000000000000000000000000000000000000000000000000000000000000000000000000000000000000000000000000000000000000000000000000000000000000000000000000000000000000000000000000000000000000000000000007000000000000000000
310
00000000000000000000000000000000000700000000000000000000000000000000000000000000000000000000000000000000000000000000000000000000000000000000000000000000000000000000000000000000000000000000000000000000000000000000000000000000000000000000000000000000000000
310
00000000000000000000000000000000000000000000000000000000000000000000000000000000000000070707070707070707070707070707070707070707070707070707070000000000000000000000000000000000000000000000000000000000000000000000000000000000000000000000000000000000000000
310
00000000000000000000000000000000000000000000000000000000000000000000000000000000000000000000000000000000000000000000000000000000000000000000000000000000000000000000000000000000000000000000000007070707070707070707070707070707070707070707070707070707000000
310
00000000000000000000000000000000000000000000000000000000000000000000000000000000000000000000000000000000000000000000000000000000000000000000000000000000000000000000000000000000000000000000000000000000000000000000000000000000000000000000000000000000000000
310
00000000000000000000000000000000000000000000000700000000000000000000000000000000000000000000000007000000000000000000000000000000000000000000000000000000000000000000000000000000000000000000000000000000000000000000000000000000000000000000000000000000000000
310
00000000000000000000000000000000000000000000000000000000000000000000000000000000000000000000000000000000000000000000000000000000000000000000000000000000070000000000000000000000000000000000000000000000000700000000000000000000000000000000000000000000000000
310
00000000000000000000000000000000000000000000000000000000000000000000000000000000000000000000000000000000000000000000000000000000000000000000000000000000000000000000000000000000000000000000000000000000000000000000000000000000000000000000000000000000000000
310
00000700000000000000000000000000000000000000000000000007000000000000000000000000000000000000000000000000000000000000000000000000000000000000000000000000000000000000000000000000000000000000000000000000000000000000000000000000000000000000000000000000000000
310
00000000000000000000000000000000000000000000000000000000000000000000000000000000000000000000000000000000000000070000000000000000000000000000000000000000000000000700000000000000000000000000000000000000000000000000000000000000000000000000000000000000000000
310
00000000000000000000000000000000000000000000000000000000000000000000000000000000000000000000000000000000000000000000000000000000000000000000000000000000000000000000000000000000000000000000000000000000000000000000000007000000000000000000000000000000000000
310
00000000000007000000000000000000000000000000000000000000000000000000000000000000000000000000000000000000000000000000000000000000000000000000000000000000000000000000000000000000000000000000000000000000000000000000000000000000000000000000000000000000000000
310
00000000000000000000000000000000000000000000000000000000000000000007070000000000000000000000000000000000000000000000070000000000000000000000000000000000000000000000000000000000000000000000000000000000000000000000000000000000000000000000000000000000000000
310
00000000000000000000000000000000000000000000000000000000000000000000000000000000000000000000000000000000000000000000000000000000000000000000000000000000000000000000000000070000000000000000000000000000000000000000000000000007000000000000000000000000000000
310
00000000000000000000000000000000000000000000000000000000000000000000000000000000000000000000000000000000000000000000000000000000000000000000000000000000000000000000000000000000000000000000000000000000000000000000000000000000000000000000000000000000000000
310
00000000000000000000000700070000000000000000000000000000000000000000000000070000000000000000000000000000000000000000000000000000000000000000000000000000000000000000000000000000000000000000000000000000000000000000000000000000000000000000000000000000000000
310
00000000000000000000000000000000000000000000000000000000000000000000000000000000000000000000000000000000000000000000000000000007000007000000000000000000000000000000000000000000000007000000000000000000000000000000000000000000000000000000000000000000000000
310
00000000000000000000000000000000000000000000000000000000000000000000000000000000000000000000000000000000000000000000000000000000000000000000000000000000000000000000000000000000000000000000000000000000000000000000000000000000000000070000000700000000000000
310
00000000000000000000000000000000070000000000000000000000000000000000000000000000000000000000000000000000000000000000000000000000000000000000000000000000000000000000000000000000000000000000000000000000000000000000000000000000000000000000000000000000000000
310
00000000000000000000000000000000000000000000000000000000000000000000000000000000070007000007000000000000000000000000000000000000000000000007000000000000000000000000000000000000000000000000000000000000000000000000000000000000000000000000000000000000000000
310
00000000000000000000000000000000000000000000000000000000000000000000000000000000000000000000000000000000000000000000000000000000000000000000000000000000000000000000000000000000000000000700000007000700000000000000000000000000000000000000000000000700000000
310
00000000000000000000000000000000000000000000000000000000000000000000000000000000000000000000000000000000000000000000000000000000000000000000000000000000000000000000000000000000000000000000000000000000000000000000000000000000000000000000000000000000000000
310
00000000000000000000000000000000000700000000000707000000000000000000000000000000000000000000000007000000000000000000000000000000000000000000000000000000000000000000000000000000000000000000000000000000000000000000000000000000000000000000000000000000000000
310
00000000000000000000000000000000000000000000000000000000000000000000000000000000000000000000000000000000000000000000000000000000000000000000070000000000000700000000000000000000000000000000000000000000000700000000000000000000000000000000000000000000000000
310
00000000000000000000000000000000000000000000000000000000000000000000000000000000000000000000000000000000000000000000000000000000000000000000000000000000000000000000000000000000000000000000000000000000000000000000000000000000000000000000000000000700000000
310
00000007000000000000000000000000000000000000000000000700000000000000000000000000000000000000000000000000000000000000000000000000000000000000000000000000000000000000000000000000000000000000000000000000000000000000000000000000000000000000000000000000000000
310
00000000000000000000000000000000000000000000000000000000000000000000000000000000000000000000000700000000000000000700000000000000000000000000000000000000000000070707000000000000000000000000000000000000000000000000000000000000000000000000000000000000000000
310
00000000000000000000000000000000000000000000000000000000000000000000000000000000000000000000000000000000000000000000000000000000000000000000000000000000000000000000000000000000000000000000000000000000070000000000000000070000000000000000000000000000000000
310
00000000000707070000000000000000000000000000000000000000000000000000000000000000000000000000000000000000000000000000000000000000000000000000000000000000000000000000000000000000000000000000000000000000000000000000000000000000000000000000000000000000000000
310
00000000000000000000000000000000000000000000000000070007000000000000000700000000000000000000000000000000000000000000070000000000000000000000000000000000000000000000000000000000000000000000000000000000000000000000000000000000000000000000000000000000000000
310
00000000000000000000000000000000000000000000000000000000000000000000000000000000000000000000000000000000000000000000000000000000000000000000000000000000000700000007070000000000070000000000000000000000000000000000000000000707000000000000000000000000000000
310
00000000000000000000000000000000000000000000000000000000000000000000000000000000000000000000000000000000000000000000000000000000000000000000000000000000000000000000000000000000000000000000000000000000000000000000000000000000000000000000000000000000000000
310
00000007000000000707000000000000000000000000000000000000000000000000000007070000000000000000000000000000000000000000000000000000000000000000000000000000000000000000000000000000000000000000000000000000000000000000000000000000000000000000000000000000000000
310
00000000000000000000000000000000000000000000000000000000000007000000000000000000000000000000000000000000000000070000000000000007000000070000000000000000000000000000000000000000000707000000000000000000000000000000000000000000000000000000000000000000000000
310
00000000000000000000000000000000000000000000000000000000000000000000000000000000000000000000000000000000000000000000000000000000000000000000000000000000000000000000070700000000000000000000000000000000000000000000000700000000000000000007000007000000000000
310
00000000000000000000000000000007070000000000000000000000000000000000000000000000000000000000000000000000000000000000000000000000000000000000000000000000000000000000000000000000000000000000000000000000000000000000000000000000000000000000000000000000000000
310
00000000070707070000070000000000000000000000000000000000000000000700000000000000000000000700070000000000000000000000000000000000000000070000000000000000000000000000000000000000000000000000000000000000000000000000000000000000000000000000000000000000000000
310
00000000000000000000000000000000000000000000000000000000000000000000000000000000000000000000000000000000000000000700000000000007000000000000000000000000000000000000000007000000000000000000000007000707000000000000000000000000000000000000000007000000000000
310
00000000000000000000000000000000000000000000000000000000000000000000000000000000000000000000000000000000000000000000000000000000000000000000000000000000000000000000000000000000000000000000000000000000000000000007070707000000000000070707000000000000000000
310
00000000000000000000070000000000000000000007000007000000000000000000000000000000000000000007000000000000000000000000000000000000000000000000000000000000000000000000000000000000000000000000000000000000000000000000000000000000000000000000000000000000000000
310
00000000000000000000000000000000000000000000000000000000000000070000000000000000070000070000000000000000000000000000000000000700000000000000000000000700000700000000000000000000000000000000000000000700000000000000000000000000000000000000000000000000000000
310
00000000000000000000000000000000000000000000000000000000000000000000000000000000000000000000000000000000000000000000000000000000000000000000000000000000000000000000000000070000000707070700000007000000000000000000000000000000000007000000000000000000000007
310
00000700000000000000000000000000000000000000000700000000000000000000000000000000000000000000000000000000000000000000000000000000000000000000000000000000000000000000000000000000000000000000000000000000000000000000000000000000000000000000000000000000000000
310
00000000000000000000000700070700000000000000000700000000000000000000000000000007000000000000000000000007000000070000000000000000000000000000000000000000070000000000000000000000000000000000000000000000000000000000000000000000000000000000000000000000000000
310
00000000000000000000000000000000000000000000000000000000000000000000000000000000000000000000000000000000000000000000000000000000000700000000000000000000070000000000000000000000000000070000000000000000000000070000000700000000000000000000000000000000000000
310
00070000000000000000000000000000000000000000000000000000000000000000000000000000000000000000000000000000000000000000000000000000000000000000000000000000000000000000000000000000000000000000000000000000000000000000000000000000000000000000070000000000000000
310
00000007000000000000000000000000000700000000000000000000070000000007000000000000000000000000000000000000000007000000000000000000000000000000000000000000000000000000000000000000000000000000000000000000000000000000000000000000000000000000000000000000000000
310
00000000000000000000000000000000000000000000000000000000000000000000000000000000000000000007000000000000000000000700000000000000000000000007000000000000000000000007000000070000000000000000000000000000000000000000070000000000000000000000000000000000000000
310
00000000000000000000000000000000000000000000000000000000000000000000000000000000000000000000000000000000000000000000000000000000000000000000000000000000000000000000000000000000000000000000000000000700000000000000000000000700000000000000000000070000000000
310
00000000000007000000070000000000000000000000000000000000000000070000000000000000000000000000000000000000000000000000000000000000000000000000000000000000000000000000000000000000000000000000000000000000000000000000000000000000000000000000000000000000000000
310
00000000000000000000000000000000000000000000000000070000000000000000000000070000000000000000070000000000000000000000070000000700000000000000000000000000000000000000000700000000000000000000000000000000000000000000000000000000000000000000000000000000000000
310
00000000000000000000000000000000000000000000000000000000000000000000000000000000000000000000000000000000000000000000000000000000000000000000000000000000000007000000000000000000000000070000000000000700000000000000000000000700000007000000000000000000000000
310
00000000000000000007000000000000000000000000000000000000000000000000000000000000000000000000000000000000000000000000000000000000000000000000000000000000000000000000000000000000000000000000000000000000000000000000000000000000000000000000000000000000000000
310
00000000000700000000000000000000000007000000000007000000000000000000000700000000070000000000000000000000000000000000000000070000000000000000000000000000000000000000000000000000000000000000000000000000000000000000000000000000000000000000000000000000000000
310
00000000000000000000000000000000000000000000000000000000000000000000000000000000000000000000000000000000000000000000070000000000000000000000000007000000070000000000000000000000070000070700000000000000000000000000000000000000000700000000000000000000000000
310
00000000000000000000000000000000000000000000000000000000000000000000000000000000000000000000000000000000000000000000000000000000000000000000000000000000000000000000000000000000000000000000000000000000000000000000000000000000070000000000000000000000000007
310
07070000000000000000000000070707070000000000000000000000000000000000000000000700000000000000000000000000000000000000000000000000000000000000000000000000000000000000000000000000000000000000000000000000000000000000000000000000000000000000000000000000000000
310
00000000000000000000000000000000000000000000000000000000000000000000000000000007000000000000000000000000000007070000000000000000000707000000000000000000000000000000000000000000000007000000000000000000000000000000000000000000000000000000000000000000000000
310
00000000000000000000000000000000000000000000000000000000000000000000000000000000000000000000000000000000000000000000000000000000000000000000000000000000000000000000000000000000000000000700000000000000000000000000000000070707070707070707000000000000000000
310
00000000000000000000000000000007000000000000000000000000000000000000000000000000000000000000000000000000000000000000000000000000000000000000000000000000000000000000000000000000000000000000000000000000000000000000000000000000000000000000000000000000000000
310
00000000000000000000000000000000000000070000000000000000000000000000000000000000000000000000000000000000000000000000000000000000000007070000000000000000000000000000000000000000000000000000000000000000000000000000000000000000000000000000000000000000000000
310
00000000000000000000000000000000000000000000000000000000000000000000000000000000000000000000000000000000000000000000000000000000000000000000000000070000000000000000000000000000000000000000000000000000000000000000000000000000000000000000070000000000000000
310
00000000000000000000000000000000000000000000000000000000000000000000000000000000000000000000000000000000000000000000000000000000000000000000000000000000000000000000000000000000000000000000000000000000000000000000000000000000000000000000000000000000000000
310
07070000000000000000000000000000000000000000000000000000000000000000000000000000000000070000000000000000000000000000000000000000000000000000000000000000000000000000000000000000000000000000000000000000000000000000000000000000000000000000000000000000000000
310
00000000000000000000000000000000000000000000000000000000000000000000000000000000000000000000000000000000000000070000000000000000000000000000000000000000000000000000000000000000000000000000000700000000000000000000000000000000000000000000000000000000000000
310
00000000000000000000000000000000000000000000000000000000000000000000000000000000000000000000000000000000000000000000000000000000000000000000000000000000000000000000000000000000000000000000000000000000000000000000000000070000000000000000000000000000000000
310
00000000000000000000000000000000000000070700000000000000000000000000000000000000000000000000000000000000000000000000000000000000000000000000000000000000000000000000000000000000000000000000000000000000000000000000000000000000000000000000000000000000000000
310
00000000000000000000000000000000000000000000000000000000000000000000000007070000000000000000000000000000000000000000000000000000000000000000000700000000000000000000000000000000000000000000000000000000000000000000000000000000000000000000000000000000000000
310
00000000000000000000000000000000000000000000000000000000000000000000000000000000000000000000000000000000000000000000000000000000000000000000000000000000000000000000000000000000000000070700000000000000000000000000000000000000000000000000000000000707000000
310
00000000000000000000000000000000000000000000000000000000000000000000000000000000000000000000000000000000000000000000000000000000000000000000000000000000000000000000000000000000000000000000000000000000000000000000000000000000000000000000000000000000000000
310
00000000000000000000000000000000070000070700000000000000000000000000000000000000000000000007070700000000000000000000000000000000000000000000000000000000000000000000000000000000000000000000000000000000000000000000000000000000000000000000000000000000000000
310
00000000000000000000000000000000000000000000000000000000000000000000000000000000000000000000000000000000000000000000000000000000000000000700000007000707070000000000000000000000000000000000000007070000000000000000000000000000000000000000000000000000000000
310
00000000000000000000000000000000000000000000000000000000000000000000000000000000000000000000000000000000000000000000000000000000000000000000000000000000000000000000000000000000000000000000000000000000000000000000000000000000000000000007070000070000000007
310
00000007070700000000000000000000000000070707000000000000000000000000000000000000000000000000000000000000000000000000000000000000000000000000000000000000000000000000000000000000000000000000000000000000000000000000000000000000000000000000000000000000000000
310
00000000000000000000000000000000000000000000000000000000000000000000000000000000000007000700070000000000070000070000000707070707070707070707070700000000000000000000000000000000000000000000000000000000000000000000000000000000000000000000000000000000000000
310
00000000000000000000000000000000000000000000000000000000000000000000000000000000000000000000000000000000000000000000000000000000000000000000000000000000000000000000000000000000000000000000070707070700000000000000070007000000000000000000000000000000000000
310
00000000000000000000000000000000000000000000000000000000000000000000000000000000000000000000000000000000000000000000000000000000000000000000000000000000000000000000000000000000000000000000000000000000000000000000000000000000000000000000000000000000000000
310
00000000000000000000000000000000000007070707070007000000000000070707000000000000000000000000000000000000000000000000000000000000000000000000000000000000000000000000000000000000000000000000000000000000000000000000000000000000000000000000000000000000000000
310
00000000000000000000000000000000000000000000000000000000000000000000000000000000000000000000000000000000000000000000000000000000000000000707070707000000000007000000000700000700000000000000000000000000000000000000000000000000000000000000000000000000000000
310
00000000000000000000000000000000000000000000000000000000000000000000000000000000000000000000000000000000000000000000000000000000000000000000000000000000000000000000000000000000000000000000000000000000000000000000000000000000000000000000070707070707070000
310
00000000070000000700000000000000000000000000000000000000000000000000000000000000000000000000000000000000000000000000000000000000000000000000000000000000000000000000000000000000000000000000000000000000000000000000000000000000000000000000000000000000000000
310
00000000000000000000000000000000000000000000000000000000000000000000000000000000000000070707070707000000000000000000070000070000000000000000000000000000000000000000000000000000000000000000000000000000000000000000000000000000000000000000000000000000000000
310
00000000000000000000000000000000000000000000000000000000000000000000000000000000000000000000000000000000000000000000000000000000000000000000000000000000000000000000000000000000000000000007070707070707000000000000000000000007000700000000000000000000000000
310
00000000000000000000000000000000000000000000000000000000000000000000000000000000000000000000000000000000000000000000000000000000000000000000000000000000000000000000000000000000000000000000000000000000000000000000000000000000000000000000000000000000000000
310
00000000000000000000000000000000000707070700070700000000000000000000000000000700000000000000000000000000000000000000000000000000000000000000000000000000000000000000000000000000000000000000000000000000000000000000000000000000000000000000000000000000000000
310
00000000000000000000000000000000000000000000000000000000000000000000000000000000000000000000000000000000000000000000000000000000000000070707070707070700000000000000000000000000000000070000000000000000000000000000000000000000000000000000000000000000000000
310
00000000000000000000000000000000000000000000000000000000000000000000000000000000000000000000000000000000000000000000000000000000000000000000000000000000000000000000000000000000000000000000000000000000000000000000000000000000000000000000070707070707070000
310
00000000000000000000000000000007070700000000000000000000000000000000000000000000000000000000000000000000000000000000000000000000000000000000000000000000000000000000000000000000000000000000000000000000000000000000000000000000000000000000000000000000000000
310
00000000000000000000000000000000000000000000000000000000000000000000000000000000000007070707070707000000000000000000000000000000000007070000000000000000000000000000000000000000000000000000000000000000000000000000000000000000000000000000000000000000000000
310
00000000000000000000000000000000000000000000000000000000000000000000000000000000000000000000000000000000000000000000000000000000000000000000000000000000000000000000000000000000000000000000070707070707000000000000000000000000000000000707070700000000000000
310
00000000000000000000000000000000000000000000000000000000000000000000000000000000000000000000000000000000000000000000000000000000000000000000000000000000000000000000000000000000000000000000000000000000000000000000000000000000000000000000000000000000000000
310
00000000000000000000000000000000000007070707070700000000000000000000000000000000000707000000000000000000000000000000000000000000000000000000000000000000000000000000000000000000000000000000000000000000000000000000000000000000000000000000000000000000000000
310
00000000000000000000000000000000000000000000000000000000000000000000000000000000000000000000000000000000000000000000000000000000000000000007070707070700000000000000000000000000000000070707000000000000000000000000000000000000000000000000000000000000000000
310
00000000000000000000000000000000000000000000000000000000000000000000000000000000000000000000000000000000000000000000000000000000000000000000000000000000000000000000000000000000000000000000000000000000000000000000000000000000000000000000000007070707070700
310
00000000000000000000000000000007070700000000000000000000000000000000000000000000000000000000000000000000000000000000000000000000000000000000000000000000000000000000000000000000000000000000000000000000000000000000000000000000000000000000000000000000000000
310
00000000000000000000000000000000000000000000000000000000000000000000000000000000000000000707070700000000000000000000000000000000000007070700000000000000000000000000000000000000000000000000000000000000000000000000000000000000000000000000000000000000000000
310
00000000000000000000000000000000000000000000000000000000000000000000000000000000000000000000000000000000000000000000000000000000000000000000000000000000000000000000000000000000000000000000000007070707000000000000000000000000000000000007070700000000000000
310
00000000000000000000000000000000000000000000000000000000000000000000000000000000000000000000000000000000000000000000000000000000000000000000000000000000000000000000000000000000000000000000000000000000000000000000000000000000000000000000000000000000000000
310
00000000000000000000000000000000000000000000070000000000000000000000000000000000000707070000000000000000000000000000000000000000000000000000000000000000000000000000000000000000000000000000000000000000000000000000000000000000000000000000000000000000000000
310
00000000000000000000000000000000000000000000000000000000000000000000000000000000000000000000000000000000000000000000000000000000000000000000000000000007000000000000000000000000000000070707070000000000000000000000000000000000000000000000000000000000000000
310
00000000000000000000000000000000000000000000000000000000000000000000000000000000000000000000000000000000000000000000000000000000000000000000000000000000000000000000000000000000000000000000000000000000000000000000000000000000000000000000000000000000000000
310
00000700000000000000000000000007070707000000000000000000000000000000000000000000000000000000000000000000000000000000000000000000000000000000000000000000000000000000000000000000000000000000000000000000000000000000000000000000000000000000000000000000000000
310
00000000000000000000000000000000000000000000000000000000000000000000000000000000000000000000000000000000000000070000000000000000000007070700000000000000000000000000000000000000000000000000000000000000000000000000000000000000000000000000000000000000000000
310
00000000000000000000000000000000000000000000000000000000000000000000000000000000000000000000000000000000000000000000000000000000000000000000000000000000000000000000000000000000000000000000000000000000000000000000000000070000000000000000070700000000000000
310
00000000000000000000000000000000000000000000000000000000000000000000000000000000000000000000000000000000000000000000000000000000000000000000000000000000000000000000000000000000000000000000000000000000000000000000000000000000000000000000000000000000000000
310
00000000000000000000000000000000000000000000000000000000000000000000000700000000000707070000000000000000000000000000000000000000000000000000000000000000000000000000000000000000000000000000000000000000000000000000000000000000000000000000000000000000000000
310
00000000000000000000000000000000000000000000000000000000000000000000000000000000000000000000000000000000000000000000000000000000000000000000000000000000000000000000000000000000000700000707070000000000000000000000000000000000000000000000000000000000000000
310
00000000000000000000000000000000000000000000000000000000000000000000000000000000000000000000000000000000000000000000000000000000000000000000000000000000000000000000000000000000000000000000000000000000000000000000000000000000000000000000000000000000000000
310
00000000000000000000000000000007070700000000000000000000000000000000000000000000000000000000000000000000000000000000000000000000000000000000000000000000000000000000000000000000000000000000000000000000000000000000000000000000000000000000000000000000000000
310
00000000000000000000000000000000000000000000000000000000000000000000000000000000000000000000000000000000000000000000000000000000000000000000000000000000000000000000000000000000000000000000000000000000000000000000000000000000000000000000000000000000000000
310
00000000000000000000000000000000000000000000000000000000000000000000000000000000000000000000000000000000000000000000000000000000000000000000000000000000000000000000000000000000000000000000000000000000000000000000000000000000000000000000000000000000000000
310
00000000000000000000000000000000000000000000000000000000000000000000000000000000000000000000000000000000000000000000000000000000000000000000000000000000000000000000000000000000000000000000000000000000000000000000000000000000000000000000000000000000000000
310
00000000000000000000000000000000000000000000000000000000000000000000000000000000000000000000000000000000000000000000000000000000000000000000000000000000000000000000000000000000000000000000000000000000000000000000000000000000000000000000000000000000000000
310
00000000000000000000000000000000000000000000000000000000000000000000000000000000000000000000000000000000000000000000000000000000000000000000000000000000000000000000000000000000000000000000000000000000000000000000000000000000000000000000000000000000000000
310
000000000000000000000000000000000000000000000000000000000000000000000000000000000000000000000000000000000000000000000000000000000000000000000000000000000000000000000000000000000000000000000000000000000000000000000000
  0
ENDSEC
  0
EOF
