  0
SECTION
  2
HEADER
  9
$ACADVER
  1
AC1015
  9
$ACADMAINTVER
 70
     6
  9
$DWGCODEPAGE
  3
ANSI_1252
  9
$INSBASE
 10
0.0
 20
0.0
 30
0.0
  9
$EXTMIN
 10
0.0
 20
0.0
 30
0.0
  9
$EXTMAX
 10
415.0
 20
202.0909155
 30
0.0
  9
$LIMMIN
 10
0.0
 20
0.0
  9
$LIMMAX
 10
12.0
 20
9.0
  9
$ORTHOMODE
 70
     0
  9
$REGENMODE
 70
     1
  9
$FILLMODE
 70
     1
  9
$QTEXTMODE
 70
     0
  9
$MIRRTEXT
 70
     1
  9
$LTSCALE
 40
1.0
  9
$ATTMODE
 70
     1
  9
$TEXTSIZE
 40
0.2
  9
$TRACEWID
 40
0.05
  9
$TEXTSTYLE
  7
Standard
  9
$CLAYER
  8
0
  9
$CELTYPE
  6
Continuous
  9
$CECOLOR
 62
   256
  9
$CELTSCALE
 40
1.0
  9
$DISPSILH
 70
     0
  9
$DIMSCALE
 40
1.0
  9
$DIMASZ
 40
0.18
  9
$DIMEXO
 40
0.0625
  9
$DIMDLI
 40
0.38
  9
$DIMRND
 40
0.0
  9
$DIMDLE
 40
0.0
  9
$DIMEXE
 40
0.18
  9
$DIMTP
 40
0.0
  9
$DIMTM
 40
0.0
  9
$DIMTXT
 40
0.18
  9
$DIMCEN
 40
0.09
  9
$DIMTSZ
 40
0.0
  9
$DIMTOL
 70
     0
  9
$DIMLIM
 70
     0
  9
$DIMTIH
 70
     1
  9
$DIMTOH
 70
     1
  9
$DIMSE1
 70
     0
  9
$DIMSE2
 70
     0
  9
$DIMTAD
 70
     0
  9
$DIMZIN
 70
     0
  9
$DIMBLK
  1

  9
$DIMASO
 70
     1
  9
$DIMSHO
 70
     1
  9
$DIMPOST
  1

  9
$DIMAPOST
  1

  9
$DIMALT
 70
     0
  9
$DIMALTD
 70
     2
  9
$DIMALTF
 40
25.4
  9
$DIMLFAC
 40
1.0
  9
$DIMTOFL
 70
     0
  9
$DIMTVP
 40
0.0
  9
$DIMTIX
 70
     0
  9
$DIMSOXD
 70
     0
  9
$DIMSAH
 70
     0
  9
$DIMBLK1
  1

  9
$DIMBLK2
  1

  9
$DIMSTYLE
  2
Standard
  9
$DIMCLRD
 70
     0
  9
$DIMCLRE
 70
     0
  9
$DIMCLRT
 70
     0
  9
$DIMTFAC
 40
1.0
  9
$DIMGAP
 40
0.09
  9
$DIMJUST
 70
     0
  9
$DIMSD1
 70
     0
  9
$DIMSD2
 70
     0
  9
$DIMTOLJ
 70
     1
  9
$DIMTZIN
 70
     0
  9
$DIMALTZ
 70
     0
  9
$DIMALTTZ
 70
     0
  9
$DIMUPT
 70
     0
  9
$DIMDEC
 70
     4
  9
$DIMTDEC
 70
     4
  9
$DIMALTU
 70
     2
  9
$DIMALTTD
 70
     2
  9
$DIMTXSTY
  7
Standard
  9
$DIMAUNIT
 70
     0
  9
$DIMADEC
 70
     0
  9
$DIMALTRND
 40
0.0
  9
$DIMAZIN
 70
     0
  9
$DIMDSEP
 70
    46
  9
$DIMATFIT
 70
     3
  9
$DIMFRAC
 70
     0
  9
$DIMLDRBLK
  1

  9
$DIMLUNIT
 70
     2
  9
$DIMLWD
 70
    -2
  9
$DIMLWE
 70
    -2
  9
$DIMTMOVE
 70
     0
  9
$LUNITS
 70
     2
  9
$LUPREC
 70
     4
  9
$SKETCHINC
 40
0.1
  9
$FILLETRAD
 40
0.0
  9
$AUNITS
 70
     0
  9
$AUPREC
 70
     0
  9
$MENU
  1
.
  9
$ELEVATION
 40
0.0
  9
$PELEVATION
 40
0.0
  9
$THICKNESS
 40
0.0
  9
$LIMCHECK
 70
     0
  9
$CHAMFERA
 40
0.0
  9
$CHAMFERB
 40
0.0
  9
$CHAMFERC
 40
0.0
  9
$CHAMFERD
 40
0.0
  9
$SKPOLY
 70
     0
  9
$TDCREATE
 40
2454691.694067743
  9
$TDUCREATE
 40
2454691.61073441
  9
$TDUPDATE
 40
2456209.723871158
  9
$TDUUPDATE
 40
2456209.640537824
  9
$TDINDWG
 40
0.0016935995
  9
$TDUSRTIMER
 40
0.0016935995
  9
$USRTIMER
 70
     1
  9
$ANGBASE
 50
0.0
  9
$ANGDIR
 70
     0
  9
$PDMODE
 70
     0
  9
$PDSIZE
 40
0.0
  9
$PLINEWID
 40
0.0
  9
$SPLFRAME
 70
     0
  9
$SPLINETYPE
 70
     6
  9
$SPLINESEGS
 70
     8
  9
$HANDSEED
  5
111C
  9
$SURFTAB1
 70
     6
  9
$SURFTAB2
 70
     6
  9
$SURFTYPE
 70
     6
  9
$SURFU
 70
     6
  9
$SURFV
 70
     6
  9
$UCSBASE
  2

  9
$UCSNAME
  2

  9
$UCSORG
 10
0.0
 20
0.0
 30
0.0
  9
$UCSXDIR
 10
1.0
 20
0.0
 30
0.0
  9
$UCSYDIR
 10
0.0
 20
1.0
 30
0.0
  9
$UCSORTHOREF
  2

  9
$UCSORTHOVIEW
 70
     1
  9
$UCSORGTOP
 10
0.0
 20
0.0
 30
0.0
  9
$UCSORGBOTTOM
 10
0.0
 20
0.0
 30
0.0
  9
$UCSORGLEFT
 10
0.0
 20
0.0
 30
0.0
  9
$UCSORGRIGHT
 10
0.0
 20
0.0
 30
0.0
  9
$UCSORGFRONT
 10
0.0
 20
0.0
 30
0.0
  9
$UCSORGBACK
 10
0.0
 20
0.0
 30
0.0
  9
$PUCSBASE
  2

  9
$PUCSNAME
  2

  9
$PUCSORG
 10
0.0
 20
0.0
 30
0.0
  9
$PUCSXDIR
 10
1.0
 20
0.0
 30
0.0
  9
$PUCSYDIR
 10
0.0
 20
1.0
 30
0.0
  9
$PUCSORTHOREF
  2

  9
$PUCSORTHOVIEW
 70
     0
  9
$PUCSORGTOP
 10
0.0
 20
0.0
 30
0.0
  9
$PUCSORGBOTTOM
 10
0.0
 20
0.0
 30
0.0
  9
$PUCSORGLEFT
 10
0.0
 20
0.0
 30
0.0
  9
$PUCSORGRIGHT
 10
0.0
 20
0.0
 30
0.0
  9
$PUCSORGFRONT
 10
0.0
 20
0.0
 30
0.0
  9
$PUCSORGBACK
 10
0.0
 20
0.0
 30
0.0
  9
$USERI1
 70
     0
  9
$USERI2
 70
     0
  9
$USERI3
 70
     0
  9
$USERI4
 70
     0
  9
$USERI5
 70
     0
  9
$USERR1
 40
0.0
  9
$USERR2
 40
0.0
  9
$USERR3
 40
0.0
  9
$USERR4
 40
0.0
  9
$USERR5
 40
0.0
  9
$WORLDVIEW
 70
     1
  9
$SHADEDGE
 70
     3
  9
$SHADEDIF
 70
    70
  9
$TILEMODE
 70
     1
  9
$MAXACTVP
 70
    64
  9
$PINSBASE
 10
0.0
 20
0.0
 30
0.0
  9
$PLIMCHECK
 70
     0
  9
$PEXTMIN
 10
1.000000000000E+20
 20
1.000000000000E+20
 30
1.000000000000E+20
  9
$PEXTMAX
 10
-1.000000000000E+20
 20
-1.000000000000E+20
 30
-1.000000000000E+20
  9
$PLIMMIN
 10
0.0
 20
0.0
  9
$PLIMMAX
 10
12.0
 20
9.0
  9
$UNITMODE
 70
     0
  9
$VISRETAIN
 70
     1
  9
$PLINEGEN
 70
     0
  9
$PSLTSCALE
 70
     1
  9
$TREEDEPTH
 70
  3020
  9
$CMLSTYLE
  2
Standard
  9
$CMLJUST
 70
     0
  9
$CMLSCALE
 40
1.0
  9
$PROXYGRAPHICS
 70
     1
  9
$MEASUREMENT
 70
     0
  9
$CELWEIGHT
370
    -1
  9
$ENDCAPS
280
     0
  9
$JOINSTYLE
280
     0
  9
$LWDISPLAY
290
     0
  9
$INSUNITS
 70
     0
  9
$HYPERLINKBASE
  1

  9
$STYLESHEET
  1

  9
$XEDIT
290
     1
  9
$CEPSNTYPE
380
     0
  9
$PSTYLEMODE
290
     1
  9
$FINGERPRINTGUID
  2
{3310E66F-21C8-4609-AAD4-54FD202B3F6A}
  9
$VERSIONGUID
  2
{E3A126DB-2221-4048-A67F-33913FAA8146}
  9
$EXTNAMES
290
     1
  9
$PSVPSCALE
 40
0.0
  9
$OLESTARTUP
290
     0
  0
ENDSEC
  0
SECTION
  2
CLASSES
  0
CLASS
  1
ACDBDICTIONARYWDFLT
  2
AcDbDictionaryWithDefault
  3
ObjectDBX Classes
 90
        0
280
     0
281
     0
  0
CLASS
  1
ACDBPLACEHOLDER
  2
AcDbPlaceHolder
  3
ObjectDBX Classes
 90
        0
280
     0
281
     0
  0
CLASS
  1
LAYOUT
  2
AcDbLayout
  3
ObjectDBX Classes
 90
        0
280
     0
281
     0
  0
CLASS
  1
DICTIONARYVAR
  2
AcDbDictionaryVar
  3
ObjectDBX Classes
 90
        0
280
     0
281
     0
  0
CLASS
  1
SCALE
  2
AcDbScale
  3
ObjectDBX Classes
 90
     1153
280
     0
281
     0
  0
ENDSEC
  0
SECTION
  2
TABLES
  0
TABLE
  2
VPORT
  5
8
330
0
100
AcDbSymbolTable
 70
     1
  0
VPORT
  5
6FF
330
8
100
AcDbSymbolTableRecord
100
AcDbViewportTableRecord
  2
*Active
 70
     0
 10
0.0
 20
0.0
 11
1.0
 21
1.0
 12
207.5
 22
101.04545775
 13
0.0
 23
0.0
 14
1.0
 24
1.0
 15
0.0
 25
0.0
 16
0.0
 26
0.0
 36
1.0
 17
0.0
 27
0.0
 37
0.0
 40
206.13273381
 41
2.271724137931
 42
50.0
 43
0.0
 44
0.0
 50
0.0
 51
0.0
 71
    16
 72
   100
 73
     1
 74
     3
 75
     0
 76
     0
 77
     0
 78
     0
281
     0
 65
     1
110
0.0
120
0.0
130
0.0
111
1.0
121
0.0
131
0.0
112
0.0
122
1.0
132
0.0
 79
     1
146
0.0
  0
ENDTAB
  0
TABLE
  2
LTYPE
  5
5
330
0
100
AcDbSymbolTable
 70
     1
  0
LTYPE
  5
13
330
5
100
AcDbSymbolTableRecord
100
AcDbLinetypeTableRecord
  2
ByBlock
 70
     0
  3

 72
    65
 73
     0
 40
0.0
  0
LTYPE
  5
14
330
5
100
AcDbSymbolTableRecord
100
AcDbLinetypeTableRecord
  2
ByLayer
 70
     0
  3

 72
    65
 73
     0
 40
0.0
  0
LTYPE
  5
15
330
5
100
AcDbSymbolTableRecord
100
AcDbLinetypeTableRecord
  2
Continuous
 70
     0
  3
Solid line
 72
    65
 73
     0
 40
0.0
  0
ENDTAB
  0
TABLE
  2
LAYER
  5
2
330
0
100
AcDbSymbolTable
 70
     1
  0
LAYER
  5
10
330
2
100
AcDbSymbolTableRecord
100
AcDbLayerTableRecord
  2
0
 70
     0
 62
     7
  6
Continuous
370
    -3
390
F
  0
ENDTAB
  0
TABLE
  2
STYLE
  5
3
330
0
100
AcDbSymbolTable
 70
     1
  0
STYLE
  5
11
330
3
100
AcDbSymbolTableRecord
100
AcDbTextStyleTableRecord
  2
Standard
 70
     0
 40
0.0
 41
1.0
 50
0.0
 71
     0
 42
0.2
  3
txt
  4

  0
ENDTAB
  0
TABLE
  2
VIEW
  5
6
330
0
100
AcDbSymbolTable
 70
     0
  0
ENDTAB
  0
TABLE
  2
UCS
  5
7
330
0
100
AcDbSymbolTable
 70
     0
  0
ENDTAB
  0
TABLE
  2
APPID
  5
9
330
0
100
AcDbSymbolTable
 70
     1
  0
APPID
  5
12
330
9
100
AcDbSymbolTableRecord
100
AcDbRegAppTableRecord
  2
ACAD
 70
     0
  0
ENDTAB
  0
TABLE
  2
DIMSTYLE
  5
A
330
0
100
AcDbSymbolTable
 70
     1
100
AcDbDimStyleTable
  0
DIMSTYLE
105
6F9
330
A
100
AcDbSymbolTableRecord
100
AcDbDimStyleTableRecord
  2
Standard
 70
     0
340
11
  0
ENDTAB
  0
TABLE
  2
BLOCK_RECORD
  5
1
330
0
100
AcDbSymbolTable
 70
     1
  0
BLOCK_RECORD
  5
1E
330
1
100
AcDbSymbolTableRecord
100
AcDbBlockTableRecord
  2
*Model_Space
340
21
  0
BLOCK_RECORD
  5
1A
330
1
100
AcDbSymbolTableRecord
100
AcDbBlockTableRecord
  2
*Paper_Space
340
1D
  0
ENDTAB
  0
ENDSEC
  0
SECTION
  2
BLOCKS
  0
BLOCK
  5
1F
330
1E
100
AcDbEntity
  8
0
100
AcDbBlockBegin
  2
*Model_Space
 70
     0
 10
0.0
 20
0.0
 30
0.0
  3
*Model_Space
  1
*Model_Space
  0
ENDBLK
  5
20
330
1E
100
AcDbEntity
  8
0
100
AcDbBlockEnd
  0
BLOCK
  5
1B
330
1A
100
AcDbEntity
 67
     1
  8
0
100
AcDbBlockBegin
  2
*Paper_Space
 70
     0
 10
0.0
 20
0.0
 30
0.0
  3
*Paper_Space
  1
*Paper_Space
  0
ENDBLK
  5
1C
330
1A
100
AcDbEntity
 67
     1
  8
0
100
AcDbBlockEnd
  0
ENDSEC
  0
SECTION
  2
ENTITIES
  0
LINE
  5
1F7
330
1E
100
AcDbEntity
  8
0
100
AcDbLine
 10
151.0
 20
0.148
 30
0.0
 11
160.0
 21
0.148
 31
0.0
  0
LINE
  5
1F8
330
1E
100
AcDbEntity
  8
0
100
AcDbLine
 10
160.0
 20
0.148
 30
0.0
 11
169.0
 21
0.148
 31
0.0
  0
LINE
  5
1F9
330
1E
100
AcDbEntity
  8
0
100
AcDbLine
 10
142.6
 20
0.148
 30
0.0
 11
151.0
 21
0.148
 31
0.0
  0
LINE
  5
1FA
330
1E
100
AcDbEntity
  8
0
100
AcDbLine
 10
135.3
 20
0.148
 30
0.0
 11
142.6
 21
0.148
 31
0.0
  0
LINE
  5
1FB
330
1E
100
AcDbEntity
  8
0
100
AcDbLine
 10
169.0
 20
0.148
 30
0.0
 11
177.4
 21
0.148
 31
0.0
  0
LINE
  5
1FC
330
1E
100
AcDbEntity
  8
0
100
AcDbLine
 10
177.4
 20
0.148
 30
0.0
 11
184.7
 21
0.148
 31
0.0
  0
LINE
  5
1FD
330
1E
100
AcDbEntity
  8
0
100
AcDbLine
 10
129.7
 20
0.148
 30
0.0
 11
135.3
 21
0.148
 31
0.0
  0
LINE
  5
1FE
330
1E
100
AcDbEntity
  8
0
100
AcDbLine
 10
126.3
 20
0.148
 30
0.0
 11
129.7
 21
0.148
 31
0.0
  0
LINE
  5
1FF
330
1E
100
AcDbEntity
  8
0
100
AcDbLine
 10
184.7
 20
0.148
 30
0.0
 11
190.3
 21
0.148
 31
0.0
  0
LINE
  5
200
330
1E
100
AcDbEntity
  8
0
100
AcDbLine
 10
190.3
 20
0.148
 30
0.0
 11
193.7
 21
0.148
 31
0.0
  0
LINE
  5
201
330
1E
100
AcDbEntity
  8
0
100
AcDbLine
 10
193.7
 20
0.148
 30
0.0
 11
195.0
 21
0.148
 31
0.0
  0
LINE
  5
202
330
1E
100
AcDbEntity
  8
0
100
AcDbLine
 10
261.0
 20
0.148
 30
0.0
 11
270.0
 21
0.148
 31
0.0
  0
LINE
  5
203
330
1E
100
AcDbEntity
  8
0
100
AcDbLine
 10
270.0
 20
0.148
 30
0.0
 11
279.0
 21
0.148
 31
0.0
  0
LINE
  5
204
330
1E
100
AcDbEntity
  8
0
100
AcDbLine
 10
279.0
 20
0.148
 30
0.0
 11
287.4
 21
0.148
 31
0.0
  0
LINE
  5
205
330
1E
100
AcDbEntity
  8
0
100
AcDbLine
 10
371.0
 20
0.148
 30
0.0
 11
380.0
 21
0.148
 31
0.0
  0
LINE
  5
206
330
1E
100
AcDbEntity
  8
0
100
AcDbLine
 10
380.0
 20
0.148
 30
0.0
 11
389.0
 21
0.148
 31
0.0
  0
LINE
  5
207
330
1E
100
AcDbEntity
  8
0
100
AcDbLine
 10
252.6
 20
0.148
 30
0.0
 11
261.0
 21
0.148
 31
0.0
  0
LINE
  5
208
330
1E
100
AcDbEntity
  8
0
100
AcDbLine
 10
245.3
 20
0.148
 30
0.0
 11
252.6
 21
0.148
 31
0.0
  0
LINE
  5
209
330
1E
100
AcDbEntity
  8
0
100
AcDbLine
 10
287.4
 20
0.148
 30
0.0
 11
294.7
 21
0.148
 31
0.0
  0
LINE
  5
20A
330
1E
100
AcDbEntity
  8
0
100
AcDbLine
 10
294.7
 20
0.148
 30
0.0
 11
300.3
 21
0.148
 31
0.0
  0
LINE
  5
20B
330
1E
100
AcDbEntity
  8
0
100
AcDbLine
 10
362.6
 20
0.148
 30
0.0
 11
371.0
 21
0.148
 31
0.0
  0
LINE
  5
20C
330
1E
100
AcDbEntity
  8
0
100
AcDbLine
 10
355.3
 20
0.148
 30
0.0
 11
362.6
 21
0.148
 31
0.0
  0
LINE
  5
20D
330
1E
100
AcDbEntity
  8
0
100
AcDbLine
 10
389.0
 20
0.148
 30
0.0
 11
397.4
 21
0.148
 31
0.0
  0
LINE
  5
20E
330
1E
100
AcDbEntity
  8
0
100
AcDbLine
 10
397.4
 20
0.148
 30
0.0
 11
404.7
 21
0.148
 31
0.0
  0
LINE
  5
20F
330
1E
100
AcDbEntity
  8
0
100
AcDbLine
 10
239.7
 20
0.148
 30
0.0
 11
245.3
 21
0.148
 31
0.0
  0
LINE
  5
210
330
1E
100
AcDbEntity
  8
0
100
AcDbLine
 10
236.3
 20
0.148
 30
0.0
 11
239.7
 21
0.148
 31
0.0
  0
LINE
  5
211
330
1E
100
AcDbEntity
  8
0
100
AcDbLine
 10
300.3
 20
0.148
 30
0.0
 11
303.7
 21
0.148
 31
0.0
  0
LINE
  5
212
330
1E
100
AcDbEntity
  8
0
100
AcDbLine
 10
303.7
 20
0.148
 30
0.0
 11
305.0
 21
0.148
 31
0.0
  0
LINE
  5
213
330
1E
100
AcDbEntity
  8
0
100
AcDbLine
 10
349.7
 20
0.148
 30
0.0
 11
355.3
 21
0.148
 31
0.0
  0
LINE
  5
214
330
1E
100
AcDbEntity
  8
0
100
AcDbLine
 10
346.3
 20
0.148
 30
0.0
 11
349.7
 21
0.148
 31
0.0
  0
LINE
  5
215
330
1E
100
AcDbEntity
  8
0
100
AcDbLine
 10
404.7
 20
0.148
 30
0.0
 11
410.3
 21
0.148
 31
0.0
  0
LINE
  5
216
330
1E
100
AcDbEntity
  8
0
100
AcDbLine
 10
410.3
 20
0.148
 30
0.0
 11
413.7
 21
0.148
 31
0.0
  0
LINE
  5
217
330
1E
100
AcDbEntity
  8
0
100
AcDbLine
 10
235.0
 20
0.148
 30
0.0
 11
236.3
 21
0.148
 31
0.0
  0
LINE
  5
218
330
1E
100
AcDbEntity
  8
0
100
AcDbLine
 10
235.0
 20
0.148
 30
0.0
 11
236.3
 21
0.148
 31
0.0
  0
LINE
  5
219
330
1E
100
AcDbEntity
  8
0
100
AcDbLine
 10
235.0
 20
0.148
 30
0.0
 11
235.0
 21
7.148
 31
0.0
  0
LINE
  5
21A
330
1E
100
AcDbEntity
  8
0
100
AcDbLine
 10
305.0
 20
0.148
 30
0.0
 11
305.0
 21
7.148
 31
0.0
  0
LINE
  5
21B
330
1E
100
AcDbEntity
  8
0
100
AcDbLine
 10
345.0
 20
0.148
 30
0.0
 11
346.3
 21
0.148
 31
0.0
  0
LINE
  5
21C
330
1E
100
AcDbEntity
  8
0
100
AcDbLine
 10
345.0
 20
0.148
 30
0.0
 11
346.3
 21
0.148
 31
0.0
  0
LINE
  5
21D
330
1E
100
AcDbEntity
  8
0
100
AcDbLine
 10
345.0
 20
0.148
 30
0.0
 11
345.0
 21
7.148
 31
0.0
  0
LINE
  5
21E
330
1E
100
AcDbEntity
  8
0
100
AcDbLine
 10
415.0
 20
0.148
 30
0.0
 11
415.0
 21
7.148
 31
0.0
  0
LINE
  5
21F
330
1E
100
AcDbEntity
  8
0
100
AcDbLine
 10
413.7
 20
0.148
 30
0.0
 11
415.0
 21
0.148
 31
0.0
  0
LINE
  5
220
330
1E
100
AcDbEntity
  8
0
100
AcDbLine
 10
195.0
 20
0.148
 30
0.0
 11
195.0
 21
7.148
 31
0.0
  0
LINE
  5
221
330
1E
100
AcDbEntity
  8
0
100
AcDbLine
 10
190.3
 20
0.148
 30
0.0
 11
193.7
 21
0.148
 31
0.0
  0
LINE
  5
222
330
1E
100
AcDbEntity
  8
0
100
AcDbLine
 10
236.3
 20
0.148
 30
0.0
 11
239.7
 21
0.148
 31
0.0
  0
LINE
  5
223
330
1E
100
AcDbEntity
  8
0
100
AcDbLine
 10
303.7
 20
0.148
 30
0.0
 11
305.0
 21
0.148
 31
0.0
  0
LINE
  5
224
330
1E
100
AcDbEntity
  8
0
100
AcDbLine
 10
346.3
 20
0.148
 30
0.0
 11
349.7
 21
0.148
 31
0.0
  0
LINE
  5
225
330
1E
100
AcDbEntity
  8
0
100
AcDbLine
 10
239.7
 20
0.148
 30
0.0
 11
245.3
 21
0.148
 31
0.0
  0
LINE
  5
226
330
1E
100
AcDbEntity
  8
0
100
AcDbLine
 10
300.3
 20
0.148
 30
0.0
 11
303.7
 21
0.148
 31
0.0
  0
LINE
  5
227
330
1E
100
AcDbEntity
  8
0
100
AcDbLine
 10
349.7
 20
0.148
 30
0.0
 11
355.3
 21
0.148
 31
0.0
  0
LINE
  5
228
330
1E
100
AcDbEntity
  8
0
100
AcDbLine
 10
410.3
 20
0.148
 30
0.0
 11
413.7
 21
0.148
 31
0.0
  0
LINE
  5
229
330
1E
100
AcDbEntity
  8
0
100
AcDbLine
 10
413.7
 20
0.148
 30
0.0
 11
415.0
 21
0.148
 31
0.0
  0
LINE
  5
22A
330
1E
100
AcDbEntity
  8
0
100
AcDbLine
 10
193.7
 20
0.148
 30
0.0
 11
195.0
 21
0.148
 31
0.0
  0
LINE
  5
22B
330
1E
100
AcDbEntity
  8
0
100
AcDbLine
 10
177.4
 20
0.148
 30
0.0
 11
184.7
 21
0.148
 31
0.0
  0
LINE
  5
22C
330
1E
100
AcDbEntity
  8
0
100
AcDbLine
 10
245.3
 20
0.148
 30
0.0
 11
252.6
 21
0.148
 31
0.0
  0
LINE
  5
22D
330
1E
100
AcDbEntity
  8
0
100
AcDbLine
 10
294.7
 20
0.148
 30
0.0
 11
300.3
 21
0.148
 31
0.0
  0
LINE
  5
22E
330
1E
100
AcDbEntity
  8
0
100
AcDbLine
 10
355.3
 20
0.148
 30
0.0
 11
362.6
 21
0.148
 31
0.0
  0
LINE
  5
22F
330
1E
100
AcDbEntity
  8
0
100
AcDbLine
 10
252.6
 20
0.148
 30
0.0
 11
261.0
 21
0.148
 31
0.0
  0
LINE
  5
230
330
1E
100
AcDbEntity
  8
0
100
AcDbLine
 10
287.4
 20
0.148
 30
0.0
 11
294.7
 21
0.148
 31
0.0
  0
LINE
  5
231
330
1E
100
AcDbEntity
  8
0
100
AcDbLine
 10
362.6
 20
0.148
 30
0.0
 11
371.0
 21
0.148
 31
0.0
  0
LINE
  5
232
330
1E
100
AcDbEntity
  8
0
100
AcDbLine
 10
397.4
 20
0.148
 30
0.0
 11
404.7
 21
0.148
 31
0.0
  0
LINE
  5
233
330
1E
100
AcDbEntity
  8
0
100
AcDbLine
 10
404.7
 20
0.148
 30
0.0
 11
410.3
 21
0.148
 31
0.0
  0
LINE
  5
234
330
1E
100
AcDbEntity
  8
0
100
AcDbLine
 10
184.7
 20
0.148
 30
0.0
 11
190.3
 21
0.148
 31
0.0
  0
LINE
  5
235
330
1E
100
AcDbEntity
  8
0
100
AcDbLine
 10
261.0
 20
0.148
 30
0.0
 11
270.0
 21
0.148
 31
0.0
  0
LINE
  5
236
330
1E
100
AcDbEntity
  8
0
100
AcDbLine
 10
279.0
 20
0.148
 30
0.0
 11
287.4
 21
0.148
 31
0.0
  0
LINE
  5
237
330
1E
100
AcDbEntity
  8
0
100
AcDbLine
 10
371.0
 20
0.148
 30
0.0
 11
380.0
 21
0.148
 31
0.0
  0
LINE
  5
238
330
1E
100
AcDbEntity
  8
0
100
AcDbLine
 10
389.0
 20
0.148
 30
0.0
 11
397.4
 21
0.148
 31
0.0
  0
LINE
  5
239
330
1E
100
AcDbEntity
  8
0
100
AcDbLine
 10
270.0
 20
0.148
 30
0.0
 11
279.0
 21
0.148
 31
0.0
  0
LINE
  5
23A
330
1E
100
AcDbEntity
  8
0
100
AcDbLine
 10
380.0
 20
0.148
 30
0.0
 11
389.0
 21
0.148
 31
0.0
  0
LINE
  5
23B
330
1E
100
AcDbEntity
  8
0
100
AcDbLine
 10
160.0
 20
0.148
 30
0.0
 11
169.0
 21
0.148
 31
0.0
  0
LINE
  5
23C
330
1E
100
AcDbEntity
  8
0
100
AcDbLine
 10
169.0
 20
0.148
 30
0.0
 11
177.4
 21
0.148
 31
0.0
  0
LINE
  5
23D
330
1E
100
AcDbEntity
  8
0
100
AcDbLine
 10
151.0
 20
0.148
 30
0.0
 11
160.0
 21
0.148
 31
0.0
  0
LINE
  5
23E
330
1E
100
AcDbEntity
  8
0
100
AcDbLine
 10
142.6
 20
0.148
 30
0.0
 11
151.0
 21
0.148
 31
0.0
  0
LINE
  5
23F
330
1E
100
AcDbEntity
  8
0
100
AcDbLine
 10
135.3
 20
0.148
 30
0.0
 11
142.6
 21
0.148
 31
0.0
  0
LINE
  5
240
330
1E
100
AcDbEntity
  8
0
100
AcDbLine
 10
129.7
 20
0.148
 30
0.0
 11
135.3
 21
0.148
 31
0.0
  0
LINE
  5
241
330
1E
100
AcDbEntity
  8
0
100
AcDbLine
 10
126.3
 20
0.148
 30
0.0
 11
129.7
 21
0.148
 31
0.0
  0
LINE
  5
242
330
1E
100
AcDbEntity
  8
0
100
AcDbLine
 10
125.0
 20
0.148
 30
0.0
 11
126.3
 21
0.148
 31
0.0
  0
LINE
  5
243
330
1E
100
AcDbEntity
  8
0
100
AcDbLine
 10
125.0
 20
0.148
 30
0.0
 11
126.3
 21
0.148
 31
0.0
  0
LINE
  5
244
330
1E
100
AcDbEntity
  8
0
100
AcDbLine
 10
125.0
 20
0.148
 30
0.0
 11
125.0
 21
7.148
 31
0.0
  0
LINE
  5
251
330
1E
100
AcDbEntity
  8
0
100
AcDbLine
 10
236.3
 20
7.148
 30
0.0
 11
239.7
 21
7.148
 31
0.0
  0
LINE
  5
252
330
1E
100
AcDbEntity
  8
0
100
AcDbLine
 10
235.0
 20
7.148
 30
0.0
 11
235.0
 21
0.148
 31
0.0
  0
LINE
  5
253
330
1E
100
AcDbEntity
  8
0
100
AcDbLine
 10
235.0
 20
7.148
 30
0.0
 11
236.3
 21
7.148
 31
0.0
  0
LINE
  5
254
330
1E
100
AcDbEntity
  8
0
100
AcDbLine
 10
235.0
 20
7.148
 30
0.0
 11
236.0
 21
8.148
 31
0.0
  0
LINE
  5
255
330
1E
100
AcDbEntity
  8
0
100
AcDbLine
 10
303.7
 20
7.148
 30
0.0
 11
305.0
 21
7.148
 31
0.0
  0
LINE
  5
256
330
1E
100
AcDbEntity
  8
0
100
AcDbLine
 10
305.0
 20
7.148
 30
0.0
 11
305.0
 21
0.148
 31
0.0
  0
LINE
  5
257
330
1E
100
AcDbEntity
  8
0
100
AcDbLine
 10
346.3
 20
7.148
 30
0.0
 11
349.7
 21
7.148
 31
0.0
  0
LINE
  5
258
330
1E
100
AcDbEntity
  8
0
100
AcDbLine
 10
345.0
 20
7.148
 30
0.0
 11
345.0
 21
0.148
 31
0.0
  0
LINE
  5
259
330
1E
100
AcDbEntity
  8
0
100
AcDbLine
 10
345.0
 20
7.148
 30
0.0
 11
346.3
 21
7.148
 31
0.0
  0
LINE
  5
25A
330
1E
100
AcDbEntity
  8
0
100
AcDbLine
 10
345.0
 20
7.148
 30
0.0
 11
346.0
 21
8.148
 31
0.0
  0
LINE
  5
25B
330
1E
100
AcDbEntity
  8
0
100
AcDbLine
 10
413.7
 20
7.148
 30
0.0
 11
415.0
 21
7.148
 31
0.0
  0
LINE
  5
25C
330
1E
100
AcDbEntity
  8
0
100
AcDbLine
 10
415.0
 20
7.148
 30
0.0
 11
415.0
 21
0.148
 31
0.0
  0
LINE
  5
25D
330
1E
100
AcDbEntity
  8
0
100
AcDbLine
 10
195.0
 20
7.148
 30
0.0
 11
195.0
 21
0.148
 31
0.0
  0
LINE
  5
25E
330
1E
100
AcDbEntity
  8
0
100
AcDbLine
 10
193.7
 20
7.148
 30
0.0
 11
195.0
 21
7.148
 31
0.0
  0
LINE
  5
25F
330
1E
100
AcDbEntity
  8
0
100
AcDbLine
 10
127.2
 20
8.148
 30
0.0
 11
130.6
 21
8.148
 31
0.0
  0
LINE
  5
260
330
1E
100
AcDbEntity
  8
0
100
AcDbLine
 10
126.0
 20
8.148
 30
0.0
 11
127.2
 21
8.148
 31
0.0
  0
LINE
  5
261
330
1E
100
AcDbEntity
  8
0
100
AcDbLine
 10
169.0
 20
7.148
 30
0.0
 11
177.4
 21
7.148
 31
0.0
  0
LINE
  5
262
330
1E
100
AcDbEntity
  8
0
100
AcDbLine
 10
177.4
 20
7.148
 30
0.0
 11
184.7
 21
7.148
 31
0.0
  0
LINE
  5
263
330
1E
100
AcDbEntity
  8
0
100
AcDbLine
 10
184.7
 20
7.148
 30
0.0
 11
190.3
 21
7.148
 31
0.0
  0
LINE
  5
264
330
1E
100
AcDbEntity
  8
0
100
AcDbLine
 10
261.0
 20
7.148
 30
0.0
 11
270.0
 21
7.148
 31
0.0
  0
LINE
  5
265
330
1E
100
AcDbEntity
  8
0
100
AcDbLine
 10
252.6
 20
7.148
 30
0.0
 11
261.0
 21
7.148
 31
0.0
  0
LINE
  5
266
330
1E
100
AcDbEntity
  8
0
100
AcDbLine
 10
245.3
 20
7.148
 30
0.0
 11
252.6
 21
7.148
 31
0.0
  0
LINE
  5
267
330
1E
100
AcDbEntity
  8
0
100
AcDbLine
 10
239.7
 20
7.148
 30
0.0
 11
245.3
 21
7.148
 31
0.0
  0
LINE
  5
268
330
1E
100
AcDbEntity
  8
0
100
AcDbLine
 10
279.0
 20
7.148
 30
0.0
 11
287.4
 21
7.148
 31
0.0
  0
LINE
  5
269
330
1E
100
AcDbEntity
  8
0
100
AcDbLine
 10
287.4
 20
7.148
 30
0.0
 11
294.7
 21
7.148
 31
0.0
  0
LINE
  5
26A
330
1E
100
AcDbEntity
  8
0
100
AcDbLine
 10
294.7
 20
7.148
 30
0.0
 11
300.3
 21
7.148
 31
0.0
  0
LINE
  5
26B
330
1E
100
AcDbEntity
  8
0
100
AcDbLine
 10
300.3
 20
7.148
 30
0.0
 11
303.7
 21
7.148
 31
0.0
  0
LINE
  5
26C
330
1E
100
AcDbEntity
  8
0
100
AcDbLine
 10
371.0
 20
7.148
 30
0.0
 11
380.0
 21
7.148
 31
0.0
  0
LINE
  5
26D
330
1E
100
AcDbEntity
  8
0
100
AcDbLine
 10
362.6
 20
7.148
 30
0.0
 11
371.0
 21
7.148
 31
0.0
  0
LINE
  5
26E
330
1E
100
AcDbEntity
  8
0
100
AcDbLine
 10
355.3
 20
7.148
 30
0.0
 11
362.6
 21
7.148
 31
0.0
  0
LINE
  5
26F
330
1E
100
AcDbEntity
  8
0
100
AcDbLine
 10
349.7
 20
7.148
 30
0.0
 11
355.3
 21
7.148
 31
0.0
  0
LINE
  5
270
330
1E
100
AcDbEntity
  8
0
100
AcDbLine
 10
389.0
 20
7.148
 30
0.0
 11
397.4
 21
7.148
 31
0.0
  0
LINE
  5
271
330
1E
100
AcDbEntity
  8
0
100
AcDbLine
 10
397.4
 20
7.148
 30
0.0
 11
404.7
 21
7.148
 31
0.0
  0
LINE
  5
272
330
1E
100
AcDbEntity
  8
0
100
AcDbLine
 10
404.7
 20
7.148
 30
0.0
 11
410.3
 21
7.148
 31
0.0
  0
LINE
  5
273
330
1E
100
AcDbEntity
  8
0
100
AcDbLine
 10
410.3
 20
7.148
 30
0.0
 11
413.7
 21
7.148
 31
0.0
  0
LINE
  5
274
330
1E
100
AcDbEntity
  8
0
100
AcDbLine
 10
190.3
 20
7.148
 30
0.0
 11
193.7
 21
7.148
 31
0.0
  0
LINE
  5
275
330
1E
100
AcDbEntity
  8
0
100
AcDbLine
 10
151.0
 20
7.148
 30
0.0
 11
160.0
 21
7.148
 31
0.0
  0
LINE
  5
276
330
1E
100
AcDbEntity
  8
0
100
AcDbLine
 10
142.6
 20
7.148
 30
0.0
 11
151.0
 21
7.148
 31
0.0
  0
LINE
  5
277
330
1E
100
AcDbEntity
  8
0
100
AcDbLine
 10
135.0
 20
8.148
 30
0.0
 11
135.0
 21
9.148
 31
0.0
  0
LINE
  5
278
330
1E
100
AcDbEntity
  8
0
100
AcDbLine
 10
160.0
 20
8.148
 30
0.0
 11
168.7
 21
8.148
 31
0.0
  0
LINE
  5
279
330
1E
100
AcDbEntity
  8
0
100
AcDbLine
 10
270.0
 20
7.148
 30
0.0
 11
279.0
 21
7.148
 31
0.0
  0
LINE
  5
27A
330
1E
100
AcDbEntity
  8
0
100
AcDbLine
 10
237.2
 20
8.148
 30
0.0
 11
240.6
 21
8.148
 31
0.0
  0
LINE
  5
27B
330
1E
100
AcDbEntity
  8
0
100
AcDbLine
 10
236.0
 20
8.148
 30
0.0
 11
237.2
 21
8.148
 31
0.0
  0
LINE
  5
27C
330
1E
100
AcDbEntity
  8
0
100
AcDbLine
 10
302.8
 20
8.148
 30
0.0
 11
304.0
 21
8.148
 31
0.0
  0
LINE
  5
27D
330
1E
100
AcDbEntity
  8
0
100
AcDbLine
 10
304.0
 20
8.148
 30
0.0
 11
305.0
 21
7.148
 31
0.0
  0
LINE
  5
27E
330
1E
100
AcDbEntity
  8
0
100
AcDbLine
 10
347.2
 20
8.148
 30
0.0
 11
350.6
 21
8.148
 31
0.0
  0
LINE
  5
27F
330
1E
100
AcDbEntity
  8
0
100
AcDbLine
 10
346.0
 20
8.148
 30
0.0
 11
347.2
 21
8.148
 31
0.0
  0
LINE
  5
280
330
1E
100
AcDbEntity
  8
0
100
AcDbLine
 10
412.8
 20
8.148
 30
0.0
 11
414.0
 21
8.148
 31
0.0
  0
LINE
  5
281
330
1E
100
AcDbEntity
  8
0
100
AcDbLine
 10
380.0
 20
7.148
 30
0.0
 11
389.0
 21
7.148
 31
0.0
  0
LINE
  5
282
330
1E
100
AcDbEntity
  8
0
100
AcDbLine
 10
414.0
 20
8.148
 30
0.0
 11
415.0
 21
7.148
 31
0.0
  0
LINE
  5
283
330
1E
100
AcDbEntity
  8
0
100
AcDbLine
 10
192.8
 20
8.148
 30
0.0
 11
194.0
 21
8.148
 31
0.0
  0
LINE
  5
284
330
1E
100
AcDbEntity
  8
0
100
AcDbLine
 10
168.7
 20
8.148
 30
0.0
 11
176.9
 21
8.148
 31
0.0
  0
LINE
  5
285
330
1E
100
AcDbEntity
  8
0
100
AcDbLine
 10
185.0
 20
8.148
 30
0.0
 11
185.0
 21
9.148
 31
0.0
  0
LINE
  5
286
330
1E
100
AcDbEntity
  8
0
100
AcDbLine
 10
176.9
 20
8.148
 30
0.0
 11
184.0
 21
8.148
 31
0.0
  0
LINE
  5
287
330
1E
100
AcDbEntity
  8
0
100
AcDbLine
 10
184.0
 20
8.148
 30
0.0
 11
189.4
 21
8.148
 31
0.0
  0
LINE
  5
288
330
1E
100
AcDbEntity
  8
0
100
AcDbLine
 10
245.0
 20
8.148
 30
0.0
 11
245.0
 21
9.148
 31
0.0
  0
LINE
  5
289
330
1E
100
AcDbEntity
  8
0
100
AcDbLine
 10
261.3
 20
8.148
 30
0.0
 11
270.0
 21
8.148
 31
0.0
  0
LINE
  5
28A
330
1E
100
AcDbEntity
  8
0
100
AcDbLine
 10
253.1
 20
8.148
 30
0.0
 11
261.3
 21
8.148
 31
0.0
  0
LINE
  5
28B
330
1E
100
AcDbEntity
  8
0
100
AcDbLine
 10
246.0
 20
8.148
 30
0.0
 11
253.1
 21
8.148
 31
0.0
  0
LINE
  5
28C
330
1E
100
AcDbEntity
  8
0
100
AcDbLine
 10
240.6
 20
8.148
 30
0.0
 11
246.0
 21
8.148
 31
0.0
  0
LINE
  5
28D
330
1E
100
AcDbEntity
  8
0
100
AcDbLine
 10
270.0
 20
8.148
 30
0.0
 11
278.7
 21
8.148
 31
0.0
  0
LINE
  5
28E
330
1E
100
AcDbEntity
  8
0
100
AcDbLine
 10
278.7
 20
8.148
 30
0.0
 11
286.9
 21
8.148
 31
0.0
  0
LINE
  5
28F
330
1E
100
AcDbEntity
  8
0
100
AcDbLine
 10
286.9
 20
8.148
 30
0.0
 11
294.0
 21
8.148
 31
0.0
  0
LINE
  5
290
330
1E
100
AcDbEntity
  8
0
100
AcDbLine
 10
294.0
 20
8.148
 30
0.0
 11
299.4
 21
8.148
 31
0.0
  0
LINE
  5
291
330
1E
100
AcDbEntity
  8
0
100
AcDbLine
 10
299.4
 20
8.148
 30
0.0
 11
302.8
 21
8.148
 31
0.0
  0
LINE
  5
292
330
1E
100
AcDbEntity
  8
0
100
AcDbLine
 10
295.0
 20
8.148
 30
0.0
 11
295.0
 21
9.148
 31
0.0
  0
LINE
  5
293
330
1E
100
AcDbEntity
  8
0
100
AcDbLine
 10
371.3
 20
8.148
 30
0.0
 11
380.0
 21
8.148
 31
0.0
  0
LINE
  5
294
330
1E
100
AcDbEntity
  8
0
100
AcDbLine
 10
363.1
 20
8.148
 30
0.0
 11
371.3
 21
8.148
 31
0.0
  0
LINE
  5
295
330
1E
100
AcDbEntity
  8
0
100
AcDbLine
 10
356.0
 20
8.148
 30
0.0
 11
363.1
 21
8.148
 31
0.0
  0
LINE
  5
296
330
1E
100
AcDbEntity
  8
0
100
AcDbLine
 10
350.6
 20
8.148
 30
0.0
 11
356.0
 21
8.148
 31
0.0
  0
LINE
  5
297
330
1E
100
AcDbEntity
  8
0
100
AcDbLine
 10
380.0
 20
8.148
 30
0.0
 11
388.7
 21
8.148
 31
0.0
  0
LINE
  5
298
330
1E
100
AcDbEntity
  8
0
100
AcDbLine
 10
397.69150000161
 20
8.148
 30
0.0
 11
402.966
 21
8.14801
 31
0.0
  0
LINE
  5
299
330
1E
100
AcDbEntity
  8
0
100
AcDbLine
 10
388.7
 20
8.148
 30
0.0
 11
396.9
 21
8.148
 31
0.0
  0
LINE
  5
29A
330
1E
100
AcDbEntity
  8
0
100
AcDbLine
 10
396.9
 20
8.148
 30
0.0
 11
404.0
 21
8.148
 31
0.0
  0
LINE
  5
29B
330
1E
100
AcDbEntity
  8
0
100
AcDbLine
 10
404.0
 20
8.148
 30
0.0
 11
409.4
 21
8.148
 31
0.0
  0
LINE
  5
29C
330
1E
100
AcDbEntity
  8
0
100
AcDbLine
 10
409.4
 20
8.148
 30
0.0
 11
412.8
 21
8.148
 31
0.0
  0
LINE
  5
29D
330
1E
100
AcDbEntity
  8
0
100
AcDbLine
 10
189.4
 20
8.148
 30
0.0
 11
192.8
 21
8.148
 31
0.0
  0
LINE
  5
29E
330
1E
100
AcDbEntity
  8
0
100
AcDbLine
 10
194.0
 20
8.148
 30
0.0
 11
195.0
 21
7.148
 31
0.0
  0
LINE
  5
29F
330
1E
100
AcDbEntity
  8
0
100
AcDbLine
 10
160.0
 20
7.148
 30
0.0
 11
169.0
 21
7.148
 31
0.0
  0
LINE
  5
2A0
330
1E
100
AcDbEntity
  8
0
100
AcDbLine
 10
151.3
 20
8.148
 30
0.0
 11
160.0
 21
8.148
 31
0.0
  0
LINE
  5
2A1
330
1E
100
AcDbEntity
  8
0
100
AcDbLine
 10
143.1
 20
8.148
 30
0.0
 11
151.3
 21
8.148
 31
0.0
  0
LINE
  5
2A2
330
1E
100
AcDbEntity
  8
0
100
AcDbLine
 10
134.0
 20
9.148
 30
0.0
 11
135.0
 21
9.148
 31
0.0
  0
LINE
  5
2A3
330
1E
100
AcDbEntity
  8
0
100
AcDbLine
 10
134.0
 20
9.148
 30
0.0
 11
136.6
 21
9.148
 31
0.0
  0
LINE
  5
2A4
330
1E
100
AcDbEntity
  8
0
100
AcDbLine
 10
133.0
 20
9.148
 30
0.0
 11
134.0
 21
9.148
 31
0.0
  0
LINE
  5
2A5
330
1E
100
AcDbEntity
  8
0
100
AcDbLine
 10
133.0
 20
9.148
 30
0.0
 11
134.0
 21
9.148
 31
0.0
  0
LINE
  5
2A6
330
1E
100
AcDbEntity
  8
0
100
AcDbLine
 10
133.0
 20
9.148
 30
0.0
 11
133.0
 21
50.148
 31
0.0
  0
LINE
  5
2A7
330
1E
100
AcDbEntity
  8
0
100
AcDbLine
 10
136.6
 20
9.148
 30
0.0
 11
141.0
 21
9.148
 31
0.0
  0
LINE
  5
2A8
330
1E
100
AcDbEntity
  8
0
100
AcDbLine
 10
141.0
 20
9.148
 30
0.0
 11
146.6
 21
9.148
 31
0.0
  0
LINE
  5
2A9
330
1E
100
AcDbEntity
  8
0
100
AcDbLine
 10
179.0
 20
9.148
 30
0.0
 11
183.4
 21
9.148
 31
0.0
  0
LINE
  5
2AA
330
1E
100
AcDbEntity
  8
0
100
AcDbLine
 10
172.4
 20
9.148
 30
0.0
 11
177.7
 21
9.148
 31
0.0
  0
LINE
  5
2AB
330
1E
100
AcDbEntity
  8
0
100
AcDbLine
 10
177.7
 20
9.148
 30
0.0
 11
181.7
 21
9.148
 31
0.0
  0
LINE
  5
2AC
330
1E
100
AcDbEntity
  8
0
100
AcDbLine
 10
185.0
 20
9.148
 30
0.0
 11
186.0
 21
9.148
 31
0.0
  0
LINE
  5
2AD
330
1E
100
AcDbEntity
  8
0
100
AcDbLine
 10
244.0
 20
9.148
 30
0.0
 11
245.0
 21
9.148
 31
0.0
  0
LINE
  5
2AE
330
1E
100
AcDbEntity
  8
0
100
AcDbLine
 10
357.005
 20
8.14801
 30
0.0
 11
362.273499998391
 21
8.148
 31
0.0
  0
LINE
  5
2AF
330
1E
100
AcDbEntity
  8
0
100
AcDbLine
 10
349.967
 20
8.14803
 30
0.0
 11
357.005
 21
8.14801
 31
0.0
  0
LINE
  5
2B0
330
1E
100
AcDbEntity
  8
0
100
AcDbLine
 10
347.504
 20
8.14807
 30
0.0
 11
349.987
 21
8.1481
 31
0.0
  0
LINE
  5
2B1
330
1E
100
AcDbEntity
  8
0
100
AcDbLine
 10
347.504
 20
8.14807
 30
0.0
 11
347.504
 21
18.1481
 31
0.0
  0
LINE
  5
2B2
330
1E
100
AcDbEntity
  8
0
100
AcDbLine
 10
347.504
 20
8.14807
 30
0.0
 11
349.967
 21
8.14803
 31
0.0
  0
LINE
  5
2B3
330
1E
100
AcDbEntity
  8
0
100
AcDbLine
 10
349.987
 20
8.1481
 30
0.0
 11
357.041
 21
8.14813
 31
0.0
  0
LINE
  5
2B4
330
1E
100
AcDbEntity
  8
0
100
AcDbLine
 10
380.029
 20
8.14815
 30
0.0
 11
392.465
 21
8.14815
 31
0.0
  0
LINE
  5
2B5
330
1E
100
AcDbEntity
  8
0
100
AcDbLine
 10
392.465
 20
8.14815
 30
0.0
 11
403.003
 21
8.14813
 31
0.0
  0
LINE
  5
2B6
330
1E
100
AcDbEntity
  8
0
100
AcDbLine
 10
403.003
 20
8.14813
 30
0.0
 11
410.04
 21
8.1481
 31
0.0
  0
LINE
  5
2B7
330
1E
100
AcDbEntity
  8
0
100
AcDbLine
 10
410.04
 20
8.1481
 30
0.0
 11
412.504
 21
8.14807
 31
0.0
  0
LINE
  5
2B8
330
1E
100
AcDbEntity
  8
0
100
AcDbLine
 10
412.504
 20
8.14807
 30
0.0
 11
412.504
 21
18.1481
 31
0.0
  0
LINE
  5
2B9
330
1E
100
AcDbEntity
  8
0
100
AcDbLine
 10
410.02
 20
8.14803
 30
0.0
 11
412.504
 21
8.14807
 31
0.0
  0
LINE
  5
2BA
330
1E
100
AcDbEntity
  8
0
100
AcDbLine
 10
402.966
 20
8.14801
 30
0.0
 11
410.02
 21
8.14803
 31
0.0
  0
LINE
  5
2BB
330
1E
100
AcDbEntity
  8
0
100
AcDbLine
 10
357.041
 20
8.14813
 30
0.0
 11
367.59
 21
8.14815
 31
0.0
  0
LINE
  5
2BC
330
1E
100
AcDbEntity
  8
0
100
AcDbLine
 10
367.59
 20
8.14815
 30
0.0
 11
380.029
 21
8.14815
 31
0.0
  0
LINE
  5
2BD
330
1E
100
AcDbEntity
  8
0
100
AcDbLine
 10
295.0
 20
9.148
 30
0.0
 11
296.0
 21
9.148
 31
0.0
  0
LINE
  5
2BE
330
1E
100
AcDbEntity
  8
0
100
AcDbLine
 10
296.0
 20
9.148
 30
0.0
 11
297.0
 21
9.148
 31
0.0
  0
LINE
  5
2BF
330
1E
100
AcDbEntity
  8
0
100
AcDbLine
 10
244.0
 20
9.148
 30
0.0
 11
246.6
 21
9.148
 31
0.0
  0
LINE
  5
2C0
330
1E
100
AcDbEntity
  8
0
100
AcDbLine
 10
243.0
 20
9.148
 30
0.0
 11
244.0
 21
9.148
 31
0.0
  0
LINE
  5
2C1
330
1E
100
AcDbEntity
  8
0
100
AcDbLine
 10
243.0
 20
9.148
 30
0.0
 11
244.0
 21
9.148
 31
0.0
  0
LINE
  5
2C2
330
1E
100
AcDbEntity
  8
0
100
AcDbLine
 10
243.0
 20
9.148
 30
0.0
 11
243.0
 21
50.148
 31
0.0
  0
LINE
  5
2C3
330
1E
100
AcDbEntity
  8
0
100
AcDbLine
 10
251.0
 20
9.148
 30
0.0
 11
256.6
 21
9.148
 31
0.0
  0
LINE
  5
2C4
330
1E
100
AcDbEntity
  8
0
100
AcDbLine
 10
246.6
 20
9.148
 30
0.0
 11
251.0
 21
9.148
 31
0.0
  0
LINE
  5
2C5
330
1E
100
AcDbEntity
  8
0
100
AcDbLine
 10
257.6
 20
9.148
 30
0.0
 11
263.6
 21
9.148
 31
0.0
  0
LINE
  5
2C6
330
1E
100
AcDbEntity
  8
0
100
AcDbLine
 10
252.3
 20
9.148
 30
0.0
 11
257.6
 21
9.148
 31
0.0
  0
LINE
  5
2C7
330
1E
100
AcDbEntity
  8
0
100
AcDbLine
 10
248.3
 20
9.148
 30
0.0
 11
252.3
 21
9.148
 31
0.0
  0
LINE
  5
2C8
330
1E
100
AcDbEntity
  8
0
100
AcDbLine
 10
245.9
 20
9.148
 30
0.0
 11
248.3
 21
9.148
 31
0.0
  0
LINE
  5
2C9
330
1E
100
AcDbEntity
  8
0
100
AcDbLine
 10
245.0
 20
9.148
 30
0.0
 11
245.0
 21
8.148
 31
0.0
  0
LINE
  5
2CA
330
1E
100
AcDbEntity
  8
0
100
AcDbLine
 10
245.0
 20
9.148
 30
0.0
 11
245.9
 21
9.148
 31
0.0
  0
LINE
  5
2CB
330
1E
100
AcDbEntity
  8
0
100
AcDbLine
 10
289.0
 20
9.148
 30
0.0
 11
293.4
 21
9.148
 31
0.0
  0
LINE
  5
2CC
330
1E
100
AcDbEntity
  8
0
100
AcDbLine
 10
282.4
 20
9.148
 30
0.0
 11
287.7
 21
9.148
 31
0.0
  0
LINE
  5
2CD
330
1E
100
AcDbEntity
  8
0
100
AcDbLine
 10
287.7
 20
9.148
 30
0.0
 11
291.7
 21
9.148
 31
0.0
  0
LINE
  5
2CE
330
1E
100
AcDbEntity
  8
0
100
AcDbLine
 10
293.4
 20
9.148
 30
0.0
 11
296.0
 21
9.148
 31
0.0
  0
LINE
  5
2CF
330
1E
100
AcDbEntity
  8
0
100
AcDbLine
 10
291.7
 20
9.148
 30
0.0
 11
294.1
 21
9.148
 31
0.0
  0
LINE
  5
2D0
330
1E
100
AcDbEntity
  8
0
100
AcDbLine
 10
294.1
 20
9.148
 30
0.0
 11
295.0
 21
9.148
 31
0.0
  0
LINE
  5
2D1
330
1E
100
AcDbEntity
  8
0
100
AcDbLine
 10
297.0
 20
9.148
 30
0.0
 11
297.0
 21
50.148
 31
0.0
  0
LINE
  5
2D2
330
1E
100
AcDbEntity
  8
0
100
AcDbLine
 10
296.0
 20
9.148
 30
0.0
 11
297.0
 21
9.148
 31
0.0
  0
LINE
  5
2D3
330
1E
100
AcDbEntity
  8
0
100
AcDbLine
 10
295.0
 20
9.148
 30
0.0
 11
295.0
 21
8.148
 31
0.0
  0
LINE
  5
2D4
330
1E
100
AcDbEntity
  8
0
100
AcDbLine
 10
186.0
 20
9.148
 30
0.0
 11
187.0
 21
9.148
 31
0.0
  0
LINE
  5
2D5
330
1E
100
AcDbEntity
  8
0
100
AcDbLine
 10
185.0
 20
9.148
 30
0.0
 11
185.0
 21
8.148
 31
0.0
  0
LINE
  5
2D6
330
1E
100
AcDbEntity
  8
0
100
AcDbLine
 10
187.0
 20
9.148
 30
0.0
 11
187.0
 21
50.148
 31
0.0
  0
LINE
  5
2D7
330
1E
100
AcDbEntity
  8
0
100
AcDbLine
 10
183.4
 20
9.148
 30
0.0
 11
186.0
 21
9.148
 31
0.0
  0
LINE
  5
2D8
330
1E
100
AcDbEntity
  8
0
100
AcDbLine
 10
186.0
 20
9.148
 30
0.0
 11
187.0
 21
9.148
 31
0.0
  0
LINE
  5
2D9
330
1E
100
AcDbEntity
  8
0
100
AcDbLine
 10
181.7
 20
9.148
 30
0.0
 11
184.1
 21
9.148
 31
0.0
  0
LINE
  5
2DA
330
1E
100
AcDbEntity
  8
0
100
AcDbLine
 10
184.1
 20
9.148
 30
0.0
 11
185.0
 21
9.148
 31
0.0
  0
LINE
  5
2DB
330
1E
100
AcDbEntity
  8
0
100
AcDbLine
 10
147.6
 20
9.148
 30
0.0
 11
153.6
 21
9.148
 31
0.0
  0
LINE
  5
2DC
330
1E
100
AcDbEntity
  8
0
100
AcDbLine
 10
142.3
 20
9.148
 30
0.0
 11
147.6
 21
9.148
 31
0.0
  0
LINE
  5
2DD
330
1E
100
AcDbEntity
  8
0
100
AcDbLine
 10
138.3
 20
9.148
 30
0.0
 11
142.3
 21
9.148
 31
0.0
  0
LINE
  5
2DE
330
1E
100
AcDbEntity
  8
0
100
AcDbLine
 10
153.1
 20
9.148
 30
0.0
 11
160.0
 21
9.148
 31
0.0
  0
LINE
  5
2DF
330
1E
100
AcDbEntity
  8
0
100
AcDbLine
 10
146.6
 20
9.148
 30
0.0
 11
153.1
 21
9.148
 31
0.0
  0
LINE
  5
2E0
330
1E
100
AcDbEntity
  8
0
100
AcDbLine
 10
263.1
 20
9.148
 30
0.0
 11
270.0
 21
9.148
 31
0.0
  0
LINE
  5
2E1
330
1E
100
AcDbEntity
  8
0
100
AcDbLine
 10
256.6
 20
9.148
 30
0.0
 11
263.1
 21
9.148
 31
0.0
  0
LINE
  5
2E2
330
1E
100
AcDbEntity
  8
0
100
AcDbLine
 10
263.6
 20
9.148
 30
0.0
 11
270.0
 21
9.148
 31
0.0
  0
LINE
  5
2E3
330
1E
100
AcDbEntity
  8
0
100
AcDbLine
 10
276.9
 20
9.148
 30
0.0
 11
283.4
 21
9.148
 31
0.0
  0
LINE
  5
2E4
330
1E
100
AcDbEntity
  8
0
100
AcDbLine
 10
283.4
 20
9.148
 30
0.0
 11
289.0
 21
9.148
 31
0.0
  0
LINE
  5
2E5
330
1E
100
AcDbEntity
  8
0
100
AcDbLine
 10
270.0
 20
9.148
 30
0.0
 11
276.4
 21
9.148
 31
0.0
  0
LINE
  5
2E6
330
1E
100
AcDbEntity
  8
0
100
AcDbLine
 10
270.0
 20
9.148
 30
0.0
 11
276.9
 21
9.148
 31
0.0
  0
LINE
  5
2E7
330
1E
100
AcDbEntity
  8
0
100
AcDbLine
 10
276.4
 20
9.148
 30
0.0
 11
282.4
 21
9.148
 31
0.0
  0
LINE
  5
2E8
330
1E
100
AcDbEntity
  8
0
100
AcDbLine
 10
166.9
 20
9.148
 30
0.0
 11
173.4
 21
9.148
 31
0.0
  0
LINE
  5
2E9
330
1E
100
AcDbEntity
  8
0
100
AcDbLine
 10
173.4
 20
9.148
 30
0.0
 11
179.0
 21
9.148
 31
0.0
  0
LINE
  5
2EA
330
1E
100
AcDbEntity
  8
0
100
AcDbLine
 10
160.0
 20
9.148
 30
0.0
 11
166.4
 21
9.148
 31
0.0
  0
LINE
  5
2EB
330
1E
100
AcDbEntity
  8
0
100
AcDbLine
 10
160.0
 20
9.148
 30
0.0
 11
166.9
 21
9.148
 31
0.0
  0
LINE
  5
2EC
330
1E
100
AcDbEntity
  8
0
100
AcDbLine
 10
166.4
 20
9.148
 30
0.0
 11
172.4
 21
9.148
 31
0.0
  0
LINE
  5
2ED
330
1E
100
AcDbEntity
  8
0
100
AcDbLine
 10
153.6
 20
9.148
 30
0.0
 11
160.0
 21
9.148
 31
0.0
  0
LINE
  5
2EE
330
1E
100
AcDbEntity
  8
0
100
AcDbLine
 10
135.9
 20
9.148
 30
0.0
 11
138.3
 21
9.148
 31
0.0
  0
LINE
  5
2EF
330
1E
100
AcDbEntity
  8
0
100
AcDbLine
 10
135.0
 20
9.148
 30
0.0
 11
135.0
 21
8.148
 31
0.0
  0
LINE
  5
2F0
330
1E
100
AcDbEntity
  8
0
100
AcDbLine
 10
135.0
 20
9.148
 30
0.0
 11
135.9
 21
9.148
 31
0.0
  0
LINE
  5
2F1
330
1E
100
AcDbEntity
  8
0
100
AcDbLine
 10
136.0
 20
8.148
 30
0.0
 11
143.1
 21
8.148
 31
0.0
  0
LINE
  5
2F2
330
1E
100
AcDbEntity
  8
0
100
AcDbLine
 10
130.6
 20
8.148
 30
0.0
 11
136.0
 21
8.148
 31
0.0
  0
LINE
  5
2F3
330
1E
100
AcDbEntity
  8
0
100
AcDbLine
 10
135.3
 20
7.148
 30
0.0
 11
142.6
 21
7.148
 31
0.0
  0
LINE
  5
2F4
330
1E
100
AcDbEntity
  8
0
100
AcDbLine
 10
129.7
 20
7.148
 30
0.0
 11
135.3
 21
7.148
 31
0.0
  0
LINE
  5
2F5
330
1E
100
AcDbEntity
  8
0
100
AcDbLine
 10
126.3
 20
7.148
 30
0.0
 11
129.7
 21
7.148
 31
0.0
  0
LINE
  5
2F6
330
1E
100
AcDbEntity
  8
0
100
AcDbLine
 10
125.0
 20
7.148
 30
0.0
 11
125.0
 21
0.148
 31
0.0
  0
LINE
  5
2F7
330
1E
100
AcDbEntity
  8
0
100
AcDbLine
 10
125.0
 20
7.148
 30
0.0
 11
126.3
 21
7.148
 31
0.0
  0
LINE
  5
2F8
330
1E
100
AcDbEntity
  8
0
100
AcDbLine
 10
125.0
 20
7.148
 30
0.0
 11
126.0
 21
8.148
 31
0.0
  0
LINE
  5
312
330
1E
100
AcDbEntity
  8
0
100
AcDbLine
 10
412.504
 20
18.1481
 30
0.0
 11
412.504
 21
8.14807
 31
0.0
  0
LINE
  5
313
330
1E
100
AcDbEntity
  8
0
100
AcDbLine
 10
412.504
 20
18.1481
 30
0.0
 11
412.504
 21
28.1481
 31
0.0
  0
LINE
  5
314
330
1E
100
AcDbEntity
  8
0
100
AcDbLine
 10
347.504
 20
18.1481
 30
0.0
 11
347.504
 21
8.14807
 31
0.0
  0
LINE
  5
315
330
1E
100
AcDbEntity
  8
0
100
AcDbLine
 10
347.504
 20
18.1481
 30
0.0
 11
347.504
 21
28.1481
 31
0.0
  0
LINE
  5
320
330
1E
100
AcDbEntity
  8
0
100
AcDbLine
 10
412.504
 20
28.1481
 30
0.0
 11
412.504
 21
18.1481
 31
0.0
  0
LINE
  5
321
330
1E
100
AcDbEntity
  8
0
100
AcDbLine
 10
348.004
 20
38.1481
 30
0.0
 11
348.505
 21
48.1481
 31
0.0
  0
LINE
  5
322
330
1E
100
AcDbEntity
  8
0
100
AcDbLine
 10
412.004
 20
38.1481
 30
0.0
 11
412.504
 21
28.1481
 31
0.0
  0
LINE
  5
323
330
1E
100
AcDbEntity
  8
0
100
AcDbLine
 10
347.504
 20
28.1481
 30
0.0
 11
347.504
 21
18.1481
 31
0.0
  0
LINE
  5
324
330
1E
100
AcDbEntity
  8
0
100
AcDbLine
 10
347.504
 20
28.1481
 30
0.0
 11
348.004
 21
38.1481
 31
0.0
  0
LINE
  5
32C
330
1E
100
AcDbEntity
  8
0
100
AcDbLine
 10
348.505
 20
48.1481
 30
0.0
 11
349.506
 21
58.1481
 31
0.0
  0
LINE
  5
32D
330
1E
100
AcDbEntity
  8
0
100
AcDbLine
 10
411.505
 20
48.1481
 30
0.0
 11
412.004
 21
38.1481
 31
0.0
  0
LINE
  5
32F
330
1E
100
AcDbEntity
  8
0
100
AcDbLine
 10
128.0
 20
50.148
 30
0.0
 11
128.0
 21
50.22
 31
0.0
  0
LINE
  5
330
330
1E
100
AcDbEntity
  8
0
100
AcDbLine
 10
128.0
 20
50.148
 30
0.0
 11
133.0
 21
50.148
 31
0.0
  0
LINE
  5
331
330
1E
100
AcDbEntity
  8
0
100
AcDbLine
 10
238.0
 20
50.148
 30
0.0
 11
238.0
 21
50.22
 31
0.0
  0
LINE
  5
332
330
1E
100
AcDbEntity
  8
0
100
AcDbLine
 10
238.0
 20
50.148
 30
0.0
 11
243.0
 21
50.148
 31
0.0
  0
LINE
  5
333
330
1E
100
AcDbEntity
  8
0
100
AcDbLine
 10
243.0
 20
50.148
 30
0.0
 11
243.0
 21
9.148
 31
0.0
  0
LINE
  5
334
330
1E
100
AcDbEntity
  8
0
100
AcDbLine
 10
302.0
 20
50.148
 30
0.0
 11
302.0
 21
50.22
 31
0.0
  0
LINE
  5
335
330
1E
100
AcDbEntity
  8
0
100
AcDbLine
 10
297.0
 20
50.148
 30
0.0
 11
297.0
 21
9.148
 31
0.0
  0
LINE
  5
336
330
1E
100
AcDbEntity
  8
0
100
AcDbLine
 10
297.0
 20
50.148
 30
0.0
 11
302.0
 21
50.148
 31
0.0
  0
LINE
  5
337
330
1E
100
AcDbEntity
  8
0
100
AcDbLine
 10
192.0
 20
50.148
 30
0.0
 11
192.0
 21
50.22
 31
0.0
  0
LINE
  5
338
330
1E
100
AcDbEntity
  8
0
100
AcDbLine
 10
187.0
 20
50.148
 30
0.0
 11
187.0
 21
9.148
 31
0.0
  0
LINE
  5
339
330
1E
100
AcDbEntity
  8
0
100
AcDbLine
 10
187.0
 20
50.148
 30
0.0
 11
192.0
 21
50.148
 31
0.0
  0
LINE
  5
33A
330
1E
100
AcDbEntity
  8
0
100
AcDbLine
 10
128.0
 20
50.412
 30
0.0
 11
128.0
 21
50.732
 31
0.0
  0
LINE
  5
33B
330
1E
100
AcDbEntity
  8
0
100
AcDbLine
 10
128.0
 20
50.412
 30
0.0
 11
128.0
 21
50.22
 31
0.0
  0
LINE
  5
33C
330
1E
100
AcDbEntity
  8
0
100
AcDbLine
 10
270.0
 20
50.148
 30
0.0
 11
270.512
 21
50.22
 31
0.0
  0
LINE
  5
33D
330
1E
100
AcDbEntity
  8
0
100
AcDbLine
 10
238.0
 20
50.22
 30
0.0
 11
238.0
 21
50.412
 31
0.0
  0
LINE
  5
33E
330
1E
100
AcDbEntity
  8
0
100
AcDbLine
 10
238.0
 20
50.22
 30
0.0
 11
238.0
 21
50.148
 31
0.0
  0
LINE
  5
33F
330
1E
100
AcDbEntity
  8
0
100
AcDbLine
 10
302.0
 20
50.22
 30
0.0
 11
302.0
 21
50.412
 31
0.0
  0
LINE
  5
340
330
1E
100
AcDbEntity
  8
0
100
AcDbLine
 10
302.0
 20
50.22
 30
0.0
 11
302.0
 21
50.148
 31
0.0
  0
LINE
  5
341
330
1E
100
AcDbEntity
  8
0
100
AcDbLine
 10
270.512
 20
50.22
 30
0.0
 11
270.992
 21
50.412
 31
0.0
  0
LINE
  5
342
330
1E
100
AcDbEntity
  8
0
100
AcDbLine
 10
269.488
 20
50.22
 30
0.0
 11
270.0
 21
50.148
 31
0.0
  0
LINE
  5
343
330
1E
100
AcDbEntity
  8
0
100
AcDbLine
 10
160.512
 20
50.22
 30
0.0
 11
160.992
 21
50.412
 31
0.0
  0
LINE
  5
344
330
1E
100
AcDbEntity
  8
0
100
AcDbLine
 10
160.0
 20
50.148
 30
0.0
 11
160.512
 21
50.22
 31
0.0
  0
LINE
  5
345
330
1E
100
AcDbEntity
  8
0
100
AcDbLine
 10
159.488
 20
50.22
 30
0.0
 11
160.0
 21
50.148
 31
0.0
  0
LINE
  5
346
330
1E
100
AcDbEntity
  8
0
100
AcDbLine
 10
160.992
 20
50.412
 30
0.0
 11
161.416
 21
50.732
 31
0.0
  0
LINE
  5
347
330
1E
100
AcDbEntity
  8
0
100
AcDbLine
 10
159.008
 20
50.412
 30
0.0
 11
159.488
 21
50.22
 31
0.0
  0
LINE
  5
348
330
1E
100
AcDbEntity
  8
0
100
AcDbLine
 10
238.0
 20
50.412
 30
0.0
 11
238.0
 21
50.732
 31
0.0
  0
LINE
  5
349
330
1E
100
AcDbEntity
  8
0
100
AcDbLine
 10
238.0
 20
50.412
 30
0.0
 11
238.0
 21
50.22
 31
0.0
  0
LINE
  5
34A
330
1E
100
AcDbEntity
  8
0
100
AcDbLine
 10
302.0
 20
50.412
 30
0.0
 11
302.0
 21
50.732
 31
0.0
  0
LINE
  5
34B
330
1E
100
AcDbEntity
  8
0
100
AcDbLine
 10
302.0
 20
50.412
 30
0.0
 11
302.0
 21
50.22
 31
0.0
  0
LINE
  5
34C
330
1E
100
AcDbEntity
  8
0
100
AcDbLine
 10
270.992
 20
50.412
 30
0.0
 11
271.416
 21
50.732
 31
0.0
  0
LINE
  5
34D
330
1E
100
AcDbEntity
  8
0
100
AcDbLine
 10
269.008
 20
50.412
 30
0.0
 11
269.488
 21
50.22
 31
0.0
  0
LINE
  5
34E
330
1E
100
AcDbEntity
  8
0
100
AcDbLine
 10
192.0
 20
50.412
 30
0.0
 11
192.0
 21
50.732
 31
0.0
  0
LINE
  5
34F
330
1E
100
AcDbEntity
  8
0
100
AcDbLine
 10
192.0
 20
50.412
 30
0.0
 11
192.0
 21
50.22
 31
0.0
  0
LINE
  5
350
330
1E
100
AcDbEntity
  8
0
100
AcDbLine
 10
192.0
 20
50.22
 30
0.0
 11
192.0
 21
50.412
 31
0.0
  0
LINE
  5
351
330
1E
100
AcDbEntity
  8
0
100
AcDbLine
 10
192.0
 20
50.22
 30
0.0
 11
192.0
 21
50.148
 31
0.0
  0
LINE
  5
352
330
1E
100
AcDbEntity
  8
0
100
AcDbLine
 10
128.0
 20
50.22
 30
0.0
 11
128.0
 21
50.412
 31
0.0
  0
LINE
  5
353
330
1E
100
AcDbEntity
  8
0
100
AcDbLine
 10
128.0
 20
50.22
 30
0.0
 11
128.0
 21
50.148
 31
0.0
  0
LINE
  5
354
330
1E
100
AcDbEntity
  8
0
100
AcDbLine
 10
133.0
 20
50.148
 30
0.0
 11
133.0
 21
9.148
 31
0.0
  0
LINE
  5
35D
330
1E
100
AcDbEntity
  8
0
100
AcDbLine
 10
302.0
 20
50.732
 30
0.0
 11
302.0
 21
51.156
 31
0.0
  0
LINE
  5
35E
330
1E
100
AcDbEntity
  8
0
100
AcDbLine
 10
302.0
 20
50.732
 30
0.0
 11
302.0
 21
50.412
 31
0.0
  0
LINE
  5
35F
330
1E
100
AcDbEntity
  8
0
100
AcDbLine
 10
238.0
 20
50.732
 30
0.0
 11
238.0
 21
51.156
 31
0.0
  0
LINE
  5
360
330
1E
100
AcDbEntity
  8
0
100
AcDbLine
 10
238.0
 20
50.732
 30
0.0
 11
238.0
 21
50.412
 31
0.0
  0
LINE
  5
361
330
1E
100
AcDbEntity
  8
0
100
AcDbLine
 10
271.416
 20
50.732
 30
0.0
 11
271.736
 21
51.156
 31
0.0
  0
LINE
  5
362
330
1E
100
AcDbEntity
  8
0
100
AcDbLine
 10
268.584
 20
50.732
 30
0.0
 11
269.008
 21
50.412
 31
0.0
  0
LINE
  5
363
330
1E
100
AcDbEntity
  8
0
100
AcDbLine
 10
161.416
 20
50.732
 30
0.0
 11
161.736
 21
51.156
 31
0.0
  0
LINE
  5
364
330
1E
100
AcDbEntity
  8
0
100
AcDbLine
 10
158.584
 20
50.732
 30
0.0
 11
159.008
 21
50.412
 31
0.0
  0
LINE
  5
365
330
1E
100
AcDbEntity
  8
0
100
AcDbLine
 10
192.0
 20
50.732
 30
0.0
 11
192.0
 21
51.156
 31
0.0
  0
LINE
  5
366
330
1E
100
AcDbEntity
  8
0
100
AcDbLine
 10
192.0
 20
50.732
 30
0.0
 11
192.0
 21
50.412
 31
0.0
  0
LINE
  5
367
330
1E
100
AcDbEntity
  8
0
100
AcDbLine
 10
128.0
 20
50.732
 30
0.0
 11
128.0
 21
51.156
 31
0.0
  0
LINE
  5
368
330
1E
100
AcDbEntity
  8
0
100
AcDbLine
 10
128.0
 20
50.732
 30
0.0
 11
128.0
 21
50.412
 31
0.0
  0
LINE
  5
369
330
1E
100
AcDbEntity
  8
0
100
AcDbLine
 10
238.0
 20
51.156
 30
0.0
 11
238.0
 21
51.636
 31
0.0
  0
LINE
  5
36A
330
1E
100
AcDbEntity
  8
0
100
AcDbLine
 10
238.0
 20
51.156
 30
0.0
 11
238.0
 21
50.732
 31
0.0
  0
LINE
  5
36B
330
1E
100
AcDbEntity
  8
0
100
AcDbLine
 10
302.0
 20
51.156
 30
0.0
 11
302.0
 21
51.636
 31
0.0
  0
LINE
  5
36C
330
1E
100
AcDbEntity
  8
0
100
AcDbLine
 10
302.0
 20
51.156
 30
0.0
 11
302.0
 21
50.732
 31
0.0
  0
LINE
  5
36D
330
1E
100
AcDbEntity
  8
0
100
AcDbLine
 10
271.736
 20
51.156
 30
0.0
 11
271.928
 21
51.636
 31
0.0
  0
LINE
  5
36E
330
1E
100
AcDbEntity
  8
0
100
AcDbLine
 10
268.264
 20
51.156
 30
0.0
 11
268.584
 21
50.732
 31
0.0
  0
LINE
  5
36F
330
1E
100
AcDbEntity
  8
0
100
AcDbLine
 10
161.736
 20
51.156
 30
0.0
 11
161.928
 21
51.636
 31
0.0
  0
LINE
  5
370
330
1E
100
AcDbEntity
  8
0
100
AcDbLine
 10
158.264
 20
51.156
 30
0.0
 11
158.584
 21
50.732
 31
0.0
  0
LINE
  5
371
330
1E
100
AcDbEntity
  8
0
100
AcDbLine
 10
192.0
 20
51.156
 30
0.0
 11
192.0
 21
51.636
 31
0.0
  0
LINE
  5
372
330
1E
100
AcDbEntity
  8
0
100
AcDbLine
 10
192.0
 20
51.156
 30
0.0
 11
192.0
 21
50.732
 31
0.0
  0
LINE
  5
373
330
1E
100
AcDbEntity
  8
0
100
AcDbLine
 10
128.0
 20
51.156
 30
0.0
 11
128.0
 21
51.636
 31
0.0
  0
LINE
  5
374
330
1E
100
AcDbEntity
  8
0
100
AcDbLine
 10
128.0
 20
51.156
 30
0.0
 11
128.0
 21
50.732
 31
0.0
  0
LINE
  5
4A3
330
1E
100
AcDbEntity
  8
0
100
AcDbLine
 10
128.0
 20
51.636
 30
0.0
 11
128.0
 21
52.148
 31
0.0
  0
LINE
  5
4A4
330
1E
100
AcDbEntity
  8
0
100
AcDbLine
 10
128.0
 20
51.636
 30
0.0
 11
128.0
 21
51.156
 31
0.0
  0
LINE
  5
4A5
330
1E
100
AcDbEntity
  8
0
100
AcDbLine
 10
128.0
 20
52.148
 30
0.0
 11
128.0
 21
52.66
 31
0.0
  0
LINE
  5
4A6
330
1E
100
AcDbEntity
  8
0
100
AcDbLine
 10
128.0
 20
52.148
 30
0.0
 11
128.0
 21
51.636
 31
0.0
  0
LINE
  5
4A7
330
1E
100
AcDbEntity
  8
0
100
AcDbLine
 10
128.0
 20
52.66
 30
0.0
 11
128.0
 21
53.14
 31
0.0
  0
LINE
  5
4A8
330
1E
100
AcDbEntity
  8
0
100
AcDbLine
 10
128.0
 20
52.66
 30
0.0
 11
128.0
 21
52.148
 31
0.0
  0
LINE
  5
4A9
330
1E
100
AcDbEntity
  8
0
100
AcDbLine
 10
128.0
 20
53.14
 30
0.0
 11
128.0
 21
53.564
 31
0.0
  0
LINE
  5
4AA
330
1E
100
AcDbEntity
  8
0
100
AcDbLine
 10
128.0
 20
53.14
 30
0.0
 11
128.0
 21
52.66
 31
0.0
  0
LINE
  5
4AB
330
1E
100
AcDbEntity
  8
0
100
AcDbLine
 10
128.0
 20
53.564
 30
0.0
 11
128.0
 21
53.884
 31
0.0
  0
LINE
  5
4AC
330
1E
100
AcDbEntity
  8
0
100
AcDbLine
 10
128.0
 20
53.564
 30
0.0
 11
128.0
 21
53.14
 31
0.0
  0
LINE
  5
4AD
330
1E
100
AcDbEntity
  8
0
100
AcDbLine
 10
128.0
 20
53.884
 30
0.0
 11
128.0
 21
54.076
 31
0.0
  0
LINE
  5
4AE
330
1E
100
AcDbEntity
  8
0
100
AcDbLine
 10
128.0
 20
53.884
 30
0.0
 11
128.0
 21
53.564
 31
0.0
  0
LINE
  5
4AF
330
1E
100
AcDbEntity
  8
0
100
AcDbLine
 10
128.0
 20
54.076
 30
0.0
 11
128.0
 21
54.148
 31
0.0
  0
LINE
  5
4B0
330
1E
100
AcDbEntity
  8
0
100
AcDbLine
 10
128.0
 20
54.076
 30
0.0
 11
128.0
 21
53.884
 31
0.0
  0
LINE
  5
4B1
330
1E
100
AcDbEntity
  8
0
100
AcDbLine
 10
128.0
 20
54.148
 30
0.0
 11
128.0
 21
54.076
 31
0.0
  0
LINE
  5
4B2
330
1E
100
AcDbEntity
  8
0
100
AcDbLine
 10
128.0
 20
54.148
 30
0.0
 11
133.0
 21
54.148
 31
0.0
  0
LINE
  5
4B3
330
1E
100
AcDbEntity
  8
0
100
AcDbLine
 10
133.0
 20
54.121
 30
0.0
 11
133.0
 21
64.648
 31
0.0
  0
LINE
  5
4B4
330
1E
100
AcDbEntity
  8
0
100
AcDbLine
 10
161.928
 20
51.636
 30
0.0
 11
162.0
 21
52.148
 31
0.0
  0
LINE
  5
4B5
330
1E
100
AcDbEntity
  8
0
100
AcDbLine
 10
158.072
 20
51.636
 30
0.0
 11
158.264
 21
51.156
 31
0.0
  0
LINE
  5
4B6
330
1E
100
AcDbEntity
  8
0
100
AcDbLine
 10
192.0
 20
51.636
 30
0.0
 11
192.0
 21
52.148
 31
0.0
  0
LINE
  5
4B7
330
1E
100
AcDbEntity
  8
0
100
AcDbLine
 10
192.0
 20
51.636
 30
0.0
 11
192.0
 21
51.156
 31
0.0
  0
LINE
  5
4B8
330
1E
100
AcDbEntity
  8
0
100
AcDbLine
 10
158.0
 20
52.148
 30
0.0
 11
158.072
 21
52.66
 31
0.0
  0
LINE
  5
4B9
330
1E
100
AcDbEntity
  8
0
100
AcDbLine
 10
158.0
 20
52.148
 30
0.0
 11
158.072
 21
51.636
 31
0.0
  0
LINE
  5
4BA
330
1E
100
AcDbEntity
  8
0
100
AcDbLine
 10
158.072
 20
52.66
 30
0.0
 11
158.264
 21
53.14
 31
0.0
  0
LINE
  5
4BB
330
1E
100
AcDbEntity
  8
0
100
AcDbLine
 10
161.928
 20
52.66
 30
0.0
 11
162.0
 21
52.148
 31
0.0
  0
LINE
  5
4BC
330
1E
100
AcDbEntity
  8
0
100
AcDbLine
 10
161.736
 20
53.14
 30
0.0
 11
161.928
 21
52.66
 31
0.0
  0
LINE
  5
4BD
330
1E
100
AcDbEntity
  8
0
100
AcDbLine
 10
158.264
 20
53.14
 30
0.0
 11
158.584
 21
53.564
 31
0.0
  0
LINE
  5
4BE
330
1E
100
AcDbEntity
  8
0
100
AcDbLine
 10
192.0
 20
52.148
 30
0.0
 11
192.0
 21
52.66
 31
0.0
  0
LINE
  5
4BF
330
1E
100
AcDbEntity
  8
0
100
AcDbLine
 10
192.0
 20
52.148
 30
0.0
 11
192.0
 21
51.636
 31
0.0
  0
LINE
  5
4C0
330
1E
100
AcDbEntity
  8
0
100
AcDbLine
 10
192.0
 20
52.66
 30
0.0
 11
192.0
 21
53.14
 31
0.0
  0
LINE
  5
4C1
330
1E
100
AcDbEntity
  8
0
100
AcDbLine
 10
192.0
 20
52.66
 30
0.0
 11
192.0
 21
52.148
 31
0.0
  0
LINE
  5
4C2
330
1E
100
AcDbEntity
  8
0
100
AcDbLine
 10
158.584
 20
53.564
 30
0.0
 11
159.008
 21
53.884
 31
0.0
  0
LINE
  5
4C3
330
1E
100
AcDbEntity
  8
0
100
AcDbLine
 10
161.416
 20
53.564
 30
0.0
 11
161.736
 21
53.14
 31
0.0
  0
LINE
  5
4C4
330
1E
100
AcDbEntity
  8
0
100
AcDbLine
 10
160.992
 20
53.884
 30
0.0
 11
161.416
 21
53.564
 31
0.0
  0
LINE
  5
4C5
330
1E
100
AcDbEntity
  8
0
100
AcDbLine
 10
159.008
 20
53.884
 30
0.0
 11
159.488
 21
54.076
 31
0.0
  0
LINE
  5
4C6
330
1E
100
AcDbEntity
  8
0
100
AcDbLine
 10
192.0
 20
53.14
 30
0.0
 11
192.0
 21
53.564
 31
0.0
  0
LINE
  5
4C7
330
1E
100
AcDbEntity
  8
0
100
AcDbLine
 10
192.0
 20
53.14
 30
0.0
 11
192.0
 21
52.66
 31
0.0
  0
LINE
  5
4C8
330
1E
100
AcDbEntity
  8
0
100
AcDbLine
 10
192.0
 20
53.564
 30
0.0
 11
192.0
 21
53.884
 31
0.0
  0
LINE
  5
4C9
330
1E
100
AcDbEntity
  8
0
100
AcDbLine
 10
192.0
 20
53.564
 30
0.0
 11
192.0
 21
53.14
 31
0.0
  0
LINE
  5
4CA
330
1E
100
AcDbEntity
  8
0
100
AcDbLine
 10
160.512
 20
54.076
 30
0.0
 11
160.992
 21
53.884
 31
0.0
  0
LINE
  5
4CB
330
1E
100
AcDbEntity
  8
0
100
AcDbLine
 10
159.488
 20
54.076
 30
0.0
 11
160.0
 21
54.148
 31
0.0
  0
LINE
  5
4CC
330
1E
100
AcDbEntity
  8
0
100
AcDbLine
 10
192.0
 20
53.884
 30
0.0
 11
192.0
 21
54.076
 31
0.0
  0
LINE
  5
4CD
330
1E
100
AcDbEntity
  8
0
100
AcDbLine
 10
192.0
 20
53.884
 30
0.0
 11
192.0
 21
53.564
 31
0.0
  0
LINE
  5
4CE
330
1E
100
AcDbEntity
  8
0
100
AcDbLine
 10
238.0
 20
51.636
 30
0.0
 11
238.0
 21
52.148
 31
0.0
  0
LINE
  5
4CF
330
1E
100
AcDbEntity
  8
0
100
AcDbLine
 10
238.0
 20
51.636
 30
0.0
 11
238.0
 21
51.156
 31
0.0
  0
LINE
  5
4D0
330
1E
100
AcDbEntity
  8
0
100
AcDbLine
 10
238.0
 20
52.148
 30
0.0
 11
238.0
 21
52.66
 31
0.0
  0
LINE
  5
4D1
330
1E
100
AcDbEntity
  8
0
100
AcDbLine
 10
238.0
 20
52.148
 30
0.0
 11
238.0
 21
51.636
 31
0.0
  0
LINE
  5
4D2
330
1E
100
AcDbEntity
  8
0
100
AcDbLine
 10
268.072
 20
51.636
 30
0.0
 11
268.264
 21
51.156
 31
0.0
  0
LINE
  5
4D3
330
1E
100
AcDbEntity
  8
0
100
AcDbLine
 10
238.0
 20
52.66
 30
0.0
 11
238.0
 21
53.14
 31
0.0
  0
LINE
  5
4D4
330
1E
100
AcDbEntity
  8
0
100
AcDbLine
 10
238.0
 20
52.66
 30
0.0
 11
238.0
 21
52.148
 31
0.0
  0
LINE
  5
4D5
330
1E
100
AcDbEntity
  8
0
100
AcDbLine
 10
238.0
 20
53.14
 30
0.0
 11
238.0
 21
53.564
 31
0.0
  0
LINE
  5
4D6
330
1E
100
AcDbEntity
  8
0
100
AcDbLine
 10
238.0
 20
53.14
 30
0.0
 11
238.0
 21
52.66
 31
0.0
  0
LINE
  5
4D7
330
1E
100
AcDbEntity
  8
0
100
AcDbLine
 10
268.0
 20
52.148
 30
0.0
 11
268.072
 21
52.66
 31
0.0
  0
LINE
  5
4D8
330
1E
100
AcDbEntity
  8
0
100
AcDbLine
 10
268.0
 20
52.148
 30
0.0
 11
268.072
 21
51.636
 31
0.0
  0
LINE
  5
4D9
330
1E
100
AcDbEntity
  8
0
100
AcDbLine
 10
268.072
 20
52.66
 30
0.0
 11
268.264
 21
53.14
 31
0.0
  0
LINE
  5
4DA
330
1E
100
AcDbEntity
  8
0
100
AcDbLine
 10
238.0
 20
53.564
 30
0.0
 11
238.0
 21
53.884
 31
0.0
  0
LINE
  5
4DB
330
1E
100
AcDbEntity
  8
0
100
AcDbLine
 10
238.0
 20
53.564
 30
0.0
 11
238.0
 21
53.14
 31
0.0
  0
LINE
  5
4DC
330
1E
100
AcDbEntity
  8
0
100
AcDbLine
 10
238.0
 20
53.884
 30
0.0
 11
238.0
 21
54.076
 31
0.0
  0
LINE
  5
4DD
330
1E
100
AcDbEntity
  8
0
100
AcDbLine
 10
238.0
 20
53.884
 30
0.0
 11
238.0
 21
53.564
 31
0.0
  0
LINE
  5
4DE
330
1E
100
AcDbEntity
  8
0
100
AcDbLine
 10
268.264
 20
53.14
 30
0.0
 11
268.584
 21
53.564
 31
0.0
  0
LINE
  5
4DF
330
1E
100
AcDbEntity
  8
0
100
AcDbLine
 10
268.584
 20
53.564
 30
0.0
 11
269.008
 21
53.884
 31
0.0
  0
LINE
  5
4E0
330
1E
100
AcDbEntity
  8
0
100
AcDbLine
 10
238.0
 20
54.076
 30
0.0
 11
238.0
 21
54.148
 31
0.0
  0
LINE
  5
4E1
330
1E
100
AcDbEntity
  8
0
100
AcDbLine
 10
238.0
 20
54.076
 30
0.0
 11
238.0
 21
53.884
 31
0.0
  0
LINE
  5
4E2
330
1E
100
AcDbEntity
  8
0
100
AcDbLine
 10
243.0
 20
54.121
 30
0.0
 11
243.0
 21
64.648
 31
0.0
  0
LINE
  5
4E3
330
1E
100
AcDbEntity
  8
0
100
AcDbLine
 10
269.008
 20
53.884
 30
0.0
 11
269.488
 21
54.076
 31
0.0
  0
LINE
  5
4E4
330
1E
100
AcDbEntity
  8
0
100
AcDbLine
 10
302.0
 20
51.636
 30
0.0
 11
302.0
 21
52.148
 31
0.0
  0
LINE
  5
4E5
330
1E
100
AcDbEntity
  8
0
100
AcDbLine
 10
302.0
 20
51.636
 30
0.0
 11
302.0
 21
51.156
 31
0.0
  0
LINE
  5
4E6
330
1E
100
AcDbEntity
  8
0
100
AcDbLine
 10
302.0
 20
52.148
 30
0.0
 11
302.0
 21
52.66
 31
0.0
  0
LINE
  5
4E7
330
1E
100
AcDbEntity
  8
0
100
AcDbLine
 10
302.0
 20
52.148
 30
0.0
 11
302.0
 21
51.636
 31
0.0
  0
LINE
  5
4E8
330
1E
100
AcDbEntity
  8
0
100
AcDbLine
 10
302.0
 20
52.66
 30
0.0
 11
302.0
 21
53.14
 31
0.0
  0
LINE
  5
4E9
330
1E
100
AcDbEntity
  8
0
100
AcDbLine
 10
302.0
 20
52.66
 30
0.0
 11
302.0
 21
52.148
 31
0.0
  0
LINE
  5
4EA
330
1E
100
AcDbEntity
  8
0
100
AcDbLine
 10
302.0
 20
53.14
 30
0.0
 11
302.0
 21
53.564
 31
0.0
  0
LINE
  5
4EB
330
1E
100
AcDbEntity
  8
0
100
AcDbLine
 10
302.0
 20
53.14
 30
0.0
 11
302.0
 21
52.66
 31
0.0
  0
LINE
  5
4EC
330
1E
100
AcDbEntity
  8
0
100
AcDbLine
 10
271.928
 20
52.66
 30
0.0
 11
272.0
 21
52.148
 31
0.0
  0
LINE
  5
4ED
330
1E
100
AcDbEntity
  8
0
100
AcDbLine
 10
302.0
 20
53.564
 30
0.0
 11
302.0
 21
53.884
 31
0.0
  0
LINE
  5
4EE
330
1E
100
AcDbEntity
  8
0
100
AcDbLine
 10
302.0
 20
53.564
 30
0.0
 11
302.0
 21
53.14
 31
0.0
  0
LINE
  5
4EF
330
1E
100
AcDbEntity
  8
0
100
AcDbLine
 10
302.0
 20
53.884
 30
0.0
 11
302.0
 21
54.076
 31
0.0
  0
LINE
  5
4F0
330
1E
100
AcDbEntity
  8
0
100
AcDbLine
 10
302.0
 20
53.884
 30
0.0
 11
302.0
 21
53.564
 31
0.0
  0
LINE
  5
4F1
330
1E
100
AcDbEntity
  8
0
100
AcDbLine
 10
271.736
 20
53.14
 30
0.0
 11
271.928
 21
52.66
 31
0.0
  0
LINE
  5
4F2
330
1E
100
AcDbEntity
  8
0
100
AcDbLine
 10
271.416
 20
53.564
 30
0.0
 11
271.736
 21
53.14
 31
0.0
  0
LINE
  5
4F3
330
1E
100
AcDbEntity
  8
0
100
AcDbLine
 10
302.0
 20
54.076
 30
0.0
 11
302.0
 21
54.148
 31
0.0
  0
LINE
  5
4F4
330
1E
100
AcDbEntity
  8
0
100
AcDbLine
 10
302.0
 20
54.076
 30
0.0
 11
302.0
 21
53.884
 31
0.0
  0
LINE
  5
4F5
330
1E
100
AcDbEntity
  8
0
100
AcDbLine
 10
270.992
 20
53.884
 30
0.0
 11
271.416
 21
53.564
 31
0.0
  0
LINE
  5
4F6
330
1E
100
AcDbEntity
  8
0
100
AcDbLine
 10
270.512
 20
54.076
 30
0.0
 11
270.992
 21
53.884
 31
0.0
  0
LINE
  5
4F7
330
1E
100
AcDbEntity
  8
0
100
AcDbLine
 10
271.928
 20
51.636
 30
0.0
 11
272.0
 21
52.148
 31
0.0
  0
LINE
  5
4F8
330
1E
100
AcDbEntity
  8
0
100
AcDbLine
 10
269.488
 20
54.076
 30
0.0
 11
270.0
 21
54.148
 31
0.0
  0
LINE
  5
4F9
330
1E
100
AcDbEntity
  8
0
100
AcDbLine
 10
297.0
 20
54.121
 30
0.0
 11
297.0
 21
64.648
 31
0.0
  0
LINE
  5
4FA
330
1E
100
AcDbEntity
  8
0
100
AcDbLine
 10
192.0
 20
54.076
 30
0.0
 11
192.0
 21
54.148
 31
0.0
  0
LINE
  5
4FB
330
1E
100
AcDbEntity
  8
0
100
AcDbLine
 10
192.0
 20
54.076
 30
0.0
 11
192.0
 21
53.884
 31
0.0
  0
LINE
  5
4FC
330
1E
100
AcDbEntity
  8
0
100
AcDbLine
 10
160.0
 20
54.148
 30
0.0
 11
160.512
 21
54.076
 31
0.0
  0
LINE
  5
4FD
330
1E
100
AcDbEntity
  8
0
100
AcDbLine
 10
187.0
 20
54.148
 30
0.0
 11
192.0
 21
54.148
 31
0.0
  0
LINE
  5
4FE
330
1E
100
AcDbEntity
  8
0
100
AcDbLine
 10
238.0
 20
54.148
 30
0.0
 11
238.0
 21
54.076
 31
0.0
  0
LINE
  5
4FF
330
1E
100
AcDbEntity
  8
0
100
AcDbLine
 10
238.0
 20
54.148
 30
0.0
 11
243.0
 21
54.148
 31
0.0
  0
LINE
  5
500
330
1E
100
AcDbEntity
  8
0
100
AcDbLine
 10
270.0
 20
54.148
 30
0.0
 11
270.512
 21
54.076
 31
0.0
  0
LINE
  5
501
330
1E
100
AcDbEntity
  8
0
100
AcDbLine
 10
244.0
 20
64.648
 30
0.0
 11
246.6
 21
64.648
 31
0.0
  0
LINE
  5
502
330
1E
100
AcDbEntity
  8
0
100
AcDbLine
 10
243.0
 20
64.648
 30
0.0
 11
243.0
 21
54.121
 31
0.0
  0
LINE
  5
503
330
1E
100
AcDbEntity
  8
0
100
AcDbLine
 10
243.0
 20
64.648
 30
0.0
 11
244.0
 21
64.648
 31
0.0
  0
LINE
  5
504
330
1E
100
AcDbEntity
  8
0
100
AcDbLine
 10
243.0
 20
64.648
 30
0.0
 11
243.5
 21
65.148
 31
0.0
  0
LINE
  5
505
330
1E
100
AcDbEntity
  8
0
100
AcDbLine
 10
297.0
 20
54.148
 30
0.0
 11
302.0
 21
54.148
 31
0.0
  0
LINE
  5
506
330
1E
100
AcDbEntity
  8
0
100
AcDbLine
 10
374.634
 20
64.596
 30
0.0
 11
379.996
 21
64.1854
 31
0.0
  0
LINE
  5
507
330
1E
100
AcDbEntity
  8
0
100
AcDbLine
 10
385.405
 20
64.5955
 30
0.0
 11
389.896
 21
65.7401
 31
0.0
  0
LINE
  5
508
330
1E
100
AcDbEntity
  8
0
100
AcDbLine
 10
379.996
 20
64.1854
 30
0.0
 11
385.405
 21
64.5955
 31
0.0
  0
LINE
  5
509
330
1E
100
AcDbEntity
  8
0
100
AcDbLine
 10
349.506
 20
58.1481
 30
0.0
 11
350.508
 21
68.1481
 31
0.0
  0
LINE
  5
50A
330
1E
100
AcDbEntity
  8
0
100
AcDbLine
 10
410.506
 20
58.1481
 30
0.0
 11
411.505
 21
48.1481
 31
0.0
  0
LINE
  5
50B
330
1E
100
AcDbEntity
  8
0
100
AcDbLine
 10
302.0
 20
54.148
 30
0.0
 11
302.0
 21
54.076
 31
0.0
  0
LINE
  5
50C
330
1E
100
AcDbEntity
  8
0
100
AcDbLine
 10
296.0
 20
64.648
 30
0.0
 11
297.0
 21
64.648
 31
0.0
  0
LINE
  5
50D
330
1E
100
AcDbEntity
  8
0
100
AcDbLine
 10
297.0
 20
64.648
 30
0.0
 11
297.0
 21
54.121
 31
0.0
  0
LINE
  5
50E
330
1E
100
AcDbEntity
  8
0
100
AcDbLine
 10
192.0
 20
54.148
 30
0.0
 11
192.0
 21
54.076
 31
0.0
  0
LINE
  5
50F
330
1E
100
AcDbEntity
  8
0
100
AcDbLine
 10
187.0
 20
64.648
 30
0.0
 11
187.0
 21
54.121
 31
0.0
  0
LINE
  5
510
330
1E
100
AcDbEntity
  8
0
100
AcDbLine
 10
186.0
 20
64.648
 30
0.0
 11
187.0
 21
64.648
 31
0.0
  0
LINE
  5
511
330
1E
100
AcDbEntity
  8
0
100
AcDbLine
 10
187.0
 20
54.121
 30
0.0
 11
187.0
 21
64.648
 31
0.0
  0
LINE
  5
512
330
1E
100
AcDbEntity
  8
0
100
AcDbLine
 10
134.0
 20
64.648
 30
0.0
 11
136.6
 21
64.648
 31
0.0
  0
LINE
  5
513
330
1E
100
AcDbEntity
  8
0
100
AcDbLine
 10
134.5
 20
65.148
 30
0.0
 11
137.0
 21
65.148
 31
0.0
  0
LINE
  5
514
330
1E
100
AcDbEntity
  8
0
100
AcDbLine
 10
133.5
 20
65.148
 30
0.0
 11
134.5
 21
65.148
 31
0.0
  0
LINE
  5
515
330
1E
100
AcDbEntity
  8
0
100
AcDbLine
 10
160.0
 20
64.648
 30
0.0
 11
166.9
 21
64.648
 31
0.0
  0
LINE
  5
516
330
1E
100
AcDbEntity
  8
0
100
AcDbLine
 10
166.9
 20
64.648
 30
0.0
 11
173.4
 21
64.648
 31
0.0
  0
LINE
  5
517
330
1E
100
AcDbEntity
  8
0
100
AcDbLine
 10
173.4
 20
64.648
 30
0.0
 11
179.0
 21
64.648
 31
0.0
  0
LINE
  5
518
330
1E
100
AcDbEntity
  8
0
100
AcDbLine
 10
179.0
 20
64.648
 30
0.0
 11
183.4
 21
64.648
 31
0.0
  0
LINE
  5
519
330
1E
100
AcDbEntity
  8
0
100
AcDbLine
 10
263.1
 20
64.648
 30
0.0
 11
270.0
 21
64.648
 31
0.0
  0
LINE
  5
51A
330
1E
100
AcDbEntity
  8
0
100
AcDbLine
 10
256.6
 20
64.648
 30
0.0
 11
263.1
 21
64.648
 31
0.0
  0
LINE
  5
51B
330
1E
100
AcDbEntity
  8
0
100
AcDbLine
 10
251.0
 20
64.648
 30
0.0
 11
256.6
 21
64.648
 31
0.0
  0
LINE
  5
51C
330
1E
100
AcDbEntity
  8
0
100
AcDbLine
 10
246.6
 20
64.648
 30
0.0
 11
251.0
 21
64.648
 31
0.0
  0
LINE
  5
51D
330
1E
100
AcDbEntity
  8
0
100
AcDbLine
 10
270.0
 20
64.648
 30
0.0
 11
276.9
 21
64.648
 31
0.0
  0
LINE
  5
51E
330
1E
100
AcDbEntity
  8
0
100
AcDbLine
 10
276.9
 20
64.648
 30
0.0
 11
283.4
 21
64.648
 31
0.0
  0
LINE
  5
51F
330
1E
100
AcDbEntity
  8
0
100
AcDbLine
 10
283.4
 20
64.648
 30
0.0
 11
289.0
 21
64.648
 31
0.0
  0
LINE
  5
520
330
1E
100
AcDbEntity
  8
0
100
AcDbLine
 10
289.0
 20
64.648
 30
0.0
 11
293.4
 21
64.648
 31
0.0
  0
LINE
  5
521
330
1E
100
AcDbEntity
  8
0
100
AcDbLine
 10
293.4
 20
64.648
 30
0.0
 11
296.0
 21
64.648
 31
0.0
  0
LINE
  5
522
330
1E
100
AcDbEntity
  8
0
100
AcDbLine
 10
183.4
 20
64.648
 30
0.0
 11
186.0
 21
64.648
 31
0.0
  0
LINE
  5
523
330
1E
100
AcDbEntity
  8
0
100
AcDbLine
 10
153.1
 20
64.648
 30
0.0
 11
160.0
 21
64.648
 31
0.0
  0
LINE
  5
524
330
1E
100
AcDbEntity
  8
0
100
AcDbLine
 10
146.6
 20
64.648
 30
0.0
 11
153.1
 21
64.648
 31
0.0
  0
LINE
  5
525
330
1E
100
AcDbEntity
  8
0
100
AcDbLine
 10
160.0
 20
65.148
 30
0.0
 11
166.8
 21
65.148
 31
0.0
  0
LINE
  5
526
330
1E
100
AcDbEntity
  8
0
100
AcDbLine
 10
166.8
 20
65.148
 30
0.0
 11
173.2
 21
65.148
 31
0.0
  0
LINE
  5
527
330
1E
100
AcDbEntity
  8
0
100
AcDbLine
 10
173.2
 20
65.148
 30
0.0
 11
178.7
 21
65.148
 31
0.0
  0
LINE
  5
528
330
1E
100
AcDbEntity
  8
0
100
AcDbLine
 10
178.7
 20
65.148
 30
0.0
 11
183.0
 21
65.148
 31
0.0
  0
LINE
  5
529
330
1E
100
AcDbEntity
  8
0
100
AcDbLine
 10
183.0
 20
65.148
 30
0.0
 11
185.5
 21
65.148
 31
0.0
  0
LINE
  5
52A
330
1E
100
AcDbEntity
  8
0
100
AcDbLine
 10
185.5
 20
65.148
 30
0.0
 11
186.5
 21
65.148
 31
0.0
  0
LINE
  5
52B
330
1E
100
AcDbEntity
  8
0
100
AcDbLine
 10
263.2
 20
65.148
 30
0.0
 11
270.0
 21
65.148
 31
0.0
  0
LINE
  5
52C
330
1E
100
AcDbEntity
  8
0
100
AcDbLine
 10
256.8
 20
65.148
 30
0.0
 11
263.2
 21
65.148
 31
0.0
  0
LINE
  5
52D
330
1E
100
AcDbEntity
  8
0
100
AcDbLine
 10
251.3
 20
65.148
 30
0.0
 11
256.8
 21
65.148
 31
0.0
  0
LINE
  5
52E
330
1E
100
AcDbEntity
  8
0
100
AcDbLine
 10
247.0
 20
65.148
 30
0.0
 11
251.3
 21
65.148
 31
0.0
  0
LINE
  5
52F
330
1E
100
AcDbEntity
  8
0
100
AcDbLine
 10
244.5
 20
65.148
 30
0.0
 11
247.0
 21
65.148
 31
0.0
  0
LINE
  5
530
330
1E
100
AcDbEntity
  8
0
100
AcDbLine
 10
243.5
 20
65.148
 30
0.0
 11
244.5
 21
65.148
 31
0.0
  0
LINE
  5
531
330
1E
100
AcDbEntity
  8
0
100
AcDbLine
 10
270.0
 20
65.148
 30
0.0
 11
276.8
 21
65.148
 31
0.0
  0
LINE
  5
532
330
1E
100
AcDbEntity
  8
0
100
AcDbLine
 10
276.8
 20
65.148
 30
0.0
 11
283.2
 21
65.148
 31
0.0
  0
LINE
  5
533
330
1E
100
AcDbEntity
  8
0
100
AcDbLine
 10
283.2
 20
65.148
 30
0.0
 11
288.7
 21
65.148
 31
0.0
  0
LINE
  5
534
330
1E
100
AcDbEntity
  8
0
100
AcDbLine
 10
288.7
 20
65.148
 30
0.0
 11
293.0
 21
65.148
 31
0.0
  0
LINE
  5
535
330
1E
100
AcDbEntity
  8
0
100
AcDbLine
 10
293.0
 20
65.148
 30
0.0
 11
295.5
 21
65.148
 31
0.0
  0
LINE
  5
536
330
1E
100
AcDbEntity
  8
0
100
AcDbLine
 10
295.5
 20
65.148
 30
0.0
 11
296.5
 21
65.148
 31
0.0
  0
LINE
  5
537
330
1E
100
AcDbEntity
  8
0
100
AcDbLine
 10
296.5
 20
65.148
 30
0.0
 11
297.0
 21
64.648
 31
0.0
  0
LINE
  5
538
330
1E
100
AcDbEntity
  8
0
100
AcDbLine
 10
186.5
 20
65.148
 30
0.0
 11
187.0
 21
64.648
 31
0.0
  0
LINE
  5
539
330
1E
100
AcDbEntity
  8
0
100
AcDbLine
 10
153.2
 20
65.148
 30
0.0
 11
160.0
 21
65.148
 31
0.0
  0
LINE
  5
53A
330
1E
100
AcDbEntity
  8
0
100
AcDbLine
 10
146.8
 20
65.148
 30
0.0
 11
153.2
 21
65.148
 31
0.0
  0
LINE
  5
53B
330
1E
100
AcDbEntity
  8
0
100
AcDbLine
 10
370.097
 20
65.7546
 30
0.0
 11
374.634
 21
64.596
 31
0.0
  0
LINE
  5
53C
330
1E
100
AcDbEntity
  8
0
100
AcDbLine
 10
367.062
 20
67.487
 30
0.0
 11
370.097
 21
65.7546
 31
0.0
  0
LINE
  5
53D
330
1E
100
AcDbEntity
  8
0
100
AcDbLine
 10
392.93
 20
67.468
 30
0.0
 11
393.996
 21
69.5038
 31
0.0
  0
LINE
  5
53E
330
1E
100
AcDbEntity
  8
0
100
AcDbLine
 10
389.896
 20
65.7401
 30
0.0
 11
392.93
 21
67.468
 31
0.0
  0
LINE
  5
53F
330
1E
100
AcDbEntity
  8
0
100
AcDbLine
 10
365.996
 20
69.5286
 30
0.0
 11
366.004
 21
78.1587
 31
0.0
  0
LINE
  5
540
330
1E
100
AcDbEntity
  8
0
100
AcDbLine
 10
365.996
 20
69.5286
 30
0.0
 11
367.062
 21
71.5687
 31
0.0
  0
LINE
  5
541
330
1E
100
AcDbEntity
  8
0
100
AcDbLine
 10
365.996
 20
69.5286
 30
0.0
 11
367.062
 21
67.487
 31
0.0
  0
LINE
  5
542
330
1E
100
AcDbEntity
  8
0
100
AcDbLine
 10
393.996
 20
69.5038
 30
0.0
 11
394.004
 21
78.1339
 31
0.0
  0
LINE
  5
543
330
1E
100
AcDbEntity
  8
0
100
AcDbLine
 10
373.4
 20
71.3247
 30
0.0
 11
376.425
 21
70.5523
 31
0.0
  0
LINE
  5
544
330
1E
100
AcDbEntity
  8
0
100
AcDbLine
 10
371.377
 20
72.4797
 30
0.0
 11
373.4
 21
71.3247
 31
0.0
  0
LINE
  5
545
330
1E
100
AcDbEntity
  8
0
100
AcDbLine
 10
367.062
 20
71.5687
 30
0.0
 11
370.097
 21
73.2966
 31
0.0
  0
LINE
  5
546
330
1E
100
AcDbEntity
  8
0
100
AcDbLine
 10
370.850410848913
 20
73.487847893755
 30
0.0
 11
371.377
 21
72.4797
 31
0.0
  0
LINE
  5
547
330
1E
100
AcDbEntity
  8
0
100
AcDbLine
 10
370.097
 20
73.2966
 30
0.0
 11
374.638
 21
74.4493
 31
0.0
  0
LINE
  5
548
330
1E
100
AcDbEntity
  8
0
100
AcDbLine
 10
376.425
 20
70.5523
 30
0.0
 11
380.0
 21
70.2785
 31
0.0
  0
LINE
  5
549
330
1E
100
AcDbEntity
  8
0
100
AcDbLine
 10
374.638
 20
74.4493
 30
0.0
 11
380.018
 21
74.8513
 31
0.0
  0
LINE
  5
54A
330
1E
100
AcDbEntity
  8
0
100
AcDbLine
 10
366.004
 20
78.1587
 30
0.0
 11
367.069
 21
80.1987
 31
0.0
  0
LINE
  5
54B
330
1E
100
AcDbEntity
  8
0
100
AcDbLine
 10
380.018
 20
74.8513
 30
0.0
 11
385.354
 21
74.4414
 31
0.0
  0
LINE
  5
54C
330
1E
100
AcDbEntity
  8
0
100
AcDbLine
 10
385.354
 20
74.4414
 30
0.0
 11
389.896
 21
73.2821
 31
0.0
  0
LINE
  5
54D
330
1E
100
AcDbEntity
  8
0
100
AcDbLine
 10
389.896
 20
73.2821
 30
0.0
 11
392.93
 21
71.5497
 31
0.0
  0
LINE
  5
54E
330
1E
100
AcDbEntity
  8
0
100
AcDbLine
 10
392.93
 20
71.5497
 30
0.0
 11
393.996
 21
69.5038
 31
0.0
  0
LINE
  5
54F
330
1E
100
AcDbEntity
  8
0
100
AcDbLine
 10
388.623
 20
72.4671
 30
0.0
 11
389.149740957811
 21
73.472575144784
 31
0.0
  0
LINE
  5
550
330
1E
100
AcDbEntity
  8
0
100
AcDbLine
 10
386.6
 20
71.3151
 30
0.0
 11
388.623
 21
72.4671
 31
0.0
  0
LINE
  5
551
330
1E
100
AcDbEntity
  8
0
100
AcDbLine
 10
383.606
 20
70.552
 30
0.0
 11
386.6
 21
71.3151
 31
0.0
  0
LINE
  5
552
330
1E
100
AcDbEntity
  8
0
100
AcDbLine
 10
380.0
 20
70.2785
 30
0.0
 11
383.606
 21
70.552
 31
0.0
  0
LINE
  5
553
330
1E
100
AcDbEntity
  8
0
100
AcDbLine
 10
394.003818522352
 20
77.938128718702
 30
0.0
 11
394.113
 21
78.1484
 31
0.0
  0
LINE
  5
554
330
1E
100
AcDbEntity
  8
0
100
AcDbLine
 10
367.069
 20
80.1987
 30
0.0
 11
370.104
 21
81.9267
 31
0.0
  0
LINE
  5
555
330
1E
100
AcDbEntity
  8
0
100
AcDbLine
 10
370.104
 20
81.9267
 30
0.0
 11
374.646
 21
83.0794
 31
0.0
  0
LINE
  5
556
330
1E
100
AcDbEntity
  8
0
100
AcDbLine
 10
374.646
 20
83.0794
 30
0.0
 11
380.026
 21
83.4814
 31
0.0
  0
LINE
  5
557
330
1E
100
AcDbEntity
  8
0
100
AcDbLine
 10
385.361
 20
83.0715
 30
0.0
 11
389.903
 21
81.9122
 31
0.0
  0
LINE
  5
558
330
1E
100
AcDbEntity
  8
0
100
AcDbLine
 10
389.903
 20
81.9122
 30
0.0
 11
392.938
 21
80.1798
 31
0.0
  0
LINE
  5
559
330
1E
100
AcDbEntity
  8
0
100
AcDbLine
 10
392.938
 20
80.1798
 30
0.0
 11
394.004
 21
78.1339
 31
0.0
  0
LINE
  5
55A
330
1E
100
AcDbEntity
  8
0
100
AcDbLine
 10
393.051
 20
80.2091
 30
0.0
 11
394.113
 21
78.1484
 31
0.0
  0
LINE
  5
55B
330
1E
100
AcDbEntity
  8
0
100
AcDbLine
 10
390.019
 20
81.956
 30
0.0
 11
393.051
 21
80.2091
 31
0.0
  0
LINE
  5
55C
330
1E
100
AcDbEntity
  8
0
100
AcDbLine
 10
385.48
 20
83.1233
 30
0.0
 11
390.019
 21
81.956
 31
0.0
  0
LINE
  5
55D
330
1E
100
AcDbEntity
  8
0
100
AcDbLine
 10
380.026
 20
83.4814
 30
0.0
 11
385.361
 21
83.0715
 31
0.0
  0
LINE
  5
55E
330
1E
100
AcDbEntity
  8
0
100
AcDbLine
 10
380.123
 20
83.5331
 30
0.0
 11
385.48
 21
83.1233
 31
0.0
  0
LINE
  5
55F
330
1E
100
AcDbEntity
  8
0
100
AcDbLine
 10
374.764
 20
83.1233
 30
0.0
 11
380.123
 21
83.5331
 31
0.0
  0
LINE
  5
560
330
1E
100
AcDbEntity
  8
0
100
AcDbLine
 10
370.345471388334
 20
81.987982269778
 30
0.0
 11
374.764
 21
83.1233
 31
0.0
  0
LINE
  5
561
330
1E
100
AcDbEntity
  8
0
100
AcDbLine
 10
394.109
 20
90.1484
 30
0.0
 11
394.113
 21
78.1484
 31
0.0
  0
LINE
  5
562
330
1E
100
AcDbEntity
  8
0
100
AcDbLine
 10
366.109
 20
90.1484
 30
0.0
 11
366.112927017022
 21
78.367348934014
 31
0.0
  0
LINE
  5
563
330
1E
100
AcDbEntity
  8
0
100
AcDbLine
 10
366.102
 20
103.148
 30
0.0
 11
366.109
 21
90.1484
 31
0.0
  0
LINE
  5
564
330
1E
100
AcDbEntity
  8
0
100
AcDbLine
 10
394.102
 20
103.148
 30
0.0
 11
395.094
 21
113.148
 31
0.0
  0
LINE
  5
565
330
1E
100
AcDbEntity
  8
0
100
AcDbLine
 10
394.102
 20
103.148
 30
0.0
 11
394.109
 21
90.1484
 31
0.0
  0
LINE
  5
566
330
1E
100
AcDbEntity
  8
0
100
AcDbLine
 10
365.094
 20
113.148
 30
0.0
 11
366.102
 21
103.148
 31
0.0
  0
LINE
  5
567
330
1E
100
AcDbEntity
  8
0
100
AcDbLine
 10
395.094
 20
113.148
 30
0.0
 11
396.085
 21
119.148
 31
0.0
  0
LINE
  5
568
330
1E
100
AcDbEntity
  8
0
100
AcDbLine
 10
364.085
 20
119.148
 30
0.0
 11
365.094
 21
113.148
 31
0.0
  0
LINE
  5
569
330
1E
100
AcDbEntity
  8
0
100
AcDbLine
 10
396.085
 20
119.148
 30
0.0
 11
397.075
 21
123.148
 31
0.0
  0
LINE
  5
56A
330
1E
100
AcDbEntity
  8
0
100
AcDbLine
 10
360.645
 20
125.894
 30
0.0
 11
361.577
 21
128.717
 31
0.0
  0
LINE
  5
56B
330
1E
100
AcDbEntity
  8
0
100
AcDbLine
 10
401.048
 20
120.148
 30
0.0
 11
402.041
 21
116.148
 31
0.0
  0
LINE
  5
56C
330
1E
100
AcDbEntity
  8
0
100
AcDbLine
 10
393.495
 20
134.377
 30
0.0
 11
398.533
 21
128.717
 31
0.0
  0
LINE
  5
56D
330
1E
100
AcDbEntity
  8
0
100
AcDbLine
 10
380.068
 20
138.626
 30
0.0
 11
387.331
 21
137.513
 31
0.0
  0
LINE
  5
56F
330
1E
100
AcDbEntity
  8
0
100
AcDbLine
 10
387.331
 20
137.513
 30
0.0
 11
393.495
 21
134.377
 31
0.0
  0
LINE
  5
570
330
1E
100
AcDbEntity
  8
0
100
AcDbLine
 10
372.789
 20
137.513
 30
0.0
 11
380.068
 21
138.626
 31
0.0
  0
LINE
  5
571
330
1E
100
AcDbEntity
  8
0
100
AcDbLine
 10
366.625
 20
134.377
 30
0.0
 11
372.789
 21
137.513
 31
0.0
  0
LINE
  5
572
330
1E
100
AcDbEntity
  8
0
100
AcDbLine
 10
362.507
 20
129.684
 30
0.0
 11
366.625
 21
134.377
 31
0.0
  0
LINE
  5
573
330
1E
100
AcDbEntity
  8
0
100
AcDbLine
 10
398.533
 20
128.717
 30
0.0
 11
399.448
 21
125.894
 31
0.0
  0
LINE
  5
574
330
1E
100
AcDbEntity
  8
0
100
AcDbLine
 10
361.577
 20
128.717
 30
0.0
 11
363.412540756768
 21
130.715982217463
 31
0.0
  0
LINE
  5
575
330
1E
100
AcDbEntity
  8
0
100
AcDbLine
 10
399.448
 20
125.894
 30
0.0
 11
401.048
 21
120.148
 31
0.0
  0
LINE
  5
576
330
1E
100
AcDbEntity
  8
0
100
AcDbLine
 10
359.048
 20
120.148
 30
0.0
 11
360.645
 21
125.894
 31
0.0
  0
LINE
  5
577
330
1E
100
AcDbEntity
  8
0
100
AcDbLine
 10
358.041
 20
116.148
 30
0.0
 11
359.048
 21
120.148
 31
0.0
  0
LINE
  5
578
330
1E
100
AcDbEntity
  8
0
100
AcDbLine
 10
402.041
 20
116.148
 30
0.0
 11
403.033
 21
110.148
 31
0.0
  0
LINE
  5
579
330
1E
100
AcDbEntity
  8
0
100
AcDbLine
 10
357.033
 20
110.148
 30
0.0
 11
358.041
 21
116.148
 31
0.0
  0
LINE
  5
57A
330
1E
100
AcDbEntity
  8
0
100
AcDbLine
 10
403.033
 20
110.148
 30
0.0
 11
404.527
 21
104.148
 31
0.0
  0
LINE
  5
57B
330
1E
100
AcDbEntity
  8
0
100
AcDbLine
 10
355.527
 20
104.148
 30
0.0
 11
357.033
 21
110.148
 31
0.0
  0
LINE
  5
57C
330
1E
100
AcDbEntity
  8
0
100
AcDbLine
 10
404.527
 20
104.148
 30
0.0
 11
405.77
 21
94.6481
 31
0.0
  0
LINE
  5
57D
330
1E
100
AcDbEntity
  8
0
100
AcDbLine
 10
354.27
 20
94.6481
 30
0.0
 11
355.527
 21
104.148
 31
0.0
  0
LINE
  5
57E
330
1E
100
AcDbEntity
  8
0
100
AcDbLine
 10
405.77
 20
94.6481
 30
0.0
 11
407.016
 21
87.6481
 31
0.0
  0
LINE
  5
57F
330
1E
100
AcDbEntity
  8
0
100
AcDbLine
 10
353.016
 20
87.6481
 30
0.0
 11
354.27
 21
94.6481
 31
0.0
  0
LINE
  5
580
330
1E
100
AcDbEntity
  8
0
100
AcDbLine
 10
407.016
 20
87.6481
 30
0.0
 11
408.512
 21
78.3481
 31
0.0
  0
LINE
  5
581
330
1E
100
AcDbEntity
  8
0
100
AcDbLine
 10
351.512
 20
78.3481
 30
0.0
 11
353.016
 21
87.6481
 31
0.0
  0
LINE
  5
582
330
1E
100
AcDbEntity
  8
0
100
AcDbLine
 10
408.512
 20
78.3481
 30
0.0
 11
409.508
 21
68.1481
 31
0.0
  0
LINE
  5
583
330
1E
100
AcDbEntity
  8
0
100
AcDbLine
 10
350.508
 20
68.1481
 30
0.0
 11
351.512
 21
78.3481
 31
0.0
  0
LINE
  5
584
330
1E
100
AcDbEntity
  8
0
100
AcDbLine
 10
409.508
 20
68.1481
 30
0.0
 11
410.506
 21
58.1481
 31
0.0
  0
LINE
  5
585
330
1E
100
AcDbEntity
  8
0
100
AcDbLine
 10
141.3
 20
65.148
 30
0.0
 11
146.8
 21
65.148
 31
0.0
  0
LINE
  5
586
330
1E
100
AcDbEntity
  8
0
100
AcDbLine
 10
137.0
 20
65.148
 30
0.0
 11
141.3
 21
65.148
 31
0.0
  0
LINE
  5
587
330
1E
100
AcDbEntity
  8
0
100
AcDbLine
 10
141.0
 20
64.648
 30
0.0
 11
146.6
 21
64.648
 31
0.0
  0
LINE
  5
588
330
1E
100
AcDbEntity
  8
0
100
AcDbLine
 10
136.6
 20
64.648
 30
0.0
 11
141.0
 21
64.648
 31
0.0
  0
LINE
  5
589
330
1E
100
AcDbEntity
  8
0
100
AcDbLine
 10
133.0
 20
64.648
 30
0.0
 11
133.0
 21
54.121
 31
0.0
  0
LINE
  5
58A
330
1E
100
AcDbEntity
  8
0
100
AcDbLine
 10
133.0
 20
64.648
 30
0.0
 11
134.0
 21
64.648
 31
0.0
  0
LINE
  5
58B
330
1E
100
AcDbEntity
  8
0
100
AcDbLine
 10
133.0
 20
64.648
 30
0.0
 11
133.5
 21
65.148
 31
0.0
  0
LINE
  5
C1E
330
1E
100
AcDbEntity
  8
0
100
AcDbLine
 10
68.832
 20
200.4569155
 30
0.0
 11
74.526
 21
199.3159155
 31
0.0
  0
LINE
  5
C1F
330
1E
100
AcDbEntity
  8
0
100
AcDbLine
 10
69.124
 20
199.8589155
 30
0.0
 11
74.891
 21
198.6559155
 31
0.0
  0
LINE
  5
C20
330
1E
100
AcDbEntity
  8
0
100
AcDbLine
 10
69.124
 20
180.8259155
 30
0.0
 11
74.891
 21
179.6229155
 31
0.0
  0
LINE
  5
C21
330
1E
100
AcDbEntity
  8
0
100
AcDbLine
 10
68.832
 20
179.6109155
 30
0.0
 11
74.526
 21
178.4699155
 31
0.0
  0
LINE
  5
C22
330
1E
100
AcDbEntity
  8
0
100
AcDbLine
 10
69.18
 20
165.8849155
 30
0.0
 11
70.64
 21
165.8849155
 31
0.0
  0
LINE
  5
C23
330
1E
100
AcDbEntity
  8
0
100
AcDbLine
 10
69.18
 20
166.5019155
 30
0.0
 11
70.64
 21
166.5019155
 31
0.0
  0
LINE
  5
C24
330
1E
100
AcDbEntity
  8
0
100
AcDbLine
 10
69.18
 20
151.3379155
 30
0.0
 11
70.64
 21
151.3379155
 31
0.0
  0
LINE
  5
C25
330
1E
100
AcDbEntity
  8
0
100
AcDbLine
 10
69.18
 20
150.7209155
 30
0.0
 11
70.64
 21
150.7209155
 31
0.0
  0
LINE
  5
C26
330
1E
100
AcDbEntity
  8
0
100
AcDbLine
 10
67.956
 20
178.7789155
 30
0.0
 11
73.431
 21
177.6679155
 31
0.0
  0
LINE
  5
C27
330
1E
100
AcDbEntity
  8
0
100
AcDbLine
 10
68.832
 20
141.2359155
 30
0.0
 11
74.526
 21
142.3779155
 31
0.0
  0
LINE
  5
C28
330
1E
100
AcDbEntity
  8
0
100
AcDbLine
 10
67.956
 20
142.0689155
 30
0.0
 11
71.900442275788
 21
142.869331092402
 31
0.0
  0
LINE
  5
C29
330
1E
100
AcDbEntity
  8
0
100
AcDbLine
 10
68.021
 20
10.3132155
 30
0.0
 11
70.143
 21
9.3498355
 31
0.0
  0
LINE
  5
C2A
330
1E
100
AcDbEntity
  8
0
100
AcDbLine
 10
27.548
 20
9.2229155
 30
0.0
 11
70.5
 21
9.2229155
 31
0.0
  0
LINE
  5
C2B
330
1E
100
AcDbEntity
  8
0
100
AcDbLine
 10
15.0
 20
0.0
 30
0.0
 11
84.913
 21
0.1442015
 31
0.0
  0
LINE
  5
C2C
330
1E
100
AcDbEntity
  8
0
100
AcDbLine
 10
15.0
 20
0.0
 30
0.0
 11
84.913
 21
0.1442015
 31
0.0
  0
LINE
  5
C2D
330
1E
100
AcDbEntity
  8
0
100
AcDbLine
 10
15.0
 20
0.0
 30
0.0
 11
15.354996551922
 21
7.1056855
 31
0.0
  0
LINE
  5
C2E
330
1E
100
AcDbEntity
  8
0
100
AcDbLine
 10
65.974
 20
14.2229155
 30
0.0
 11
65.961
 21
44.6898155
 31
0.0
  0
LINE
  5
C2F
330
1E
100
AcDbEntity
  8
0
100
AcDbLine
 10
38.727
 20
38.2445155
 30
0.0
 11
40.125
 21
37.5169155
 31
0.0
  0
LINE
  5
C30
330
1E
100
AcDbEntity
  8
0
100
AcDbLine
 10
33.983343998511
 20
45.568894294785
 30
0.0
 11
33.967
 21
60.3424155
 31
0.0
  0
LINE
  5
C31
330
1E
100
AcDbEntity
  8
0
100
AcDbLine
 10
66.353186137138
 20
12.481567434747
 30
0.0
 11
65.991351854483
 21
13.933646738196
 31
0.0
  0
LINE
  5
C32
330
1E
100
AcDbEntity
  8
0
100
AcDbLine
 10
50.0
 20
202.0909155
 30
0.0
 11
56.35
 21
201.8759155
 31
0.0
  0
LINE
  5
C33
330
1E
100
AcDbEntity
  8
0
100
AcDbLine
 10
56.35
 20
201.8759155
 30
0.0
 11
62.409
 21
201.3509155
 31
0.0
  0
LINE
  5
C34
330
1E
100
AcDbEntity
  8
0
100
AcDbLine
 10
62.409
 20
201.3509155
 30
0.0
 11
68.832
 21
200.4569155
 31
0.0
  0
LINE
  5
C35
330
1E
100
AcDbEntity
  8
0
100
AcDbLine
 10
62.92
 20
200.7229155
 30
0.0
 11
69.124
 21
199.8589155
 31
0.0
  0
LINE
  5
C36
330
1E
100
AcDbEntity
  8
0
100
AcDbLine
 10
62.92
 20
181.6899155
 30
0.0
 11
69.124
 21
180.8259155
 31
0.0
  0
LINE
  5
C37
330
1E
100
AcDbEntity
  8
0
100
AcDbLine
 10
69.063
 20
146.803401385088
 30
0.0
 11
69.063
 21
145.7279155
 31
0.0
  0
LINE
  5
C38
330
1E
100
AcDbEntity
  8
0
100
AcDbLine
 10
69.343
 20
158.4659155
 30
0.0
 11
69.343
 21
159.385181677614
 31
0.0
  0
LINE
  5
C39
330
1E
100
AcDbEntity
  8
0
100
AcDbLine
 10
69.343
 20
158.4659155
 30
0.0
 11
69.343
 21
157.8499155
 31
0.0
  0
LINE
  5
C3A
330
1E
100
AcDbEntity
  8
0
100
AcDbLine
 10
69.343
 20
159.385181677614
 30
0.0
 11
69.343
 21
158.4659155
 31
0.0
  0
LINE
  5
C3B
330
1E
100
AcDbEntity
  8
0
100
AcDbLine
 10
69.063
 20
172.606854888907
 30
0.0
 11
69.063
 21
172.4019155
 31
0.0
  0
LINE
  5
C3C
330
1E
100
AcDbEntity
  8
0
100
AcDbLine
 10
69.18
 20
165.8849155
 30
0.0
 11
69.18
 21
166.5019155
 31
0.0
  0
LINE
  5
C3D
330
1E
100
AcDbEntity
  8
0
100
AcDbLine
 10
69.18
 20
166.5019155
 30
0.0
 11
69.18
 21
167.355312996523
 31
0.0
  0
LINE
  5
C3E
330
1E
100
AcDbEntity
  8
0
100
AcDbLine
 10
69.18
 20
166.5019155
 30
0.0
 11
69.18
 21
165.8849155
 31
0.0
  0
LINE
  5
C3F
330
1E
100
AcDbEntity
  8
0
100
AcDbLine
 10
69.18
 20
167.355312996523
 30
0.0
 11
69.18
 21
166.5019155
 31
0.0
  0
LINE
  5
C40
330
1E
100
AcDbEntity
  8
0
100
AcDbLine
 10
69.063
 20
172.4019155
 30
0.0
 11
69.063
 21
172.606854888907
 31
0.0
  0
LINE
  5
C41
330
1E
100
AcDbEntity
  8
0
100
AcDbLine
 10
69.343
 20
157.8499155
 30
0.0
 11
69.343
 21
158.4659155
 31
0.0
  0
LINE
  5
C42
330
1E
100
AcDbEntity
  8
0
100
AcDbLine
 10
69.18
 20
151.3379155
 30
0.0
 11
69.18
 21
150.7209155
 31
0.0
  0
LINE
  5
C43
330
1E
100
AcDbEntity
  8
0
100
AcDbLine
 10
69.18
 20
150.7209155
 30
0.0
 11
69.18
 21
151.143560910292
 31
0.0
  0
LINE
  5
C44
330
1E
100
AcDbEntity
  8
0
100
AcDbLine
 10
69.18
 20
150.7209155
 30
0.0
 11
69.18
 21
151.3379155
 31
0.0
  0
LINE
  5
C45
330
1E
100
AcDbEntity
  8
0
100
AcDbLine
 10
69.18
 20
151.143560910292
 30
0.0
 11
69.18
 21
150.7209155
 31
0.0
  0
LINE
  5
C46
330
1E
100
AcDbEntity
  8
0
100
AcDbLine
 10
69.063
 20
145.7279155
 30
0.0
 11
69.063
 21
146.803401385088
 31
0.0
  0
LINE
  5
C47
330
1E
100
AcDbEntity
  8
0
100
AcDbLine
 10
64.246
 20
179.248807416578
 30
0.0
 11
64.246
 21
177.6309155
 31
0.0
  0
LINE
  5
C48
330
1E
100
AcDbEntity
  8
0
100
AcDbLine
 10
62.982
 20
179.408899972523
 30
0.0
 11
62.982
 21
177.9399155
 31
0.0
  0
LINE
  5
C49
330
1E
100
AcDbEntity
  8
0
100
AcDbLine
 10
68.333
 20
146.2619155
 30
0.0
 11
68.333
 21
146.967172557456
 31
0.0
  0
LINE
  5
C4A
330
1E
100
AcDbEntity
  8
0
100
AcDbLine
 10
68.333
 20
146.2619155
 30
0.0
 11
69.063
 21
145.7279155
 31
0.0
  0
LINE
  5
C4B
330
1E
100
AcDbEntity
  8
0
100
AcDbLine
 10
68.333
 20
146.967172557456
 30
0.0
 11
68.333
 21
146.2619155
 31
0.0
  0
LINE
  5
C4C
330
1E
100
AcDbEntity
  8
0
100
AcDbLine
 10
68.333
 20
171.8669155
 30
0.0
 11
69.063
 21
172.4019155
 31
0.0
  0
LINE
  5
C4D
330
1E
100
AcDbEntity
  8
0
100
AcDbLine
 10
67.798
 20
145.4189155
 30
0.0
 11
69.063
 21
145.7279155
 31
0.0
  0
LINE
  5
C4E
330
1E
100
AcDbEntity
  8
0
100
AcDbLine
 10
67.069
 20
145.9539155
 30
0.0
 11
67.069
 21
147.058120979452
 31
0.0
  0
LINE
  5
C4F
330
1E
100
AcDbEntity
  8
0
100
AcDbLine
 10
67.069
 20
145.9539155
 30
0.0
 11
67.798
 21
145.4189155
 31
0.0
  0
LINE
  5
C50
330
1E
100
AcDbEntity
  8
0
100
AcDbLine
 10
67.069
 20
145.9539155
 30
0.0
 11
68.333
 21
146.2619155
 31
0.0
  0
LINE
  5
C51
330
1E
100
AcDbEntity
  8
0
100
AcDbLine
 10
67.883
 20
158.4659155
 30
0.0
 11
67.883
 21
157.8499155
 31
0.0
  0
LINE
  5
C52
330
1E
100
AcDbEntity
  8
0
100
AcDbLine
 10
67.883
 20
158.4659155
 30
0.0
 11
67.883
 21
159.371208688885
 31
0.0
  0
LINE
  5
C53
330
1E
100
AcDbEntity
  8
0
100
AcDbLine
 10
67.883
 20
158.4659155
 30
0.0
 11
69.343
 21
158.4659155
 31
0.0
  0
LINE
  5
C54
330
1E
100
AcDbEntity
  8
0
100
AcDbLine
 10
67.883
 20
159.371208688885
 30
0.0
 11
67.883
 21
158.4659155
 31
0.0
  0
LINE
  5
C55
330
1E
100
AcDbEntity
  8
0
100
AcDbLine
 10
67.798
 20
172.7089155
 30
0.0
 11
69.063
 21
172.4019155
 31
0.0
  0
LINE
  5
C56
330
1E
100
AcDbEntity
  8
0
100
AcDbLine
 10
67.883
 20
157.8499155
 30
0.0
 11
67.883
 21
158.314472826079
 31
0.0
  0
LINE
  5
C57
330
1E
100
AcDbEntity
  8
0
100
AcDbLine
 10
67.883
 20
157.8499155
 30
0.0
 11
69.343
 21
157.8499155
 31
0.0
  0
LINE
  5
C58
330
1E
100
AcDbEntity
  8
0
100
AcDbLine
 10
67.883
 20
157.8499155
 30
0.0
 11
67.883
 21
158.4659155
 31
0.0
  0
LINE
  5
C59
330
1E
100
AcDbEntity
  8
0
100
AcDbLine
 10
67.883
 20
158.314472826079
 30
0.0
 11
67.883
 21
157.8499155
 31
0.0
  0
LINE
  5
C5A
330
1E
100
AcDbEntity
  8
0
100
AcDbLine
 10
67.069
 20
147.058120979452
 30
0.0
 11
67.069
 21
145.9539155
 31
0.0
  0
LINE
  5
C5B
330
1E
100
AcDbEntity
  8
0
100
AcDbLine
 10
67.069
 20
172.1749155
 30
0.0
 11
67.798
 21
172.7089155
 31
0.0
  0
LINE
  5
C5C
330
1E
100
AcDbEntity
  8
0
100
AcDbLine
 10
67.069
 20
172.1749155
 30
0.0
 11
68.333
 21
171.8669155
 31
0.0
  0
LINE
  5
C5D
330
1E
100
AcDbEntity
  8
0
100
AcDbLine
 10
64.246
 20
141.598458809484
 30
0.0
 11
64.246
 21
141.4039155
 31
0.0
  0
LINE
  5
C5E
330
1E
100
AcDbEntity
  8
0
100
AcDbLine
 10
64.246
 20
141.598458809484
 30
0.0
 11
67.956
 21
142.0689155
 31
0.0
  0
LINE
  5
C5F
330
1E
100
AcDbEntity
  8
0
100
AcDbLine
 10
63.419
 20
148.1709155
 30
0.0
 11
64.683
 21
148.4799155
 31
0.0
  0
LINE
  5
C60
330
1E
100
AcDbEntity
  8
0
100
AcDbLine
 10
64.683
 20
148.573432576035
 30
0.0
 11
64.683
 21
148.4799155
 31
0.0
  0
LINE
  5
C61
330
1E
100
AcDbEntity
  8
0
100
AcDbLine
 10
63.953
 20
149.0149155
 30
0.0
 11
64.683
 21
148.4799155
 31
0.0
  0
LINE
  5
C62
330
1E
100
AcDbEntity
  8
0
100
AcDbLine
 10
64.683
 20
170.126794450974
 30
0.0
 11
64.683
 21
168.7429155
 31
0.0
  0
LINE
  5
C63
330
1E
100
AcDbEntity
  8
0
100
AcDbLine
 10
64.246
 20
177.6309155
 30
0.0
 11
64.246
 21
179.248807416578
 31
0.0
  0
LINE
  5
C64
330
1E
100
AcDbEntity
  8
0
100
AcDbLine
 10
64.683
 20
168.7429155
 30
0.0
 11
64.683
 21
170.126794450974
 31
0.0
  0
LINE
  5
C65
330
1E
100
AcDbEntity
  8
0
100
AcDbLine
 10
66.18
 20
161.8639155
 30
0.0
 11
66.18
 21
162.4809155
 31
0.0
  0
LINE
  5
C66
330
1E
100
AcDbEntity
  8
0
100
AcDbLine
 10
66.18
 20
162.4809155
 30
0.0
 11
66.18
 21
161.8639155
 31
0.0
  0
LINE
  5
C67
330
1E
100
AcDbEntity
  8
0
100
AcDbLine
 10
66.18
 20
162.4809155
 30
0.0
 11
66.18
 21
163.384795906168
 31
0.0
  0
LINE
  5
C68
330
1E
100
AcDbEntity
  8
0
100
AcDbLine
 10
64.72
 20
162.36718820154
 30
0.0
 11
64.72
 21
161.8639155
 31
0.0
  0
LINE
  5
C69
330
1E
100
AcDbEntity
  8
0
100
AcDbLine
 10
66.18
 20
163.384795906168
 30
0.0
 11
66.18
 21
162.4809155
 31
0.0
  0
LINE
  5
C6A
330
1E
100
AcDbEntity
  8
0
100
AcDbLine
 10
64.72
 20
162.4809155
 30
0.0
 11
64.72
 21
163.02091367332
 31
0.0
  0
LINE
  5
C6B
330
1E
100
AcDbEntity
  8
0
100
AcDbLine
 10
64.72
 20
162.4809155
 30
0.0
 11
66.18
 21
162.4809155
 31
0.0
  0
LINE
  5
C6C
330
1E
100
AcDbEntity
  8
0
100
AcDbLine
 10
64.72
 20
162.4809155
 30
0.0
 11
64.72
 21
161.8639155
 31
0.0
  0
LINE
  5
C6D
330
1E
100
AcDbEntity
  8
0
100
AcDbLine
 10
64.72
 20
163.02091367332
 30
0.0
 11
64.72
 21
162.4809155
 31
0.0
  0
LINE
  5
C6E
330
1E
100
AcDbEntity
  8
0
100
AcDbLine
 10
64.72
 20
161.8639155
 30
0.0
 11
64.72
 21
162.4809155
 31
0.0
  0
LINE
  5
C6F
330
1E
100
AcDbEntity
  8
0
100
AcDbLine
 10
64.72
 20
161.8639155
 30
0.0
 11
64.72
 21
162.36718820154
 31
0.0
  0
LINE
  5
C70
330
1E
100
AcDbEntity
  8
0
100
AcDbLine
 10
64.72
 20
161.8639155
 30
0.0
 11
66.18
 21
161.8639155
 31
0.0
  0
LINE
  5
C71
330
1E
100
AcDbEntity
  8
0
100
AcDbLine
 10
66.18
 20
154.4519155
 30
0.0
 11
66.18
 21
154.94469063587
 31
0.0
  0
LINE
  5
C72
330
1E
100
AcDbEntity
  8
0
100
AcDbLine
 10
66.18
 20
154.4519155
 30
0.0
 11
66.18
 21
153.8349155
 31
0.0
  0
LINE
  5
C73
330
1E
100
AcDbEntity
  8
0
100
AcDbLine
 10
66.18
 20
154.94469063587
 30
0.0
 11
66.18
 21
154.4519155
 31
0.0
  0
LINE
  5
C74
330
1E
100
AcDbEntity
  8
0
100
AcDbLine
 10
66.18
 20
153.8349155
 30
0.0
 11
66.18
 21
154.4519155
 31
0.0
  0
LINE
  5
C75
330
1E
100
AcDbEntity
  8
0
100
AcDbLine
 10
64.72
 20
154.4519155
 30
0.0
 11
64.72
 21
153.8349155
 31
0.0
  0
LINE
  5
C76
330
1E
100
AcDbEntity
  8
0
100
AcDbLine
 10
64.72
 20
154.4519155
 30
0.0
 11
64.72
 21
155.22670603442
 31
0.0
  0
LINE
  5
C77
330
1E
100
AcDbEntity
  8
0
100
AcDbLine
 10
64.72
 20
154.4519155
 30
0.0
 11
66.18
 21
154.4519155
 31
0.0
  0
LINE
  5
C78
330
1E
100
AcDbEntity
  8
0
100
AcDbLine
 10
64.72
 20
155.22670603442
 30
0.0
 11
64.72
 21
154.4519155
 31
0.0
  0
LINE
  5
C79
330
1E
100
AcDbEntity
  8
0
100
AcDbLine
 10
64.72
 20
154.646447977301
 30
0.0
 11
64.72
 21
153.8349155
 31
0.0
  0
LINE
  5
C7A
330
1E
100
AcDbEntity
  8
0
100
AcDbLine
 10
64.72
 20
153.8349155
 30
0.0
 11
64.72
 21
154.646447977301
 31
0.0
  0
LINE
  5
C7B
330
1E
100
AcDbEntity
  8
0
100
AcDbLine
 10
64.72
 20
153.8349155
 30
0.0
 11
66.18
 21
153.8349155
 31
0.0
  0
LINE
  5
C7C
330
1E
100
AcDbEntity
  8
0
100
AcDbLine
 10
64.72
 20
153.8349155
 30
0.0
 11
64.72
 21
154.4519155
 31
0.0
  0
LINE
  5
C7D
330
1E
100
AcDbEntity
  8
0
100
AcDbLine
 10
63.953
 20
168.2089155
 30
0.0
 11
64.683
 21
168.7429155
 31
0.0
  0
LINE
  5
C7E
330
1E
100
AcDbEntity
  8
0
100
AcDbLine
 10
63.516
 20
177.0969155
 30
0.0
 11
64.246
 21
177.6309155
 31
0.0
  0
LINE
  5
C7F
330
1E
100
AcDbEntity
  8
0
100
AcDbLine
 10
64.683
 20
148.4799155
 30
0.0
 11
64.683
 21
148.573432576035
 31
0.0
  0
LINE
  5
C80
330
1E
100
AcDbEntity
  8
0
100
AcDbLine
 10
63.516
 20
141.9379155
 30
0.0
 11
64.246
 21
141.4039155
 31
0.0
  0
LINE
  5
C81
330
1E
100
AcDbEntity
  8
0
100
AcDbLine
 10
63.419
 20
169.0509155
 30
0.0
 11
63.419
 21
169.488386642319
 31
0.0
  0
LINE
  5
C82
330
1E
100
AcDbEntity
  8
0
100
AcDbLine
 10
63.419
 20
169.0509155
 30
0.0
 11
64.683
 21
168.7429155
 31
0.0
  0
LINE
  5
C83
330
1E
100
AcDbEntity
  8
0
100
AcDbLine
 10
63.419
 20
169.488386642319
 30
0.0
 11
63.419
 21
169.0509155
 31
0.0
  0
LINE
  5
C84
330
1E
100
AcDbEntity
  8
0
100
AcDbLine
 10
62.982
 20
177.9399155
 30
0.0
 11
62.982
 21
179.408899972523
 31
0.0
  0
LINE
  5
C85
330
1E
100
AcDbEntity
  8
0
100
AcDbLine
 10
62.982
 20
177.9399155
 30
0.0
 11
64.246
 21
177.6309155
 31
0.0
  0
LINE
  5
C86
330
1E
100
AcDbEntity
  8
0
100
AcDbLine
 10
62.982
 20
141.0949155
 30
0.0
 11
64.246
 21
141.4039155
 31
0.0
  0
LINE
  5
C87
330
1E
100
AcDbEntity
  8
0
100
AcDbLine
 10
64.246
 20
141.4039155
 30
0.0
 11
64.246
 21
141.598458809484
 31
0.0
  0
LINE
  5
C88
330
1E
100
AcDbEntity
  8
0
100
AcDbLine
 10
62.689
 20
148.7059155
 30
0.0
 11
62.689
 21
149.450101662014
 31
0.0
  0
LINE
  5
C89
330
1E
100
AcDbEntity
  8
0
100
AcDbLine
 10
62.689
 20
148.7059155
 30
0.0
 11
63.419
 21
148.1709155
 31
0.0
  0
LINE
  5
C8A
330
1E
100
AcDbEntity
  8
0
100
AcDbLine
 10
62.689
 20
148.7059155
 30
0.0
 11
63.953
 21
149.0149155
 31
0.0
  0
LINE
  5
C8B
330
1E
100
AcDbEntity
  8
0
100
AcDbLine
 10
62.689
 20
149.450101662014
 30
0.0
 11
62.689
 21
148.7059155
 31
0.0
  0
LINE
  5
C8C
330
1E
100
AcDbEntity
  8
0
100
AcDbLine
 10
62.689
 20
168.5169155
 30
0.0
 11
62.689
 21
168.982362494348
 31
0.0
  0
LINE
  5
C8D
330
1E
100
AcDbEntity
  8
0
100
AcDbLine
 10
62.689
 20
168.5169155
 30
0.0
 11
63.419
 21
169.0509155
 31
0.0
  0
LINE
  5
C8E
330
1E
100
AcDbEntity
  8
0
100
AcDbLine
 10
62.689
 20
168.5169155
 30
0.0
 11
63.953
 21
168.2089155
 31
0.0
  0
LINE
  5
C8F
330
1E
100
AcDbEntity
  8
0
100
AcDbLine
 10
62.689
 20
168.982362494348
 30
0.0
 11
62.689
 21
168.5169155
 31
0.0
  0
LINE
  5
C90
330
1E
100
AcDbEntity
  8
0
100
AcDbLine
 10
56.423
 20
201.2779155
 30
0.0
 11
62.92
 21
200.7229155
 31
0.0
  0
LINE
  5
C91
330
1E
100
AcDbEntity
  8
0
100
AcDbLine
 10
56.423
 20
182.2449155
 30
0.0
 11
62.92
 21
181.6899155
 31
0.0
  0
LINE
  5
C92
330
1E
100
AcDbEntity
  8
0
100
AcDbLine
 10
62.409
 20
180.5059155
 30
0.0
 11
68.832
 21
179.6109155
 31
0.0
  0
LINE
  5
C93
330
1E
100
AcDbEntity
  8
0
100
AcDbLine
 10
61.387
 20
179.6109155
 30
0.0
 11
67.956
 21
178.7789155
 31
0.0
  0
LINE
  5
C94
330
1E
100
AcDbEntity
  8
0
100
AcDbLine
 10
62.409
 20
140.3419155
 30
0.0
 11
68.832
 21
141.2359155
 31
0.0
  0
LINE
  5
C95
330
1E
100
AcDbEntity
  8
0
100
AcDbLine
 10
62.251
 20
141.6299155
 30
0.0
 11
62.982
 21
141.0949155
 31
0.0
  0
LINE
  5
C96
330
1E
100
AcDbEntity
  8
0
100
AcDbLine
 10
62.251
 20
141.6299155
 30
0.0
 11
63.516
 21
141.9379155
 31
0.0
  0
LINE
  5
C97
330
1E
100
AcDbEntity
  8
0
100
AcDbLine
 10
62.251
 20
177.4059155
 30
0.0
 11
62.982
 21
177.9399155
 31
0.0
  0
LINE
  5
C98
330
1E
100
AcDbEntity
  8
0
100
AcDbLine
 10
62.251
 20
177.4059155
 30
0.0
 11
63.516
 21
177.0969155
 31
0.0
  0
LINE
  5
C99
330
1E
100
AcDbEntity
  8
0
100
AcDbLine
 10
61.616
 20
136.4189155
 30
0.0
 11
62.0
 21
133.2409155
 31
0.0
  0
LINE
  5
C9A
330
1E
100
AcDbEntity
  8
0
100
AcDbLine
 10
62.0
 20
133.2409155
 30
0.0
 11
62.0
 21
61.2064155
 31
0.0
  0
LINE
  5
C9B
330
1E
100
AcDbEntity
  8
0
100
AcDbLine
 10
61.616
 20
130.1519155
 30
0.0
 11
62.0
 21
133.2409155
 31
0.0
  0
LINE
  5
C9C
330
1E
100
AcDbEntity
  8
0
100
AcDbLine
 10
59.039
 20
165.3919155
 30
0.0
 11
59.039
 21
166.452241754496
 31
0.0
  0
LINE
  5
C9D
330
1E
100
AcDbEntity
  8
0
100
AcDbLine
 10
59.039
 20
165.3919155
 30
0.0
 11
60.304
 21
165.0839155
 31
0.0
  0
LINE
  5
C9E
330
1E
100
AcDbEntity
  8
0
100
AcDbLine
 10
59.196
 20
173.3439155
 30
0.0
 11
59.926
 21
173.8779155
 31
0.0
  0
LINE
  5
C9F
330
1E
100
AcDbEntity
  8
0
100
AcDbLine
 10
60.304
 20
165.387675396171
 30
0.0
 11
60.304
 21
165.0839155
 31
0.0
  0
LINE
  5
CA0
330
1E
100
AcDbEntity
  8
0
100
AcDbLine
 10
59.574
 20
164.5489155
 30
0.0
 11
60.304
 21
165.0839155
 31
0.0
  0
LINE
  5
CA1
330
1E
100
AcDbEntity
  8
0
100
AcDbLine
 10
60.304
 20
165.0839155
 30
0.0
 11
60.304
 21
165.387675396171
 31
0.0
  0
LINE
  5
CA2
330
1E
100
AcDbEntity
  8
0
100
AcDbLine
 10
58.31
 20
164.8579155
 30
0.0
 11
58.31
 21
165.946910790289
 31
0.0
  0
LINE
  5
CA3
330
1E
100
AcDbEntity
  8
0
100
AcDbLine
 10
58.31
 20
164.8579155
 30
0.0
 11
59.039
 21
165.3919155
 31
0.0
  0
LINE
  5
CA4
330
1E
100
AcDbEntity
  8
0
100
AcDbLine
 10
58.31
 20
164.8579155
 30
0.0
 11
59.574
 21
164.5489155
 31
0.0
  0
LINE
  5
CA5
330
1E
100
AcDbEntity
  8
0
100
AcDbLine
 10
58.31
 20
165.946910790289
 30
0.0
 11
58.31
 21
164.8579155
 31
0.0
  0
LINE
  5
CA6
330
1E
100
AcDbEntity
  8
0
100
AcDbLine
 10
59.039
 20
166.452241754496
 30
0.0
 11
59.039
 21
165.3919155
 31
0.0
  0
LINE
  5
CA7
330
1E
100
AcDbEntity
  8
0
100
AcDbLine
 10
58.661
 20
174.1869155
 30
0.0
 11
59.926
 21
173.8779155
 31
0.0
  0
LINE
  5
CA8
330
1E
100
AcDbEntity
  8
0
100
AcDbLine
 10
57.931
 20
173.6529155
 30
0.0
 11
58.661
 21
174.1869155
 31
0.0
  0
LINE
  5
CA9
330
1E
100
AcDbEntity
  8
0
100
AcDbLine
 10
57.931
 20
173.6529155
 30
0.0
 11
59.196
 21
173.3439155
 31
0.0
  0
LINE
  5
CAA
330
1E
100
AcDbEntity
  8
0
100
AcDbLine
 10
61.387
 20
141.2359155
 30
0.0
 11
62.582249704487
 21
141.387482405745
 31
0.0
  0
LINE
  5
CAB
330
1E
100
AcDbEntity
  8
0
100
AcDbLine
 10
58.64
 20
140.015961382159
 30
0.0
 11
58.64
 21
133.2409155
 31
0.0
  0
LINE
  5
CAC
330
1E
100
AcDbEntity
  8
0
100
AcDbLine
 10
59.780256083385
 20
140.114574055487
 30
0.0
 11
60.368
 21
139.3309155
 31
0.0
  0
LINE
  5
CAD
330
1E
100
AcDbEntity
  8
0
100
AcDbLine
 10
60.304
 20
152.351035119295
 30
0.0
 11
60.304
 21
151.2329155
 31
0.0
  0
LINE
  5
CAE
330
1E
100
AcDbEntity
  8
0
100
AcDbLine
 10
60.999
 20
154.9179155
 30
0.0
 11
61.262
 21
155.1849155
 31
0.0
  0
LINE
  5
CAF
330
1E
100
AcDbEntity
  8
0
100
AcDbLine
 10
61.262
 20
155.1849155
 30
0.0
 11
61.341
 21
155.4589155
 31
0.0
  0
LINE
  5
CB0
330
1E
100
AcDbEntity
  8
0
100
AcDbLine
 10
61.262
 20
155.1849155
 30
0.0
 11
61.63136868048
 21
155.878192100286
 31
0.0
  0
LINE
  5
CB1
330
1E
100
AcDbEntity
  8
0
100
AcDbLine
 10
61.229
 20
155.7369155
 30
0.0
 11
61.341
 21
155.4589155
 31
0.0
  0
LINE
  5
CB2
330
1E
100
AcDbEntity
  8
0
100
AcDbLine
 10
60.998
 20
155.9989155
 30
0.0
 11
61.229
 21
155.7369155
 31
0.0
  0
LINE
  5
CB3
330
1E
100
AcDbEntity
  8
0
100
AcDbLine
 10
60.606
 20
156.2199155
 30
0.0
 11
60.998
 21
155.9989155
 31
0.0
  0
LINE
  5
CB4
330
1E
100
AcDbEntity
  8
0
100
AcDbLine
 10
60.061
 20
156.3959155
 30
0.0
 11
60.606
 21
156.2199155
 31
0.0
  0
LINE
  5
CB5
330
1E
100
AcDbEntity
  8
0
100
AcDbLine
 10
60.582
 20
154.6869155
 30
0.0
 11
60.999
 21
154.9179155
 31
0.0
  0
LINE
  5
CB6
330
1E
100
AcDbEntity
  8
0
100
AcDbLine
 10
60.061
 20
154.5229155
 30
0.0
 11
60.582
 21
154.6869155
 31
0.0
  0
LINE
  5
CB7
330
1E
100
AcDbEntity
  8
0
100
AcDbLine
 10
60.304
 20
151.2329155
 30
0.0
 11
60.304
 21
152.351035119295
 31
0.0
  0
LINE
  5
CB8
330
1E
100
AcDbEntity
  8
0
100
AcDbLine
 10
59.926
 20
145.400819705608
 30
0.0
 11
59.926
 21
144.2499155
 31
0.0
  0
LINE
  5
CB9
330
1E
100
AcDbEntity
  8
0
100
AcDbLine
 10
59.926
 20
144.2499155
 30
0.0
 11
59.926
 21
145.400819705608
 31
0.0
  0
LINE
  5
CBA
330
1E
100
AcDbEntity
  8
0
100
AcDbLine
 10
59.039
 20
150.9239155
 30
0.0
 11
60.304
 21
151.2329155
 31
0.0
  0
LINE
  5
CBB
330
1E
100
AcDbEntity
  8
0
100
AcDbLine
 10
59.574
 20
151.7669155
 30
0.0
 11
59.574
 21
152.641056029238
 31
0.0
  0
LINE
  5
CBC
330
1E
100
AcDbEntity
  8
0
100
AcDbLine
 10
59.574
 20
151.7669155
 30
0.0
 11
60.304
 21
151.2329155
 31
0.0
  0
LINE
  5
CBD
330
1E
100
AcDbEntity
  8
0
100
AcDbLine
 10
59.574
 20
152.641056029238
 30
0.0
 11
59.574
 21
151.7669155
 31
0.0
  0
LINE
  5
CBE
330
1E
100
AcDbEntity
  8
0
100
AcDbLine
 10
58.781
 20
156.5399155
 30
0.0
 11
59.428
 21
156.5069155
 31
0.0
  0
LINE
  5
CBF
330
1E
100
AcDbEntity
  8
0
100
AcDbLine
 10
59.428
 20
156.5069155
 30
0.0
 11
60.061
 21
156.3959155
 31
0.0
  0
LINE
  5
CC0
330
1E
100
AcDbEntity
  8
0
100
AcDbLine
 10
59.437
 20
154.4249155
 30
0.0
 11
60.061
 21
154.5229155
 31
0.0
  0
LINE
  5
CC1
330
1E
100
AcDbEntity
  8
0
100
AcDbLine
 10
58.782
 20
154.3769155
 30
0.0
 11
59.437
 21
154.4249155
 31
0.0
  0
LINE
  5
CC2
330
1E
100
AcDbEntity
  8
0
100
AcDbLine
 10
56.564
 20
155.9999155
 30
0.0
 11
56.981
 21
156.2299155
 31
0.0
  0
LINE
  5
CC3
330
1E
100
AcDbEntity
  8
0
100
AcDbLine
 10
56.981
 20
156.2299155
 30
0.0
 11
57.502
 21
156.3959155
 31
0.0
  0
LINE
  5
CC4
330
1E
100
AcDbEntity
  8
0
100
AcDbLine
 10
57.502
 20
156.3959155
 30
0.0
 11
58.126
 21
156.4939155
 31
0.0
  0
LINE
  5
CC5
330
1E
100
AcDbEntity
  8
0
100
AcDbLine
 10
58.126
 20
156.4939155
 30
0.0
 11
58.781
 21
156.5399155
 31
0.0
  0
LINE
  5
CC6
330
1E
100
AcDbEntity
  8
0
100
AcDbLine
 10
58.134
 20
154.4109155
 30
0.0
 11
58.782
 21
154.3769155
 31
0.0
  0
LINE
  5
CC7
330
1E
100
AcDbEntity
  8
0
100
AcDbLine
 10
57.501
 20
154.5219155
 30
0.0
 11
58.134
 21
154.4109155
 31
0.0
  0
LINE
  5
CC8
330
1E
100
AcDbEntity
  8
0
100
AcDbLine
 10
56.565
 20
154.9179155
 30
0.0
 11
56.956
 21
154.6989155
 31
0.0
  0
LINE
  5
CC9
330
1E
100
AcDbEntity
  8
0
100
AcDbLine
 10
56.956
 20
154.6989155
 30
0.0
 11
57.501
 21
154.5219155
 31
0.0
  0
LINE
  5
CCA
330
1E
100
AcDbEntity
  8
0
100
AcDbLine
 10
58.31
 20
151.4579155
 30
0.0
 11
58.31
 21
151.80571717837
 31
0.0
  0
LINE
  5
CCB
330
1E
100
AcDbEntity
  8
0
100
AcDbLine
 10
58.31
 20
151.4579155
 30
0.0
 11
59.039
 21
150.9239155
 31
0.0
  0
LINE
  5
CCC
330
1E
100
AcDbEntity
  8
0
100
AcDbLine
 10
58.31
 20
151.4579155
 30
0.0
 11
59.574
 21
151.7669155
 31
0.0
  0
LINE
  5
CCD
330
1E
100
AcDbEntity
  8
0
100
AcDbLine
 10
58.31
 20
151.80571717837
 30
0.0
 11
58.31
 21
151.4579155
 31
0.0
  0
LINE
  5
CCE
330
1E
100
AcDbEntity
  8
0
100
AcDbLine
 10
58.661
 20
143.9419155
 30
0.0
 11
59.926
 21
144.2499155
 31
0.0
  0
LINE
  5
CCF
330
1E
100
AcDbEntity
  8
0
100
AcDbLine
 10
59.196
 20
144.7849155
 30
0.0
 11
59.196
 21
145.703720087935
 31
0.0
  0
LINE
  5
CD0
330
1E
100
AcDbEntity
  8
0
100
AcDbLine
 10
59.196
 20
144.7849155
 30
0.0
 11
59.926
 21
144.2499155
 31
0.0
  0
LINE
  5
CD1
330
1E
100
AcDbEntity
  8
0
100
AcDbLine
 10
59.196
 20
145.703720087935
 30
0.0
 11
59.196
 21
144.7849155
 31
0.0
  0
LINE
  5
CD2
330
1E
100
AcDbEntity
  8
0
100
AcDbLine
 10
57.931
 20
144.4759155
 30
0.0
 11
58.661
 21
143.9419155
 31
0.0
  0
LINE
  5
CD3
330
1E
100
AcDbEntity
  8
0
100
AcDbLine
 10
57.931
 20
144.4759155
 30
0.0
 11
59.196
 21
144.7849155
 31
0.0
  0
LINE
  5
CD4
330
1E
100
AcDbEntity
  8
0
100
AcDbLine
 10
58.352
 20
131.0349155
 30
0.0
 11
58.64
 21
133.2409155
 31
0.0
  0
LINE
  5
CD5
330
1E
100
AcDbEntity
  8
0
100
AcDbLine
 10
58.64
 20
133.2409155
 30
0.0
 11
58.64
 21
140.015961382159
 31
0.0
  0
LINE
  5
CD6
330
1E
100
AcDbEntity
  8
0
100
AcDbLine
 10
60.368
 20
139.3309155
 30
0.0
 11
61.616
 21
136.4189155
 31
0.0
  0
LINE
  5
CD7
330
1E
100
AcDbEntity
  8
0
100
AcDbLine
 10
60.368
 20
127.2399155
 30
0.0
 11
61.616
 21
130.1519155
 31
0.0
  0
LINE
  5
CD8
330
1E
100
AcDbEntity
  8
0
100
AcDbLine
 10
58.448
 20
124.6799155
 30
0.0
 11
60.368
 21
127.2399155
 31
0.0
  0
LINE
  5
CD9
330
1E
100
AcDbEntity
  8
0
100
AcDbLine
 10
57.488
 20
128.9169155
 30
0.0
 11
58.352
 21
131.0349155
 31
0.0
  0
LINE
  5
CDA
330
1E
100
AcDbEntity
  8
0
100
AcDbLine
 10
56.35
 20
181.0299155
 30
0.0
 11
62.409
 21
180.5059155
 31
0.0
  0
LINE
  5
CDB
330
1E
100
AcDbEntity
  8
0
100
AcDbLine
 10
56.204
 20
180.1359155
 30
0.0
 11
61.387
 21
179.6109155
 31
0.0
  0
LINE
  5
CDC
330
1E
100
AcDbEntity
  8
0
100
AcDbLine
 10
56.35
 20
139.8179155
 30
0.0
 11
62.409
 21
140.3419155
 31
0.0
  0
LINE
  5
CDD
330
1E
100
AcDbEntity
  8
0
100
AcDbLine
 10
56.301
 20
155.7319155
 30
0.0
 11
56.564
 21
155.9999155
 31
0.0
  0
LINE
  5
CDE
330
1E
100
AcDbEntity
  8
0
100
AcDbLine
 10
56.334
 20
155.1819155
 30
0.0
 11
56.565
 21
154.9179155
 31
0.0
  0
LINE
  5
CDF
330
1E
100
AcDbEntity
  8
0
100
AcDbLine
 10
56.222
 20
155.4589155
 30
0.0
 11
56.334
 21
155.1819155
 31
0.0
  0
LINE
  5
CE0
330
1E
100
AcDbEntity
  8
0
100
AcDbLine
 10
56.222
 20
155.4589155
 30
0.0
 11
56.301
 21
155.7319155
 31
0.0
  0
LINE
  5
CE1
330
1E
100
AcDbEntity
  8
0
100
AcDbLine
 10
51.0
 20
139.635931248032
 30
0.0
 11
56.35
 21
139.8179155
 31
0.0
  0
LINE
  5
CE2
330
1E
100
AcDbEntity
  8
0
100
AcDbLine
 10
54.216
 20
140.652634391038
 30
0.0
 11
54.216
 21
140.5799155
 31
0.0
  0
LINE
  5
CE3
330
1E
100
AcDbEntity
  8
0
100
AcDbLine
 10
54.216
 20
140.652634391038
 30
0.0
 11
56.204
 21
140.7119155
 31
0.0
  0
LINE
  5
CE4
330
1E
100
AcDbEntity
  8
0
100
AcDbLine
 10
56.204
 20
140.7119155
 30
0.0
 11
61.387
 21
141.2359155
 31
0.0
  0
LINE
  5
CE5
330
1E
100
AcDbEntity
  8
0
100
AcDbLine
 10
54.59
 20
147.0859155
 30
0.0
 11
55.854
 21
147.3949155
 31
0.0
  0
LINE
  5
CE6
330
1E
100
AcDbEntity
  8
0
100
AcDbLine
 10
55.125
 20
147.9289155
 30
0.0
 11
55.854
 21
147.3949155
 31
0.0
  0
LINE
  5
CE7
330
1E
100
AcDbEntity
  8
0
100
AcDbLine
 10
55.125
 20
169.2939155
 30
0.0
 11
55.854
 21
169.8279155
 31
0.0
  0
LINE
  5
CE8
330
1E
100
AcDbEntity
  8
0
100
AcDbLine
 10
55.784
 20
158.7019155
 30
0.0
 11
56.0
 21
158.0529155
 31
0.0
  0
LINE
  5
CE9
330
1E
100
AcDbEntity
  8
0
100
AcDbLine
 10
55.208
 20
159.3099155
 30
0.0
 11
55.784
 21
158.7019155
 31
0.0
  0
LINE
  5
CEA
330
1E
100
AcDbEntity
  8
0
100
AcDbLine
 10
56.0
 20
158.0529155
 30
0.0
 11
56.0
 21
158.6119155
 31
0.0
  0
LINE
  5
CEB
330
1E
100
AcDbEntity
  8
0
100
AcDbLine
 10
55.784
 20
157.4029155
 30
0.0
 11
56.0
 21
158.0529155
 31
0.0
  0
LINE
  5
CEC
330
1E
100
AcDbEntity
  8
0
100
AcDbLine
 10
56.0
 20
158.6119155
 30
0.0
 11
56.0
 21
158.0529155
 31
0.0
  0
LINE
  5
CED
330
1E
100
AcDbEntity
  8
0
100
AcDbLine
 10
55.208
 20
156.7949155
 30
0.0
 11
55.784
 21
157.4029155
 31
0.0
  0
LINE
  5
CEE
330
1E
100
AcDbEntity
  8
0
100
AcDbLine
 10
55.810636480609
 20
156.155668104706
 30
0.0
 11
56.334
 21
155.1819155
 31
0.0
  0
LINE
  5
CEF
330
1E
100
AcDbEntity
  8
0
100
AcDbLine
 10
54.59
 20
170.1369155
 30
0.0
 11
55.854
 21
169.8279155
 31
0.0
  0
LINE
  5
CF0
330
1E
100
AcDbEntity
  8
0
100
AcDbLine
 10
54.248
 20
159.8479155
 30
0.0
 11
55.208
 21
159.3099155
 31
0.0
  0
LINE
  5
CF1
330
1E
100
AcDbEntity
  8
0
100
AcDbLine
 10
54.248
 20
156.2569155
 30
0.0
 11
55.208
 21
156.7949155
 31
0.0
  0
LINE
  5
CF2
330
1E
100
AcDbEntity
  8
0
100
AcDbLine
 10
51.0
 20
140.556734971309
 30
0.0
 11
52.500121390284
 21
140.601467798066
 31
0.0
  0
LINE
  5
CF3
330
1E
100
AcDbEntity
  8
0
100
AcDbLine
 10
54.216
 20
140.5799155
 30
0.0
 11
54.216
 21
140.652634391038
 31
0.0
  0
LINE
  5
CF4
330
1E
100
AcDbEntity
  8
0
100
AcDbLine
 10
53.486
 20
141.1139155
 30
0.0
 11
54.216
 21
140.5799155
 31
0.0
  0
LINE
  5
CF5
330
1E
100
AcDbEntity
  8
0
100
AcDbLine
 10
53.86
 20
147.6199155
 30
0.0
 11
54.59
 21
147.0859155
 31
0.0
  0
LINE
  5
CF6
330
1E
100
AcDbEntity
  8
0
100
AcDbLine
 10
53.86
 20
147.6199155
 30
0.0
 11
55.125
 21
147.9289155
 31
0.0
  0
LINE
  5
CF7
330
1E
100
AcDbEntity
  8
0
100
AcDbLine
 10
52.952
 20
178.7639155
 30
0.0
 11
52.952
 21
180.232888420696
 31
0.0
  0
LINE
  5
CF8
330
1E
100
AcDbEntity
  8
0
100
AcDbLine
 10
52.952
 20
178.7639155
 30
0.0
 11
54.216
 21
178.4549155
 31
0.0
  0
LINE
  5
CF9
330
1E
100
AcDbEntity
  8
0
100
AcDbLine
 10
52.952
 20
180.232888420696
 30
0.0
 11
52.952
 21
178.7639155
 31
0.0
  0
LINE
  5
CFA
330
1E
100
AcDbEntity
  8
0
100
AcDbLine
 10
53.486
 20
177.9209155
 30
0.0
 11
54.216
 21
178.4549155
 31
0.0
  0
LINE
  5
CFB
330
1E
100
AcDbEntity
  8
0
100
AcDbLine
 10
53.86
 20
169.6019155
 30
0.0
 11
54.59
 21
170.1369155
 31
0.0
  0
LINE
  5
CFC
330
1E
100
AcDbEntity
  8
0
100
AcDbLine
 10
53.86
 20
169.6019155
 30
0.0
 11
55.125
 21
169.2939155
 31
0.0
  0
LINE
  5
CFD
330
1E
100
AcDbEntity
  8
0
100
AcDbLine
 10
52.222
 20
178.2299155
 30
0.0
 11
52.952
 21
178.7639155
 31
0.0
  0
LINE
  5
CFE
330
1E
100
AcDbEntity
  8
0
100
AcDbLine
 10
52.222
 20
178.2299155
 30
0.0
 11
53.486
 21
177.9209155
 31
0.0
  0
LINE
  5
CFF
330
1E
100
AcDbEntity
  8
0
100
AcDbLine
 10
51.0
 20
144.0219155
 30
0.0
 11
51.0
 21
137.9389155
 31
0.0
  0
LINE
  5
D00
330
1E
100
AcDbEntity
  8
0
100
AcDbLine
 10
52.976
 20
160.2539155
 30
0.0
 11
54.248
 21
159.8479155
 31
0.0
  0
LINE
  5
D01
330
1E
100
AcDbEntity
  8
0
100
AcDbLine
 10
51.536
 20
160.4969155
 30
0.0
 11
52.976
 21
160.2539155
 31
0.0
  0
LINE
  5
D02
330
1E
100
AcDbEntity
  8
0
100
AcDbLine
 10
51.787
 20
162.6399155
 30
0.0
 11
52.211
 21
162.4239155
 31
0.0
  0
LINE
  5
D03
330
1E
100
AcDbEntity
  8
0
100
AcDbLine
 10
52.211
 20
162.4239155
 30
0.0
 11
52.467
 21
162.1699155
 31
0.0
  0
LINE
  5
D04
330
1E
100
AcDbEntity
  8
0
100
AcDbLine
 10
52.467
 20
162.1699155
 30
0.0
 11
52.555
 21
161.8829155
 31
0.0
  0
LINE
  5
D05
330
1E
100
AcDbEntity
  8
0
100
AcDbLine
 10
52.467
 20
161.5959155
 30
0.0
 11
52.555
 21
161.8829155
 31
0.0
  0
LINE
  5
D06
330
1E
100
AcDbEntity
  8
0
100
AcDbLine
 10
51.787
 20
161.1259155
 30
0.0
 11
52.211
 21
161.3419155
 31
0.0
  0
LINE
  5
D07
330
1E
100
AcDbEntity
  8
0
100
AcDbLine
 10
52.211
 20
161.3419155
 30
0.0
 11
52.467
 21
161.5959155
 31
0.0
  0
LINE
  5
D08
330
1E
100
AcDbEntity
  8
0
100
AcDbLine
 10
51.275
 20
162.8189155
 30
0.0
 11
51.787
 21
162.6399155
 31
0.0
  0
LINE
  5
D09
330
1E
100
AcDbEntity
  8
0
100
AcDbLine
 10
51.275
 20
160.9459155
 30
0.0
 11
51.787
 21
161.1259155
 31
0.0
  0
LINE
  5
D0A
330
1E
100
AcDbEntity
  8
0
100
AcDbLine
 10
52.976
 20
155.8519155
 30
0.0
 11
54.248
 21
156.2569155
 31
0.0
  0
LINE
  5
D0B
330
1E
100
AcDbEntity
  8
0
100
AcDbLine
 10
51.536
 20
155.6079155
 30
0.0
 11
52.976
 21
155.8519155
 31
0.0
  0
LINE
  5
D0C
330
1E
100
AcDbEntity
  8
0
100
AcDbLine
 10
50.675
 20
162.9279155
 30
0.0
 11
51.275
 21
162.8189155
 31
0.0
  0
LINE
  5
D0D
330
1E
100
AcDbEntity
  8
0
100
AcDbLine
 10
50.675
 20
160.8379155
 30
0.0
 11
51.275
 21
160.9459155
 31
0.0
  0
LINE
  5
D0E
330
1E
100
AcDbEntity
  8
0
100
AcDbLine
 10
52.222
 20
140.8049155
 30
0.0
 11
52.952
 21
140.2709155
 31
0.0
  0
LINE
  5
D0F
330
1E
100
AcDbEntity
  8
0
100
AcDbLine
 10
52.222
 20
140.8049155
 30
0.0
 11
53.486
 21
141.1139155
 31
0.0
  0
LINE
  5
D10
330
1E
100
AcDbEntity
  8
0
100
AcDbLine
 10
52.952
 20
140.2709155
 30
0.0
 11
54.216
 21
140.5799155
 31
0.0
  0
LINE
  5
D11
330
1E
100
AcDbEntity
  8
0
100
AcDbLine
 10
56.144
 20
127.0629155
 30
0.0
 11
57.488
 21
128.9169155
 31
0.0
  0
LINE
  5
D12
330
1E
100
AcDbEntity
  8
0
100
AcDbLine
 10
54.32
 20
125.6509155
 30
0.0
 11
56.144
 21
127.0629155
 31
0.0
  0
LINE
  5
D13
330
1E
100
AcDbEntity
  8
0
100
AcDbLine
 10
51.0
 20
137.9389155
 30
0.0
 11
51.0
 21
144.0219155
 31
0.0
  0
LINE
  5
D14
330
1E
100
AcDbEntity
  8
0
100
AcDbLine
 10
51.0
 20
137.9389155
 30
0.0
 11
51.0
 21
135.9589155
 31
0.0
  0
LINE
  5
D15
330
1E
100
AcDbEntity
  8
0
100
AcDbLine
 10
51.0
 20
135.9589155
 30
0.0
 11
51.0
 21
137.9389155
 31
0.0
  0
LINE
  5
D16
330
1E
100
AcDbEntity
  8
0
100
AcDbLine
 10
51.0
 20
135.9589155
 30
0.0
 11
51.0
 21
135.3069155
 31
0.0
  0
LINE
  5
D17
330
1E
100
AcDbEntity
  8
0
100
AcDbLine
 10
51.0
 20
135.3069155
 30
0.0
 11
51.0
 21
135.9589155
 31
0.0
  0
LINE
  5
D18
330
1E
100
AcDbEntity
  8
0
100
AcDbLine
 10
51.0
 20
135.3069155
 30
0.0
 11
51.0
 21
134.9749155
 31
0.0
  0
LINE
  5
D19
330
1E
100
AcDbEntity
  8
0
100
AcDbLine
 10
51.0
 20
134.9749155
 30
0.0
 11
51.0
 21
135.3069155
 31
0.0
  0
LINE
  5
D1A
330
1E
100
AcDbEntity
  8
0
100
AcDbLine
 10
52.208
 20
124.8569155
 30
0.0
 11
54.32
 21
125.6509155
 31
0.0
  0
LINE
  5
D1B
330
1E
100
AcDbEntity
  8
0
100
AcDbLine
 10
55.952
 20
122.7389155
 30
0.0
 11
58.448
 21
124.6799155
 31
0.0
  0
LINE
  5
D1C
330
1E
100
AcDbEntity
  8
0
100
AcDbLine
 10
53.072
 20
121.5029155
 30
0.0
 11
55.952
 21
122.7389155
 31
0.0
  0
LINE
  5
D1D
330
1E
100
AcDbEntity
  8
0
100
AcDbLine
 10
50.0
 20
201.4939155
 30
0.0
 11
56.423
 21
201.2779155
 31
0.0
  0
LINE
  5
D1E
330
1E
100
AcDbEntity
  8
0
100
AcDbLine
 10
43.65
 20
201.8759155
 30
0.0
 11
50.0
 21
202.0909155
 31
0.0
  0
LINE
  5
D1F
330
1E
100
AcDbEntity
  8
0
100
AcDbLine
 10
50.0
 20
182.4619155
 30
0.0
 11
56.423
 21
182.2449155
 31
0.0
  0
LINE
  5
D20
330
1E
100
AcDbEntity
  8
0
100
AcDbLine
 10
50.0
 20
181.2469155
 30
0.0
 11
56.35
 21
181.0299155
 31
0.0
  0
LINE
  5
D21
330
1E
100
AcDbEntity
  8
0
100
AcDbLine
 10
4.599
 20
189.2279155
 30
0.0
 11
7.299
 21
191.6339155
 31
0.0
  0
LINE
  5
D22
330
1E
100
AcDbEntity
  8
0
100
AcDbLine
 10
7.299
 20
191.6339155
 30
0.0
 11
10.949
 21
193.9169155
 31
0.0
  0
LINE
  5
D23
330
1E
100
AcDbEntity
  8
0
100
AcDbLine
 10
10.949
 20
193.9169155
 30
0.0
 11
15.182
 21
195.9839155
 31
0.0
  0
LINE
  5
D24
330
1E
100
AcDbEntity
  8
0
100
AcDbLine
 10
37.591
 20
201.3509155
 30
0.0
 11
43.65
 21
201.8759155
 31
0.0
  0
LINE
  5
D25
330
1E
100
AcDbEntity
  8
0
100
AcDbLine
 10
31.168
 20
200.4569155
 30
0.0
 11
37.591
 21
201.3509155
 31
0.0
  0
LINE
  5
D26
330
1E
100
AcDbEntity
  8
0
100
AcDbLine
 10
43.577
 20
201.2779155
 30
0.0
 11
50.0
 21
201.4939155
 31
0.0
  0
LINE
  5
D27
330
1E
100
AcDbEntity
  8
0
100
AcDbLine
 10
37.08
 20
200.7229155
 30
0.0
 11
43.577
 21
201.2779155
 31
0.0
  0
LINE
  5
D28
330
1E
100
AcDbEntity
  8
0
100
AcDbLine
 10
25.474
 20
199.3159155
 30
0.0
 11
31.168
 21
200.4569155
 31
0.0
  0
LINE
  5
D29
330
1E
100
AcDbEntity
  8
0
100
AcDbLine
 10
30.876
 20
199.8589155
 30
0.0
 11
37.08
 21
200.7229155
 31
0.0
  0
LINE
  5
D2A
330
1E
100
AcDbEntity
  8
0
100
AcDbLine
 10
20.073
 20
197.7729155
 30
0.0
 11
25.474
 21
199.3159155
 31
0.0
  0
LINE
  5
D2B
330
1E
100
AcDbEntity
  8
0
100
AcDbLine
 10
25.109
 20
198.6559155
 30
0.0
 11
30.876
 21
199.8589155
 31
0.0
  0
LINE
  5
D2C
330
1E
100
AcDbEntity
  8
0
100
AcDbLine
 10
15.182
 20
195.9839155
 30
0.0
 11
20.073
 21
197.7729155
 31
0.0
  0
LINE
  5
D2D
330
1E
100
AcDbEntity
  8
0
100
AcDbLine
 10
19.635
 20
197.1139155
 30
0.0
 11
25.109
 21
198.6559155
 31
0.0
  0
LINE
  5
D2E
330
1E
100
AcDbEntity
  8
0
100
AcDbLine
 10
14.672
 20
195.2929155
 30
0.0
 11
19.635
 21
197.1139155
 31
0.0
  0
LINE
  5
D2F
330
1E
100
AcDbEntity
  8
0
100
AcDbLine
 10
10.365
 20
193.1959155
 30
0.0
 11
14.672
 21
195.2929155
 31
0.0
  0
LINE
  5
D30
330
1E
100
AcDbEntity
  8
0
100
AcDbLine
 10
6.715
 20
190.8809155
 30
0.0
 11
10.365
 21
193.1959155
 31
0.0
  0
LINE
  5
D31
330
1E
100
AcDbEntity
  8
0
100
AcDbLine
 10
43.577
 20
182.2449155
 30
0.0
 11
50.0
 21
182.4619155
 31
0.0
  0
LINE
  5
D32
330
1E
100
AcDbEntity
  8
0
100
AcDbLine
 10
37.08
 20
181.6899155
 30
0.0
 11
43.577
 21
182.2449155
 31
0.0
  0
LINE
  5
D33
330
1E
100
AcDbEntity
  8
0
100
AcDbLine
 10
0.511
 20
183.0779155
 30
0.0
 11
1.825
 21
185.8229155
 31
0.0
  0
LINE
  5
D34
330
1E
100
AcDbEntity
  8
0
100
AcDbLine
 10
1.825
 20
185.8229155
 30
0.0
 11
3.869
 21
188.4449155
 31
0.0
  0
LINE
  5
D35
330
1E
100
AcDbEntity
  8
0
100
AcDbLine
 10
3.869
 20
188.4449155
 30
0.0
 11
6.715
 21
190.8809155
 31
0.0
  0
LINE
  5
D36
330
1E
100
AcDbEntity
  8
0
100
AcDbLine
 10
3.869
 20
188.4449155
 30
0.0
 11
4.599
 21
189.2279155
 31
0.0
  0
LINE
  5
D37
330
1E
100
AcDbEntity
  8
0
100
AcDbLine
 10
50.0
 20
180.3209155
 30
0.0
 11
56.204
 21
180.1359155
 31
0.0
  0
LINE
  5
D38
330
1E
100
AcDbEntity
  8
0
100
AcDbLine
 10
0.0
 20
180.3629155
 30
0.0
 11
0.0
 21
161.3309155
 31
0.0
  0
LINE
  5
D39
330
1E
100
AcDbEntity
  8
0
100
AcDbLine
 10
0.0
 20
180.3629155
 30
0.0
 11
0.511
 21
183.0779155
 31
0.0
  0
LINE
  5
D3A
330
1E
100
AcDbEntity
  8
0
100
AcDbLine
 10
1.825
 20
166.7899155
 30
0.0
 11
3.869
 21
169.4129155
 31
0.0
  0
LINE
  5
D3B
330
1E
100
AcDbEntity
  8
0
100
AcDbLine
 10
3.869
 20
169.4129155
 30
0.0
 11
6.715
 21
171.8499155
 31
0.0
  0
LINE
  5
D3C
330
1E
100
AcDbEntity
  8
0
100
AcDbLine
 10
6.715
 20
171.8499155
 30
0.0
 11
10.365
 21
174.1629155
 31
0.0
  0
LINE
  5
D3D
330
1E
100
AcDbEntity
  8
0
100
AcDbLine
 10
10.365
 20
174.1629155
 30
0.0
 11
14.672
 21
176.2609155
 31
0.0
  0
LINE
  5
D3E
330
1E
100
AcDbEntity
  8
0
100
AcDbLine
 10
10.949
 20
173.0719155
 30
0.0
 11
15.182
 21
175.1379155
 31
0.0
  0
LINE
  5
D3F
330
1E
100
AcDbEntity
  8
0
100
AcDbLine
 10
30.876
 20
180.8259155
 30
0.0
 11
37.08
 21
181.6899155
 31
0.0
  0
LINE
  5
D40
330
1E
100
AcDbEntity
  8
0
100
AcDbLine
 10
43.65
 20
181.0299155
 30
0.0
 11
50.0
 21
181.2469155
 31
0.0
  0
LINE
  5
D41
330
1E
100
AcDbEntity
  8
0
100
AcDbLine
 10
37.591
 20
180.5059155
 30
0.0
 11
43.65
 21
181.0299155
 31
0.0
  0
LINE
  5
D42
330
1E
100
AcDbEntity
  8
0
100
AcDbLine
 10
43.796
 20
180.1359155
 30
0.0
 11
50.0
 21
180.3209155
 31
0.0
  0
LINE
  5
D43
330
1E
100
AcDbEntity
  8
0
100
AcDbLine
 10
38.613
 20
179.6109155
 30
0.0
 11
43.796
 21
180.1359155
 31
0.0
  0
LINE
  5
D44
330
1E
100
AcDbEntity
  8
0
100
AcDbLine
 10
48.064
 20
174.5959155
 30
0.0
 11
48.064
 21
175.607185003546
 31
0.0
  0
LINE
  5
D45
330
1E
100
AcDbEntity
  8
0
100
AcDbLine
 10
48.064
 20
174.5959155
 30
0.0
 11
49.328
 21
174.2879155
 31
0.0
  0
LINE
  5
D46
330
1E
100
AcDbEntity
  8
0
100
AcDbLine
 10
48.064
 20
175.607185003546
 30
0.0
 11
48.064
 21
174.5959155
 31
0.0
  0
LINE
  5
D47
330
1E
100
AcDbEntity
  8
0
100
AcDbLine
 10
43.529
 20
178.7279155
 30
0.0
 11
43.529
 21
180.108870352402
 31
0.0
  0
LINE
  5
D48
330
1E
100
AcDbEntity
  8
0
100
AcDbLine
 10
43.529
 20
178.7279155
 30
0.0
 11
44.793
 21
178.4189155
 31
0.0
  0
LINE
  5
D49
330
1E
100
AcDbEntity
  8
0
100
AcDbLine
 10
44.793
 20
179.078009149258
 30
0.0
 11
44.793
 21
178.4189155
 31
0.0
  0
LINE
  5
D4A
330
1E
100
AcDbEntity
  8
0
100
AcDbLine
 10
43.529
 20
180.108870352402
 30
0.0
 11
43.529
 21
178.7279155
 31
0.0
  0
LINE
  5
D4B
330
1E
100
AcDbEntity
  8
0
100
AcDbLine
 10
44.063
 20
177.8849155
 30
0.0
 11
44.793
 21
178.4189155
 31
0.0
  0
LINE
  5
D4C
330
1E
100
AcDbEntity
  8
0
100
AcDbLine
 10
44.793
 20
178.4189155
 30
0.0
 11
44.793
 21
179.078009149258
 31
0.0
  0
LINE
  5
D4D
330
1E
100
AcDbEntity
  8
0
100
AcDbLine
 10
42.799
 20
178.1929155
 30
0.0
 11
43.529
 21
178.7279155
 31
0.0
  0
LINE
  5
D4E
330
1E
100
AcDbEntity
  8
0
100
AcDbLine
 10
42.799
 20
178.1929155
 30
0.0
 11
44.063
 21
177.8849155
 31
0.0
  0
LINE
  5
D4F
330
1E
100
AcDbEntity
  8
0
100
AcDbLine
 10
38.892
 20
174.6189155
 30
0.0
 11
38.892
 21
173.5089155
 31
0.0
  0
LINE
  5
D50
330
1E
100
AcDbEntity
  8
0
100
AcDbLine
 10
48.599
 20
173.7529155
 30
0.0
 11
49.328
 21
174.2879155
 31
0.0
  0
LINE
  5
D51
330
1E
100
AcDbEntity
  8
0
100
AcDbLine
 10
47.334
 20
174.0619155
 30
0.0
 11
48.064
 21
174.5959155
 31
0.0
  0
LINE
  5
D52
330
1E
100
AcDbEntity
  8
0
100
AcDbLine
 10
47.334
 20
174.0619155
 30
0.0
 11
48.599
 21
173.7529155
 31
0.0
  0
LINE
  5
D53
330
1E
100
AcDbEntity
  8
0
100
AcDbLine
 10
40.887
 20
174.377600431507
 30
0.0
 11
40.887
 21
173.7349155
 31
0.0
  0
LINE
  5
D54
330
1E
100
AcDbEntity
  8
0
100
AcDbLine
 10
39.622
 20
174.175457556075
 30
0.0
 11
39.622
 21
174.0429155
 31
0.0
  0
LINE
  5
D55
330
1E
100
AcDbEntity
  8
0
100
AcDbLine
 10
39.622
 20
174.0429155
 30
0.0
 11
39.622
 21
174.175457556075
 31
0.0
  0
LINE
  5
D56
330
1E
100
AcDbEntity
  8
0
100
AcDbLine
 10
39.622
 20
174.0429155
 30
0.0
 11
40.887
 21
173.7349155
 31
0.0
  0
LINE
  5
D57
330
1E
100
AcDbEntity
  8
0
100
AcDbLine
 10
40.157
 20
173.2009155
 30
0.0
 11
40.887
 21
173.7349155
 31
0.0
  0
LINE
  5
D58
330
1E
100
AcDbEntity
  8
0
100
AcDbLine
 10
40.887
 20
173.7349155
 30
0.0
 11
40.887
 21
174.377600431507
 31
0.0
  0
LINE
  5
D59
330
1E
100
AcDbEntity
  8
0
100
AcDbLine
 10
38.892
 20
173.5089155
 30
0.0
 11
38.892
 21
174.6189155
 31
0.0
  0
LINE
  5
D5A
330
1E
100
AcDbEntity
  8
0
100
AcDbLine
 10
38.892
 20
173.5089155
 30
0.0
 11
39.622
 21
174.0429155
 31
0.0
  0
LINE
  5
D5B
330
1E
100
AcDbEntity
  8
0
100
AcDbLine
 10
38.892
 20
173.5089155
 30
0.0
 11
40.157
 21
173.2009155
 31
0.0
  0
LINE
  5
D5C
330
1E
100
AcDbEntity
  8
0
100
AcDbLine
 10
31.168
 20
179.6109155
 30
0.0
 11
37.591
 21
180.5059155
 31
0.0
  0
LINE
  5
D5D
330
1E
100
AcDbEntity
  8
0
100
AcDbLine
 10
32.044
 20
178.7789155
 30
0.0
 11
38.613
 21
179.6109155
 31
0.0
  0
LINE
  5
D5E
330
1E
100
AcDbEntity
  8
0
100
AcDbLine
 10
34.489
 20
177.8059155
 30
0.0
 11
34.489
 21
179.08858820513
 31
0.0
  0
LINE
  5
D5F
330
1E
100
AcDbEntity
  8
0
100
AcDbLine
 10
34.489
 20
177.8059155
 30
0.0
 11
35.753
 21
177.4979155
 31
0.0
  0
LINE
  5
D60
330
1E
100
AcDbEntity
  8
0
100
AcDbLine
 10
34.489
 20
179.08858820513
 30
0.0
 11
34.489
 21
177.8059155
 31
0.0
  0
LINE
  5
D61
330
1E
100
AcDbEntity
  8
0
100
AcDbLine
 10
35.023
 20
176.9639155
 30
0.0
 11
35.753
 21
177.4979155
 31
0.0
  0
LINE
  5
D62
330
1E
100
AcDbEntity
  8
0
100
AcDbLine
 10
33.759
 20
177.2719155
 30
0.0
 11
33.759
 21
177.737093070094
 31
0.0
  0
LINE
  5
D63
330
1E
100
AcDbEntity
  8
0
100
AcDbLine
 10
33.759
 20
177.2719155
 30
0.0
 11
34.489
 21
177.8059155
 31
0.0
  0
LINE
  5
D64
330
1E
100
AcDbEntity
  8
0
100
AcDbLine
 10
33.759
 20
177.2719155
 30
0.0
 11
35.023
 21
176.9639155
 31
0.0
  0
LINE
  5
D65
330
1E
100
AcDbEntity
  8
0
100
AcDbLine
 10
33.759
 20
177.737093070094
 30
0.0
 11
33.759
 21
177.2719155
 31
0.0
  0
LINE
  5
D66
330
1E
100
AcDbEntity
  8
0
100
AcDbLine
 10
25.109
 20
179.6229155
 30
0.0
 11
30.876
 21
180.8259155
 31
0.0
  0
LINE
  5
D67
330
1E
100
AcDbEntity
  8
0
100
AcDbLine
 10
19.635
 20
178.0809155
 30
0.0
 11
25.109
 21
179.6229155
 31
0.0
  0
LINE
  5
D68
330
1E
100
AcDbEntity
  8
0
100
AcDbLine
 10
25.474
 20
178.4699155
 30
0.0
 11
31.168
 21
179.6109155
 31
0.0
  0
LINE
  5
D69
330
1E
100
AcDbEntity
  8
0
100
AcDbLine
 10
20.073
 20
176.9279155
 30
0.0
 11
25.474
 21
178.4699155
 31
0.0
  0
LINE
  5
D6A
330
1E
100
AcDbEntity
  8
0
100
AcDbLine
 10
26.569
 20
177.6679155
 30
0.0
 11
32.044
 21
178.7789155
 31
0.0
  0
LINE
  5
D6B
330
1E
100
AcDbEntity
  8
0
100
AcDbLine
 10
21.387
 20
176.1869155
 30
0.0
 11
26.569
 21
177.6679155
 31
0.0
  0
LINE
  5
D6C
330
1E
100
AcDbEntity
  8
0
100
AcDbLine
 10
26.558
 20
176.0599155
 30
0.0
 11
26.558
 21
177.664771733115
 31
0.0
  0
LINE
  5
D6D
330
1E
100
AcDbEntity
  8
0
100
AcDbLine
 10
26.558
 20
176.0599155
 30
0.0
 11
27.288
 21
175.5259155
 31
0.0
  0
LINE
  5
D6E
330
1E
100
AcDbEntity
  8
0
100
AcDbLine
 10
26.558
 20
176.0599155
 30
0.0
 11
27.822
 21
176.3689155
 31
0.0
  0
LINE
  5
D6F
330
1E
100
AcDbEntity
  8
0
100
AcDbLine
 10
26.558
 20
177.664771733115
 30
0.0
 11
26.558
 21
176.0599155
 31
0.0
  0
LINE
  5
D70
330
1E
100
AcDbEntity
  8
0
100
AcDbLine
 10
27.822
 20
176.3689155
 30
0.0
 11
28.552
 21
175.8339155
 31
0.0
  0
LINE
  5
D71
330
1E
100
AcDbEntity
  8
0
100
AcDbLine
 10
27.822
 20
176.3689155
 30
0.0
 11
27.822
 21
177.061384092731
 31
0.0
  0
LINE
  5
D72
330
1E
100
AcDbEntity
  8
0
100
AcDbLine
 10
28.552
 20
176.708017829916
 30
0.0
 11
28.552
 21
175.8339155
 31
0.0
  0
LINE
  5
D73
330
1E
100
AcDbEntity
  8
0
100
AcDbLine
 10
27.822
 20
177.061384092731
 30
0.0
 11
27.822
 21
176.3689155
 31
0.0
  0
LINE
  5
D74
330
1E
100
AcDbEntity
  8
0
100
AcDbLine
 10
27.288
 20
175.5259155
 30
0.0
 11
28.552
 21
175.8339155
 31
0.0
  0
LINE
  5
D75
330
1E
100
AcDbEntity
  8
0
100
AcDbLine
 10
28.552
 20
175.8339155
 30
0.0
 11
28.552
 21
176.708017829916
 31
0.0
  0
LINE
  5
D76
330
1E
100
AcDbEntity
  8
0
100
AcDbLine
 10
21.738
 20
174.3389155
 30
0.0
 11
21.738
 21
173.7219155
 31
0.0
  0
LINE
  5
D77
330
1E
100
AcDbEntity
  8
0
100
AcDbLine
 10
21.738
 20
173.7219155
 30
0.0
 11
21.738
 21
174.3389155
 31
0.0
  0
LINE
  5
D78
330
1E
100
AcDbEntity
  8
0
100
AcDbLine
 10
20.278
 20
173.7219155
 30
0.0
 11
21.738
 21
173.7219155
 31
0.0
  0
LINE
  5
D79
330
1E
100
AcDbEntity
  8
0
100
AcDbLine
 10
20.278
 20
173.7219155
 30
0.0
 11
20.278
 21
174.3389155
 31
0.0
  0
LINE
  5
D7A
330
1E
100
AcDbEntity
  8
0
100
AcDbLine
 10
20.278
 20
174.3389155
 30
0.0
 11
21.738
 21
174.3389155
 31
0.0
  0
LINE
  5
D7B
330
1E
100
AcDbEntity
  8
0
100
AcDbLine
 10
20.278
 20
174.3389155
 30
0.0
 11
20.278
 21
173.7219155
 31
0.0
  0
LINE
  5
D7C
330
1E
100
AcDbEntity
  8
0
100
AcDbLine
 10
20.278
 20
174.3389155
 30
0.0
 11
20.278
 21
175.770226654599
 31
0.0
  0
LINE
  5
D7D
330
1E
100
AcDbEntity
  8
0
100
AcDbLine
 10
20.278
 20
175.770226654599
 30
0.0
 11
20.278
 21
174.3389155
 31
0.0
  0
LINE
  5
D7E
330
1E
100
AcDbEntity
  8
0
100
AcDbLine
 10
14.672
 20
176.2609155
 30
0.0
 11
19.635
 21
178.0809155
 31
0.0
  0
LINE
  5
D7F
330
1E
100
AcDbEntity
  8
0
100
AcDbLine
 10
15.182
 20
175.1379155
 30
0.0
 11
20.073
 21
176.9279155
 31
0.0
  0
LINE
  5
D80
330
1E
100
AcDbEntity
  8
0
100
AcDbLine
 10
16.788
 20
174.4589155
 30
0.0
 11
21.387
 21
176.1869155
 31
0.0
  0
LINE
  5
D81
330
1E
100
AcDbEntity
  8
0
100
AcDbLine
 10
12.701
 20
172.5159155
 30
0.0
 11
16.788
 21
174.4589155
 31
0.0
  0
LINE
  5
D82
330
1E
100
AcDbEntity
  8
0
100
AcDbLine
 10
13.87
 20
172.043627621212
 30
0.0
 11
13.87
 21
170.8749155
 31
0.0
  0
LINE
  5
D83
330
1E
100
AcDbEntity
  8
0
100
AcDbLine
 10
13.87
 20
172.254938863138
 30
0.0
 11
13.87
 21
171.4919155
 31
0.0
  0
LINE
  5
D84
330
1E
100
AcDbEntity
  8
0
100
AcDbLine
 10
30.937
 20
172.4019155
 30
0.0
 11
30.937
 21
172.606854888907
 31
0.0
  0
LINE
  5
D85
330
1E
100
AcDbEntity
  8
0
100
AcDbLine
 10
30.937
 20
172.4019155
 30
0.0
 11
31.667
 21
171.8669155
 31
0.0
  0
LINE
  5
D86
330
1E
100
AcDbEntity
  8
0
100
AcDbLine
 10
30.937
 20
172.4019155
 30
0.0
 11
32.202
 21
172.7089155
 31
0.0
  0
LINE
  5
D87
330
1E
100
AcDbEntity
  8
0
100
AcDbLine
 10
32.202
 20
172.7089155
 30
0.0
 11
32.931
 21
172.1749155
 31
0.0
  0
LINE
  5
D88
330
1E
100
AcDbEntity
  8
0
100
AcDbLine
 10
30.937
 20
172.606854888907
 30
0.0
 11
30.937
 21
172.4019155
 31
0.0
  0
LINE
  5
D89
330
1E
100
AcDbEntity
  8
0
100
AcDbLine
 10
15.33
 20
171.928997126767
 30
0.0
 11
15.33
 21
171.4919155
 31
0.0
  0
LINE
  5
D8A
330
1E
100
AcDbEntity
  8
0
100
AcDbLine
 10
31.667
 20
171.8669155
 30
0.0
 11
32.931
 21
172.1749155
 31
0.0
  0
LINE
  5
D8B
330
1E
100
AcDbEntity
  8
0
100
AcDbLine
 10
4.599
 20
168.3829155
 30
0.0
 11
7.299
 21
170.7889155
 31
0.0
  0
LINE
  5
D8C
330
1E
100
AcDbEntity
  8
0
100
AcDbLine
 10
7.299
 20
170.7889155
 30
0.0
 11
10.949
 21
173.0719155
 31
0.0
  0
LINE
  5
D8D
330
1E
100
AcDbEntity
  8
0
100
AcDbLine
 10
13.87
 20
170.8749155
 30
0.0
 11
15.33
 21
170.8749155
 31
0.0
  0
LINE
  5
D8E
330
1E
100
AcDbEntity
  8
0
100
AcDbLine
 10
13.87
 20
170.8749155
 30
0.0
 11
13.87
 21
172.043627621212
 31
0.0
  0
LINE
  5
D8F
330
1E
100
AcDbEntity
  8
0
100
AcDbLine
 10
13.87
 20
170.8749155
 30
0.0
 11
13.87
 21
171.4919155
 31
0.0
  0
LINE
  5
D90
330
1E
100
AcDbEntity
  8
0
100
AcDbLine
 10
15.33
 20
171.4919155
 30
0.0
 11
15.33
 21
171.928997126767
 31
0.0
  0
LINE
  5
D91
330
1E
100
AcDbEntity
  8
0
100
AcDbLine
 10
15.33
 20
171.4919155
 30
0.0
 11
15.33
 21
170.8749155
 31
0.0
  0
LINE
  5
D92
330
1E
100
AcDbEntity
  8
0
100
AcDbLine
 10
15.33
 20
170.8749155
 30
0.0
 11
15.33
 21
171.4919155
 31
0.0
  0
LINE
  5
D93
330
1E
100
AcDbEntity
  8
0
100
AcDbLine
 10
13.87
 20
171.4919155
 30
0.0
 11
15.33
 21
171.4919155
 31
0.0
  0
LINE
  5
D94
330
1E
100
AcDbEntity
  8
0
100
AcDbLine
 10
13.87
 20
171.4919155
 30
0.0
 11
13.87
 21
170.8749155
 31
0.0
  0
LINE
  5
D95
330
1E
100
AcDbEntity
  8
0
100
AcDbLine
 10
13.87
 20
171.4919155
 30
0.0
 11
13.87
 21
172.254938863138
 31
0.0
  0
LINE
  5
D96
330
1E
100
AcDbEntity
  8
0
100
AcDbLine
 10
6.569
 20
168.0129155
 30
0.0
 11
9.197
 21
170.3259155
 31
0.0
  0
LINE
  5
D97
330
1E
100
AcDbEntity
  8
0
100
AcDbLine
 10
9.197
 20
170.3259155
 30
0.0
 11
12.701
 21
172.5159155
 31
0.0
  0
LINE
  5
D98
330
1E
100
AcDbEntity
  8
0
100
AcDbLine
 10
24.495
 20
170.488403998109
 30
0.0
 11
24.495
 21
170.3519155
 31
0.0
  0
LINE
  5
D99
330
1E
100
AcDbEntity
  8
0
100
AcDbLine
 10
24.495
 20
170.488403998109
 30
0.0
 11
24.495
 21
169.7349155
 31
0.0
  0
LINE
  5
D9A
330
1E
100
AcDbEntity
  8
0
100
AcDbLine
 10
25.955
 20
170.3519155
 30
0.0
 11
25.955
 21
169.7349155
 31
0.0
  0
LINE
  5
D9B
330
1E
100
AcDbEntity
  8
0
100
AcDbLine
 10
43.42
 20
170.456152054438
 30
0.0
 11
43.42
 21
169.5769155
 31
0.0
  0
LINE
  5
D9C
330
1E
100
AcDbEntity
  8
0
100
AcDbLine
 10
24.495
 20
170.3519155
 30
0.0
 11
25.955
 21
170.3519155
 31
0.0
  0
LINE
  5
D9D
330
1E
100
AcDbEntity
  8
0
100
AcDbLine
 10
24.495
 20
170.3519155
 30
0.0
 11
24.495
 21
169.7349155
 31
0.0
  0
LINE
  5
D9E
330
1E
100
AcDbEntity
  8
0
100
AcDbLine
 10
24.495
 20
170.3519155
 30
0.0
 11
24.495
 21
170.488403998109
 31
0.0
  0
LINE
  5
D9F
330
1E
100
AcDbEntity
  8
0
100
AcDbLine
 10
9.084
 20
167.4439155
 30
0.0
 11
10.544
 21
167.4439155
 31
0.0
  0
LINE
  5
DA0
330
1E
100
AcDbEntity
  8
0
100
AcDbLine
 10
9.084
 20
167.4439155
 30
0.0
 11
9.084
 21
167.756992994547
 31
0.0
  0
LINE
  5
DA1
330
1E
100
AcDbEntity
  8
0
100
AcDbLine
 10
9.084
 20
167.4439155
 30
0.0
 11
9.084
 21
168.0609155
 31
0.0
  0
LINE
  5
DA2
330
1E
100
AcDbEntity
  8
0
100
AcDbLine
 10
10.544
 20
168.0609155
 30
0.0
 11
10.544
 21
167.4439155
 31
0.0
  0
LINE
  5
DA3
330
1E
100
AcDbEntity
  8
0
100
AcDbLine
 10
24.495
 20
169.7349155
 30
0.0
 11
25.955
 21
169.7349155
 31
0.0
  0
LINE
  5
DA4
330
1E
100
AcDbEntity
  8
0
100
AcDbLine
 10
24.495
 20
169.7349155
 30
0.0
 11
24.495
 21
170.488403998109
 31
0.0
  0
LINE
  5
DA5
330
1E
100
AcDbEntity
  8
0
100
AcDbLine
 10
24.495
 20
169.7349155
 30
0.0
 11
24.495
 21
170.3519155
 31
0.0
  0
LINE
  5
DA6
330
1E
100
AcDbEntity
  8
0
100
AcDbLine
 10
25.955
 20
169.7349155
 30
0.0
 11
25.955
 21
170.3519155
 31
0.0
  0
LINE
  5
DA7
330
1E
100
AcDbEntity
  8
0
100
AcDbLine
 10
35.317
 20
170.126794450974
 30
0.0
 11
35.317
 21
168.7429155
 31
0.0
  0
LINE
  5
DA8
330
1E
100
AcDbEntity
  8
0
100
AcDbLine
 10
44.15
 20
170.1109155
 30
0.0
 11
45.414
 21
169.8029155
 31
0.0
  0
LINE
  5
DA9
330
1E
100
AcDbEntity
  8
0
100
AcDbLine
 10
35.317
 20
168.7429155
 30
0.0
 11
35.317
 21
170.126794450974
 31
0.0
  0
LINE
  5
DAA
330
1E
100
AcDbEntity
  8
0
100
AcDbLine
 10
35.317
 20
168.7429155
 30
0.0
 11
36.047
 21
168.2089155
 31
0.0
  0
LINE
  5
DAB
330
1E
100
AcDbEntity
  8
0
100
AcDbLine
 10
35.317
 20
168.7429155
 30
0.0
 11
36.581
 21
169.0509155
 31
0.0
  0
LINE
  5
DAC
330
1E
100
AcDbEntity
  8
0
100
AcDbLine
 10
36.581
 20
169.0509155
 30
0.0
 11
37.311
 21
168.5169155
 31
0.0
  0
LINE
  5
DAD
330
1E
100
AcDbEntity
  8
0
100
AcDbLine
 10
36.581
 20
169.0509155
 30
0.0
 11
36.581
 21
169.488386642319
 31
0.0
  0
LINE
  5
DAE
330
1E
100
AcDbEntity
  8
0
100
AcDbLine
 10
37.311
 20
168.982362494348
 30
0.0
 11
37.311
 21
168.5169155
 31
0.0
  0
LINE
  5
DAF
330
1E
100
AcDbEntity
  8
0
100
AcDbLine
 10
44.684
 20
169.2689155
 30
0.0
 11
45.414
 21
169.8029155
 31
0.0
  0
LINE
  5
DB0
330
1E
100
AcDbEntity
  8
0
100
AcDbLine
 10
43.42
 20
169.5769155
 30
0.0
 11
43.42
 21
170.456152054438
 31
0.0
  0
LINE
  5
DB1
330
1E
100
AcDbEntity
  8
0
100
AcDbLine
 10
43.42
 20
169.5769155
 30
0.0
 11
44.15
 21
170.1109155
 31
0.0
  0
LINE
  5
DB2
330
1E
100
AcDbEntity
  8
0
100
AcDbLine
 10
43.42
 20
169.5769155
 30
0.0
 11
44.684
 21
169.2689155
 31
0.0
  0
LINE
  5
DB3
330
1E
100
AcDbEntity
  8
0
100
AcDbLine
 10
36.581
 20
169.488386642319
 30
0.0
 11
36.581
 21
169.0509155
 31
0.0
  0
LINE
  5
DB4
330
1E
100
AcDbEntity
  8
0
100
AcDbLine
 10
36.047
 20
168.2089155
 30
0.0
 11
37.311
 21
168.5169155
 31
0.0
  0
LINE
  5
DB5
330
1E
100
AcDbEntity
  8
0
100
AcDbLine
 10
37.311
 20
168.5169155
 30
0.0
 11
37.311
 21
168.982362494348
 31
0.0
  0
LINE
  5
DB6
330
1E
100
AcDbEntity
  8
0
100
AcDbLine
 10
20.601
 20
168.549290689316
 30
0.0
 11
20.601
 21
167.5379155
 31
0.0
  0
LINE
  5
DB7
330
1E
100
AcDbEntity
  8
0
100
AcDbLine
 10
19.141
 20
168.776743532493
 30
0.0
 11
19.141
 21
167.5379155
 31
0.0
  0
LINE
  5
DB8
330
1E
100
AcDbEntity
  8
0
100
AcDbLine
 10
10.544
 20
167.4439155
 30
0.0
 11
10.544
 21
168.0609155
 31
0.0
  0
LINE
  5
DB9
330
1E
100
AcDbEntity
  8
0
100
AcDbLine
 10
19.141
 20
166.9209155
 30
0.0
 11
20.601
 21
166.9209155
 31
0.0
  0
LINE
  5
DBA
330
1E
100
AcDbEntity
  8
0
100
AcDbLine
 10
19.141
 20
166.9209155
 30
0.0
 11
19.141
 21
167.183532238625
 31
0.0
  0
LINE
  5
DBB
330
1E
100
AcDbEntity
  8
0
100
AcDbLine
 10
19.141
 20
166.9209155
 30
0.0
 11
19.141
 21
167.5379155
 31
0.0
  0
LINE
  5
DBC
330
1E
100
AcDbEntity
  8
0
100
AcDbLine
 10
19.141
 20
167.183532238625
 30
0.0
 11
19.141
 21
166.9209155
 31
0.0
  0
LINE
  5
DBD
330
1E
100
AcDbEntity
  8
0
100
AcDbLine
 10
20.601
 20
167.5379155
 30
0.0
 11
20.601
 21
168.549290689316
 31
0.0
  0
LINE
  5
DBE
330
1E
100
AcDbEntity
  8
0
100
AcDbLine
 10
20.601
 20
167.5379155
 30
0.0
 11
20.601
 21
166.9209155
 31
0.0
  0
LINE
  5
DBF
330
1E
100
AcDbEntity
  8
0
100
AcDbLine
 10
30.82
 20
167.355312996523
 30
0.0
 11
30.82
 21
166.5019155
 31
0.0
  0
LINE
  5
DC0
330
1E
100
AcDbEntity
  8
0
100
AcDbLine
 10
19.141
 20
167.5379155
 30
0.0
 11
20.601
 21
167.5379155
 31
0.0
  0
LINE
  5
DC1
330
1E
100
AcDbEntity
  8
0
100
AcDbLine
 10
19.141
 20
167.5379155
 30
0.0
 11
19.141
 21
166.9209155
 31
0.0
  0
LINE
  5
DC2
330
1E
100
AcDbEntity
  8
0
100
AcDbLine
 10
19.141
 20
167.5379155
 30
0.0
 11
19.141
 21
168.776743532493
 31
0.0
  0
LINE
  5
DC3
330
1E
100
AcDbEntity
  8
0
100
AcDbLine
 10
20.601
 20
166.9209155
 30
0.0
 11
20.601
 21
167.5379155
 31
0.0
  0
LINE
  5
DC4
330
1E
100
AcDbEntity
  8
0
100
AcDbLine
 10
9.084
 20
167.756992994547
 30
0.0
 11
9.084
 21
167.4439155
 31
0.0
  0
LINE
  5
DC5
330
1E
100
AcDbEntity
  8
0
100
AcDbLine
 10
9.084
 20
168.0609155
 30
0.0
 11
10.544
 21
168.0609155
 31
0.0
  0
LINE
  5
DC6
330
1E
100
AcDbEntity
  8
0
100
AcDbLine
 10
9.084
 20
168.0609155
 30
0.0
 11
9.084
 21
167.4439155
 31
0.0
  0
LINE
  5
DC7
330
1E
100
AcDbEntity
  8
0
100
AcDbLine
 10
2.482
 20
165.6679155
 30
0.0
 11
4.599
 21
168.3829155
 31
0.0
  0
LINE
  5
DC8
330
1E
100
AcDbEntity
  8
0
100
AcDbLine
 10
4.599
 20
165.2359155
 30
0.0
 11
6.569
 21
168.0129155
 31
0.0
  0
LINE
  5
DC9
330
1E
100
AcDbEntity
  8
0
100
AcDbLine
 10
29.36
 20
165.8849155
 30
0.0
 11
30.82
 21
165.8849155
 31
0.0
  0
LINE
  5
DCA
330
1E
100
AcDbEntity
  8
0
100
AcDbLine
 10
29.36
 20
165.8849155
 30
0.0
 11
29.36
 21
166.221547858063
 31
0.0
  0
LINE
  5
DCB
330
1E
100
AcDbEntity
  8
0
100
AcDbLine
 10
29.36
 20
165.8849155
 30
0.0
 11
29.36
 21
166.5019155
 31
0.0
  0
LINE
  5
DCC
330
1E
100
AcDbEntity
  8
0
100
AcDbLine
 10
30.82
 20
166.5019155
 30
0.0
 11
30.82
 21
167.355312996523
 31
0.0
  0
LINE
  5
DCD
330
1E
100
AcDbEntity
  8
0
100
AcDbLine
 10
30.82
 20
166.5019155
 30
0.0
 11
30.82
 21
165.8849155
 31
0.0
  0
LINE
  5
DCE
330
1E
100
AcDbEntity
  8
0
100
AcDbLine
 10
30.82
 20
165.8849155
 30
0.0
 11
30.82
 21
166.5019155
 31
0.0
  0
LINE
  5
DCF
330
1E
100
AcDbEntity
  8
0
100
AcDbLine
 10
39.696
 20
165.387675396171
 30
0.0
 11
39.696
 21
165.0839155
 31
0.0
  0
LINE
  5
DD0
330
1E
100
AcDbEntity
  8
0
100
AcDbLine
 10
40.961
 20
165.3919155
 30
0.0
 11
41.69
 21
164.8579155
 31
0.0
  0
LINE
  5
DD1
330
1E
100
AcDbEntity
  8
0
100
AcDbLine
 10
40.961
 20
165.3919155
 30
0.0
 11
40.961
 21
166.452241754496
 31
0.0
  0
LINE
  5
DD2
330
1E
100
AcDbEntity
  8
0
100
AcDbLine
 10
41.69
 20
165.946910790289
 30
0.0
 11
41.69
 21
164.8579155
 31
0.0
  0
LINE
  5
DD3
330
1E
100
AcDbEntity
  8
0
100
AcDbLine
 10
49.232
 20
166.2419155
 30
0.0
 11
50.496
 21
165.9329155
 31
0.0
  0
LINE
  5
DD4
330
1E
100
AcDbEntity
  8
0
100
AcDbLine
 10
49.766
 20
165.3979155
 30
0.0
 11
50.496
 21
165.9329155
 31
0.0
  0
LINE
  5
DD5
330
1E
100
AcDbEntity
  8
0
100
AcDbLine
 10
48.502
 20
165.7059155
 30
0.0
 11
49.232
 21
166.2419155
 31
0.0
  0
LINE
  5
DD6
330
1E
100
AcDbEntity
  8
0
100
AcDbLine
 10
48.502
 20
165.7059155
 30
0.0
 11
49.766
 21
165.3979155
 31
0.0
  0
LINE
  5
DD7
330
1E
100
AcDbEntity
  8
0
100
AcDbLine
 10
40.961
 20
166.452241754496
 30
0.0
 11
40.961
 21
165.3919155
 31
0.0
  0
LINE
  5
DD8
330
1E
100
AcDbEntity
  8
0
100
AcDbLine
 10
29.36
 20
166.221547858063
 30
0.0
 11
29.36
 21
165.8849155
 31
0.0
  0
LINE
  5
DD9
330
1E
100
AcDbEntity
  8
0
100
AcDbLine
 10
29.36
 20
166.5019155
 30
0.0
 11
30.82
 21
166.5019155
 31
0.0
  0
LINE
  5
DDA
330
1E
100
AcDbEntity
  8
0
100
AcDbLine
 10
29.36
 20
166.5019155
 30
0.0
 11
29.36
 21
165.8849155
 31
0.0
  0
LINE
  5
DDB
330
1E
100
AcDbEntity
  8
0
100
AcDbLine
 10
7.218
 20
164.822389184211
 30
0.0
 11
7.218
 21
163.9769155
 31
0.0
  0
LINE
  5
DDC
330
1E
100
AcDbEntity
  8
0
100
AcDbLine
 10
39.696
 20
165.0839155
 30
0.0
 11
39.696
 21
165.387675396171
 31
0.0
  0
LINE
  5
DDD
330
1E
100
AcDbEntity
  8
0
100
AcDbLine
 10
39.696
 20
165.0839155
 30
0.0
 11
40.426
 21
164.5489155
 31
0.0
  0
LINE
  5
DDE
330
1E
100
AcDbEntity
  8
0
100
AcDbLine
 10
39.696
 20
165.0839155
 30
0.0
 11
40.961
 21
165.3919155
 31
0.0
  0
LINE
  5
DDF
330
1E
100
AcDbEntity
  8
0
100
AcDbLine
 10
41.69
 20
164.8579155
 30
0.0
 11
41.69
 21
165.946910790289
 31
0.0
  0
LINE
  5
DE0
330
1E
100
AcDbEntity
  8
0
100
AcDbLine
 10
5.759
 20
165.052757605263
 30
0.0
 11
5.759
 21
163.9769155
 31
0.0
  0
LINE
  5
DE1
330
1E
100
AcDbEntity
  8
0
100
AcDbLine
 10
43.65
 20
139.8179155
 30
0.0
 11
49.0
 21
139.635931248032
 31
0.0
  0
LINE
  5
DE2
330
1E
100
AcDbEntity
  8
0
100
AcDbLine
 10
44.793
 20
140.682185487105
 30
0.0
 11
49.0
 21
140.556734971309
 31
0.0
  0
LINE
  5
DE3
330
1E
100
AcDbEntity
  8
0
100
AcDbLine
 10
48.064
 20
143.5329155
 30
0.0
 11
49.328
 21
143.8419155
 31
0.0
  0
LINE
  5
DE4
330
1E
100
AcDbEntity
  8
0
100
AcDbLine
 10
49.328
 20
144.96524238588
 30
0.0
 11
49.328
 21
143.8419155
 31
0.0
  0
LINE
  5
DE5
330
1E
100
AcDbEntity
  8
0
100
AcDbLine
 10
49.766
 20
150.9179155
 30
0.0
 11
50.496
 21
150.3829155
 31
0.0
  0
LINE
  5
DE6
330
1E
100
AcDbEntity
  8
0
100
AcDbLine
 10
50.0
 20
160.5879155
 30
0.0
 11
51.536
 21
160.4969155
 31
0.0
  0
LINE
  5
DE7
330
1E
100
AcDbEntity
  8
0
100
AcDbLine
 10
50.0
 20
155.5169155
 30
0.0
 11
51.536
 21
155.6079155
 31
0.0
  0
LINE
  5
DE8
330
1E
100
AcDbEntity
  8
0
100
AcDbLine
 10
49.995
 20
162.9649155
 30
0.0
 11
50.675
 21
162.9279155
 31
0.0
  0
LINE
  5
DE9
330
1E
100
AcDbEntity
  8
0
100
AcDbLine
 10
49.995
 20
160.8009155
 30
0.0
 11
50.675
 21
160.8379155
 31
0.0
  0
LINE
  5
DEA
330
1E
100
AcDbEntity
  8
0
100
AcDbLine
 10
49.328
 20
143.8419155
 30
0.0
 11
49.328
 21
144.96524238588
 31
0.0
  0
LINE
  5
DEB
330
1E
100
AcDbEntity
  8
0
100
AcDbLine
 10
48.599
 20
144.3759155
 30
0.0
 11
49.328
 21
143.8419155
 31
0.0
  0
LINE
  5
DEC
330
1E
100
AcDbEntity
  8
0
100
AcDbLine
 10
49.232
 20
150.0749155
 30
0.0
 11
50.496
 21
150.3829155
 31
0.0
  0
LINE
  5
DED
330
1E
100
AcDbEntity
  8
0
100
AcDbLine
 10
49.315
 20
160.8379155
 30
0.0
 11
49.995
 21
160.8009155
 31
0.0
  0
LINE
  5
DEE
330
1E
100
AcDbEntity
  8
0
100
AcDbLine
 10
48.715
 20
160.9459155
 30
0.0
 11
49.315
 21
160.8379155
 31
0.0
  0
LINE
  5
DEF
330
1E
100
AcDbEntity
  8
0
100
AcDbLine
 10
49.315
 20
162.9279155
 30
0.0
 11
49.995
 21
162.9649155
 31
0.0
  0
LINE
  5
DF0
330
1E
100
AcDbEntity
  8
0
100
AcDbLine
 10
48.715
 20
162.8189155
 30
0.0
 11
49.315
 21
162.9279155
 31
0.0
  0
LINE
  5
DF1
330
1E
100
AcDbEntity
  8
0
100
AcDbLine
 10
48.502
 20
150.6099155
 30
0.0
 11
49.232
 21
150.0749155
 31
0.0
  0
LINE
  5
DF2
330
1E
100
AcDbEntity
  8
0
100
AcDbLine
 10
48.502
 20
150.6099155
 30
0.0
 11
49.766
 21
150.9179155
 31
0.0
  0
LINE
  5
DF3
330
1E
100
AcDbEntity
  8
0
100
AcDbLine
 10
45.752
 20
159.8479155
 30
0.0
 11
47.024
 21
160.2539155
 31
0.0
  0
LINE
  5
DF4
330
1E
100
AcDbEntity
  8
0
100
AcDbLine
 10
47.024
 20
160.2539155
 30
0.0
 11
48.464
 21
160.4969155
 31
0.0
  0
LINE
  5
DF5
330
1E
100
AcDbEntity
  8
0
100
AcDbLine
 10
48.464
 20
160.4969155
 30
0.0
 11
50.0
 21
160.5879155
 31
0.0
  0
LINE
  5
DF6
330
1E
100
AcDbEntity
  8
0
100
AcDbLine
 10
48.203
 20
161.1259155
 30
0.0
 11
48.715
 21
160.9459155
 31
0.0
  0
LINE
  5
DF7
330
1E
100
AcDbEntity
  8
0
100
AcDbLine
 10
47.779
 20
161.3419155
 30
0.0
 11
48.203
 21
161.1259155
 31
0.0
  0
LINE
  5
DF8
330
1E
100
AcDbEntity
  8
0
100
AcDbLine
 10
48.203
 20
162.6399155
 30
0.0
 11
48.715
 21
162.8189155
 31
0.0
  0
LINE
  5
DF9
330
1E
100
AcDbEntity
  8
0
100
AcDbLine
 10
47.523
 20
161.5959155
 30
0.0
 11
47.779
 21
161.3419155
 31
0.0
  0
LINE
  5
DFA
330
1E
100
AcDbEntity
  8
0
100
AcDbLine
 10
47.435
 20
161.8829155
 30
0.0
 11
47.523
 21
162.1699155
 31
0.0
  0
LINE
  5
DFB
330
1E
100
AcDbEntity
  8
0
100
AcDbLine
 10
47.435
 20
161.8829155
 30
0.0
 11
47.523
 21
161.5959155
 31
0.0
  0
LINE
  5
DFC
330
1E
100
AcDbEntity
  8
0
100
AcDbLine
 10
47.779
 20
162.4239155
 30
0.0
 11
48.203
 21
162.6399155
 31
0.0
  0
LINE
  5
DFD
330
1E
100
AcDbEntity
  8
0
100
AcDbLine
 10
47.523
 20
162.1699155
 30
0.0
 11
47.779
 21
162.4239155
 31
0.0
  0
LINE
  5
DFE
330
1E
100
AcDbEntity
  8
0
100
AcDbLine
 10
47.024
 20
155.8519155
 30
0.0
 11
48.464
 21
155.6079155
 31
0.0
  0
LINE
  5
DFF
330
1E
100
AcDbEntity
  8
0
100
AcDbLine
 10
48.464
 20
155.6079155
 30
0.0
 11
50.0
 21
155.5169155
 31
0.0
  0
LINE
  5
E00
330
1E
100
AcDbEntity
  8
0
100
AcDbLine
 10
45.752
 20
156.2569155
 30
0.0
 11
47.024
 21
155.8519155
 31
0.0
  0
LINE
  5
E01
330
1E
100
AcDbEntity
  8
0
100
AcDbLine
 10
47.334
 20
144.0669155
 30
0.0
 11
48.064
 21
143.5329155
 31
0.0
  0
LINE
  5
E02
330
1E
100
AcDbEntity
  8
0
100
AcDbLine
 10
47.334
 20
144.0669155
 30
0.0
 11
48.599
 21
144.3759155
 31
0.0
  0
LINE
  5
E03
330
1E
100
AcDbEntity
  8
0
100
AcDbLine
 10
49.0
 20
143.761731955696
 30
0.0
 11
49.0
 21
137.8849155
 31
0.0
  0
LINE
  5
E04
330
1E
100
AcDbEntity
  8
0
100
AcDbLine
 10
49.0
 20
140.415261956693
 30
0.0
 11
49.0
 21
136.9389155
 31
0.0
  0
LINE
  5
E05
330
1E
100
AcDbEntity
  8
0
100
AcDbLine
 10
44.793
 20
141.478467724371
 30
0.0
 11
44.793
 21
140.6159155
 31
0.0
  0
LINE
  5
E06
330
1E
100
AcDbEntity
  8
0
100
AcDbLine
 10
44.15
 20
147.1119155
 30
0.0
 11
45.414
 21
147.4199155
 31
0.0
  0
LINE
  5
E07
330
1E
100
AcDbEntity
  8
0
100
AcDbLine
 10
44.684
 20
147.9549155
 30
0.0
 11
45.414
 21
147.4199155
 31
0.0
  0
LINE
  5
E08
330
1E
100
AcDbEntity
  8
0
100
AcDbLine
 10
44.216
 20
158.7019155
 30
0.0
 11
44.792
 21
159.3099155
 31
0.0
  0
LINE
  5
E09
330
1E
100
AcDbEntity
  8
0
100
AcDbLine
 10
44.792
 20
159.3099155
 30
0.0
 11
45.752
 21
159.8479155
 31
0.0
  0
LINE
  5
E0A
330
1E
100
AcDbEntity
  8
0
100
AcDbLine
 10
44.792
 20
156.7949155
 30
0.0
 11
45.752
 21
156.2569155
 31
0.0
  0
LINE
  5
E0B
330
1E
100
AcDbEntity
  8
0
100
AcDbLine
 10
44.216
 20
157.4029155
 30
0.0
 11
44.792
 21
156.7949155
 31
0.0
  0
LINE
  5
E0C
330
1E
100
AcDbEntity
  8
0
100
AcDbLine
 10
44.0
 20
158.0529155
 30
0.0
 11
44.0
 21
158.6119155
 31
0.0
  0
LINE
  5
E0D
330
1E
100
AcDbEntity
  8
0
100
AcDbLine
 10
44.0
 20
158.0529155
 30
0.0
 11
44.216
 21
157.4029155
 31
0.0
  0
LINE
  5
E0E
330
1E
100
AcDbEntity
  8
0
100
AcDbLine
 10
44.0
 20
158.0529155
 30
0.0
 11
44.216
 21
158.7019155
 31
0.0
  0
LINE
  5
E0F
330
1E
100
AcDbEntity
  8
0
100
AcDbLine
 10
44.0
 20
158.6119155
 30
0.0
 11
44.0
 21
158.0529155
 31
0.0
  0
LINE
  5
E10
330
1E
100
AcDbEntity
  8
0
100
AcDbLine
 10
43.704
 20
155.7289155
 30
0.0
 11
43.783
 21
155.4549155
 31
0.0
  0
LINE
  5
E11
330
1E
100
AcDbEntity
  8
0
100
AcDbLine
 10
43.672
 20
155.1779155
 30
0.0
 11
43.783
 21
155.4549155
 31
0.0
  0
LINE
  5
E12
330
1E
100
AcDbEntity
  8
0
100
AcDbLine
 10
43.672
 20
155.1779155
 30
0.0
 11
44.199147227839
 21
156.159803832086
 31
0.0
  0
LINE
  5
E13
330
1E
100
AcDbEntity
  8
0
100
AcDbLine
 10
44.793
 20
140.6159155
 30
0.0
 11
44.793
 21
141.478467724371
 31
0.0
  0
LINE
  5
E14
330
1E
100
AcDbEntity
  8
0
100
AcDbLine
 10
44.063
 20
141.1499155
 30
0.0
 11
44.063
 21
141.404961361887
 31
0.0
  0
LINE
  5
E15
330
1E
100
AcDbEntity
  8
0
100
AcDbLine
 10
44.063
 20
141.1499155
 30
0.0
 11
44.793
 21
140.6159155
 31
0.0
  0
LINE
  5
E16
330
1E
100
AcDbEntity
  8
0
100
AcDbLine
 10
44.063
 20
141.404961361887
 30
0.0
 11
44.063
 21
141.1499155
 31
0.0
  0
LINE
  5
E17
330
1E
100
AcDbEntity
  8
0
100
AcDbLine
 10
50.0
 20
124.5039155
 30
0.0
 11
52.208
 21
124.8569155
 31
0.0
  0
LINE
  5
E18
330
1E
100
AcDbEntity
  8
0
100
AcDbLine
 10
50.0
 20
121.0619155
 30
0.0
 11
53.072
 21
121.5029155
 31
0.0
  0
LINE
  5
E19
330
1E
100
AcDbEntity
  8
0
100
AcDbLine
 10
43.856
 20
127.0629155
 30
0.0
 11
45.68
 21
125.6509155
 31
0.0
  0
LINE
  5
E1A
330
1E
100
AcDbEntity
  8
0
100
AcDbLine
 10
45.68
 20
125.6509155
 30
0.0
 11
47.792
 21
124.8569155
 31
0.0
  0
LINE
  5
E1B
330
1E
100
AcDbEntity
  8
0
100
AcDbLine
 10
49.0
 20
137.8849155
 30
0.0
 11
49.0
 21
135.9589155
 31
0.0
  0
LINE
  5
E1C
330
1E
100
AcDbEntity
  8
0
100
AcDbLine
 10
49.0
 20
137.8849155
 30
0.0
 11
49.0
 21
143.761731955696
 31
0.0
  0
LINE
  5
E1D
330
1E
100
AcDbEntity
  8
0
100
AcDbLine
 10
49.0
 20
135.9589155
 30
0.0
 11
49.0
 21
135.3069155
 31
0.0
  0
LINE
  5
E1E
330
1E
100
AcDbEntity
  8
0
100
AcDbLine
 10
49.0
 20
135.9589155
 30
0.0
 11
49.0
 21
137.8849155
 31
0.0
  0
LINE
  5
E1F
330
1E
100
AcDbEntity
  8
0
100
AcDbLine
 10
49.0
 20
136.9389155
 30
0.0
 11
49.0
 21
135.9479155
 31
0.0
  0
LINE
  5
E20
330
1E
100
AcDbEntity
  8
0
100
AcDbLine
 10
49.0
 20
135.3069155
 30
0.0
 11
49.0
 21
134.9749155
 31
0.0
  0
LINE
  5
E21
330
1E
100
AcDbEntity
  8
0
100
AcDbLine
 10
49.0
 20
135.3069155
 30
0.0
 11
49.0
 21
135.9589155
 31
0.0
  0
LINE
  5
E22
330
1E
100
AcDbEntity
  8
0
100
AcDbLine
 10
49.0
 20
134.9749155
 30
0.0
 11
51.0
 21
134.9749155
 31
0.0
  0
LINE
  5
E23
330
1E
100
AcDbEntity
  8
0
100
AcDbLine
 10
49.0
 20
134.9749155
 30
0.0
 11
49.0
 21
135.2169155
 31
0.0
  0
LINE
  5
E24
330
1E
100
AcDbEntity
  8
0
100
AcDbLine
 10
49.0
 20
134.9749155
 30
0.0
 11
49.0
 21
135.3069155
 31
0.0
  0
LINE
  5
E25
330
1E
100
AcDbEntity
  8
0
100
AcDbLine
 10
49.0
 20
135.2169155
 30
0.0
 11
49.0
 21
135.9479155
 31
0.0
  0
LINE
  5
E26
330
1E
100
AcDbEntity
  8
0
100
AcDbLine
 10
49.0
 20
135.2169155
 30
0.0
 11
49.0
 21
134.9749155
 31
0.0
  0
LINE
  5
E27
330
1E
100
AcDbEntity
  8
0
100
AcDbLine
 10
49.0
 20
135.9479155
 30
0.0
 11
49.0
 21
136.9389155
 31
0.0
  0
LINE
  5
E28
330
1E
100
AcDbEntity
  8
0
100
AcDbLine
 10
49.0
 20
135.9479155
 30
0.0
 11
49.0
 21
135.2169155
 31
0.0
  0
LINE
  5
E29
330
1E
100
AcDbEntity
  8
0
100
AcDbLine
 10
47.792
 20
124.8569155
 30
0.0
 11
50.0
 21
124.5039155
 31
0.0
  0
LINE
  5
E2A
330
1E
100
AcDbEntity
  8
0
100
AcDbLine
 10
46.928
 20
121.5029155
 30
0.0
 11
50.0
 21
121.0619155
 31
0.0
  0
LINE
  5
E2B
330
1E
100
AcDbEntity
  8
0
100
AcDbLine
 10
44.048
 20
122.7389155
 30
0.0
 11
46.928
 21
121.5029155
 31
0.0
  0
LINE
  5
E2C
330
1E
100
AcDbEntity
  8
0
100
AcDbLine
 10
33.82
 20
161.8639155
 30
0.0
 11
35.28
 21
161.8639155
 31
0.0
  0
LINE
  5
E2D
330
1E
100
AcDbEntity
  8
0
100
AcDbLine
 10
33.82
 20
161.8639155
 30
0.0
 11
33.82
 21
162.799055275815
 31
0.0
  0
LINE
  5
E2E
330
1E
100
AcDbEntity
  8
0
100
AcDbLine
 10
33.82
 20
161.8639155
 30
0.0
 11
33.82
 21
162.4809155
 31
0.0
  0
LINE
  5
E2F
330
1E
100
AcDbEntity
  8
0
100
AcDbLine
 10
33.82
 20
162.799055275815
 30
0.0
 11
33.82
 21
161.8639155
 31
0.0
  0
LINE
  5
E30
330
1E
100
AcDbEntity
  8
0
100
AcDbLine
 10
35.28
 20
162.4809155
 30
0.0
 11
35.28
 21
163.02091367332
 31
0.0
  0
LINE
  5
E31
330
1E
100
AcDbEntity
  8
0
100
AcDbLine
 10
35.28
 20
162.4809155
 30
0.0
 11
35.28
 21
161.8639155
 31
0.0
  0
LINE
  5
E32
330
1E
100
AcDbEntity
  8
0
100
AcDbLine
 10
35.28
 20
163.02091367332
 30
0.0
 11
35.28
 21
162.4809155
 31
0.0
  0
LINE
  5
E33
330
1E
100
AcDbEntity
  8
0
100
AcDbLine
 10
40.426
 20
164.5489155
 30
0.0
 11
41.69
 21
164.8579155
 31
0.0
  0
LINE
  5
E34
330
1E
100
AcDbEntity
  8
0
100
AcDbLine
 10
33.82
 20
162.4809155
 30
0.0
 11
35.28
 21
162.4809155
 31
0.0
  0
LINE
  5
E35
330
1E
100
AcDbEntity
  8
0
100
AcDbLine
 10
33.82
 20
162.4809155
 30
0.0
 11
33.82
 21
161.8639155
 31
0.0
  0
LINE
  5
E36
330
1E
100
AcDbEntity
  8
0
100
AcDbLine
 10
33.82
 20
162.4809155
 30
0.0
 11
33.82
 21
163.384795906168
 31
0.0
  0
LINE
  5
E37
330
1E
100
AcDbEntity
  8
0
100
AcDbLine
 10
33.82
 20
163.384795906168
 30
0.0
 11
33.82
 21
162.4809155
 31
0.0
  0
LINE
  5
E38
330
1E
100
AcDbEntity
  8
0
100
AcDbLine
 10
24.088
 20
162.6939155
 30
0.0
 11
25.548
 21
162.6939155
 31
0.0
  0
LINE
  5
E39
330
1E
100
AcDbEntity
  8
0
100
AcDbLine
 10
24.088
 20
162.6939155
 30
0.0
 11
24.088
 21
162.0769155
 31
0.0
  0
LINE
  5
E3A
330
1E
100
AcDbEntity
  8
0
100
AcDbLine
 10
24.088
 20
162.6939155
 30
0.0
 11
24.088
 21
163.828992992727
 31
0.0
  0
LINE
  5
E3B
330
1E
100
AcDbEntity
  8
0
100
AcDbLine
 10
25.548
 20
162.6939155
 30
0.0
 11
25.548
 21
163.50409375972
 31
0.0
  0
LINE
  5
E3C
330
1E
100
AcDbEntity
  8
0
100
AcDbLine
 10
25.548
 20
162.6939155
 30
0.0
 11
25.548
 21
162.0769155
 31
0.0
  0
LINE
  5
E3D
330
1E
100
AcDbEntity
  8
0
100
AcDbLine
 10
25.548
 20
163.50409375972
 30
0.0
 11
25.548
 21
162.6939155
 31
0.0
  0
LINE
  5
E3E
330
1E
100
AcDbEntity
  8
0
100
AcDbLine
 10
24.088
 20
163.828992992727
 30
0.0
 11
24.088
 21
162.6939155
 31
0.0
  0
LINE
  5
E3F
330
1E
100
AcDbEntity
  8
0
100
AcDbLine
 10
24.088
 20
162.0769155
 30
0.0
 11
25.548
 21
162.0769155
 31
0.0
  0
LINE
  5
E40
330
1E
100
AcDbEntity
  8
0
100
AcDbLine
 10
24.088
 20
162.0769155
 30
0.0
 11
24.088
 21
162.386856954761
 31
0.0
  0
LINE
  5
E41
330
1E
100
AcDbEntity
  8
0
100
AcDbLine
 10
24.088
 20
162.0769155
 30
0.0
 11
24.088
 21
162.6939155
 31
0.0
  0
LINE
  5
E42
330
1E
100
AcDbEntity
  8
0
100
AcDbLine
 10
25.548
 20
162.0769155
 30
0.0
 11
25.548
 21
162.6939155
 31
0.0
  0
LINE
  5
E43
330
1E
100
AcDbEntity
  8
0
100
AcDbLine
 10
24.088
 20
162.386856954761
 30
0.0
 11
24.088
 21
162.0769155
 31
0.0
  0
LINE
  5
E44
330
1E
100
AcDbEntity
  8
0
100
AcDbLine
 10
35.28
 20
161.8639155
 30
0.0
 11
35.28
 21
162.4809155
 31
0.0
  0
LINE
  5
E45
330
1E
100
AcDbEntity
  8
0
100
AcDbLine
 10
0.511
 20
164.0449155
 30
0.0
 11
1.825
 21
166.7899155
 31
0.0
  0
LINE
  5
E46
330
1E
100
AcDbEntity
  8
0
100
AcDbLine
 10
1.241
 20
163.1079155
 30
0.0
 11
2.482
 21
165.6679155
 31
0.0
  0
LINE
  5
E47
330
1E
100
AcDbEntity
  8
0
100
AcDbLine
 10
3.358
 20
163.0459155
 30
0.0
 11
4.599
 21
165.2359155
 31
0.0
  0
LINE
  5
E48
330
1E
100
AcDbEntity
  8
0
100
AcDbLine
 10
5.759
 20
163.3599155
 30
0.0
 11
7.218
 21
163.3599155
 31
0.0
  0
LINE
  5
E49
330
1E
100
AcDbEntity
  8
0
100
AcDbLine
 10
5.759
 20
163.3599155
 30
0.0
 11
5.759
 21
163.9769155
 31
0.0
  0
LINE
  5
E4A
330
1E
100
AcDbEntity
  8
0
100
AcDbLine
 10
7.218
 20
163.9769155
 30
0.0
 11
7.218
 21
164.822389184211
 31
0.0
  0
LINE
  5
E4B
330
1E
100
AcDbEntity
  8
0
100
AcDbLine
 10
7.218
 20
163.9769155
 30
0.0
 11
7.218
 21
163.3599155
 31
0.0
  0
LINE
  5
E4C
330
1E
100
AcDbEntity
  8
0
100
AcDbLine
 10
7.218
 20
163.3599155
 30
0.0
 11
7.218
 21
163.9769155
 31
0.0
  0
LINE
  5
E4D
330
1E
100
AcDbEntity
  8
0
100
AcDbLine
 10
14.68
 20
163.644178657895
 30
0.0
 11
14.68
 21
163.4559155
 31
0.0
  0
LINE
  5
E4E
330
1E
100
AcDbEntity
  8
0
100
AcDbLine
 10
14.68
 20
163.644178657895
 30
0.0
 11
14.68
 21
162.8389155
 31
0.0
  0
LINE
  5
E4F
330
1E
100
AcDbEntity
  8
0
100
AcDbLine
 10
14.68
 20
163.4559155
 30
0.0
 11
16.14
 21
163.4559155
 31
0.0
  0
LINE
  5
E50
330
1E
100
AcDbEntity
  8
0
100
AcDbLine
 10
14.68
 20
163.4559155
 30
0.0
 11
14.68
 21
162.8389155
 31
0.0
  0
LINE
  5
E51
330
1E
100
AcDbEntity
  8
0
100
AcDbLine
 10
14.68
 20
163.4559155
 30
0.0
 11
14.68
 21
163.644178657895
 31
0.0
  0
LINE
  5
E52
330
1E
100
AcDbEntity
  8
0
100
AcDbLine
 10
16.14
 20
163.4559155
 30
0.0
 11
16.14
 21
162.8389155
 31
0.0
  0
LINE
  5
E53
330
1E
100
AcDbEntity
  8
0
100
AcDbLine
 10
5.759
 20
163.9769155
 30
0.0
 11
7.218
 21
163.9769155
 31
0.0
  0
LINE
  5
E54
330
1E
100
AcDbEntity
  8
0
100
AcDbLine
 10
5.759
 20
163.9769155
 30
0.0
 11
5.759
 21
163.3599155
 31
0.0
  0
LINE
  5
E55
330
1E
100
AcDbEntity
  8
0
100
AcDbLine
 10
5.759
 20
163.9769155
 30
0.0
 11
5.759
 21
165.052757605263
 31
0.0
  0
LINE
  5
E56
330
1E
100
AcDbEntity
  8
0
100
AcDbLine
 10
14.68
 20
162.8389155
 30
0.0
 11
16.14
 21
162.8389155
 31
0.0
  0
LINE
  5
E57
330
1E
100
AcDbEntity
  8
0
100
AcDbLine
 10
14.68
 20
162.8389155
 30
0.0
 11
14.68
 21
163.644178657895
 31
0.0
  0
LINE
  5
E58
330
1E
100
AcDbEntity
  8
0
100
AcDbLine
 10
14.68
 20
162.8389155
 30
0.0
 11
14.68
 21
163.4559155
 31
0.0
  0
LINE
  5
E59
330
1E
100
AcDbEntity
  8
0
100
AcDbLine
 10
16.14
 20
162.8389155
 30
0.0
 11
16.14
 21
163.4559155
 31
0.0
  0
LINE
  5
E5A
330
1E
100
AcDbEntity
  8
0
100
AcDbLine
 10
37.591
 20
140.3419155
 30
0.0
 11
43.65
 21
139.8179155
 31
0.0
  0
LINE
  5
E5B
330
1E
100
AcDbEntity
  8
0
100
AcDbLine
 10
31.168
 20
141.2359155
 30
0.0
 11
37.591
 21
140.3419155
 31
0.0
  0
LINE
  5
E5C
330
1E
100
AcDbEntity
  8
0
100
AcDbLine
 10
38.613
 20
141.2359155
 30
0.0
 11
42.84522446175
 21
140.808038668444
 31
0.0
  0
LINE
  5
E5D
330
1E
100
AcDbEntity
  8
0
100
AcDbLine
 10
35.753
 20
141.598585617217
 30
0.0
 11
35.753
 21
141.5369155
 31
0.0
  0
LINE
  5
E5E
330
1E
100
AcDbEntity
  8
0
100
AcDbLine
 10
35.753
 20
141.598585617217
 30
0.0
 11
38.613
 21
141.2359155
 31
0.0
  0
LINE
  5
E5F
330
1E
100
AcDbEntity
  8
0
100
AcDbLine
 10
39.622
 20
144.0859155
 30
0.0
 11
40.887
 21
144.3939155
 31
0.0
  0
LINE
  5
E60
330
1E
100
AcDbEntity
  8
0
100
AcDbLine
 10
40.887
 20
145.021921822445
 30
0.0
 11
40.887
 21
144.3939155
 31
0.0
  0
LINE
  5
E61
330
1E
100
AcDbEntity
  8
0
100
AcDbLine
 10
43.42
 20
147.6469155
 30
0.0
 11
43.42
 21
148.061040117403
 31
0.0
  0
LINE
  5
E62
330
1E
100
AcDbEntity
  8
0
100
AcDbLine
 10
43.42
 20
147.6469155
 30
0.0
 11
44.15
 21
147.1119155
 31
0.0
  0
LINE
  5
E63
330
1E
100
AcDbEntity
  8
0
100
AcDbLine
 10
43.42
 20
147.6469155
 30
0.0
 11
44.684
 21
147.9549155
 31
0.0
  0
LINE
  5
E64
330
1E
100
AcDbEntity
  8
0
100
AcDbLine
 10
43.42
 20
148.061040117403
 30
0.0
 11
43.42
 21
147.6469155
 31
0.0
  0
LINE
  5
E65
330
1E
100
AcDbEntity
  8
0
100
AcDbLine
 10
43.441
 20
155.9969155
 30
0.0
 11
43.704
 21
155.7289155
 31
0.0
  0
LINE
  5
E66
330
1E
100
AcDbEntity
  8
0
100
AcDbLine
 10
43.44
 20
154.9149155
 30
0.0
 11
43.672
 21
155.1779155
 31
0.0
  0
LINE
  5
E67
330
1E
100
AcDbEntity
  8
0
100
AcDbLine
 10
43.049
 20
154.6939155
 30
0.0
 11
43.44
 21
154.9149155
 31
0.0
  0
LINE
  5
E68
330
1E
100
AcDbEntity
  8
0
100
AcDbLine
 10
42.504
 20
154.5179155
 30
0.0
 11
43.049
 21
154.6939155
 31
0.0
  0
LINE
  5
E69
330
1E
100
AcDbEntity
  8
0
100
AcDbLine
 10
43.024
 20
156.2269155
 30
0.0
 11
43.441
 21
155.9969155
 31
0.0
  0
LINE
  5
E6A
330
1E
100
AcDbEntity
  8
0
100
AcDbLine
 10
42.503
 20
156.3919155
 30
0.0
 11
43.024
 21
156.2269155
 31
0.0
  0
LINE
  5
E6B
330
1E
100
AcDbEntity
  8
0
100
AcDbLine
 10
41.879
 20
156.4889155
 30
0.0
 11
42.503
 21
156.3919155
 31
0.0
  0
LINE
  5
E6C
330
1E
100
AcDbEntity
  8
0
100
AcDbLine
 10
41.224
 20
156.5369155
 30
0.0
 11
41.879
 21
156.4889155
 31
0.0
  0
LINE
  5
E6D
330
1E
100
AcDbEntity
  8
0
100
AcDbLine
 10
41.223
 20
154.3739155
 30
0.0
 11
41.871
 21
154.4069155
 31
0.0
  0
LINE
  5
E6E
330
1E
100
AcDbEntity
  8
0
100
AcDbLine
 10
41.871
 20
154.4069155
 30
0.0
 11
42.504
 21
154.5179155
 31
0.0
  0
LINE
  5
E6F
330
1E
100
AcDbEntity
  8
0
100
AcDbLine
 10
41.69
 20
151.80571717837
 30
0.0
 11
41.69
 21
151.4579155
 31
0.0
  0
LINE
  5
E70
330
1E
100
AcDbEntity
  8
0
100
AcDbLine
 10
40.961
 20
150.9239155
 30
0.0
 11
41.69
 21
151.4579155
 31
0.0
  0
LINE
  5
E71
330
1E
100
AcDbEntity
  8
0
100
AcDbLine
 10
41.69
 20
151.4579155
 30
0.0
 11
41.69
 21
151.80571717837
 31
0.0
  0
LINE
  5
E72
330
1E
100
AcDbEntity
  8
0
100
AcDbLine
 10
40.887
 20
144.3939155
 30
0.0
 11
40.887
 21
145.021921822445
 31
0.0
  0
LINE
  5
E73
330
1E
100
AcDbEntity
  8
0
100
AcDbLine
 10
40.157
 20
144.9289155
 30
0.0
 11
40.157
 21
145.435259064146
 31
0.0
  0
LINE
  5
E74
330
1E
100
AcDbEntity
  8
0
100
AcDbLine
 10
40.157
 20
144.9289155
 30
0.0
 11
40.887
 21
144.3939155
 31
0.0
  0
LINE
  5
E75
330
1E
100
AcDbEntity
  8
0
100
AcDbLine
 10
40.426
 20
152.641056029238
 30
0.0
 11
40.426
 21
151.7669155
 31
0.0
  0
LINE
  5
E76
330
1E
100
AcDbEntity
  8
0
100
AcDbLine
 10
40.568
 20
154.4209155
 30
0.0
 11
41.223
 21
154.3739155
 31
0.0
  0
LINE
  5
E77
330
1E
100
AcDbEntity
  8
0
100
AcDbLine
 10
40.577
 20
156.5039155
 30
0.0
 11
41.224
 21
156.5369155
 31
0.0
  0
LINE
  5
E78
330
1E
100
AcDbEntity
  8
0
100
AcDbLine
 10
40.426
 20
151.7669155
 30
0.0
 11
40.426
 21
152.641056029238
 31
0.0
  0
LINE
  5
E79
330
1E
100
AcDbEntity
  8
0
100
AcDbLine
 10
40.426
 20
151.7669155
 30
0.0
 11
41.69
 21
151.4579155
 31
0.0
  0
LINE
  5
E7A
330
1E
100
AcDbEntity
  8
0
100
AcDbLine
 10
40.157
 20
145.435259064146
 30
0.0
 11
40.157
 21
144.9289155
 31
0.0
  0
LINE
  5
E7B
330
1E
100
AcDbEntity
  8
0
100
AcDbLine
 10
39.696
 20
151.2329155
 30
0.0
 11
40.426
 21
151.7669155
 31
0.0
  0
LINE
  5
E7C
330
1E
100
AcDbEntity
  8
0
100
AcDbLine
 10
39.696
 20
151.2329155
 30
0.0
 11
39.696
 21
152.351035119295
 31
0.0
  0
LINE
  5
E7D
330
1E
100
AcDbEntity
  8
0
100
AcDbLine
 10
39.696
 20
151.2329155
 30
0.0
 11
40.961
 21
150.9239155
 31
0.0
  0
LINE
  5
E7E
330
1E
100
AcDbEntity
  8
0
100
AcDbLine
 10
39.944
 20
154.5179155
 30
0.0
 11
40.568
 21
154.4209155
 31
0.0
  0
LINE
  5
E7F
330
1E
100
AcDbEntity
  8
0
100
AcDbLine
 10
39.944
 20
156.3919155
 30
0.0
 11
40.577
 21
156.5039155
 31
0.0
  0
LINE
  5
E80
330
1E
100
AcDbEntity
  8
0
100
AcDbLine
 10
39.696
 20
152.351035119295
 30
0.0
 11
39.696
 21
151.2329155
 31
0.0
  0
LINE
  5
E81
330
1E
100
AcDbEntity
  8
0
100
AcDbLine
 10
39.007
 20
154.9139155
 30
0.0
 11
39.423
 21
154.6839155
 31
0.0
  0
LINE
  5
E82
330
1E
100
AcDbEntity
  8
0
100
AcDbLine
 10
39.423
 20
154.6839155
 30
0.0
 11
39.944
 21
154.5179155
 31
0.0
  0
LINE
  5
E83
330
1E
100
AcDbEntity
  8
0
100
AcDbLine
 10
39.399
 20
156.2169155
 30
0.0
 11
39.944
 21
156.3919155
 31
0.0
  0
LINE
  5
E84
330
1E
100
AcDbEntity
  8
0
100
AcDbLine
 10
38.743
 20
155.1819155
 30
0.0
 11
39.007
 21
154.9139155
 31
0.0
  0
LINE
  5
E85
330
1E
100
AcDbEntity
  8
0
100
AcDbLine
 10
38.371875926283
 20
155.87848683836
 30
0.0
 11
38.743
 21
155.1819155
 31
0.0
  0
LINE
  5
E86
330
1E
100
AcDbEntity
  8
0
100
AcDbLine
 10
38.664
 20
155.4559155
 30
0.0
 11
38.776
 21
155.7329155
 31
0.0
  0
LINE
  5
E87
330
1E
100
AcDbEntity
  8
0
100
AcDbLine
 10
38.664
 20
155.4559155
 30
0.0
 11
38.743
 21
155.1819155
 31
0.0
  0
LINE
  5
E88
330
1E
100
AcDbEntity
  8
0
100
AcDbLine
 10
38.776
 20
155.7329155
 30
0.0
 11
39.007
 21
155.9959155
 31
0.0
  0
LINE
  5
E89
330
1E
100
AcDbEntity
  8
0
100
AcDbLine
 10
39.007
 20
155.9959155
 30
0.0
 11
39.399
 21
156.2169155
 31
0.0
  0
LINE
  5
E8A
330
1E
100
AcDbEntity
  8
0
100
AcDbLine
 10
37.311
 20
149.450101662014
 30
0.0
 11
37.311
 21
148.7059155
 31
0.0
  0
LINE
  5
E8B
330
1E
100
AcDbEntity
  8
0
100
AcDbLine
 10
36.581
 20
148.1709155
 30
0.0
 11
37.311
 21
148.7059155
 31
0.0
  0
LINE
  5
E8C
330
1E
100
AcDbEntity
  8
0
100
AcDbLine
 10
37.311
 20
148.7059155
 30
0.0
 11
37.311
 21
149.450101662014
 31
0.0
  0
LINE
  5
E8D
330
1E
100
AcDbEntity
  8
0
100
AcDbLine
 10
36.047
 20
149.0149155
 30
0.0
 11
37.311
 21
148.7059155
 31
0.0
  0
LINE
  5
E8E
330
1E
100
AcDbEntity
  8
0
100
AcDbLine
 10
38.892
 20
144.6199155
 30
0.0
 11
38.892
 21
144.910370045455
 31
0.0
  0
LINE
  5
E8F
330
1E
100
AcDbEntity
  8
0
100
AcDbLine
 10
38.892
 20
144.6199155
 30
0.0
 11
39.622
 21
144.0859155
 31
0.0
  0
LINE
  5
E90
330
1E
100
AcDbEntity
  8
0
100
AcDbLine
 10
38.892
 20
144.6199155
 30
0.0
 11
40.157
 21
144.9289155
 31
0.0
  0
LINE
  5
E91
330
1E
100
AcDbEntity
  8
0
100
AcDbLine
 10
38.892
 20
144.910370045455
 30
0.0
 11
38.892
 21
144.6199155
 31
0.0
  0
LINE
  5
E92
330
1E
100
AcDbEntity
  8
0
100
AcDbLine
 10
32.044
 20
142.0689155
 30
0.0
 11
33.759
 21
141.851440237403
 31
0.0
  0
LINE
  5
E93
330
1E
100
AcDbEntity
  8
0
100
AcDbLine
 10
35.023
 20
142.0719155
 30
0.0
 11
35.023
 21
143.304998019116
 31
0.0
  0
LINE
  5
E94
330
1E
100
AcDbEntity
  8
0
100
AcDbLine
 10
35.023
 20
142.0719155
 30
0.0
 11
35.753
 21
141.5369155
 31
0.0
  0
LINE
  5
E95
330
1E
100
AcDbEntity
  8
0
100
AcDbLine
 10
35.28
 20
155.22670603442
 30
0.0
 11
35.28
 21
154.4519155
 31
0.0
  0
LINE
  5
E96
330
1E
100
AcDbEntity
  8
0
100
AcDbLine
 10
35.28
 20
153.8349155
 30
0.0
 11
35.28
 21
154.4519155
 31
0.0
  0
LINE
  5
E97
330
1E
100
AcDbEntity
  8
0
100
AcDbLine
 10
35.317
 20
148.4799155
 30
0.0
 11
36.047
 21
149.0149155
 31
0.0
  0
LINE
  5
E98
330
1E
100
AcDbEntity
  8
0
100
AcDbLine
 10
35.317
 20
148.4799155
 30
0.0
 11
35.317
 21
148.573432576035
 31
0.0
  0
LINE
  5
E99
330
1E
100
AcDbEntity
  8
0
100
AcDbLine
 10
35.317
 20
148.4799155
 30
0.0
 11
36.581
 21
148.1709155
 31
0.0
  0
LINE
  5
E9A
330
1E
100
AcDbEntity
  8
0
100
AcDbLine
 10
35.317
 20
148.573432576035
 30
0.0
 11
35.317
 21
148.4799155
 31
0.0
  0
LINE
  5
E9B
330
1E
100
AcDbEntity
  8
0
100
AcDbLine
 10
35.28
 20
154.4519155
 30
0.0
 11
35.28
 21
153.8349155
 31
0.0
  0
LINE
  5
E9C
330
1E
100
AcDbEntity
  8
0
100
AcDbLine
 10
35.28
 20
154.4519155
 30
0.0
 11
35.28
 21
155.22670603442
 31
0.0
  0
LINE
  5
E9D
330
1E
100
AcDbEntity
  8
0
100
AcDbLine
 10
35.023
 20
143.304998019116
 30
0.0
 11
35.023
 21
142.0719155
 31
0.0
  0
LINE
  5
E9E
330
1E
100
AcDbEntity
  8
0
100
AcDbLine
 10
33.82
 20
153.8349155
 30
0.0
 11
35.28
 21
153.8349155
 31
0.0
  0
LINE
  5
E9F
330
1E
100
AcDbEntity
  8
0
100
AcDbLine
 10
33.82
 20
153.8349155
 30
0.0
 11
33.82
 21
154.4519155
 31
0.0
  0
LINE
  5
EA0
330
1E
100
AcDbEntity
  8
0
100
AcDbLine
 10
33.82
 20
153.8349155
 30
0.0
 11
33.82
 21
154.424777102106
 31
0.0
  0
LINE
  5
EA1
330
1E
100
AcDbEntity
  8
0
100
AcDbLine
 10
33.82
 20
154.4519155
 30
0.0
 11
35.28
 21
154.4519155
 31
0.0
  0
LINE
  5
EA2
330
1E
100
AcDbEntity
  8
0
100
AcDbLine
 10
33.82
 20
154.4519155
 30
0.0
 11
33.82
 21
154.94469063587
 31
0.0
  0
LINE
  5
EA3
330
1E
100
AcDbEntity
  8
0
100
AcDbLine
 10
33.82
 20
154.4519155
 30
0.0
 11
33.82
 21
153.8349155
 31
0.0
  0
LINE
  5
EA4
330
1E
100
AcDbEntity
  8
0
100
AcDbLine
 10
33.82
 20
154.94469063587
 30
0.0
 11
33.82
 21
154.4519155
 31
0.0
  0
LINE
  5
EA5
330
1E
100
AcDbEntity
  8
0
100
AcDbLine
 10
32.117
 20
159.371208688885
 30
0.0
 11
32.117
 21
158.4659155
 31
0.0
  0
LINE
  5
EA6
330
1E
100
AcDbEntity
  8
0
100
AcDbLine
 10
32.117
 20
157.8499155
 30
0.0
 11
32.117
 21
158.4659155
 31
0.0
  0
LINE
  5
EA7
330
1E
100
AcDbEntity
  8
0
100
AcDbLine
 10
32.117
 20
158.4659155
 30
0.0
 11
32.117
 21
157.8499155
 31
0.0
  0
LINE
  5
EA8
330
1E
100
AcDbEntity
  8
0
100
AcDbLine
 10
32.117
 20
158.4659155
 30
0.0
 11
32.117
 21
159.371208688885
 31
0.0
  0
LINE
  5
EA9
330
1E
100
AcDbEntity
  8
0
100
AcDbLine
 10
33.82
 20
154.424777102106
 30
0.0
 11
33.82
 21
153.8349155
 31
0.0
  0
LINE
  5
EAA
330
1E
100
AcDbEntity
  8
0
100
AcDbLine
 10
31.667
 20
146.967172557456
 30
0.0
 11
31.667
 21
146.2619155
 31
0.0
  0
LINE
  5
EAB
330
1E
100
AcDbEntity
  8
0
100
AcDbLine
 10
32.931
 20
147.058120979452
 30
0.0
 11
32.931
 21
145.9539155
 31
0.0
  0
LINE
  5
EAC
330
1E
100
AcDbEntity
  8
0
100
AcDbLine
 10
32.202
 20
145.4189155
 30
0.0
 11
32.931
 21
145.9539155
 31
0.0
  0
LINE
  5
EAD
330
1E
100
AcDbEntity
  8
0
100
AcDbLine
 10
32.931
 20
145.9539155
 30
0.0
 11
32.931
 21
147.058120979452
 31
0.0
  0
LINE
  5
EAE
330
1E
100
AcDbEntity
  8
0
100
AcDbLine
 10
31.667
 20
146.2619155
 30
0.0
 11
31.667
 21
146.967172557456
 31
0.0
  0
LINE
  5
EAF
330
1E
100
AcDbEntity
  8
0
100
AcDbLine
 10
31.667
 20
146.2619155
 30
0.0
 11
32.931
 21
145.9539155
 31
0.0
  0
LINE
  5
EB0
330
1E
100
AcDbEntity
  8
0
100
AcDbLine
 10
33.759
 20
142.780523932455
 30
0.0
 11
33.759
 21
141.7629155
 31
0.0
  0
LINE
  5
EB1
330
1E
100
AcDbEntity
  8
0
100
AcDbLine
 10
35.753
 20
141.5369155
 30
0.0
 11
35.753
 21
141.598585617217
 31
0.0
  0
LINE
  5
EB2
330
1E
100
AcDbEntity
  8
0
100
AcDbLine
 10
33.759
 20
141.7629155
 30
0.0
 11
33.759
 21
142.780523932455
 31
0.0
  0
LINE
  5
EB3
330
1E
100
AcDbEntity
  8
0
100
AcDbLine
 10
33.759
 20
141.7629155
 30
0.0
 11
34.489
 21
141.2289155
 31
0.0
  0
LINE
  5
EB4
330
1E
100
AcDbEntity
  8
0
100
AcDbLine
 10
33.759
 20
141.7629155
 30
0.0
 11
35.023
 21
142.0719155
 31
0.0
  0
LINE
  5
EB5
330
1E
100
AcDbEntity
  8
0
100
AcDbLine
 10
42.799
 20
140.8419155
 30
0.0
 11
43.529
 21
140.3069155
 31
0.0
  0
LINE
  5
EB6
330
1E
100
AcDbEntity
  8
0
100
AcDbLine
 10
42.799
 20
140.8419155
 30
0.0
 11
44.063
 21
141.1499155
 31
0.0
  0
LINE
  5
EB7
330
1E
100
AcDbEntity
  8
0
100
AcDbLine
 10
34.489
 20
141.2289155
 30
0.0
 11
35.753
 21
141.5369155
 31
0.0
  0
LINE
  5
EB8
330
1E
100
AcDbEntity
  8
0
100
AcDbLine
 10
28.099557724212
 20
142.869331092402
 30
0.0
 11
32.044
 21
142.0689155
 31
0.0
  0
LINE
  5
EB9
330
1E
100
AcDbEntity
  8
0
100
AcDbLine
 10
30.657
 20
157.8499155
 30
0.0
 11
32.117
 21
157.8499155
 31
0.0
  0
LINE
  5
EBA
330
1E
100
AcDbEntity
  8
0
100
AcDbLine
 10
30.657
 20
157.8499155
 30
0.0
 11
30.657
 21
158.4659155
 31
0.0
  0
LINE
  5
EBB
330
1E
100
AcDbEntity
  8
0
100
AcDbLine
 10
30.657
 20
157.8499155
 30
0.0
 11
30.657
 21
158.429093890983
 31
0.0
  0
LINE
  5
EBC
330
1E
100
AcDbEntity
  8
0
100
AcDbLine
 10
30.937
 20
145.7279155
 30
0.0
 11
31.667
 21
146.2619155
 31
0.0
  0
LINE
  5
EBD
330
1E
100
AcDbEntity
  8
0
100
AcDbLine
 10
30.937
 20
145.7279155
 30
0.0
 11
30.937
 21
146.803401385088
 31
0.0
  0
LINE
  5
EBE
330
1E
100
AcDbEntity
  8
0
100
AcDbLine
 10
30.937
 20
145.7279155
 30
0.0
 11
32.202
 21
145.4189155
 31
0.0
  0
LINE
  5
EBF
330
1E
100
AcDbEntity
  8
0
100
AcDbLine
 10
30.937
 20
146.803401385088
 30
0.0
 11
30.937
 21
145.7279155
 31
0.0
  0
LINE
  5
EC0
330
1E
100
AcDbEntity
  8
0
100
AcDbLine
 10
30.82
 20
150.7209155
 30
0.0
 11
30.82
 21
151.3379155
 31
0.0
  0
LINE
  5
EC1
330
1E
100
AcDbEntity
  8
0
100
AcDbLine
 10
30.82
 20
151.3379155
 30
0.0
 11
30.82
 21
150.7209155
 31
0.0
  0
LINE
  5
EC2
330
1E
100
AcDbEntity
  8
0
100
AcDbLine
 10
30.657
 20
158.4659155
 30
0.0
 11
32.117
 21
158.4659155
 31
0.0
  0
LINE
  5
EC3
330
1E
100
AcDbEntity
  8
0
100
AcDbLine
 10
30.657
 20
158.4659155
 30
0.0
 11
30.657
 21
159.385181677614
 31
0.0
  0
LINE
  5
EC4
330
1E
100
AcDbEntity
  8
0
100
AcDbLine
 10
30.657
 20
158.4659155
 30
0.0
 11
30.657
 21
157.8499155
 31
0.0
  0
LINE
  5
EC5
330
1E
100
AcDbEntity
  8
0
100
AcDbLine
 10
30.657
 20
159.385181677614
 30
0.0
 11
30.657
 21
158.4659155
 31
0.0
  0
LINE
  5
EC6
330
1E
100
AcDbEntity
  8
0
100
AcDbLine
 10
30.657
 20
158.429093890983
 30
0.0
 11
30.657
 21
157.8499155
 31
0.0
  0
LINE
  5
EC7
330
1E
100
AcDbEntity
  8
0
100
AcDbLine
 10
29.36
 20
151.3379155
 30
0.0
 11
30.82
 21
151.3379155
 31
0.0
  0
LINE
  5
EC8
330
1E
100
AcDbEntity
  8
0
100
AcDbLine
 10
29.36
 20
151.3379155
 30
0.0
 11
29.36
 21
152.220673598224
 31
0.0
  0
LINE
  5
EC9
330
1E
100
AcDbEntity
  8
0
100
AcDbLine
 10
29.36
 20
151.3379155
 30
0.0
 11
29.36
 21
150.7209155
 31
0.0
  0
LINE
  5
ECA
330
1E
100
AcDbEntity
  8
0
100
AcDbLine
 10
29.36
 20
152.220673598224
 30
0.0
 11
29.36
 21
151.3379155
 31
0.0
  0
LINE
  5
ECB
330
1E
100
AcDbEntity
  8
0
100
AcDbLine
 10
29.36
 20
150.7209155
 30
0.0
 11
30.82
 21
150.7209155
 31
0.0
  0
LINE
  5
ECC
330
1E
100
AcDbEntity
  8
0
100
AcDbLine
 10
29.36
 20
150.7209155
 30
0.0
 11
29.36
 21
151.3379155
 31
0.0
  0
LINE
  5
ECD
330
1E
100
AcDbEntity
  8
0
100
AcDbLine
 10
27.288
 20
143.618210020548
 30
0.0
 11
27.288
 21
143.5089155
 31
0.0
  0
LINE
  5
ECE
330
1E
100
AcDbEntity
  8
0
100
AcDbLine
 10
28.552
 20
143.804754549394
 30
0.0
 11
28.552
 21
143.2009155
 31
0.0
  0
LINE
  5
ECF
330
1E
100
AcDbEntity
  8
0
100
AcDbLine
 10
27.288
 20
143.5089155
 30
0.0
 11
27.288
 21
143.618210020548
 31
0.0
  0
LINE
  5
ED0
330
1E
100
AcDbEntity
  8
0
100
AcDbLine
 10
27.288
 20
143.5089155
 30
0.0
 11
28.552
 21
143.2009155
 31
0.0
  0
LINE
  5
ED1
330
1E
100
AcDbEntity
  8
0
100
AcDbLine
 10
28.552
 20
143.2009155
 30
0.0
 11
28.552
 21
143.804754549394
 31
0.0
  0
LINE
  5
ED2
330
1E
100
AcDbEntity
  8
0
100
AcDbLine
 10
27.822
 20
142.6659155
 30
0.0
 11
28.552
 21
143.2009155
 31
0.0
  0
LINE
  5
ED3
330
1E
100
AcDbEntity
  8
0
100
AcDbLine
 10
41.36
 20
133.2409155
 30
0.0
 11
41.36
 21
140.015961382159
 31
0.0
  0
LINE
  5
ED4
330
1E
100
AcDbEntity
  8
0
100
AcDbLine
 10
41.36
 20
133.2409155
 30
0.0
 11
41.648
 21
131.0349155
 31
0.0
  0
LINE
  5
ED5
330
1E
100
AcDbEntity
  8
0
100
AcDbLine
 10
41.648
 20
131.0349155
 30
0.0
 11
42.512
 21
128.9169155
 31
0.0
  0
LINE
  5
ED6
330
1E
100
AcDbEntity
  8
0
100
AcDbLine
 10
43.529
 20
140.3069155
 30
0.0
 11
44.793
 21
140.6159155
 31
0.0
  0
LINE
  5
ED7
330
1E
100
AcDbEntity
  8
0
100
AcDbLine
 10
42.512
 20
128.9169155
 30
0.0
 11
43.856
 21
127.0629155
 31
0.0
  0
LINE
  5
ED8
330
1E
100
AcDbEntity
  8
0
100
AcDbLine
 10
41.552
 20
124.6799155
 30
0.0
 11
44.048
 21
122.7389155
 31
0.0
  0
LINE
  5
ED9
330
1E
100
AcDbEntity
  8
0
100
AcDbLine
 10
41.36
 20
140.015961382159
 30
0.0
 11
41.36
 21
133.2409155
 31
0.0
  0
LINE
  5
EDA
330
1E
100
AcDbEntity
  8
0
100
AcDbLine
 10
39.632
 20
139.3309155
 30
0.0
 11
40.219743916615
 21
140.114574055487
 31
0.0
  0
LINE
  5
EDB
330
1E
100
AcDbEntity
  8
0
100
AcDbLine
 10
38.384
 20
136.4189155
 30
0.0
 11
39.632
 21
139.3309155
 31
0.0
  0
LINE
  5
EDC
330
1E
100
AcDbEntity
  8
0
100
AcDbLine
 10
38.0
 20
133.2409155
 30
0.0
 11
38.384
 21
130.1519155
 31
0.0
  0
LINE
  5
EDD
330
1E
100
AcDbEntity
  8
0
100
AcDbLine
 10
38.0
 20
133.2409155
 30
0.0
 11
38.0
 21
61.2064155
 31
0.0
  0
LINE
  5
EDE
330
1E
100
AcDbEntity
  8
0
100
AcDbLine
 10
38.0
 20
133.2409155
 30
0.0
 11
38.384
 21
136.4189155
 31
0.0
  0
LINE
  5
EDF
330
1E
100
AcDbEntity
  8
0
100
AcDbLine
 10
38.384
 20
130.1519155
 30
0.0
 11
39.632
 21
127.2399155
 31
0.0
  0
LINE
  5
EE0
330
1E
100
AcDbEntity
  8
0
100
AcDbLine
 10
39.632
 20
127.2399155
 30
0.0
 11
41.552
 21
124.6799155
 31
0.0
  0
LINE
  5
EE1
330
1E
100
AcDbEntity
  8
0
100
AcDbLine
 10
25.474
 20
142.3779155
 30
0.0
 11
31.168
 21
141.2359155
 31
0.0
  0
LINE
  5
EE2
330
1E
100
AcDbEntity
  8
0
100
AcDbLine
 10
20.073
 20
143.9199155
 30
0.0
 11
25.474
 21
142.3779155
 31
0.0
  0
LINE
  5
EE3
330
1E
100
AcDbEntity
  8
0
100
AcDbLine
 10
21.387
 20
144.6609155
 30
0.0
 11
26.558
 21
143.183059266885
 31
0.0
  0
LINE
  5
EE4
330
1E
100
AcDbEntity
  8
0
100
AcDbLine
 10
21.293795020266
 20
144.6959155
 30
0.0
 11
21.387
 21
144.6609155
 31
0.0
  0
LINE
  5
EE5
330
1E
100
AcDbEntity
  8
0
100
AcDbLine
 10
21.898
 20
158.3029155
 30
0.0
 11
23.358
 21
158.3029155
 31
0.0
  0
LINE
  5
EE6
330
1E
100
AcDbEntity
  8
0
100
AcDbLine
 10
21.898
 20
158.3029155
 30
0.0
 11
21.898
 21
158.9199155
 31
0.0
  0
LINE
  5
EE7
330
1E
100
AcDbEntity
  8
0
100
AcDbLine
 10
21.898
 20
158.3029155
 30
0.0
 11
21.898
 21
159.116741772833
 31
0.0
  0
LINE
  5
EE8
330
1E
100
AcDbEntity
  8
0
100
AcDbLine
 10
21.898
 20
158.9199155
 30
0.0
 11
23.358
 21
158.9199155
 31
0.0
  0
LINE
  5
EE9
330
1E
100
AcDbEntity
  8
0
100
AcDbLine
 10
21.898
 20
158.9199155
 30
0.0
 11
21.898
 21
159.469010039448
 31
0.0
  0
LINE
  5
EEA
330
1E
100
AcDbEntity
  8
0
100
AcDbLine
 10
21.898
 20
158.9199155
 30
0.0
 11
21.898
 21
158.3029155
 31
0.0
  0
LINE
  5
EEB
330
1E
100
AcDbEntity
  8
0
100
AcDbLine
 10
23.358
 20
159.455037050719
 30
0.0
 11
23.358
 21
158.9199155
 31
0.0
  0
LINE
  5
EEC
330
1E
100
AcDbEntity
  8
0
100
AcDbLine
 10
23.358
 20
158.9199155
 30
0.0
 11
23.358
 21
158.3029155
 31
0.0
  0
LINE
  5
EED
330
1E
100
AcDbEntity
  8
0
100
AcDbLine
 10
23.358
 20
158.9199155
 30
0.0
 11
23.358
 21
159.455037050719
 31
0.0
  0
LINE
  5
EEE
330
1E
100
AcDbEntity
  8
0
100
AcDbLine
 10
21.898
 20
159.469010039448
 30
0.0
 11
21.898
 21
158.9199155
 31
0.0
  0
LINE
  5
EEF
330
1E
100
AcDbEntity
  8
0
100
AcDbLine
 10
21.898
 20
159.116741772833
 30
0.0
 11
21.898
 21
158.3029155
 31
0.0
  0
LINE
  5
EF0
330
1E
100
AcDbEntity
  8
0
100
AcDbLine
 10
23.358
 20
158.3029155
 30
0.0
 11
23.358
 21
158.9199155
 31
0.0
  0
LINE
  5
EF1
330
1E
100
AcDbEntity
  8
0
100
AcDbLine
 10
24.088
 20
154.5289155
 30
0.0
 11
25.548
 21
154.5289155
 31
0.0
  0
LINE
  5
EF2
330
1E
100
AcDbEntity
  8
0
100
AcDbLine
 10
24.088
 20
154.5289155
 30
0.0
 11
24.088
 21
155.1449155
 31
0.0
  0
LINE
  5
EF3
330
1E
100
AcDbEntity
  8
0
100
AcDbLine
 10
24.088
 20
154.5289155
 30
0.0
 11
24.088
 21
154.750789871859
 31
0.0
  0
LINE
  5
EF4
330
1E
100
AcDbEntity
  8
0
100
AcDbLine
 10
24.088
 20
155.1449155
 30
0.0
 11
25.548
 21
155.1449155
 31
0.0
  0
LINE
  5
EF5
330
1E
100
AcDbEntity
  8
0
100
AcDbLine
 10
24.088
 20
155.1449155
 30
0.0
 11
24.088
 21
156.100804914548
 31
0.0
  0
LINE
  5
EF6
330
1E
100
AcDbEntity
  8
0
100
AcDbLine
 10
24.088
 20
155.1449155
 30
0.0
 11
24.088
 21
154.5289155
 31
0.0
  0
LINE
  5
EF7
330
1E
100
AcDbEntity
  8
0
100
AcDbLine
 10
25.548
 20
156.146492870392
 30
0.0
 11
25.548
 21
155.1449155
 31
0.0
  0
LINE
  5
EF8
330
1E
100
AcDbEntity
  8
0
100
AcDbLine
 10
25.548
 20
155.1449155
 30
0.0
 11
25.548
 21
154.5289155
 31
0.0
  0
LINE
  5
EF9
330
1E
100
AcDbEntity
  8
0
100
AcDbLine
 10
25.548
 20
155.1449155
 30
0.0
 11
25.548
 21
156.146492870392
 31
0.0
  0
LINE
  5
EFA
330
1E
100
AcDbEntity
  8
0
100
AcDbLine
 10
24.088
 20
156.100804914548
 30
0.0
 11
24.088
 21
155.1449155
 31
0.0
  0
LINE
  5
EFB
330
1E
100
AcDbEntity
  8
0
100
AcDbLine
 10
24.088
 20
154.750789871859
 30
0.0
 11
24.088
 21
154.5289155
 31
0.0
  0
LINE
  5
EFC
330
1E
100
AcDbEntity
  8
0
100
AcDbLine
 10
25.548
 20
154.5289155
 30
0.0
 11
25.548
 21
155.1449155
 31
0.0
  0
LINE
  5
EFD
330
1E
100
AcDbEntity
  8
0
100
AcDbLine
 10
25.955
 20
149.41234132558
 30
0.0
 11
25.955
 21
148.3939155
 31
0.0
  0
LINE
  5
EFE
330
1E
100
AcDbEntity
  8
0
100
AcDbLine
 10
25.955
 20
147.7769155
 30
0.0
 11
25.955
 21
148.3939155
 31
0.0
  0
LINE
  5
EFF
330
1E
100
AcDbEntity
  8
0
100
AcDbLine
 10
25.955
 20
148.3939155
 30
0.0
 11
25.955
 21
147.7769155
 31
0.0
  0
LINE
  5
F00
330
1E
100
AcDbEntity
  8
0
100
AcDbLine
 10
25.955
 20
148.3939155
 30
0.0
 11
25.955
 21
149.41234132558
 31
0.0
  0
LINE
  5
F01
330
1E
100
AcDbEntity
  8
0
100
AcDbLine
 10
24.495
 20
147.7769155
 30
0.0
 11
25.955
 21
147.7769155
 31
0.0
  0
LINE
  5
F02
330
1E
100
AcDbEntity
  8
0
100
AcDbLine
 10
24.495
 20
147.7769155
 30
0.0
 11
24.495
 21
148.3939155
 31
0.0
  0
LINE
  5
F03
330
1E
100
AcDbEntity
  8
0
100
AcDbLine
 10
24.495
 20
147.7769155
 30
0.0
 11
24.495
 21
148.930650291944
 31
0.0
  0
LINE
  5
F04
330
1E
100
AcDbEntity
  8
0
100
AcDbLine
 10
24.495
 20
148.3939155
 30
0.0
 11
25.955
 21
148.3939155
 31
0.0
  0
LINE
  5
F05
330
1E
100
AcDbEntity
  8
0
100
AcDbLine
 10
24.495
 20
148.3939155
 30
0.0
 11
24.495
 21
148.930650291944
 31
0.0
  0
LINE
  5
F06
330
1E
100
AcDbEntity
  8
0
100
AcDbLine
 10
24.495
 20
148.3939155
 30
0.0
 11
24.495
 21
147.7769155
 31
0.0
  0
LINE
  5
F07
330
1E
100
AcDbEntity
  8
0
100
AcDbLine
 10
24.495
 20
148.930650291944
 30
0.0
 11
24.495
 21
147.7769155
 31
0.0
  0
LINE
  5
F08
330
1E
100
AcDbEntity
  8
0
100
AcDbLine
 10
24.495
 20
148.930650291944
 30
0.0
 11
24.495
 21
148.3939155
 31
0.0
  0
LINE
  5
F09
330
1E
100
AcDbEntity
  8
0
100
AcDbLine
 10
21.738
 20
144.6959155
 30
0.0
 11
21.738
 21
145.3129155
 31
0.0
  0
LINE
  5
F0A
330
1E
100
AcDbEntity
  8
0
100
AcDbLine
 10
21.738
 20
145.3129155
 30
0.0
 11
21.738
 21
144.6959155
 31
0.0
  0
LINE
  5
F0B
330
1E
100
AcDbEntity
  8
0
100
AcDbLine
 10
20.601
 20
150.5909155
 30
0.0
 11
20.601
 21
151.2079155
 31
0.0
  0
LINE
  5
F0C
330
1E
100
AcDbEntity
  8
0
100
AcDbLine
 10
20.601
 20
151.2079155
 30
0.0
 11
20.601
 21
150.5909155
 31
0.0
  0
LINE
  5
F0D
330
1E
100
AcDbEntity
  8
0
100
AcDbLine
 10
20.278
 20
144.6959155
 30
0.0
 11
21.738
 21
144.6959155
 31
0.0
  0
LINE
  5
F0E
330
1E
100
AcDbEntity
  8
0
100
AcDbLine
 10
20.278
 20
144.6959155
 30
0.0
 11
20.278
 21
145.3129155
 31
0.0
  0
LINE
  5
F0F
330
1E
100
AcDbEntity
  8
0
100
AcDbLine
 10
20.278
 20
144.6959155
 30
0.0
 11
20.278
 21
145.077363206023
 31
0.0
  0
LINE
  5
F10
330
1E
100
AcDbEntity
  8
0
100
AcDbLine
 10
20.278
 20
145.3129155
 30
0.0
 11
21.738
 21
145.3129155
 31
0.0
  0
LINE
  5
F11
330
1E
100
AcDbEntity
  8
0
100
AcDbLine
 10
20.278
 20
145.3129155
 30
0.0
 11
20.278
 21
144.6959155
 31
0.0
  0
LINE
  5
F12
330
1E
100
AcDbEntity
  8
0
100
AcDbLine
 10
20.278
 20
145.077363206023
 30
0.0
 11
20.278
 21
144.6959155
 31
0.0
  0
LINE
  5
F13
330
1E
100
AcDbEntity
  8
0
100
AcDbLine
 10
26.558
 20
142.9749155
 30
0.0
 11
27.288
 21
143.5089155
 31
0.0
  0
LINE
  5
F14
330
1E
100
AcDbEntity
  8
0
100
AcDbLine
 10
26.558
 20
142.9749155
 30
0.0
 11
26.558
 21
143.183059266885
 31
0.0
  0
LINE
  5
F15
330
1E
100
AcDbEntity
  8
0
100
AcDbLine
 10
26.558
 20
142.9749155
 30
0.0
 11
27.822
 21
142.6659155
 31
0.0
  0
LINE
  5
F16
330
1E
100
AcDbEntity
  8
0
100
AcDbLine
 10
26.558
 20
143.183059266885
 30
0.0
 11
26.558
 21
142.9749155
 31
0.0
  0
LINE
  5
F17
330
1E
100
AcDbEntity
  8
0
100
AcDbLine
 10
15.182
 20
145.7089155
 30
0.0
 11
20.073
 21
143.9199155
 31
0.0
  0
LINE
  5
F18
330
1E
100
AcDbEntity
  8
0
100
AcDbLine
 10
16.788
 20
146.3879155
 30
0.0
 11
20.278
 21
145.077363206023
 31
0.0
  0
LINE
  5
F19
330
1E
100
AcDbEntity
  8
0
100
AcDbLine
 10
19.141
 20
150.5909155
 30
0.0
 11
20.601
 21
150.5909155
 31
0.0
  0
LINE
  5
F1A
330
1E
100
AcDbEntity
  8
0
100
AcDbLine
 10
19.141
 20
150.5909155
 30
0.0
 11
19.141
 21
151.2079155
 31
0.0
  0
LINE
  5
F1B
330
1E
100
AcDbEntity
  8
0
100
AcDbLine
 10
19.141
 20
150.5909155
 30
0.0
 11
19.141
 21
150.830339154137
 31
0.0
  0
LINE
  5
F1C
330
1E
100
AcDbEntity
  8
0
100
AcDbLine
 10
19.141
 20
151.2079155
 30
0.0
 11
20.601
 21
151.2079155
 31
0.0
  0
LINE
  5
F1D
330
1E
100
AcDbEntity
  8
0
100
AcDbLine
 10
19.141
 20
151.2079155
 30
0.0
 11
19.141
 21
152.167240309034
 31
0.0
  0
LINE
  5
F1E
330
1E
100
AcDbEntity
  8
0
100
AcDbLine
 10
19.141
 20
151.2079155
 30
0.0
 11
19.141
 21
150.5909155
 31
0.0
  0
LINE
  5
F1F
330
1E
100
AcDbEntity
  8
0
100
AcDbLine
 10
19.141
 20
152.167240309034
 30
0.0
 11
19.141
 21
151.2079155
 31
0.0
  0
LINE
  5
F20
330
1E
100
AcDbEntity
  8
0
100
AcDbLine
 10
19.141
 20
150.830339154137
 30
0.0
 11
19.141
 21
150.5909155
 31
0.0
  0
LINE
  5
F21
330
1E
100
AcDbEntity
  8
0
100
AcDbLine
 10
0.0
 20
161.3309155
 30
0.0
 11
0.511
 21
164.0449155
 31
0.0
  0
LINE
  5
F22
330
1E
100
AcDbEntity
  8
0
100
AcDbLine
 10
0.0
 20
161.3309155
 30
0.0
 11
0.0
 21
180.3629155
 31
0.0
  0
LINE
  5
F23
330
1E
100
AcDbEntity
  8
0
100
AcDbLine
 10
0.0
 20
161.3309155
 30
0.0
 11
0.511
 21
158.6159155
 31
0.0
  0
LINE
  5
F24
330
1E
100
AcDbEntity
  8
0
100
AcDbLine
 10
0.511
 20
158.6159155
 30
0.0
 11
1.825
 21
155.8699155
 31
0.0
  0
LINE
  5
F25
330
1E
100
AcDbEntity
  8
0
100
AcDbLine
 10
1.825
 20
155.8699155
 30
0.0
 11
3.869
 21
153.2479155
 31
0.0
  0
LINE
  5
F26
330
1E
100
AcDbEntity
  8
0
100
AcDbLine
 10
0.73
 20
160.4239155
 30
0.0
 11
1.241
 21
163.1079155
 31
0.0
  0
LINE
  5
F27
330
1E
100
AcDbEntity
  8
0
100
AcDbLine
 10
0.73
 20
160.4239155
 30
0.0
 11
1.241
 21
157.7399155
 31
0.0
  0
LINE
  5
F28
330
1E
100
AcDbEntity
  8
0
100
AcDbLine
 10
1.241
 20
157.7399155
 30
0.0
 11
2.482
 21
155.1799155
 31
0.0
  0
LINE
  5
F29
330
1E
100
AcDbEntity
  8
0
100
AcDbLine
 10
2.92
 20
160.4239155
 30
0.0
 11
3.358
 21
163.0459155
 31
0.0
  0
LINE
  5
F2A
330
1E
100
AcDbEntity
  8
0
100
AcDbLine
 10
2.92
 20
160.4239155
 30
0.0
 11
3.358
 21
157.8009155
 31
0.0
  0
LINE
  5
F2B
330
1E
100
AcDbEntity
  8
0
100
AcDbLine
 10
3.358
 20
157.8009155
 30
0.0
 11
4.599
 21
155.6109155
 31
0.0
  0
LINE
  5
F2C
330
1E
100
AcDbEntity
  8
0
100
AcDbLine
 10
4.38
 20
159.2099155
 30
0.0
 11
5.839
 21
159.2099155
 31
0.0
  0
LINE
  5
F2D
330
1E
100
AcDbEntity
  8
0
100
AcDbLine
 10
4.38
 20
159.2099155
 30
0.0
 11
4.38
 21
159.8269155
 31
0.0
  0
LINE
  5
F2E
330
1E
100
AcDbEntity
  8
0
100
AcDbLine
 10
4.38
 20
159.2099155
 30
0.0
 11
4.38
 21
160.14418389036
 31
0.0
  0
LINE
  5
F2F
330
1E
100
AcDbEntity
  8
0
100
AcDbLine
 10
5.839
 20
160.611364807946
 30
0.0
 11
5.839
 21
159.8269155
 31
0.0
  0
LINE
  5
F30
330
1E
100
AcDbEntity
  8
0
100
AcDbLine
 10
5.839
 20
159.2099155
 30
0.0
 11
5.839
 21
159.8269155
 31
0.0
  0
LINE
  5
F31
330
1E
100
AcDbEntity
  8
0
100
AcDbLine
 10
13.139
 20
158.7559155
 30
0.0
 11
14.599
 21
158.7559155
 31
0.0
  0
LINE
  5
F32
330
1E
100
AcDbEntity
  8
0
100
AcDbLine
 10
13.139
 20
158.7559155
 30
0.0
 11
13.139
 21
159.3729155
 31
0.0
  0
LINE
  5
F33
330
1E
100
AcDbEntity
  8
0
100
AcDbLine
 10
13.139
 20
158.7559155
 30
0.0
 11
13.139
 21
159.756305606721
 31
0.0
  0
LINE
  5
F34
330
1E
100
AcDbEntity
  8
0
100
AcDbLine
 10
13.139
 20
159.3729155
 30
0.0
 11
14.599
 21
159.3729155
 31
0.0
  0
LINE
  5
F35
330
1E
100
AcDbEntity
  8
0
100
AcDbLine
 10
13.139
 20
159.3729155
 30
0.0
 11
13.139
 21
159.756305606721
 31
0.0
  0
LINE
  5
F36
330
1E
100
AcDbEntity
  8
0
100
AcDbLine
 10
13.139
 20
159.3729155
 30
0.0
 11
13.139
 21
158.7559155
 31
0.0
  0
LINE
  5
F37
330
1E
100
AcDbEntity
  8
0
100
AcDbLine
 10
14.599
 20
159.66092343193
 30
0.0
 11
14.599
 21
159.3729155
 31
0.0
  0
LINE
  5
F38
330
1E
100
AcDbEntity
  8
0
100
AcDbLine
 10
14.599
 20
159.3729155
 30
0.0
 11
14.599
 21
158.7559155
 31
0.0
  0
LINE
  5
F39
330
1E
100
AcDbEntity
  8
0
100
AcDbLine
 10
14.599
 20
159.3729155
 30
0.0
 11
14.599
 21
159.66092343193
 31
0.0
  0
LINE
  5
F3A
330
1E
100
AcDbEntity
  8
0
100
AcDbLine
 10
13.139
 20
159.756305606721
 30
0.0
 11
13.139
 21
158.7559155
 31
0.0
  0
LINE
  5
F3B
330
1E
100
AcDbEntity
  8
0
100
AcDbLine
 10
13.139
 20
159.756305606721
 30
0.0
 11
13.139
 21
159.3729155
 31
0.0
  0
LINE
  5
F3C
330
1E
100
AcDbEntity
  8
0
100
AcDbLine
 10
14.599
 20
158.7559155
 30
0.0
 11
14.599
 21
159.3729155
 31
0.0
  0
LINE
  5
F3D
330
1E
100
AcDbEntity
  8
0
100
AcDbLine
 10
5.839
 20
159.8269155
 30
0.0
 11
5.839
 21
159.2099155
 31
0.0
  0
LINE
  5
F3E
330
1E
100
AcDbEntity
  8
0
100
AcDbLine
 10
5.839
 20
159.8269155
 30
0.0
 11
5.839
 21
160.611364807946
 31
0.0
  0
LINE
  5
F3F
330
1E
100
AcDbEntity
  8
0
100
AcDbLine
 10
4.38
 20
159.8269155
 30
0.0
 11
5.839
 21
159.8269155
 31
0.0
  0
LINE
  5
F40
330
1E
100
AcDbEntity
  8
0
100
AcDbLine
 10
4.38
 20
159.8269155
 30
0.0
 11
4.38
 21
160.517672262453
 31
0.0
  0
LINE
  5
F41
330
1E
100
AcDbEntity
  8
0
100
AcDbLine
 10
4.38
 20
159.8269155
 30
0.0
 11
4.38
 21
159.2099155
 31
0.0
  0
LINE
  5
F42
330
1E
100
AcDbEntity
  8
0
100
AcDbLine
 10
4.38
 20
160.517672262453
 30
0.0
 11
4.38
 21
159.8269155
 31
0.0
  0
LINE
  5
F43
330
1E
100
AcDbEntity
  8
0
100
AcDbLine
 10
4.38
 20
160.14418389036
 30
0.0
 11
4.38
 21
159.2099155
 31
0.0
  0
LINE
  5
F44
330
1E
100
AcDbEntity
  8
0
100
AcDbLine
 10
2.482
 20
155.1799155
 30
0.0
 11
4.599
 21
152.4659155
 31
0.0
  0
LINE
  5
F45
330
1E
100
AcDbEntity
  8
0
100
AcDbLine
 10
3.869
 20
153.2479155
 30
0.0
 11
4.599
 21
152.4659155
 31
0.0
  0
LINE
  5
F46
330
1E
100
AcDbEntity
  8
0
100
AcDbLine
 10
4.599
 20
155.6109155
 30
0.0
 11
6.569
 21
152.8359155
 31
0.0
  0
LINE
  5
F47
330
1E
100
AcDbEntity
  8
0
100
AcDbLine
 10
5.759
 20
155.0579155
 30
0.0
 11
7.218
 21
155.0579155
 31
0.0
  0
LINE
  5
F48
330
1E
100
AcDbEntity
  8
0
100
AcDbLine
 10
5.759
 20
155.0579155
 30
0.0
 11
5.759
 21
155.6749155
 31
0.0
  0
LINE
  5
F49
330
1E
100
AcDbEntity
  8
0
100
AcDbLine
 10
5.759
 20
155.0579155
 30
0.0
 11
5.759
 21
155.636795562888
 31
0.0
  0
LINE
  5
F4A
330
1E
100
AcDbEntity
  8
0
100
AcDbLine
 10
5.759
 20
155.6749155
 30
0.0
 11
7.218
 21
155.6749155
 31
0.0
  0
LINE
  5
F4B
330
1E
100
AcDbEntity
  8
0
100
AcDbLine
 10
5.759
 20
155.6749155
 30
0.0
 11
5.759
 21
155.0579155
 31
0.0
  0
LINE
  5
F4C
330
1E
100
AcDbEntity
  8
0
100
AcDbLine
 10
7.218
 20
155.6749155
 30
0.0
 11
7.218
 21
155.0579155
 31
0.0
  0
LINE
  5
F4D
330
1E
100
AcDbEntity
  8
0
100
AcDbLine
 10
14.68
 20
155.835826632739
 30
0.0
 11
14.68
 21
154.6729155
 31
0.0
  0
LINE
  5
F4E
330
1E
100
AcDbEntity
  8
0
100
AcDbLine
 10
14.68
 20
155.835826632739
 30
0.0
 11
14.68
 21
155.2899155
 31
0.0
  0
LINE
  5
F4F
330
1E
100
AcDbEntity
  8
0
100
AcDbLine
 10
16.14
 20
155.86839981534
 30
0.0
 11
16.14
 21
155.2899155
 31
0.0
  0
LINE
  5
F50
330
1E
100
AcDbEntity
  8
0
100
AcDbLine
 10
14.68
 20
155.2899155
 30
0.0
 11
16.14
 21
155.2899155
 31
0.0
  0
LINE
  5
F51
330
1E
100
AcDbEntity
  8
0
100
AcDbLine
 10
14.68
 20
155.2899155
 30
0.0
 11
14.68
 21
155.835826632739
 31
0.0
  0
LINE
  5
F52
330
1E
100
AcDbEntity
  8
0
100
AcDbLine
 10
14.68
 20
155.2899155
 30
0.0
 11
14.68
 21
154.6729155
 31
0.0
  0
LINE
  5
F53
330
1E
100
AcDbEntity
  8
0
100
AcDbLine
 10
16.14
 20
155.2899155
 30
0.0
 11
16.14
 21
154.6729155
 31
0.0
  0
LINE
  5
F54
330
1E
100
AcDbEntity
  8
0
100
AcDbLine
 10
16.14
 20
155.2899155
 30
0.0
 11
16.14
 21
155.86839981534
 31
0.0
  0
LINE
  5
F55
330
1E
100
AcDbEntity
  8
0
100
AcDbLine
 10
5.759
 20
155.636795562888
 30
0.0
 11
5.759
 21
155.0579155
 31
0.0
  0
LINE
  5
F56
330
1E
100
AcDbEntity
  8
0
100
AcDbLine
 10
7.218
 20
155.0579155
 30
0.0
 11
7.218
 21
155.6749155
 31
0.0
  0
LINE
  5
F57
330
1E
100
AcDbEntity
  8
0
100
AcDbLine
 10
14.68
 20
154.6729155
 30
0.0
 11
16.14
 21
154.6729155
 31
0.0
  0
LINE
  5
F58
330
1E
100
AcDbEntity
  8
0
100
AcDbLine
 10
14.68
 20
154.6729155
 30
0.0
 11
14.68
 21
155.2899155
 31
0.0
  0
LINE
  5
F59
330
1E
100
AcDbEntity
  8
0
100
AcDbLine
 10
14.68
 20
154.6729155
 30
0.0
 11
14.68
 21
155.835826632739
 31
0.0
  0
LINE
  5
F5A
330
1E
100
AcDbEntity
  8
0
100
AcDbLine
 10
16.14
 20
154.6729155
 30
0.0
 11
16.14
 21
155.2899155
 31
0.0
  0
LINE
  5
F5B
330
1E
100
AcDbEntity
  8
0
100
AcDbLine
 10
4.599
 20
152.4659155
 30
0.0
 11
7.299
 21
150.0589155
 31
0.0
  0
LINE
  5
F5C
330
1E
100
AcDbEntity
  8
0
100
AcDbLine
 10
7.299
 20
150.0589155
 30
0.0
 11
10.949
 21
147.7759155
 31
0.0
  0
LINE
  5
F5D
330
1E
100
AcDbEntity
  8
0
100
AcDbLine
 10
6.569
 20
152.8359155
 30
0.0
 11
9.197
 21
150.5209155
 31
0.0
  0
LINE
  5
F5E
330
1E
100
AcDbEntity
  8
0
100
AcDbLine
 10
9.197
 20
150.5209155
 30
0.0
 11
12.701
 21
148.3309155
 31
0.0
  0
LINE
  5
F5F
330
1E
100
AcDbEntity
  8
0
100
AcDbLine
 10
9.084
 20
151.5919155
 30
0.0
 11
10.544
 21
151.5919155
 31
0.0
  0
LINE
  5
F60
330
1E
100
AcDbEntity
  8
0
100
AcDbLine
 10
9.084
 20
151.5919155
 30
0.0
 11
9.084
 21
152.780891304253
 31
0.0
  0
LINE
  5
F61
330
1E
100
AcDbEntity
  8
0
100
AcDbLine
 10
9.084
 20
151.5919155
 30
0.0
 11
9.084
 21
150.9749155
 31
0.0
  0
LINE
  5
F62
330
1E
100
AcDbEntity
  8
0
100
AcDbLine
 10
10.544
 20
152.74894882879
 30
0.0
 11
10.544
 21
151.5919155
 31
0.0
  0
LINE
  5
F63
330
1E
100
AcDbEntity
  8
0
100
AcDbLine
 10
10.544
 20
150.9749155
 30
0.0
 11
10.544
 21
151.5919155
 31
0.0
  0
LINE
  5
F64
330
1E
100
AcDbEntity
  8
0
100
AcDbLine
 10
10.544
 20
151.5919155
 30
0.0
 11
10.544
 21
150.9749155
 31
0.0
  0
LINE
  5
F65
330
1E
100
AcDbEntity
  8
0
100
AcDbLine
 10
10.544
 20
151.5919155
 30
0.0
 11
10.544
 21
152.74894882879
 31
0.0
  0
LINE
  5
F66
330
1E
100
AcDbEntity
  8
0
100
AcDbLine
 10
9.084
 20
152.780891304253
 30
0.0
 11
9.084
 21
151.5919155
 31
0.0
  0
LINE
  5
F67
330
1E
100
AcDbEntity
  8
0
100
AcDbLine
 10
9.084
 20
150.9749155
 30
0.0
 11
10.544
 21
150.9749155
 31
0.0
  0
LINE
  5
F68
330
1E
100
AcDbEntity
  8
0
100
AcDbLine
 10
9.084
 20
150.9749155
 30
0.0
 11
9.084
 21
151.5919155
 31
0.0
  0
LINE
  5
F69
330
1E
100
AcDbEntity
  8
0
100
AcDbLine
 10
10.949
 20
147.7759155
 30
0.0
 11
15.182
 21
145.7089155
 31
0.0
  0
LINE
  5
F6A
330
1E
100
AcDbEntity
  8
0
100
AcDbLine
 10
14.358517241379
 20
147.5429155
 30
0.0
 11
16.788
 21
146.3879155
 31
0.0
  0
LINE
  5
F6B
330
1E
100
AcDbEntity
  8
0
100
AcDbLine
 10
12.701
 20
148.3309155
 30
0.0
 11
13.87
 21
147.775161401639
 31
0.0
  0
LINE
  5
F6C
330
1E
100
AcDbEntity
  8
0
100
AcDbLine
 10
13.87
 20
148.1599155
 30
0.0
 11
15.33
 21
148.1599155
 31
0.0
  0
LINE
  5
F6D
330
1E
100
AcDbEntity
  8
0
100
AcDbLine
 10
13.87
 20
148.1599155
 30
0.0
 11
13.87
 21
148.611127621212
 31
0.0
  0
LINE
  5
F6E
330
1E
100
AcDbEntity
  8
0
100
AcDbLine
 10
13.87
 20
148.1599155
 30
0.0
 11
13.87
 21
147.5429155
 31
0.0
  0
LINE
  5
F6F
330
1E
100
AcDbEntity
  8
0
100
AcDbLine
 10
13.87
 20
148.611127621212
 30
0.0
 11
13.87
 21
148.1599155
 31
0.0
  0
LINE
  5
F70
330
1E
100
AcDbEntity
  8
0
100
AcDbLine
 10
15.33
 20
148.961093144711
 30
0.0
 11
15.33
 21
148.1599155
 31
0.0
  0
LINE
  5
F71
330
1E
100
AcDbEntity
  8
0
100
AcDbLine
 10
13.87
 20
148.439149996683
 30
0.0
 11
13.87
 21
147.5429155
 31
0.0
  0
LINE
  5
F72
330
1E
100
AcDbEntity
  8
0
100
AcDbLine
 10
15.33
 20
148.1599155
 30
0.0
 11
15.33
 21
147.5429155
 31
0.0
  0
LINE
  5
F73
330
1E
100
AcDbEntity
  8
0
100
AcDbLine
 10
15.33
 20
148.1599155
 30
0.0
 11
15.33
 21
148.961093144711
 31
0.0
  0
LINE
  5
F74
330
1E
100
AcDbEntity
  8
0
100
AcDbLine
 10
13.87
 20
147.5429155
 30
0.0
 11
15.33
 21
147.5429155
 31
0.0
  0
LINE
  5
F75
330
1E
100
AcDbEntity
  8
0
100
AcDbLine
 10
13.87
 20
147.5429155
 30
0.0
 11
13.87
 21
148.1599155
 31
0.0
  0
LINE
  5
F76
330
1E
100
AcDbEntity
  8
0
100
AcDbLine
 10
13.87
 20
147.5429155
 30
0.0
 11
13.87
 21
148.439149996683
 31
0.0
  0
LINE
  5
F77
330
1E
100
AcDbEntity
  8
0
100
AcDbLine
 10
15.33
 20
147.5429155
 30
0.0
 11
15.33
 21
148.1599155
 31
0.0
  0
LINE
  5
F78
330
1E
100
AcDbEntity
  8
0
100
AcDbLine
 10
65.181
 20
63.2659155
 30
0.0
 11
65.758
 21
61.7882155
 31
0.0
  0
LINE
  5
F79
330
1E
100
AcDbEntity
  8
0
100
AcDbLine
 10
64.632
 20
64.3384155
 30
0.0
 11
65.181
 21
63.2659155
 31
0.0
  0
LINE
  5
F7A
330
1E
100
AcDbEntity
  8
0
100
AcDbLine
 10
63.822
 20
65.5738155
 30
0.0
 11
64.632
 21
64.3384155
 31
0.0
  0
LINE
  5
F7B
330
1E
100
AcDbEntity
  8
0
100
AcDbLine
 10
35.935
 20
65.3167155
 30
0.0
 11
38.0
 21
67.186931812057
 31
0.0
  0
LINE
  5
F7C
330
1E
100
AcDbEntity
  8
0
100
AcDbLine
 10
36.885
 20
66.0351155
 30
0.0
 11
38.0
 21
67.018954871981
 31
0.0
  0
LINE
  5
F7D
330
1E
100
AcDbEntity
  8
0
100
AcDbLine
 10
62.0
 20
67.199456262463
 30
0.0
 11
63.822
 21
65.5738155
 31
0.0
  0
LINE
  5
F7E
330
1E
100
AcDbEntity
  8
0
100
AcDbLine
 10
35.219
 20
64.1656155
 30
0.0
 11
35.935
 21
65.3167155
 31
0.0
  0
LINE
  5
F7F
330
1E
100
AcDbEntity
  8
0
100
AcDbLine
 10
61.616
 20
59.2106155
 30
0.0
 11
62.0
 21
61.2064155
 31
0.0
  0
LINE
  5
F80
330
1E
100
AcDbEntity
  8
0
100
AcDbLine
 10
62.0
 20
61.2064155
 30
0.0
 11
62.0
 21
133.2409155
 31
0.0
  0
LINE
  5
F81
330
1E
100
AcDbEntity
  8
0
100
AcDbLine
 10
65.770415338738
 20
61.601205480986
 30
0.0
 11
65.798
 21
61.5330155
 31
0.0
  0
LINE
  5
F82
330
1E
100
AcDbEntity
  8
0
100
AcDbLine
 10
65.758
 20
61.7882155
 30
0.0
 11
65.987
 21
59.2694155
 31
0.0
  0
LINE
  5
F83
330
1E
100
AcDbEntity
  8
0
100
AcDbLine
 10
65.599
 20
57.5209155
 30
0.0
 11
65.987
 21
59.2694155
 31
0.0
  0
LINE
  5
F84
330
1E
100
AcDbEntity
  8
0
100
AcDbLine
 10
60.368
 20
57.3031155
 30
0.0
 11
61.616
 21
59.2106155
 31
0.0
  0
LINE
  5
F85
330
1E
100
AcDbEntity
  8
0
100
AcDbLine
 10
38.0
 20
61.2064155
 30
0.0
 11
38.384
 21
59.2106155
 31
0.0
  0
LINE
  5
F86
330
1E
100
AcDbEntity
  8
0
100
AcDbLine
 10
38.0
 20
61.2064155
 30
0.0
 11
38.0
 21
133.2409155
 31
0.0
  0
LINE
  5
F87
330
1E
100
AcDbEntity
  8
0
100
AcDbLine
 10
38.384
 20
59.2106155
 30
0.0
 11
39.632
 21
57.3031155
 31
0.0
  0
LINE
  5
F88
330
1E
100
AcDbEntity
  8
0
100
AcDbLine
 10
34.204
 20
61.8531155
 30
0.0
 11
34.333594014034
 21
62.105918652255
 31
0.0
  0
LINE
  5
F89
330
1E
100
AcDbEntity
  8
0
100
AcDbLine
 10
34.49
 20
62.5886155
 30
0.0
 11
35.219
 21
64.1656155
 31
0.0
  0
LINE
  5
F8A
330
1E
100
AcDbEntity
  8
0
100
AcDbLine
 10
34.49
 20
62.5886155
 30
0.0
 11
34.70731624961
 21
62.93956875368
 31
0.0
  0
LINE
  5
F8B
330
1E
100
AcDbEntity
  8
0
100
AcDbLine
 10
34.400593749471
 20
62.204630184629
 30
0.0
 11
34.49
 21
62.5886155
 31
0.0
  0
LINE
  5
F8C
330
1E
100
AcDbEntity
  8
0
100
AcDbLine
 10
34.181600641377
 20
61.494441325731
 30
0.0
 11
34.204
 21
61.8531155
 31
0.0
  0
LINE
  5
F8D
330
1E
100
AcDbEntity
  8
0
100
AcDbLine
 10
34.244
 20
61.8294155
 30
0.0
 11
34.49
 21
62.5886155
 31
0.0
  0
LINE
  5
F8E
330
1E
100
AcDbEntity
  8
0
100
AcDbLine
 10
34.15
 20
58.3273155
 30
0.0
 11
34.706
 21
56.8557155
 31
0.0
  0
LINE
  5
F8F
330
1E
100
AcDbEntity
  8
0
100
AcDbLine
 10
33.967
 20
60.3424155
 30
0.0
 11
34.15
 21
58.3273155
 31
0.0
  0
LINE
  5
F90
330
1E
100
AcDbEntity
  8
0
100
AcDbLine
 10
33.967
 20
60.3424155
 30
0.0
 11
34.244
 21
61.8294155
 31
0.0
  0
LINE
  5
F91
330
1E
100
AcDbEntity
  8
0
100
AcDbLine
 10
39.632
 20
57.3031155
 30
0.0
 11
41.552
 21
55.7501155
 31
0.0
  0
LINE
  5
F92
330
1E
100
AcDbEntity
  8
0
100
AcDbLine
 10
34.706
 20
56.8557155
 30
0.0
 11
35.896
 21
54.9893155
 31
0.0
  0
LINE
  5
F93
330
1E
100
AcDbEntity
  8
0
100
AcDbLine
 10
58.448
 20
55.7501155
 30
0.0
 11
60.368
 21
57.3031155
 31
0.0
  0
LINE
  5
F94
330
1E
100
AcDbEntity
  8
0
100
AcDbLine
 10
64.998
 20
56.3104155
 30
0.0
 11
65.599
 21
57.5209155
 31
0.0
  0
LINE
  5
F95
330
1E
100
AcDbEntity
  8
0
100
AcDbLine
 10
65.961
 20
44.6898155
 30
0.0
 11
65.979637057189
 21
59.23623481571
 31
0.0
  0
LINE
  5
F96
330
1E
100
AcDbEntity
  8
0
100
AcDbLine
 10
65.582
 20
42.5901155
 30
0.0
 11
65.896333282945
 21
44.516930412214
 31
0.0
  0
LINE
  5
F97
330
1E
100
AcDbEntity
  8
0
100
AcDbLine
 10
64.86
 20
41.7463155
 30
0.0
 11
65.961
 21
44.6898155
 31
0.0
  0
LINE
  5
F98
330
1E
100
AcDbEntity
  8
0
100
AcDbLine
 10
63.617
 20
54.4877155
 30
0.0
 11
64.998
 21
56.3104155
 31
0.0
  0
LINE
  5
F99
330
1E
100
AcDbEntity
  8
0
100
AcDbLine
 10
60.839
 20
52.3645155
 30
0.0
 11
63.617
 21
54.4877155
 31
0.0
  0
LINE
  5
F9A
330
1E
100
AcDbEntity
  8
0
100
AcDbLine
 10
63.66
 20
39.6050155
 30
0.0
 11
65.582
 21
42.5901155
 31
0.0
  0
LINE
  5
F9B
330
1E
100
AcDbEntity
  8
0
100
AcDbLine
 10
62.475
 20
39.1345155
 30
0.0
 11
64.86
 21
41.7463155
 31
0.0
  0
LINE
  5
F9C
330
1E
100
AcDbEntity
  8
0
100
AcDbLine
 10
61.176
 20
38.3055155
 30
0.0
 11
61.472740610168
 21
38.519718795086
 31
0.0
  0
LINE
  5
F9D
330
1E
100
AcDbEntity
  8
0
100
AcDbLine
 10
61.176
 20
38.3056155
 30
0.0
 11
61.470434782115
 21
38.518304375323
 31
0.0
  0
LINE
  5
F9E
330
1E
100
AcDbEntity
  8
0
100
AcDbLine
 10
59.634
 20
37.3918155
 30
0.0
 11
62.475
 21
39.1345155
 31
0.0
  0
LINE
  5
F9F
330
1E
100
AcDbEntity
  8
0
100
AcDbLine
 10
60.394
 20
37.1470155
 30
0.0
 11
63.66
 21
39.6050155
 31
0.0
  0
LINE
  5
FA0
330
1E
100
AcDbEntity
  8
0
100
AcDbLine
 10
55.952
 20
54.5084155
 30
0.0
 11
58.448
 21
55.7501155
 31
0.0
  0
LINE
  5
FA1
330
1E
100
AcDbEntity
  8
0
100
AcDbLine
 10
57.776
 20
55.4063155
 30
0.0
 11
58.448
 21
55.7501155
 31
0.0
  0
LINE
  5
FA2
330
1E
100
AcDbEntity
  8
0
100
AcDbLine
 10
41.552
 20
55.7501155
 30
0.0
 11
42.224
 21
55.4063155
 31
0.0
  0
LINE
  5
FA3
330
1E
100
AcDbEntity
  8
0
100
AcDbLine
 10
41.552
 20
55.7501155
 30
0.0
 11
44.048
 21
54.5084155
 31
0.0
  0
LINE
  5
FA4
330
1E
100
AcDbEntity
  8
0
100
AcDbLine
 10
35.898
 20
54.9862155
 30
0.0
 11
38.203
 21
52.9463155
 31
0.0
  0
LINE
  5
FA5
330
1E
100
AcDbEntity
  8
0
100
AcDbLine
 10
53.072
 20
53.7543155
 30
0.0
 11
55.952
 21
54.5084155
 31
0.0
  0
LINE
  5
FA6
330
1E
100
AcDbEntity
  8
0
100
AcDbLine
 10
58.351
 20
51.1350155
 30
0.0
 11
60.839
 21
52.3645155
 31
0.0
  0
LINE
  5
FA7
330
1E
100
AcDbEntity
  8
0
100
AcDbLine
 10
55.154
 20
50.1388155
 30
0.0
 11
58.351
 21
51.1350155
 31
0.0
  0
LINE
  5
FA8
330
1E
100
AcDbEntity
  8
0
100
AcDbLine
 10
53.72
 20
34.9618155
 30
0.0
 11
57.238
 21
35.8294155
 31
0.0
  0
LINE
  5
FA9
330
1E
100
AcDbEntity
  8
0
100
AcDbLine
 10
56.253
 20
36.1107155
 30
0.0
 11
59.634
 21
37.3918155
 31
0.0
  0
LINE
  5
FAA
330
1E
100
AcDbEntity
  8
0
100
AcDbLine
 10
57.238
 20
35.8294155
 30
0.0
 11
60.394
 21
37.1470155
 31
0.0
  0
LINE
  5
FAB
330
1E
100
AcDbEntity
  8
0
100
AcDbLine
 10
50.0
 20
53.3998155
 30
0.0
 11
53.072
 21
53.7543155
 31
0.0
  0
LINE
  5
FAC
330
1E
100
AcDbEntity
  8
0
100
AcDbLine
 10
46.928
 20
53.7543155
 30
0.0
 11
50.0
 21
53.3998155
 31
0.0
  0
LINE
  5
FAD
330
1E
100
AcDbEntity
  8
0
100
AcDbLine
 10
44.048
 20
54.5084155
 30
0.0
 11
46.928
 21
53.7543155
 31
0.0
  0
LINE
  5
FAE
330
1E
100
AcDbEntity
  8
0
100
AcDbLine
 10
41.206
 20
51.3278155
 30
0.0
 11
43.257
 21
50.5827155
 31
0.0
  0
LINE
  5
FAF
330
1E
100
AcDbEntity
  8
0
100
AcDbLine
 10
39.937
 20
51.9215155
 30
0.0
 11
41.206
 21
51.3278155
 31
0.0
  0
LINE
  5
FB0
330
1E
100
AcDbEntity
  8
0
100
AcDbLine
 10
51.692
 20
49.6830155
 30
0.0
 11
55.154
 21
50.1388155
 31
0.0
  0
LINE
  5
FB1
330
1E
100
AcDbEntity
  8
0
100
AcDbLine
 10
49.543
 20
49.6227155
 30
0.0
 11
51.692
 21
49.6830155
 31
0.0
  0
LINE
  5
FB2
330
1E
100
AcDbEntity
  8
0
100
AcDbLine
 10
43.257
 20
50.5827155
 30
0.0
 11
46.6
 21
49.8496155
 31
0.0
  0
LINE
  5
FB3
330
1E
100
AcDbEntity
  8
0
100
AcDbLine
 10
46.6
 20
49.8496155
 30
0.0
 11
49.543
 21
49.6227155
 31
0.0
  0
LINE
  5
FB4
330
1E
100
AcDbEntity
  8
0
100
AcDbLine
 10
38.203
 20
52.9463155
 30
0.0
 11
39.937
 21
51.9215155
 31
0.0
  0
LINE
  5
FB5
330
1E
100
AcDbEntity
  8
0
100
AcDbLine
 10
37.029
 20
38.9478155
 30
0.0
 11
38.66
 21
37.7206155
 31
0.0
  0
LINE
  5
FB6
330
1E
100
AcDbEntity
  8
0
100
AcDbLine
 10
52.469
 20
35.4347155
 30
0.0
 11
56.253
 21
36.1107155
 31
0.0
  0
LINE
  5
FB7
330
1E
100
AcDbEntity
  8
0
100
AcDbLine
 10
49.974
 20
34.7086155
 30
0.0
 11
53.72
 21
34.9618155
 31
0.0
  0
LINE
  5
FB8
330
1E
100
AcDbEntity
  8
0
100
AcDbLine
 10
42.71
 20
35.8292155
 30
0.0
 11
45.03
 21
35.2119155
 31
0.0
  0
LINE
  5
FB9
330
1E
100
AcDbEntity
  8
0
100
AcDbLine
 10
40.569
 20
36.6726155
 30
0.0
 11
42.71
 21
35.8292155
 31
0.0
  0
LINE
  5
FBA
330
1E
100
AcDbEntity
  8
0
100
AcDbLine
 10
41.371
 20
36.9343155
 30
0.0
 11
41.651250898714
 21
36.828562433254
 31
0.0
  0
LINE
  5
FBB
330
1E
100
AcDbEntity
  8
0
100
AcDbLine
 10
41.371
 20
36.9342155
 30
0.0
 11
41.651988852678
 21
36.828205108177
 31
0.0
  0
LINE
  5
FBC
330
1E
100
AcDbEntity
  8
0
100
AcDbLine
 10
44.714
 20
35.8798155
 30
0.0
 11
48.546
 21
35.3293155
 31
0.0
  0
LINE
  5
FBD
330
1E
100
AcDbEntity
  8
0
100
AcDbLine
 10
41.651250898714
 20
36.828562433254
 30
0.0
 11
44.714
 21
35.8798155
 31
0.0
  0
LINE
  5
FBE
330
1E
100
AcDbEntity
  8
0
100
AcDbLine
 10
40.125
 20
37.5169155
 30
0.0
 11
41.371
 21
36.9343155
 31
0.0
  0
LINE
  5
FBF
330
1E
100
AcDbEntity
  8
0
100
AcDbLine
 10
48.546
 20
35.3293155
 30
0.0
 11
52.469
 21
35.4347155
 31
0.0
  0
LINE
  5
FC0
330
1E
100
AcDbEntity
  8
0
100
AcDbLine
 10
38.66
 20
37.7206155
 30
0.0
 11
40.569
 21
36.6726155
 31
0.0
  0
LINE
  5
FC1
330
1E
100
AcDbEntity
  8
0
100
AcDbLine
 10
47.471
 20
34.8349155
 30
0.0
 11
49.974
 21
34.7084155
 31
0.0
  0
LINE
  5
FC2
330
1E
100
AcDbEntity
  8
0
100
AcDbLine
 10
45.03
 20
35.2119155
 30
0.0
 11
47.471
 21
34.8349155
 31
0.0
  0
LINE
  5
FC3
330
1E
100
AcDbEntity
  8
0
100
AcDbLine
 10
35.912
 20
40.6634155
 30
0.0
 11
38.727
 21
38.2445155
 31
0.0
  0
LINE
  5
FC4
330
1E
100
AcDbEntity
  8
0
100
AcDbLine
 10
33.974
 20
44.959764106811
 30
0.0
 11
33.974
 21
14.2229155
 31
0.0
  0
LINE
  5
FC5
330
1E
100
AcDbEntity
  8
0
100
AcDbLine
 10
33.983511747885
 20
44.915533006738
 30
0.0
 11
34.171
 21
43.3843155
 31
0.0
  0
LINE
  5
FC6
330
1E
100
AcDbEntity
  8
0
100
AcDbLine
 10
34.171
 20
43.3843155
 30
0.0
 11
34.757
 21
41.8150155
 31
0.0
  0
LINE
  5
FC7
330
1E
100
AcDbEntity
  8
0
100
AcDbLine
 10
34.757
 20
41.8150155
 30
0.0
 11
35.717
 21
40.3238155
 31
0.0
  0
LINE
  5
FC8
330
1E
100
AcDbEntity
  8
0
100
AcDbLine
 10
34.94
 20
42.0484155
 30
0.0
 11
35.912
 21
40.6634155
 31
0.0
  0
LINE
  5
FC9
330
1E
100
AcDbEntity
  8
0
100
AcDbLine
 10
34.288
 20
43.4996155
 30
0.0
 11
34.94
 21
42.0484155
 31
0.0
  0
LINE
  5
FCA
330
1E
100
AcDbEntity
  8
0
100
AcDbLine
 10
33.965
 20
45.0016155
 30
0.0
 11
34.288
 21
43.4996155
 31
0.0
  0
LINE
  5
FCB
330
1E
100
AcDbEntity
  8
0
100
AcDbLine
 10
33.965
 20
45.0016155
 30
0.0
 11
33.983343998511
 21
45.568894294785
 31
0.0
  0
LINE
  5
FCC
330
1E
100
AcDbEntity
  8
0
100
AcDbLine
 10
35.717
 20
40.3238155
 30
0.0
 11
37.029
 21
38.9478155
 31
0.0
  0
LINE
  5
FCD
330
1E
100
AcDbEntity
  8
0
100
AcDbLine
 10
65.974
 20
14.2229155
 30
0.0
 11
65.991351854483
 21
13.933646738196
 31
0.0
  0
LINE
  5
FCE
330
1E
100
AcDbEntity
  8
0
100
AcDbLine
 10
33.974
 20
14.2229155
 30
0.0
 11
33.974
 21
44.959764106811
 31
0.0
  0
LINE
  5
FCF
330
1E
100
AcDbEntity
  8
0
100
AcDbLine
 10
33.918
 20
13.4533155
 30
0.0
 11
33.974
 21
14.2229155
 31
0.0
  0
LINE
  5
FD0
330
1E
100
AcDbEntity
  8
0
100
AcDbLine
 10
33.918
 20
13.4534155
 30
0.0
 11
33.974
 21
14.2229155
 31
0.0
  0
LINE
  5
FD1
330
1E
100
AcDbEntity
  8
0
100
AcDbLine
 10
66.353186137138
 20
12.481567434747
 30
0.0
 11
66.707175682719
 21
11.740491011561
 31
0.0
  0
LINE
  5
FD2
330
1E
100
AcDbEntity
  8
0
100
AcDbLine
 10
33.343
 20
11.9400155
 30
0.0
 11
33.918
 21
13.4534155
 31
0.0
  0
LINE
  5
FD3
330
1E
100
AcDbEntity
  8
0
100
AcDbLine
 10
66.707175682719
 20
11.740491011561
 30
0.0
 11
68.021
 21
10.3132155
 31
0.0
  0
LINE
  5
FD4
330
1E
100
AcDbEntity
  8
0
100
AcDbLine
 10
32.228107834354
 20
10.714307768644
 30
0.0
 11
33.343
 21
11.9400155
 31
0.0
  0
LINE
  5
FD5
330
1E
100
AcDbEntity
  8
0
100
AcDbLine
 10
29.986
 20
9.4411955
 30
0.0
 11
32.228107834354
 21
10.714307768645
 31
0.0
  0
LINE
  5
FD6
330
1E
100
AcDbEntity
  8
0
100
AcDbLine
 10
28.488
 20
9.2229155
 30
0.0
 11
29.986
 21
9.4411955
 31
0.0
  0
LINE
  5
FD7
330
1E
100
AcDbEntity
  8
0
100
AcDbLine
 10
25.883
 20
9.2229155
 30
0.0
 11
27.548
 21
9.2229155
 31
0.0
  0
LINE
  5
FD8
330
1E
100
AcDbEntity
  8
0
100
AcDbLine
 10
24.467
 20
9.2229155
 30
0.0
 11
25.883
 21
9.2229155
 31
0.0
  0
LINE
  5
FD9
330
1E
100
AcDbEntity
  8
0
100
AcDbLine
 10
26.418
 20
9.2229155
 30
0.0
 11
28.481
 21
9.2229155
 31
0.0
  0
LINE
  5
FDA
330
1E
100
AcDbEntity
  8
0
100
AcDbLine
 10
24.699
 20
9.2229155
 30
0.0
 11
26.418
 21
9.2229155
 31
0.0
  0
LINE
  5
FDB
330
1E
100
AcDbEntity
  8
0
100
AcDbLine
 10
23.349
 20
9.2229155
 30
0.0
 11
24.699
 21
9.2229155
 31
0.0
  0
LINE
  5
FDC
330
1E
100
AcDbEntity
  8
0
100
AcDbLine
 10
23.317
 20
9.2229155
 30
0.0
 11
24.467
 21
9.2229155
 31
0.0
  0
LINE
  5
FDD
330
1E
100
AcDbEntity
  8
0
100
AcDbLine
 10
22.443
 20
9.2229155
 30
0.0
 11
23.317
 21
9.2229155
 31
0.0
  0
LINE
  5
FDE
330
1E
100
AcDbEntity
  8
0
100
AcDbLine
 10
21.856
 20
9.2229155
 30
0.0
 11
22.443
 21
9.2229155
 31
0.0
  0
LINE
  5
FDF
330
1E
100
AcDbEntity
  8
0
100
AcDbLine
 10
21.56
 20
9.2229155
 30
0.0
 11
21.856
 21
9.2229155
 31
0.0
  0
LINE
  5
FE0
330
1E
100
AcDbEntity
  8
0
100
AcDbLine
 10
22.387
 20
9.2229155
 30
0.0
 11
23.349
 21
9.2229155
 31
0.0
  0
LINE
  5
FE1
330
1E
100
AcDbEntity
  8
0
100
AcDbLine
 10
21.678
 20
9.2229155
 30
0.0
 11
21.827
 21
9.2229155
 31
0.0
  0
LINE
  5
FE2
330
1E
100
AcDbEntity
  8
0
100
AcDbLine
 10
21.827
 20
9.2229155
 30
0.0
 11
22.387
 21
9.2229155
 31
0.0
  0
LINE
  5
FE3
330
1E
100
AcDbEntity
  8
0
100
AcDbLine
 10
16.501
 20
8.8287455
 30
0.0
 11
17.239
 21
8.9982855
 31
0.0
  0
LINE
  5
FE4
330
1E
100
AcDbEntity
  8
0
100
AcDbLine
 10
17.239
 20
8.9982855
 30
0.0
 11
21.56
 21
9.2229155
 31
0.0
  0
LINE
  5
FE5
330
1E
100
AcDbEntity
  8
0
100
AcDbLine
 10
15.715
 20
8.1497555
 30
0.0
 11
16.501
 21
8.8287455
 31
0.0
  0
LINE
  5
FE6
330
1E
100
AcDbEntity
  8
0
100
AcDbLine
 10
15.355
 20
7.1056955
 30
0.0
 11
15.715
 21
8.1497555
 31
0.0
  0
LINE
  5
FE7
330
1E
100
AcDbEntity
  8
0
100
AcDbLine
 10
84.552921649406
 20
7.1056955
 30
0.0
 11
84.913
 21
0.1442015
 31
0.0
  0
LINE
  5
FE8
330
1E
100
AcDbEntity
  8
0
100
AcDbLine
 10
74.526
 20
199.3159155
 30
0.0
 11
79.927
 21
197.7729155
 31
0.0
  0
LINE
  5
FE9
330
1E
100
AcDbEntity
  8
0
100
AcDbLine
 10
79.927
 20
197.7729155
 30
0.0
 11
84.818
 21
195.9839155
 31
0.0
  0
LINE
  5
FEA
330
1E
100
AcDbEntity
  8
0
100
AcDbLine
 10
74.891
 20
198.6559155
 30
0.0
 11
80.365
 21
197.1139155
 31
0.0
  0
LINE
  5
FEB
330
1E
100
AcDbEntity
  8
0
100
AcDbLine
 10
80.365
 20
197.1139155
 30
0.0
 11
85.328
 21
195.2929155
 31
0.0
  0
LINE
  5
FEC
330
1E
100
AcDbEntity
  8
0
100
AcDbLine
 10
92.701
 20
191.6339155
 30
0.0
 11
95.401
 21
189.2279155
 31
0.0
  0
LINE
  5
FED
330
1E
100
AcDbEntity
  8
0
100
AcDbLine
 10
89.051
 20
193.9169155
 30
0.0
 11
92.701
 21
191.6339155
 31
0.0
  0
LINE
  5
FEE
330
1E
100
AcDbEntity
  8
0
100
AcDbLine
 10
89.635
 20
193.1959155
 30
0.0
 11
93.285
 21
190.8809155
 31
0.0
  0
LINE
  5
FEF
330
1E
100
AcDbEntity
  8
0
100
AcDbLine
 10
84.818
 20
195.9839155
 30
0.0
 11
89.051
 21
193.9169155
 31
0.0
  0
LINE
  5
FF0
330
1E
100
AcDbEntity
  8
0
100
AcDbLine
 10
85.328
 20
195.2929155
 30
0.0
 11
89.635
 21
193.1959155
 31
0.0
  0
LINE
  5
FF1
330
1E
100
AcDbEntity
  8
0
100
AcDbLine
 10
99.489
 20
183.0779155
 30
0.0
 11
100.0
 21
180.3629155
 31
0.0
  0
LINE
  5
FF2
330
1E
100
AcDbEntity
  8
0
100
AcDbLine
 10
100.0
 20
161.3309155
 30
0.0
 11
100.0
 21
180.3629155
 31
0.0
  0
LINE
  5
FF3
330
1E
100
AcDbEntity
  8
0
100
AcDbLine
 10
100.0
 20
180.3629155
 30
0.0
 11
100.0
 21
161.3309155
 31
0.0
  0
LINE
  5
FF4
330
1E
100
AcDbEntity
  8
0
100
AcDbLine
 10
98.175
 20
185.8229155
 30
0.0
 11
99.489
 21
183.0779155
 31
0.0
  0
LINE
  5
FF5
330
1E
100
AcDbEntity
  8
0
100
AcDbLine
 10
96.131
 20
188.4449155
 30
0.0
 11
98.175
 21
185.8229155
 31
0.0
  0
LINE
  5
FF6
330
1E
100
AcDbEntity
  8
0
100
AcDbLine
 10
95.401
 20
189.2279155
 30
0.0
 11
96.131
 21
188.4449155
 31
0.0
  0
LINE
  5
FF7
330
1E
100
AcDbEntity
  8
0
100
AcDbLine
 10
93.285
 20
190.8809155
 30
0.0
 11
96.131
 21
188.4449155
 31
0.0
  0
LINE
  5
FF8
330
1E
100
AcDbEntity
  8
0
100
AcDbLine
 10
99.489
 20
164.0449155
 30
0.0
 11
100.0
 21
161.3309155
 31
0.0
  0
LINE
  5
FF9
330
1E
100
AcDbEntity
  8
0
100
AcDbLine
 10
98.175
 20
166.7899155
 30
0.0
 11
99.489
 21
164.0449155
 31
0.0
  0
LINE
  5
FFA
330
1E
100
AcDbEntity
  8
0
100
AcDbLine
 10
96.131
 20
169.4129155
 30
0.0
 11
98.175
 21
166.7899155
 31
0.0
  0
LINE
  5
FFB
330
1E
100
AcDbEntity
  8
0
100
AcDbLine
 10
93.285
 20
171.8499155
 30
0.0
 11
96.131
 21
169.4129155
 31
0.0
  0
LINE
  5
FFC
330
1E
100
AcDbEntity
  8
0
100
AcDbLine
 10
89.635
 20
174.1629155
 30
0.0
 11
93.285
 21
171.8499155
 31
0.0
  0
LINE
  5
FFD
330
1E
100
AcDbEntity
  8
0
100
AcDbLine
 10
85.328
 20
176.2609155
 30
0.0
 11
89.635
 21
174.1629155
 31
0.0
  0
LINE
  5
FFE
330
1E
100
AcDbEntity
  8
0
100
AcDbLine
 10
89.051
 20
173.0719155
 30
0.0
 11
92.701
 21
170.7889155
 31
0.0
  0
LINE
  5
FFF
330
1E
100
AcDbEntity
  8
0
100
AcDbLine
 10
84.818
 20
175.1379155
 30
0.0
 11
89.051
 21
173.0719155
 31
0.0
  0
LINE
  5
1000
330
1E
100
AcDbEntity
  8
0
100
AcDbLine
 10
87.299
 20
172.5159155
 30
0.0
 11
90.803
 21
170.3259155
 31
0.0
  0
LINE
  5
1001
330
1E
100
AcDbEntity
  8
0
100
AcDbLine
 10
83.212
 20
174.4589155
 30
0.0
 11
87.299
 21
172.5159155
 31
0.0
  0
LINE
  5
1002
330
1E
100
AcDbEntity
  8
0
100
AcDbLine
 10
84.67
 20
171.928997126767
 30
0.0
 11
84.67
 21
171.4919155
 31
0.0
  0
LINE
  5
1003
330
1E
100
AcDbEntity
  8
0
100
AcDbLine
 10
86.13
 20
172.254938863138
 30
0.0
 11
86.13
 21
171.4919155
 31
0.0
  0
LINE
  5
1004
330
1E
100
AcDbEntity
  8
0
100
AcDbLine
 10
95.401
 20
168.3829155
 30
0.0
 11
97.518
 21
165.6679155
 31
0.0
  0
LINE
  5
1005
330
1E
100
AcDbEntity
  8
0
100
AcDbLine
 10
92.701
 20
170.7889155
 30
0.0
 11
95.401
 21
168.3829155
 31
0.0
  0
LINE
  5
1006
330
1E
100
AcDbEntity
  8
0
100
AcDbLine
 10
86.13
 20
170.8749155
 30
0.0
 11
86.13
 21
171.4919155
 31
0.0
  0
LINE
  5
1007
330
1E
100
AcDbEntity
  8
0
100
AcDbLine
 10
86.13
 20
171.4919155
 30
0.0
 11
86.13
 21
170.8749155
 31
0.0
  0
LINE
  5
1008
330
1E
100
AcDbEntity
  8
0
100
AcDbLine
 10
86.13
 20
171.4919155
 30
0.0
 11
86.13
 21
172.254938863138
 31
0.0
  0
LINE
  5
1009
330
1E
100
AcDbEntity
  8
0
100
AcDbLine
 10
84.67
 20
170.8749155
 30
0.0
 11
84.67
 21
171.4919155
 31
0.0
  0
LINE
  5
100A
330
1E
100
AcDbEntity
  8
0
100
AcDbLine
 10
84.67
 20
170.8749155
 30
0.0
 11
84.67
 21
171.453772785429
 31
0.0
  0
LINE
  5
100B
330
1E
100
AcDbEntity
  8
0
100
AcDbLine
 10
84.67
 20
170.8749155
 30
0.0
 11
86.13
 21
170.8749155
 31
0.0
  0
LINE
  5
100C
330
1E
100
AcDbEntity
  8
0
100
AcDbLine
 10
84.67
 20
171.453772785429
 30
0.0
 11
84.67
 21
170.8749155
 31
0.0
  0
LINE
  5
100D
330
1E
100
AcDbEntity
  8
0
100
AcDbLine
 10
84.67
 20
171.4919155
 30
0.0
 11
84.67
 21
171.928997126767
 31
0.0
  0
LINE
  5
100E
330
1E
100
AcDbEntity
  8
0
100
AcDbLine
 10
84.67
 20
171.4919155
 30
0.0
 11
86.13
 21
171.4919155
 31
0.0
  0
LINE
  5
100F
330
1E
100
AcDbEntity
  8
0
100
AcDbLine
 10
84.67
 20
171.4919155
 30
0.0
 11
84.67
 21
170.8749155
 31
0.0
  0
LINE
  5
1010
330
1E
100
AcDbEntity
  8
0
100
AcDbLine
 10
93.431
 20
168.0129155
 30
0.0
 11
95.401
 21
165.2359155
 31
0.0
  0
LINE
  5
1011
330
1E
100
AcDbEntity
  8
0
100
AcDbLine
 10
90.803
 20
170.3259155
 30
0.0
 11
93.431
 21
168.0129155
 31
0.0
  0
LINE
  5
1012
330
1E
100
AcDbEntity
  8
0
100
AcDbLine
 10
90.916
 20
167.4439155
 30
0.0
 11
90.916
 21
168.0609155
 31
0.0
  0
LINE
  5
1013
330
1E
100
AcDbEntity
  8
0
100
AcDbLine
 10
89.456
 20
167.4439155
 30
0.0
 11
89.456
 21
168.0609155
 31
0.0
  0
LINE
  5
1014
330
1E
100
AcDbEntity
  8
0
100
AcDbLine
 10
89.456
 20
167.4439155
 30
0.0
 11
89.456
 21
167.608425655398
 31
0.0
  0
LINE
  5
1015
330
1E
100
AcDbEntity
  8
0
100
AcDbLine
 10
89.456
 20
167.4439155
 30
0.0
 11
90.916
 21
167.4439155
 31
0.0
  0
LINE
  5
1016
330
1E
100
AcDbEntity
  8
0
100
AcDbLine
 10
89.456
 20
167.608425655398
 30
0.0
 11
89.456
 21
167.4439155
 31
0.0
  0
LINE
  5
1017
330
1E
100
AcDbEntity
  8
0
100
AcDbLine
 10
90.916
 20
168.0609155
 30
0.0
 11
90.916
 21
167.4439155
 31
0.0
  0
LINE
  5
1018
330
1E
100
AcDbEntity
  8
0
100
AcDbLine
 10
89.456
 20
168.0609155
 30
0.0
 11
90.916
 21
168.0609155
 31
0.0
  0
LINE
  5
1019
330
1E
100
AcDbEntity
  8
0
100
AcDbLine
 10
89.456
 20
168.0609155
 30
0.0
 11
89.456
 21
167.4439155
 31
0.0
  0
LINE
  5
101A
330
1E
100
AcDbEntity
  8
0
100
AcDbLine
 10
80.859
 20
168.776743532493
 30
0.0
 11
80.859
 21
167.5379155
 31
0.0
  0
LINE
  5
101B
330
1E
100
AcDbEntity
  8
0
100
AcDbLine
 10
80.859
 20
167.5379155
 30
0.0
 11
80.859
 21
166.9209155
 31
0.0
  0
LINE
  5
101C
330
1E
100
AcDbEntity
  8
0
100
AcDbLine
 10
80.859
 20
167.5379155
 30
0.0
 11
80.859
 21
168.776743532493
 31
0.0
  0
LINE
  5
101D
330
1E
100
AcDbEntity
  8
0
100
AcDbLine
 10
80.859
 20
166.9209155
 30
0.0
 11
80.859
 21
167.5379155
 31
0.0
  0
LINE
  5
101E
330
1E
100
AcDbEntity
  8
0
100
AcDbLine
 10
98.759
 20
163.1079155
 30
0.0
 11
99.27
 21
160.4239155
 31
0.0
  0
LINE
  5
101F
330
1E
100
AcDbEntity
  8
0
100
AcDbLine
 10
99.489
 20
158.6159155
 30
0.0
 11
100.0
 21
161.3309155
 31
0.0
  0
LINE
  5
1020
330
1E
100
AcDbEntity
  8
0
100
AcDbLine
 10
97.518
 20
165.6679155
 30
0.0
 11
98.759
 21
163.1079155
 31
0.0
  0
LINE
  5
1021
330
1E
100
AcDbEntity
  8
0
100
AcDbLine
 10
96.642
 20
163.0459155
 30
0.0
 11
97.08
 21
160.4239155
 31
0.0
  0
LINE
  5
1022
330
1E
100
AcDbEntity
  8
0
100
AcDbLine
 10
98.175
 20
155.8699155
 30
0.0
 11
99.489
 21
158.6159155
 31
0.0
  0
LINE
  5
1023
330
1E
100
AcDbEntity
  8
0
100
AcDbLine
 10
98.759
 20
157.7399155
 30
0.0
 11
99.27
 21
160.4239155
 31
0.0
  0
LINE
  5
1024
330
1E
100
AcDbEntity
  8
0
100
AcDbLine
 10
97.518
 20
155.1799155
 30
0.0
 11
98.759
 21
157.7399155
 31
0.0
  0
LINE
  5
1025
330
1E
100
AcDbEntity
  8
0
100
AcDbLine
 10
95.401
 20
165.2359155
 30
0.0
 11
96.642
 21
163.0459155
 31
0.0
  0
LINE
  5
1026
330
1E
100
AcDbEntity
  8
0
100
AcDbLine
 10
96.131
 20
153.2479155
 30
0.0
 11
98.175
 21
155.8699155
 31
0.0
  0
LINE
  5
1027
330
1E
100
AcDbEntity
  8
0
100
AcDbLine
 10
96.642
 20
157.8009155
 30
0.0
 11
97.08
 21
160.4239155
 31
0.0
  0
LINE
  5
1028
330
1E
100
AcDbEntity
  8
0
100
AcDbLine
 10
95.401
 20
152.4659155
 30
0.0
 11
97.518
 21
155.1799155
 31
0.0
  0
LINE
  5
1029
330
1E
100
AcDbEntity
  8
0
100
AcDbLine
 10
95.401
 20
152.4659155
 30
0.0
 11
96.131
 21
153.2479155
 31
0.0
  0
LINE
  5
102A
330
1E
100
AcDbEntity
  8
0
100
AcDbLine
 10
95.401
 20
155.6109155
 30
0.0
 11
96.642
 21
157.8009155
 31
0.0
  0
LINE
  5
102B
330
1E
100
AcDbEntity
  8
0
100
AcDbLine
 10
95.62
 20
159.8269155
 30
0.0
 11
95.62
 21
160.517672262453
 31
0.0
  0
LINE
  5
102C
330
1E
100
AcDbEntity
  8
0
100
AcDbLine
 10
95.62
 20
159.8269155
 30
0.0
 11
95.62
 21
159.2099155
 31
0.0
  0
LINE
  5
102D
330
1E
100
AcDbEntity
  8
0
100
AcDbLine
 10
95.62
 20
160.517672262453
 30
0.0
 11
95.62
 21
159.8269155
 31
0.0
  0
LINE
  5
102E
330
1E
100
AcDbEntity
  8
0
100
AcDbLine
 10
95.62
 20
159.2099155
 30
0.0
 11
95.62
 21
159.8269155
 31
0.0
  0
LINE
  5
102F
330
1E
100
AcDbEntity
  8
0
100
AcDbLine
 10
93.431
 20
152.8359155
 30
0.0
 11
95.401
 21
155.6109155
 31
0.0
  0
LINE
  5
1030
330
1E
100
AcDbEntity
  8
0
100
AcDbLine
 10
94.161
 20
159.8269155
 30
0.0
 11
94.161
 21
159.2099155
 31
0.0
  0
LINE
  5
1031
330
1E
100
AcDbEntity
  8
0
100
AcDbLine
 10
94.161
 20
159.8269155
 30
0.0
 11
94.161
 21
160.611364807946
 31
0.0
  0
LINE
  5
1032
330
1E
100
AcDbEntity
  8
0
100
AcDbLine
 10
94.161
 20
159.8269155
 30
0.0
 11
95.62
 21
159.8269155
 31
0.0
  0
LINE
  5
1033
330
1E
100
AcDbEntity
  8
0
100
AcDbLine
 10
94.241
 20
163.3599155
 30
0.0
 11
94.241
 21
163.9769155
 31
0.0
  0
LINE
  5
1034
330
1E
100
AcDbEntity
  8
0
100
AcDbLine
 10
94.241
 20
163.9769155
 30
0.0
 11
94.241
 21
163.3599155
 31
0.0
  0
LINE
  5
1035
330
1E
100
AcDbEntity
  8
0
100
AcDbLine
 10
94.241
 20
163.9769155
 30
0.0
 11
94.241
 21
165.052757605263
 31
0.0
  0
LINE
  5
1036
330
1E
100
AcDbEntity
  8
0
100
AcDbLine
 10
94.241
 20
165.052757605263
 30
0.0
 11
94.241
 21
163.9769155
 31
0.0
  0
LINE
  5
1037
330
1E
100
AcDbEntity
  8
0
100
AcDbLine
 10
94.241
 20
155.6749155
 30
0.0
 11
94.241
 21
155.0579155
 31
0.0
  0
LINE
  5
1038
330
1E
100
AcDbEntity
  8
0
100
AcDbLine
 10
94.241
 20
155.0579155
 30
0.0
 11
94.241
 21
155.6749155
 31
0.0
  0
LINE
  5
1039
330
1E
100
AcDbEntity
  8
0
100
AcDbLine
 10
94.161
 20
160.611364807946
 30
0.0
 11
94.161
 21
159.8269155
 31
0.0
  0
LINE
  5
103A
330
1E
100
AcDbEntity
  8
0
100
AcDbLine
 10
92.782
 20
163.3599155
 30
0.0
 11
92.782
 21
163.9769155
 31
0.0
  0
LINE
  5
103B
330
1E
100
AcDbEntity
  8
0
100
AcDbLine
 10
92.782
 20
163.3599155
 30
0.0
 11
94.241
 21
163.3599155
 31
0.0
  0
LINE
  5
103C
330
1E
100
AcDbEntity
  8
0
100
AcDbLine
 10
92.782
 20
163.9769155
 30
0.0
 11
92.782
 21
164.822389184211
 31
0.0
  0
LINE
  5
103D
330
1E
100
AcDbEntity
  8
0
100
AcDbLine
 10
92.782
 20
163.9769155
 30
0.0
 11
94.241
 21
163.9769155
 31
0.0
  0
LINE
  5
103E
330
1E
100
AcDbEntity
  8
0
100
AcDbLine
 10
92.782
 20
163.9769155
 30
0.0
 11
92.782
 21
163.3599155
 31
0.0
  0
LINE
  5
103F
330
1E
100
AcDbEntity
  8
0
100
AcDbLine
 10
92.782
 20
164.822389184211
 30
0.0
 11
92.782
 21
163.9769155
 31
0.0
  0
LINE
  5
1040
330
1E
100
AcDbEntity
  8
0
100
AcDbLine
 10
85.32
 20
162.8389155
 30
0.0
 11
85.32
 21
163.4559155
 31
0.0
  0
LINE
  5
1041
330
1E
100
AcDbEntity
  8
0
100
AcDbLine
 10
85.32
 20
163.4559155
 30
0.0
 11
85.32
 21
162.8389155
 31
0.0
  0
LINE
  5
1042
330
1E
100
AcDbEntity
  8
0
100
AcDbLine
 10
85.32
 20
163.4559155
 30
0.0
 11
85.32
 21
163.644178657895
 31
0.0
  0
LINE
  5
1043
330
1E
100
AcDbEntity
  8
0
100
AcDbLine
 10
85.32
 20
163.644178657895
 30
0.0
 11
85.32
 21
163.4559155
 31
0.0
  0
LINE
  5
1044
330
1E
100
AcDbEntity
  8
0
100
AcDbLine
 10
83.86
 20
162.8389155
 30
0.0
 11
83.86
 21
163.4559155
 31
0.0
  0
LINE
  5
1045
330
1E
100
AcDbEntity
  8
0
100
AcDbLine
 10
83.86
 20
162.8389155
 30
0.0
 11
83.86
 21
163.413652342105
 31
0.0
  0
LINE
  5
1046
330
1E
100
AcDbEntity
  8
0
100
AcDbLine
 10
83.86
 20
162.8389155
 30
0.0
 11
85.32
 21
162.8389155
 31
0.0
  0
LINE
  5
1047
330
1E
100
AcDbEntity
  8
0
100
AcDbLine
 10
83.86
 20
163.413652342105
 30
0.0
 11
83.86
 21
162.8389155
 31
0.0
  0
LINE
  5
1048
330
1E
100
AcDbEntity
  8
0
100
AcDbLine
 10
83.86
 20
163.4559155
 30
0.0
 11
85.32
 21
163.4559155
 31
0.0
  0
LINE
  5
1049
330
1E
100
AcDbEntity
  8
0
100
AcDbLine
 10
83.86
 20
163.4559155
 30
0.0
 11
83.86
 21
162.8389155
 31
0.0
  0
LINE
  5
104A
330
1E
100
AcDbEntity
  8
0
100
AcDbLine
 10
94.161
 20
159.2099155
 30
0.0
 11
94.161
 21
159.864643877714
 31
0.0
  0
LINE
  5
104B
330
1E
100
AcDbEntity
  8
0
100
AcDbLine
 10
94.161
 20
159.2099155
 30
0.0
 11
95.62
 21
159.2099155
 31
0.0
  0
LINE
  5
104C
330
1E
100
AcDbEntity
  8
0
100
AcDbLine
 10
94.161
 20
159.2099155
 30
0.0
 11
94.161
 21
159.8269155
 31
0.0
  0
LINE
  5
104D
330
1E
100
AcDbEntity
  8
0
100
AcDbLine
 10
94.161
 20
159.864643877714
 30
0.0
 11
94.161
 21
159.2099155
 31
0.0
  0
LINE
  5
104E
330
1E
100
AcDbEntity
  8
0
100
AcDbLine
 10
86.861
 20
159.3729155
 30
0.0
 11
86.861
 21
159.756305606721
 31
0.0
  0
LINE
  5
104F
330
1E
100
AcDbEntity
  8
0
100
AcDbLine
 10
86.861
 20
159.3729155
 30
0.0
 11
86.861
 21
158.7559155
 31
0.0
  0
LINE
  5
1050
330
1E
100
AcDbEntity
  8
0
100
AcDbLine
 10
92.782
 20
155.6749155
 30
0.0
 11
92.782
 21
155.0579155
 31
0.0
  0
LINE
  5
1051
330
1E
100
AcDbEntity
  8
0
100
AcDbLine
 10
92.782
 20
155.6749155
 30
0.0
 11
94.241
 21
155.6749155
 31
0.0
  0
LINE
  5
1052
330
1E
100
AcDbEntity
  8
0
100
AcDbLine
 10
92.782
 20
155.0579155
 30
0.0
 11
92.782
 21
155.66934643509
 31
0.0
  0
LINE
  5
1053
330
1E
100
AcDbEntity
  8
0
100
AcDbLine
 10
92.782
 20
155.0579155
 30
0.0
 11
94.241
 21
155.0579155
 31
0.0
  0
LINE
  5
1054
330
1E
100
AcDbEntity
  8
0
100
AcDbLine
 10
92.782
 20
155.0579155
 30
0.0
 11
92.782
 21
155.6749155
 31
0.0
  0
LINE
  5
1055
330
1E
100
AcDbEntity
  8
0
100
AcDbLine
 10
92.782
 20
155.66934643509
 30
0.0
 11
92.782
 21
155.0579155
 31
0.0
  0
LINE
  5
1056
330
1E
100
AcDbEntity
  8
0
100
AcDbLine
 10
86.861
 20
159.756305606721
 30
0.0
 11
86.861
 21
159.3729155
 31
0.0
  0
LINE
  5
1057
330
1E
100
AcDbEntity
  8
0
100
AcDbLine
 10
85.401
 20
159.3729155
 30
0.0
 11
85.401
 21
158.7559155
 31
0.0
  0
LINE
  5
1058
330
1E
100
AcDbEntity
  8
0
100
AcDbLine
 10
85.401
 20
159.3729155
 30
0.0
 11
85.401
 21
159.66092343193
 31
0.0
  0
LINE
  5
1059
330
1E
100
AcDbEntity
  8
0
100
AcDbLine
 10
85.401
 20
159.3729155
 30
0.0
 11
86.861
 21
159.3729155
 31
0.0
  0
LINE
  5
105A
330
1E
100
AcDbEntity
  8
0
100
AcDbLine
 10
86.861
 20
158.7559155
 30
0.0
 11
86.861
 21
159.3729155
 31
0.0
  0
LINE
  5
105B
330
1E
100
AcDbEntity
  8
0
100
AcDbLine
 10
85.401
 20
159.66092343193
 30
0.0
 11
85.401
 21
158.7559155
 31
0.0
  0
LINE
  5
105C
330
1E
100
AcDbEntity
  8
0
100
AcDbLine
 10
85.401
 20
159.66092343193
 30
0.0
 11
85.401
 21
159.3729155
 31
0.0
  0
LINE
  5
105D
330
1E
100
AcDbEntity
  8
0
100
AcDbLine
 10
85.401
 20
158.7559155
 30
0.0
 11
85.401
 21
159.66092343193
 31
0.0
  0
LINE
  5
105E
330
1E
100
AcDbEntity
  8
0
100
AcDbLine
 10
85.401
 20
158.7559155
 30
0.0
 11
86.861
 21
158.7559155
 31
0.0
  0
LINE
  5
105F
330
1E
100
AcDbEntity
  8
0
100
AcDbLine
 10
85.401
 20
158.7559155
 30
0.0
 11
85.401
 21
159.3729155
 31
0.0
  0
LINE
  5
1060
330
1E
100
AcDbEntity
  8
0
100
AcDbLine
 10
85.32
 20
155.2899155
 30
0.0
 11
85.32
 21
155.835826632739
 31
0.0
  0
LINE
  5
1061
330
1E
100
AcDbEntity
  8
0
100
AcDbLine
 10
85.32
 20
155.2899155
 30
0.0
 11
85.32
 21
154.6729155
 31
0.0
  0
LINE
  5
1062
330
1E
100
AcDbEntity
  8
0
100
AcDbLine
 10
85.32
 20
155.835826632739
 30
0.0
 11
85.32
 21
155.2899155
 31
0.0
  0
LINE
  5
1063
330
1E
100
AcDbEntity
  8
0
100
AcDbLine
 10
83.86
 20
155.86839981534
 30
0.0
 11
83.86
 21
154.6729155
 31
0.0
  0
LINE
  5
1064
330
1E
100
AcDbEntity
  8
0
100
AcDbLine
 10
83.86
 20
155.86839981534
 30
0.0
 11
83.86
 21
155.2899155
 31
0.0
  0
LINE
  5
1065
330
1E
100
AcDbEntity
  8
0
100
AcDbLine
 10
83.86
 20
155.2899155
 30
0.0
 11
83.86
 21
154.6729155
 31
0.0
  0
LINE
  5
1066
330
1E
100
AcDbEntity
  8
0
100
AcDbLine
 10
83.86
 20
155.2899155
 30
0.0
 11
83.86
 21
155.86839981534
 31
0.0
  0
LINE
  5
1067
330
1E
100
AcDbEntity
  8
0
100
AcDbLine
 10
83.86
 20
155.2899155
 30
0.0
 11
85.32
 21
155.2899155
 31
0.0
  0
LINE
  5
1068
330
1E
100
AcDbEntity
  8
0
100
AcDbLine
 10
85.32
 20
154.6729155
 30
0.0
 11
85.32
 21
155.2899155
 31
0.0
  0
LINE
  5
1069
330
1E
100
AcDbEntity
  8
0
100
AcDbLine
 10
83.86
 20
154.6729155
 30
0.0
 11
83.86
 21
155.86839981534
 31
0.0
  0
LINE
  5
106A
330
1E
100
AcDbEntity
  8
0
100
AcDbLine
 10
83.86
 20
154.6729155
 30
0.0
 11
85.32
 21
154.6729155
 31
0.0
  0
LINE
  5
106B
330
1E
100
AcDbEntity
  8
0
100
AcDbLine
 10
83.86
 20
154.6729155
 30
0.0
 11
83.86
 21
155.2899155
 31
0.0
  0
LINE
  5
106C
330
1E
100
AcDbEntity
  8
0
100
AcDbLine
 10
90.916
 20
152.780891304253
 30
0.0
 11
90.916
 21
151.5919155
 31
0.0
  0
LINE
  5
106D
330
1E
100
AcDbEntity
  8
0
100
AcDbLine
 10
89.456
 20
152.74894882879
 30
0.0
 11
89.456
 21
151.5919155
 31
0.0
  0
LINE
  5
106E
330
1E
100
AcDbEntity
  8
0
100
AcDbLine
 10
92.701
 20
150.0589155
 30
0.0
 11
95.401
 21
152.4659155
 31
0.0
  0
LINE
  5
106F
330
1E
100
AcDbEntity
  8
0
100
AcDbLine
 10
89.051
 20
147.7759155
 30
0.0
 11
92.701
 21
150.0589155
 31
0.0
  0
LINE
  5
1070
330
1E
100
AcDbEntity
  8
0
100
AcDbLine
 10
90.803
 20
150.5209155
 30
0.0
 11
93.431
 21
152.8359155
 31
0.0
  0
LINE
  5
1071
330
1E
100
AcDbEntity
  8
0
100
AcDbLine
 10
90.916
 20
151.5919155
 30
0.0
 11
90.916
 21
152.780891304253
 31
0.0
  0
LINE
  5
1072
330
1E
100
AcDbEntity
  8
0
100
AcDbLine
 10
90.916
 20
151.5919155
 30
0.0
 11
90.916
 21
150.9749155
 31
0.0
  0
LINE
  5
1073
330
1E
100
AcDbEntity
  8
0
100
AcDbLine
 10
90.916
 20
150.9749155
 30
0.0
 11
90.916
 21
151.5919155
 31
0.0
  0
LINE
  5
1074
330
1E
100
AcDbEntity
  8
0
100
AcDbLine
 10
87.299
 20
148.3309155
 30
0.0
 11
90.803
 21
150.5209155
 31
0.0
  0
LINE
  5
1075
330
1E
100
AcDbEntity
  8
0
100
AcDbLine
 10
86.13
 20
148.611127621212
 30
0.0
 11
86.13
 21
148.1599155
 31
0.0
  0
LINE
  5
1076
330
1E
100
AcDbEntity
  8
0
100
AcDbLine
 10
89.456
 20
151.5919155
 30
0.0
 11
89.456
 21
150.9749155
 31
0.0
  0
LINE
  5
1077
330
1E
100
AcDbEntity
  8
0
100
AcDbLine
 10
89.456
 20
151.5919155
 30
0.0
 11
89.456
 21
152.74894882879
 31
0.0
  0
LINE
  5
1078
330
1E
100
AcDbEntity
  8
0
100
AcDbLine
 10
89.456
 20
151.5919155
 30
0.0
 11
90.916
 21
151.5919155
 31
0.0
  0
LINE
  5
1079
330
1E
100
AcDbEntity
  8
0
100
AcDbLine
 10
89.456
 20
150.9749155
 30
0.0
 11
90.916
 21
150.9749155
 31
0.0
  0
LINE
  5
107A
330
1E
100
AcDbEntity
  8
0
100
AcDbLine
 10
89.456
 20
150.9749155
 30
0.0
 11
89.456
 21
151.5919155
 31
0.0
  0
LINE
  5
107B
330
1E
100
AcDbEntity
  8
0
100
AcDbLine
 10
84.67
 20
148.961093144711
 30
0.0
 11
84.67
 21
148.1599155
 31
0.0
  0
LINE
  5
107C
330
1E
100
AcDbEntity
  8
0
100
AcDbLine
 10
80.859
 20
151.2079155
 30
0.0
 11
80.859
 21
152.167240309034
 31
0.0
  0
LINE
  5
107D
330
1E
100
AcDbEntity
  8
0
100
AcDbLine
 10
80.859
 20
151.2079155
 30
0.0
 11
80.859
 21
150.5909155
 31
0.0
  0
LINE
  5
107E
330
1E
100
AcDbEntity
  8
0
100
AcDbLine
 10
80.859
 20
152.167240309034
 30
0.0
 11
80.859
 21
151.2079155
 31
0.0
  0
LINE
  5
107F
330
1E
100
AcDbEntity
  8
0
100
AcDbLine
 10
80.859
 20
150.5909155
 30
0.0
 11
80.859
 21
151.2079155
 31
0.0
  0
LINE
  5
1080
330
1E
100
AcDbEntity
  8
0
100
AcDbLine
 10
84.67
 20
148.574327383473
 30
0.0
 11
84.67
 21
147.5429155
 31
0.0
  0
LINE
  5
1081
330
1E
100
AcDbEntity
  8
0
100
AcDbLine
 10
86.13
 20
148.1599155
 30
0.0
 11
86.13
 21
148.611127621212
 31
0.0
  0
LINE
  5
1082
330
1E
100
AcDbEntity
  8
0
100
AcDbLine
 10
86.13
 20
148.1599155
 30
0.0
 11
86.13
 21
147.5429155
 31
0.0
  0
LINE
  5
1083
330
1E
100
AcDbEntity
  8
0
100
AcDbLine
 10
84.67
 20
148.1599155
 30
0.0
 11
84.67
 21
147.5429155
 31
0.0
  0
LINE
  5
1084
330
1E
100
AcDbEntity
  8
0
100
AcDbLine
 10
84.67
 20
148.1599155
 30
0.0
 11
84.67
 21
148.961093144711
 31
0.0
  0
LINE
  5
1085
330
1E
100
AcDbEntity
  8
0
100
AcDbLine
 10
84.67
 20
148.1599155
 30
0.0
 11
86.13
 21
148.1599155
 31
0.0
  0
LINE
  5
1086
330
1E
100
AcDbEntity
  8
0
100
AcDbLine
 10
84.818
 20
145.7089155
 30
0.0
 11
89.051
 21
147.7759155
 31
0.0
  0
LINE
  5
1087
330
1E
100
AcDbEntity
  8
0
100
AcDbLine
 10
86.13
 20
147.775161401639
 30
0.0
 11
87.299
 21
148.3309155
 31
0.0
  0
LINE
  5
1088
330
1E
100
AcDbEntity
  8
0
100
AcDbLine
 10
86.13
 20
147.5429155
 30
0.0
 11
86.13
 21
148.1599155
 31
0.0
  0
LINE
  5
1089
330
1E
100
AcDbEntity
  8
0
100
AcDbLine
 10
83.212
 20
146.3879155
 30
0.0
 11
85.641482758621
 21
147.5429155
 31
0.0
  0
LINE
  5
108A
330
1E
100
AcDbEntity
  8
0
100
AcDbLine
 10
84.67
 20
147.5429155
 30
0.0
 11
84.67
 21
148.574327383473
 31
0.0
  0
LINE
  5
108B
330
1E
100
AcDbEntity
  8
0
100
AcDbLine
 10
84.67
 20
147.5429155
 30
0.0
 11
86.13
 21
147.5429155
 31
0.0
  0
LINE
  5
108C
330
1E
100
AcDbEntity
  8
0
100
AcDbLine
 10
84.67
 20
147.5429155
 30
0.0
 11
84.67
 21
148.1599155
 31
0.0
  0
LINE
  5
108D
330
1E
100
AcDbEntity
  8
0
100
AcDbLine
 10
74.891
 20
179.6229155
 30
0.0
 11
80.365
 21
178.0809155
 31
0.0
  0
LINE
  5
108E
330
1E
100
AcDbEntity
  8
0
100
AcDbLine
 10
80.365
 20
178.0809155
 30
0.0
 11
85.328
 21
176.2609155
 31
0.0
  0
LINE
  5
108F
330
1E
100
AcDbEntity
  8
0
100
AcDbLine
 10
79.927
 20
176.9279155
 30
0.0
 11
84.818
 21
175.1379155
 31
0.0
  0
LINE
  5
1090
330
1E
100
AcDbEntity
  8
0
100
AcDbLine
 10
78.613
 20
176.1869155
 30
0.0
 11
83.212
 21
174.4589155
 31
0.0
  0
LINE
  5
1091
330
1E
100
AcDbEntity
  8
0
100
AcDbLine
 10
79.927
 20
143.9199155
 30
0.0
 11
84.818
 21
145.7089155
 31
0.0
  0
LINE
  5
1092
330
1E
100
AcDbEntity
  8
0
100
AcDbLine
 10
79.722
 20
145.077363206023
 30
0.0
 11
83.212
 21
146.3879155
 31
0.0
  0
LINE
  5
1093
330
1E
100
AcDbEntity
  8
0
100
AcDbLine
 10
79.399
 20
166.9209155
 30
0.0
 11
79.399
 21
167.5379155
 31
0.0
  0
LINE
  5
1094
330
1E
100
AcDbEntity
  8
0
100
AcDbLine
 10
79.399
 20
166.9209155
 30
0.0
 11
80.859
 21
166.9209155
 31
0.0
  0
LINE
  5
1095
330
1E
100
AcDbEntity
  8
0
100
AcDbLine
 10
79.399
 20
167.5379155
 30
0.0
 11
79.399
 21
168.549290689316
 31
0.0
  0
LINE
  5
1096
330
1E
100
AcDbEntity
  8
0
100
AcDbLine
 10
79.399
 20
167.5379155
 30
0.0
 11
80.859
 21
167.5379155
 31
0.0
  0
LINE
  5
1097
330
1E
100
AcDbEntity
  8
0
100
AcDbLine
 10
79.399
 20
167.5379155
 30
0.0
 11
79.399
 21
166.9209155
 31
0.0
  0
LINE
  5
1098
330
1E
100
AcDbEntity
  8
0
100
AcDbLine
 10
79.722
 20
173.7219155
 30
0.0
 11
79.722
 21
174.3389155
 31
0.0
  0
LINE
  5
1099
330
1E
100
AcDbEntity
  8
0
100
AcDbLine
 10
79.722
 20
174.3389155
 30
0.0
 11
79.722
 21
173.7219155
 31
0.0
  0
LINE
  5
109A
330
1E
100
AcDbEntity
  8
0
100
AcDbLine
 10
79.722
 20
174.3389155
 30
0.0
 11
79.722
 21
175.770226654599
 31
0.0
  0
LINE
  5
109B
330
1E
100
AcDbEntity
  8
0
100
AcDbLine
 10
79.722
 20
175.770226654599
 30
0.0
 11
79.722
 21
174.3389155
 31
0.0
  0
LINE
  5
109C
330
1E
100
AcDbEntity
  8
0
100
AcDbLine
 10
79.399
 20
168.549290689316
 30
0.0
 11
79.399
 21
167.5379155
 31
0.0
  0
LINE
  5
109D
330
1E
100
AcDbEntity
  8
0
100
AcDbLine
 10
79.722
 20
145.3129155
 30
0.0
 11
79.722
 21
144.6959155
 31
0.0
  0
LINE
  5
109E
330
1E
100
AcDbEntity
  8
0
100
AcDbLine
 10
79.722
 20
144.6959155
 30
0.0
 11
79.722
 21
145.3129155
 31
0.0
  0
LINE
  5
109F
330
1E
100
AcDbEntity
  8
0
100
AcDbLine
 10
79.399
 20
151.2079155
 30
0.0
 11
79.399
 21
150.5909155
 31
0.0
  0
LINE
  5
10A0
330
1E
100
AcDbEntity
  8
0
100
AcDbLine
 10
79.399
 20
151.2079155
 30
0.0
 11
80.859
 21
151.2079155
 31
0.0
  0
LINE
  5
10A1
330
1E
100
AcDbEntity
  8
0
100
AcDbLine
 10
79.399
 20
150.5909155
 30
0.0
 11
79.399
 21
150.875769417114
 31
0.0
  0
LINE
  5
10A2
330
1E
100
AcDbEntity
  8
0
100
AcDbLine
 10
79.399
 20
150.5909155
 30
0.0
 11
80.859
 21
150.5909155
 31
0.0
  0
LINE
  5
10A3
330
1E
100
AcDbEntity
  8
0
100
AcDbLine
 10
79.399
 20
150.5909155
 30
0.0
 11
79.399
 21
151.2079155
 31
0.0
  0
LINE
  5
10A4
330
1E
100
AcDbEntity
  8
0
100
AcDbLine
 10
79.399
 20
150.875769417114
 30
0.0
 11
79.399
 21
150.5909155
 31
0.0
  0
LINE
  5
10A5
330
1E
100
AcDbEntity
  8
0
100
AcDbLine
 10
75.912
 20
162.6939155
 30
0.0
 11
75.912
 21
162.0769155
 31
0.0
  0
LINE
  5
10A6
330
1E
100
AcDbEntity
  8
0
100
AcDbLine
 10
75.912
 20
162.6939155
 30
0.0
 11
75.912
 21
163.828992992727
 31
0.0
  0
LINE
  5
10A7
330
1E
100
AcDbEntity
  8
0
100
AcDbLine
 10
78.262
 20
173.7219155
 30
0.0
 11
78.262
 21
174.3389155
 31
0.0
  0
LINE
  5
10A8
330
1E
100
AcDbEntity
  8
0
100
AcDbLine
 10
78.262
 20
173.7219155
 30
0.0
 11
79.722
 21
173.7219155
 31
0.0
  0
LINE
  5
10A9
330
1E
100
AcDbEntity
  8
0
100
AcDbLine
 10
78.262
 20
174.3389155
 30
0.0
 11
79.722
 21
174.3389155
 31
0.0
  0
LINE
  5
10AA
330
1E
100
AcDbEntity
  8
0
100
AcDbLine
 10
78.262
 20
174.3389155
 30
0.0
 11
78.262
 21
173.7219155
 31
0.0
  0
LINE
  5
10AB
330
1E
100
AcDbEntity
  8
0
100
AcDbLine
 10
75.912
 20
163.828992992727
 30
0.0
 11
75.912
 21
162.6939155
 31
0.0
  0
LINE
  5
10AC
330
1E
100
AcDbEntity
  8
0
100
AcDbLine
 10
75.505
 20
169.7349155
 30
0.0
 11
75.505
 21
170.3519155
 31
0.0
  0
LINE
  5
10AD
330
1E
100
AcDbEntity
  8
0
100
AcDbLine
 10
75.505
 20
170.3519155
 30
0.0
 11
75.505
 21
169.7349155
 31
0.0
  0
LINE
  5
10AE
330
1E
100
AcDbEntity
  8
0
100
AcDbLine
 10
75.505
 20
170.3519155
 30
0.0
 11
75.505
 21
170.488403998109
 31
0.0
  0
LINE
  5
10AF
330
1E
100
AcDbEntity
  8
0
100
AcDbLine
 10
75.505
 20
170.488403998109
 30
0.0
 11
75.505
 21
170.3519155
 31
0.0
  0
LINE
  5
10B0
330
1E
100
AcDbEntity
  8
0
100
AcDbLine
 10
78.613
 20
144.6609155
 30
0.0
 11
78.706204979734
 21
144.6959155
 31
0.0
  0
LINE
  5
10B1
330
1E
100
AcDbEntity
  8
0
100
AcDbLine
 10
78.102
 20
158.9199155
 30
0.0
 11
78.102
 21
159.469010039448
 31
0.0
  0
LINE
  5
10B2
330
1E
100
AcDbEntity
  8
0
100
AcDbLine
 10
78.102
 20
158.9199155
 30
0.0
 11
78.102
 21
158.3029155
 31
0.0
  0
LINE
  5
10B3
330
1E
100
AcDbEntity
  8
0
100
AcDbLine
 10
78.102
 20
159.469010039448
 30
0.0
 11
78.102
 21
158.9199155
 31
0.0
  0
LINE
  5
10B4
330
1E
100
AcDbEntity
  8
0
100
AcDbLine
 10
76.642
 20
159.455037050719
 30
0.0
 11
76.642
 21
158.9199155
 31
0.0
  0
LINE
  5
10B5
330
1E
100
AcDbEntity
  8
0
100
AcDbLine
 10
75.912
 20
162.0769155
 30
0.0
 11
75.912
 21
162.6939155
 31
0.0
  0
LINE
  5
10B6
330
1E
100
AcDbEntity
  8
0
100
AcDbLine
 10
76.642
 20
159.002120707928
 30
0.0
 11
76.642
 21
158.3029155
 31
0.0
  0
LINE
  5
10B7
330
1E
100
AcDbEntity
  8
0
100
AcDbLine
 10
76.642
 20
158.9199155
 30
0.0
 11
76.642
 21
158.3029155
 31
0.0
  0
LINE
  5
10B8
330
1E
100
AcDbEntity
  8
0
100
AcDbLine
 10
76.642
 20
158.9199155
 30
0.0
 11
76.642
 21
159.455037050719
 31
0.0
  0
LINE
  5
10B9
330
1E
100
AcDbEntity
  8
0
100
AcDbLine
 10
76.642
 20
158.9199155
 30
0.0
 11
78.102
 21
158.9199155
 31
0.0
  0
LINE
  5
10BA
330
1E
100
AcDbEntity
  8
0
100
AcDbLine
 10
78.102
 20
158.3029155
 30
0.0
 11
78.102
 21
158.9199155
 31
0.0
  0
LINE
  5
10BB
330
1E
100
AcDbEntity
  8
0
100
AcDbLine
 10
78.262
 20
145.3129155
 30
0.0
 11
78.262
 21
144.6959155
 31
0.0
  0
LINE
  5
10BC
330
1E
100
AcDbEntity
  8
0
100
AcDbLine
 10
78.262
 20
145.3129155
 30
0.0
 11
79.722
 21
145.3129155
 31
0.0
  0
LINE
  5
10BD
330
1E
100
AcDbEntity
  8
0
100
AcDbLine
 10
78.262
 20
144.6959155
 30
0.0
 11
78.262
 21
144.817765750179
 31
0.0
  0
LINE
  5
10BE
330
1E
100
AcDbEntity
  8
0
100
AcDbLine
 10
78.262
 20
144.6959155
 30
0.0
 11
79.722
 21
144.6959155
 31
0.0
  0
LINE
  5
10BF
330
1E
100
AcDbEntity
  8
0
100
AcDbLine
 10
78.262
 20
144.6959155
 30
0.0
 11
78.262
 21
145.3129155
 31
0.0
  0
LINE
  5
10C0
330
1E
100
AcDbEntity
  8
0
100
AcDbLine
 10
78.262
 20
144.817765750179
 30
0.0
 11
78.262
 21
144.6959155
 31
0.0
  0
LINE
  5
10C1
330
1E
100
AcDbEntity
  8
0
100
AcDbLine
 10
76.642
 20
158.3029155
 30
0.0
 11
76.642
 21
159.002120707928
 31
0.0
  0
LINE
  5
10C2
330
1E
100
AcDbEntity
  8
0
100
AcDbLine
 10
76.642
 20
158.3029155
 30
0.0
 11
78.102
 21
158.3029155
 31
0.0
  0
LINE
  5
10C3
330
1E
100
AcDbEntity
  8
0
100
AcDbLine
 10
76.642
 20
158.3029155
 30
0.0
 11
76.642
 21
158.9199155
 31
0.0
  0
LINE
  5
10C4
330
1E
100
AcDbEntity
  8
0
100
AcDbLine
 10
75.505
 20
148.3939155
 30
0.0
 11
75.505
 21
148.930650291944
 31
0.0
  0
LINE
  5
10C5
330
1E
100
AcDbEntity
  8
0
100
AcDbLine
 10
75.505
 20
148.3939155
 30
0.0
 11
75.505
 21
147.7769155
 31
0.0
  0
LINE
  5
10C6
330
1E
100
AcDbEntity
  8
0
100
AcDbLine
 10
75.912
 20
155.1449155
 30
0.0
 11
75.912
 21
156.100804914548
 31
0.0
  0
LINE
  5
10C7
330
1E
100
AcDbEntity
  8
0
100
AcDbLine
 10
75.912
 20
155.1449155
 30
0.0
 11
75.912
 21
154.5289155
 31
0.0
  0
LINE
  5
10C8
330
1E
100
AcDbEntity
  8
0
100
AcDbLine
 10
75.912
 20
156.100804914548
 30
0.0
 11
75.912
 21
155.1449155
 31
0.0
  0
LINE
  5
10C9
330
1E
100
AcDbEntity
  8
0
100
AcDbLine
 10
75.912
 20
154.5289155
 30
0.0
 11
75.912
 21
155.1449155
 31
0.0
  0
LINE
  5
10CA
330
1E
100
AcDbEntity
  8
0
100
AcDbLine
 10
75.505
 20
148.930650291944
 30
0.0
 11
75.505
 21
148.3939155
 31
0.0
  0
LINE
  5
10CB
330
1E
100
AcDbEntity
  8
0
100
AcDbLine
 10
75.505
 20
147.7769155
 30
0.0
 11
75.505
 21
148.3939155
 31
0.0
  0
LINE
  5
10CC
330
1E
100
AcDbEntity
  8
0
100
AcDbLine
 10
74.526
 20
178.4699155
 30
0.0
 11
79.927
 21
176.9279155
 31
0.0
  0
LINE
  5
10CD
330
1E
100
AcDbEntity
  8
0
100
AcDbLine
 10
73.431
 20
177.6679155
 30
0.0
 11
78.613
 21
176.1869155
 31
0.0
  0
LINE
  5
10CE
330
1E
100
AcDbEntity
  8
0
100
AcDbLine
 10
74.526
 20
142.3779155
 30
0.0
 11
79.927
 21
143.9199155
 31
0.0
  0
LINE
  5
10CF
330
1E
100
AcDbEntity
  8
0
100
AcDbLine
 10
73.442
 20
143.183059266885
 30
0.0
 11
73.442
 21
142.9749155
 31
0.0
  0
LINE
  5
10D0
330
1E
100
AcDbEntity
  8
0
100
AcDbLine
 10
73.442
 20
143.183059266885
 30
0.0
 11
78.613
 21
144.6609155
 31
0.0
  0
LINE
  5
10D1
330
1E
100
AcDbEntity
  8
0
100
AcDbLine
 10
74.452
 20
162.0769155
 30
0.0
 11
74.452
 21
162.6939155
 31
0.0
  0
LINE
  5
10D2
330
1E
100
AcDbEntity
  8
0
100
AcDbLine
 10
74.452
 20
162.0769155
 30
0.0
 11
74.452
 21
162.210652539227
 31
0.0
  0
LINE
  5
10D3
330
1E
100
AcDbEntity
  8
0
100
AcDbLine
 10
74.452
 20
162.0769155
 30
0.0
 11
75.912
 21
162.0769155
 31
0.0
  0
LINE
  5
10D4
330
1E
100
AcDbEntity
  8
0
100
AcDbLine
 10
74.452
 20
162.210652539227
 30
0.0
 11
74.452
 21
162.0769155
 31
0.0
  0
LINE
  5
10D5
330
1E
100
AcDbEntity
  8
0
100
AcDbLine
 10
74.452
 20
162.6939155
 30
0.0
 11
74.452
 21
163.50409375972
 31
0.0
  0
LINE
  5
10D6
330
1E
100
AcDbEntity
  8
0
100
AcDbLine
 10
74.452
 20
162.6939155
 30
0.0
 11
75.912
 21
162.6939155
 31
0.0
  0
LINE
  5
10D7
330
1E
100
AcDbEntity
  8
0
100
AcDbLine
 10
74.452
 20
162.6939155
 30
0.0
 11
74.452
 21
162.0769155
 31
0.0
  0
LINE
  5
10D8
330
1E
100
AcDbEntity
  8
0
100
AcDbLine
 10
74.452
 20
163.50409375972
 30
0.0
 11
74.452
 21
162.6939155
 31
0.0
  0
LINE
  5
10D9
330
1E
100
AcDbEntity
  8
0
100
AcDbLine
 10
74.045
 20
169.7349155
 30
0.0
 11
74.045
 21
170.3519155
 31
0.0
  0
LINE
  5
10DA
330
1E
100
AcDbEntity
  8
0
100
AcDbLine
 10
74.045
 20
169.7349155
 30
0.0
 11
75.505
 21
169.7349155
 31
0.0
  0
LINE
  5
10DB
330
1E
100
AcDbEntity
  8
0
100
AcDbLine
 10
74.045
 20
170.3519155
 30
0.0
 11
75.505
 21
170.3519155
 31
0.0
  0
LINE
  5
10DC
330
1E
100
AcDbEntity
  8
0
100
AcDbLine
 10
74.045
 20
170.3519155
 30
0.0
 11
74.045
 21
169.7349155
 31
0.0
  0
LINE
  5
10DD
330
1E
100
AcDbEntity
  8
0
100
AcDbLine
 10
74.045
 20
148.3939155
 30
0.0
 11
74.045
 21
147.7769155
 31
0.0
  0
LINE
  5
10DE
330
1E
100
AcDbEntity
  8
0
100
AcDbLine
 10
74.045
 20
148.3939155
 30
0.0
 11
74.045
 21
149.41234132558
 31
0.0
  0
LINE
  5
10DF
330
1E
100
AcDbEntity
  8
0
100
AcDbLine
 10
74.045
 20
148.3939155
 30
0.0
 11
75.505
 21
148.3939155
 31
0.0
  0
LINE
  5
10E0
330
1E
100
AcDbEntity
  8
0
100
AcDbLine
 10
74.452
 20
155.1449155
 30
0.0
 11
74.452
 21
154.5289155
 31
0.0
  0
LINE
  5
10E1
330
1E
100
AcDbEntity
  8
0
100
AcDbLine
 10
74.452
 20
155.1449155
 30
0.0
 11
74.452
 21
156.146492870392
 31
0.0
  0
LINE
  5
10E2
330
1E
100
AcDbEntity
  8
0
100
AcDbLine
 10
74.452
 20
155.1449155
 30
0.0
 11
75.912
 21
155.1449155
 31
0.0
  0
LINE
  5
10E3
330
1E
100
AcDbEntity
  8
0
100
AcDbLine
 10
74.452
 20
156.146492870392
 30
0.0
 11
74.452
 21
155.1449155
 31
0.0
  0
LINE
  5
10E4
330
1E
100
AcDbEntity
  8
0
100
AcDbLine
 10
74.452
 20
154.5289155
 30
0.0
 11
74.452
 21
154.93567429397
 31
0.0
  0
LINE
  5
10E5
330
1E
100
AcDbEntity
  8
0
100
AcDbLine
 10
74.452
 20
154.5289155
 30
0.0
 11
75.912
 21
154.5289155
 31
0.0
  0
LINE
  5
10E6
330
1E
100
AcDbEntity
  8
0
100
AcDbLine
 10
74.452
 20
154.5289155
 30
0.0
 11
74.452
 21
155.1449155
 31
0.0
  0
LINE
  5
10E7
330
1E
100
AcDbEntity
  8
0
100
AcDbLine
 10
74.452
 20
154.93567429397
 30
0.0
 11
74.452
 21
154.5289155
 31
0.0
  0
LINE
  5
10E8
330
1E
100
AcDbEntity
  8
0
100
AcDbLine
 10
74.045
 20
149.41234132558
 30
0.0
 11
74.045
 21
148.3939155
 31
0.0
  0
LINE
  5
10E9
330
1E
100
AcDbEntity
  8
0
100
AcDbLine
 10
74.045
 20
147.7769155
 30
0.0
 11
75.505
 21
147.7769155
 31
0.0
  0
LINE
  5
10EA
330
1E
100
AcDbEntity
  8
0
100
AcDbLine
 10
74.045
 20
147.7769155
 30
0.0
 11
74.045
 21
148.3939155
 31
0.0
  0
LINE
  5
10EB
330
1E
100
AcDbEntity
  8
0
100
AcDbLine
 10
73.442
 20
142.9749155
 30
0.0
 11
73.442
 21
143.183059266885
 31
0.0
  0
LINE
  5
10EC
330
1E
100
AcDbEntity
  8
0
100
AcDbLine
 10
73.442
 20
177.664771733115
 30
0.0
 11
73.442
 21
176.0599155
 31
0.0
  0
LINE
  5
10ED
330
1E
100
AcDbEntity
  8
0
100
AcDbLine
 10
73.442
 20
176.0599155
 30
0.0
 11
73.442
 21
177.664771733115
 31
0.0
  0
LINE
  5
10EE
330
1E
100
AcDbEntity
  8
0
100
AcDbLine
 10
72.178
 20
142.6659155
 30
0.0
 11
73.442
 21
142.9749155
 31
0.0
  0
LINE
  5
10EF
330
1E
100
AcDbEntity
  8
0
100
AcDbLine
 10
72.712
 20
143.5089155
 30
0.0
 11
72.712
 21
143.618210020548
 31
0.0
  0
LINE
  5
10F0
330
1E
100
AcDbEntity
  8
0
100
AcDbLine
 10
72.712
 20
143.5089155
 30
0.0
 11
73.442
 21
142.9749155
 31
0.0
  0
LINE
  5
10F1
330
1E
100
AcDbEntity
  8
0
100
AcDbLine
 10
72.712
 20
143.618210020548
 30
0.0
 11
72.712
 21
143.5089155
 31
0.0
  0
LINE
  5
10F2
330
1E
100
AcDbEntity
  8
0
100
AcDbLine
 10
71.448
 20
143.804754549394
 30
0.0
 11
71.448
 21
143.2009155
 31
0.0
  0
LINE
  5
10F3
330
1E
100
AcDbEntity
  8
0
100
AcDbLine
 10
72.178
 20
176.3689155
 30
0.0
 11
72.178
 21
177.061384092731
 31
0.0
  0
LINE
  5
10F4
330
1E
100
AcDbEntity
  8
0
100
AcDbLine
 10
72.178
 20
176.3689155
 30
0.0
 11
73.442
 21
176.0599155
 31
0.0
  0
LINE
  5
10F5
330
1E
100
AcDbEntity
  8
0
100
AcDbLine
 10
72.178
 20
177.061384092731
 30
0.0
 11
72.178
 21
176.3689155
 31
0.0
  0
LINE
  5
10F6
330
1E
100
AcDbEntity
  8
0
100
AcDbLine
 10
72.712
 20
175.5259155
 30
0.0
 11
73.442
 21
176.0599155
 31
0.0
  0
LINE
  5
10F7
330
1E
100
AcDbEntity
  8
0
100
AcDbLine
 10
71.448
 20
175.8339155
 30
0.0
 11
71.448
 21
176.708017829916
 31
0.0
  0
LINE
  5
10F8
330
1E
100
AcDbEntity
  8
0
100
AcDbLine
 10
71.448
 20
175.8339155
 30
0.0
 11
72.178
 21
176.3689155
 31
0.0
  0
LINE
  5
10F9
330
1E
100
AcDbEntity
  8
0
100
AcDbLine
 10
71.448
 20
175.8339155
 30
0.0
 11
72.712
 21
175.5259155
 31
0.0
  0
LINE
  5
10FA
330
1E
100
AcDbEntity
  8
0
100
AcDbLine
 10
71.448
 20
176.708017829916
 30
0.0
 11
71.448
 21
175.8339155
 31
0.0
  0
LINE
  5
10FB
330
1E
100
AcDbEntity
  8
0
100
AcDbLine
 10
70.64
 20
165.8849155
 30
0.0
 11
70.64
 21
166.5019155
 31
0.0
  0
LINE
  5
10FC
330
1E
100
AcDbEntity
  8
0
100
AcDbLine
 10
70.64
 20
166.5019155
 30
0.0
 11
70.64
 21
165.8849155
 31
0.0
  0
LINE
  5
10FD
330
1E
100
AcDbEntity
  8
0
100
AcDbLine
 10
70.64
 20
151.3379155
 30
0.0
 11
70.64
 21
152.220673598224
 31
0.0
  0
LINE
  5
10FE
330
1E
100
AcDbEntity
  8
0
100
AcDbLine
 10
70.64
 20
151.3379155
 30
0.0
 11
70.64
 21
150.7209155
 31
0.0
  0
LINE
  5
10FF
330
1E
100
AcDbEntity
  8
0
100
AcDbLine
 10
70.64
 20
152.220673598224
 30
0.0
 11
70.64
 21
151.3379155
 31
0.0
  0
LINE
  5
1100
330
1E
100
AcDbEntity
  8
0
100
AcDbLine
 10
70.64
 20
150.7209155
 30
0.0
 11
70.64
 21
151.3379155
 31
0.0
  0
LINE
  5
1101
330
1E
100
AcDbEntity
  8
0
100
AcDbLine
 10
71.448
 20
143.2009155
 30
0.0
 11
71.448
 21
143.804754549394
 31
0.0
  0
LINE
  5
1102
330
1E
100
AcDbEntity
  8
0
100
AcDbLine
 10
71.448
 20
143.2009155
 30
0.0
 11
72.178
 21
142.6659155
 31
0.0
  0
LINE
  5
1103
330
1E
100
AcDbEntity
  8
0
100
AcDbLine
 10
71.448
 20
143.2009155
 30
0.0
 11
72.712
 21
143.5089155
 31
0.0
  0
LINE
  5
1104
330
1E
100
AcDbEntity
  8
0
100
AcDbLine
 10
78.091
 20
9.2229155
 30
0.0
 11
78.387
 21
9.2229155
 31
0.0
  0
LINE
  5
1105
330
1E
100
AcDbEntity
  8
0
100
AcDbLine
 10
78.387
 20
9.2229155
 30
0.0
 11
82.708
 21
8.9982855
 31
0.0
  0
LINE
  5
1106
330
1E
100
AcDbEntity
  8
0
100
AcDbLine
 10
77.504
 20
9.2229155
 30
0.0
 11
78.091
 21
9.2229155
 31
0.0
  0
LINE
  5
1107
330
1E
100
AcDbEntity
  8
0
100
AcDbLine
 10
76.63
 20
9.2229155
 30
0.0
 11
77.504
 21
9.2229155
 31
0.0
  0
LINE
  5
1108
330
1E
100
AcDbEntity
  8
0
100
AcDbLine
 10
77.335
 20
9.2229155
 30
0.0
 11
78.006
 21
9.2229155
 31
0.0
  0
LINE
  5
1109
330
1E
100
AcDbEntity
  8
0
100
AcDbLine
 10
78.006
 20
9.2229155
 30
0.0
 11
78.27
 21
9.2229155
 31
0.0
  0
LINE
  5
110A
330
1E
100
AcDbEntity
  8
0
100
AcDbLine
 10
75.48
 20
9.2229155
 30
0.0
 11
76.63
 21
9.2229155
 31
0.0
  0
LINE
  5
110B
330
1E
100
AcDbEntity
  8
0
100
AcDbLine
 10
74.81
 20
9.2229155
 30
0.0
 11
76.264
 21
9.2229155
 31
0.0
  0
LINE
  5
110C
330
1E
100
AcDbEntity
  8
0
100
AcDbLine
 10
76.264
 20
9.2229155
 30
0.0
 11
77.335
 21
9.2229155
 31
0.0
  0
LINE
  5
110D
330
1E
100
AcDbEntity
  8
0
100
AcDbLine
 10
82.708
 20
8.9982855
 30
0.0
 11
83.446
 21
8.8287555
 31
0.0
  0
LINE
  5
110E
330
1E
100
AcDbEntity
  8
0
100
AcDbLine
 10
84.271
 20
8.1491755
 30
0.0
 11
84.552921649406
 21
7.1056955
 31
0.0
  0
LINE
  5
110F
330
1E
100
AcDbEntity
  8
0
100
AcDbLine
 10
83.446
 20
8.8287555
 30
0.0
 11
84.271
 21
8.1491755
 31
0.0
  0
LINE
  5
1110
330
1E
100
AcDbEntity
  8
0
100
AcDbLine
 10
70.143
 20
9.3498355
 30
0.0
 11
71.474
 21
9.2229155
 31
0.0
  0
LINE
  5
1111
330
1E
100
AcDbEntity
  8
0
100
AcDbLine
 10
74.065
 20
9.2229155
 30
0.0
 11
75.48
 21
9.2229155
 31
0.0
  0
LINE
  5
1112
330
1E
100
AcDbEntity
  8
0
100
AcDbLine
 10
72.993
 20
9.2229155
 30
0.0
 11
74.81
 21
9.2229155
 31
0.0
  0
LINE
  5
1113
330
1E
100
AcDbEntity
  8
0
100
AcDbLine
 10
72.399
 20
9.2229155
 30
0.0
 11
74.065
 21
9.2229155
 31
0.0
  0
LINE
  5
1114
330
1E
100
AcDbEntity
  8
0
100
AcDbLine
 10
70.841
 20
9.2229155
 30
0.0
 11
72.993
 21
9.2229155
 31
0.0
  0
LINE
  5
1115
330
1E
100
AcDbEntity
  8
0
100
AcDbLine
 10
70.5
 20
9.2229155
 30
0.0
 11
72.399
 21
9.2229155
 31
0.0
  0
ENDSEC
  0
SECTION
  2
OBJECTS
  0
DICTIONARY
  5
C
330
0
100
AcDbDictionary
281
     1
  3
ACAD_GROUP
350
D
  3
ACAD_LAYOUT
350
19
  3
ACAD_MLEADERSTYLE
350
1118
  3
ACAD_MLINESTYLE
350
16
  3
ACAD_PLOTSETTINGS
350
18
  3
ACAD_PLOTSTYLENAME
350
E
  3
ACAD_SCALELIST
350
700
  3
AcDbVariableDictionary
350
6FD
  3
DWGPROPS
350
111B
  0
DICTIONARY
  5
D
102
{ACAD_REACTORS
330
C
102
}
330
C
100
AcDbDictionary
281
     1
  0
DICTIONARY
  5
19
102
{ACAD_REACTORS
330
C
102
}
330
C
100
AcDbDictionary
281
     1
  3
Layout1
350
1D
  3
Model
350
21
  0
DICTIONARY
  5
1118
102
{ACAD_REACTORS
330
C
102
}
330
C
100
AcDbDictionary
281
     1
  0
DICTIONARY
  5
16
102
{ACAD_REACTORS
330
C
102
}
330
C
100
AcDbDictionary
281
     1
  3
Standard
350
17
  0
DICTIONARY
  5
18
102
{ACAD_REACTORS
330
C
102
}
330
C
100
AcDbDictionary
281
     1
  0
ACDBDICTIONARYWDFLT
  5
E
102
{ACAD_REACTORS
330
C
102
}
330
C
100
AcDbDictionary
281
     1
  3
Normal
350
F
100
AcDbDictionaryWithDefault
340
F
  0
DICTIONARY
  5
700
102
{ACAD_REACTORS
330
C
102
}
330
C
100
AcDbDictionary
281
     1
  3
A0
350
701
  3
A1
350
702
  3
A2
350
703
  3
A3
350
704
  3
A4
350
705
  3
A5
350
706
  3
A6
350
707
  3
A7
350
708
  3
A8
350
709
  3
A9
350
70A
  3
B0
350
70B
  3
B1
350
70C
  3
B2
350
70D
  3
B3
350
70E
  3
B4
350
70F
  3
B5
350
710
  3
B6
350
711
  3
B7
350
712
  3
B8
350
713
  3
B9
350
714
  3
C0
350
715
  3
C1
350
716
  3
C2
350
717
  3
C3
350
718
  3
C4
350
719
  3
C5
350
71A
  3
C6
350
71B
  3
C7
350
71C
  3
C8
350
71D
  3
C9
350
71E
  3
D0
350
71F
  3
D1
350
720
  3
D2
350
721
  0
DICTIONARY
  5
6FD
102
{ACAD_REACTORS
330
C
102
}
330
C
100
AcDbDictionary
281
     1
  3
CANNOSCALE
350
1119
  3
DIMASSOC
350
6FE
  0
XRECORD
  5
111B
102
{ACAD_REACTORS
330
C
102
}
330
C
100
AcDbXrecord
280
     1
  1
DWGPROPS COOKIE
  2

  3

  4

  6

  7

  8
MARTIN
  9

300
=
301
=
302
=
303
=
304
=
305
=
306
=
307
=
308
=
309
=
 40
0.0
 41
2454691.61073441
 42
2456209.640537824
  1

 90
        0
  0
LAYOUT
  5
1D
102
{ACAD_REACTORS
330
19
102
}
330
19
100
AcDbPlotSettings
  1

  2
hp deskjet 980c series
  4

  6

 40
0.0
 41
0.0
 42
0.0
 43
0.0
 44
0.0
 45
0.0
 46
0.0
 47
0.0
 48
0.0
 49
0.0
140
0.0
141
0.0
142
1.0
143
1.0
 70
   688
 72
     0
 73
     0
 74
     5
  7

 75
    16
147
1.0
148
0.0
149
0.0
100
AcDbLayout
  1
Layout1
 70
     1
 71
     1
 10
0.0
 20
0.0
 11
12.0
 21
9.0
 12
0.0
 22
0.0
 32
0.0
 14
1.000000000000E+20
 24
1.000000000000E+20
 34
1.000000000000E+20
 15
-1.000000000000E+20
 25
-1.000000000000E+20
 35
-1.000000000000E+20
146
0.0
 13
0.0
 23
0.0
 33
0.0
 16
1.0
 26
0.0
 36
0.0
 17
0.0
 27
1.0
 37
0.0
 76
     0
330
1A
  0
LAYOUT
  5
21
102
{ACAD_REACTORS
330
19
102
}
330
19
100
AcDbPlotSettings
  1

  2
hp deskjet 980c series
  4

  6

 40
0.0
 41
0.0
 42
0.0
 43
0.0
 44
0.0
 45
0.0
 46
0.0
 47
0.0
 48
0.0
 49
0.0
140
0.0
141
0.0
142
1.0
143
1.0
 70
  1712
 72
     0
 73
     0
 74
     0
  7

 75
     0
147
1.0
148
0.0
149
0.0
100
AcDbLayout
  1
Model
 70
     1
 71
     0
 10
0.0
 20
0.0
 11
12.0
 21
9.0
 12
0.0
 22
0.0
 32
0.0
 14
0.0
 24
0.0
 34
0.0
 15
415.0
 25
202.0909155
 35
0.0
146
0.0
 13
0.0
 23
0.0
 33
0.0
 16
1.0
 26
0.0
 36
0.0
 17
0.0
 27
1.0
 37
0.0
 76
     0
330
1E
331
6FF
  0
MLINESTYLE
  5
17
102
{ACAD_REACTORS
330
16
102
}
330
16
100
AcDbMlineStyle
  2
STANDARD
 70
     0
  3

 62
   256
 51
90.0
 52
90.0
 71
     2
 49
0.5
 62
   256
  6
BYLAYER
 49
-0.5
 62
   256
  6
BYLAYER
  0
ACDBPLACEHOLDER
  5
F
102
{ACAD_REACTORS
330
E
102
}
330
E
  0
SCALE
  5
701
102
{ACAD_REACTORS
330
700
102
}
330
700
100
AcDbScale
 70
     0
300
1:1
140
1.0
141
1.0
290
     1
  0
SCALE
  5
702
102
{ACAD_REACTORS
330
700
102
}
330
700
100
AcDbScale
 70
     0
300
1:2
140
1.0
141
2.0
290
     0
  0
SCALE
  5
703
102
{ACAD_REACTORS
330
700
102
}
330
700
100
AcDbScale
 70
     0
300
1:4
140
1.0
141
4.0
290
     0
  0
SCALE
  5
704
102
{ACAD_REACTORS
330
700
102
}
330
700
100
AcDbScale
 70
     0
300
1:5
140
1.0
141
5.0
290
     0
  0
SCALE
  5
705
102
{ACAD_REACTORS
330
700
102
}
330
700
100
AcDbScale
 70
     0
300
1:8
140
1.0
141
8.0
290
     0
  0
SCALE
  5
706
102
{ACAD_REACTORS
330
700
102
}
330
700
100
AcDbScale
 70
     0
300
1:10
140
1.0
141
10.0
290
     0
  0
SCALE
  5
707
102
{ACAD_REACTORS
330
700
102
}
330
700
100
AcDbScale
 70
     0
300
1:16
140
1.0
141
16.0
290
     0
  0
SCALE
  5
708
102
{ACAD_REACTORS
330
700
102
}
330
700
100
AcDbScale
 70
     0
300
1:20
140
1.0
141
20.0
290
     0
  0
SCALE
  5
709
102
{ACAD_REACTORS
330
700
102
}
330
700
100
AcDbScale
 70
     0
300
1:30
140
1.0
141
30.0
290
     0
  0
SCALE
  5
70A
102
{ACAD_REACTORS
330
700
102
}
330
700
100
AcDbScale
 70
     0
300
1:40
140
1.0
141
40.0
290
     0
  0
SCALE
  5
70B
102
{ACAD_REACTORS
330
700
102
}
330
700
100
AcDbScale
 70
     0
300
1:50
140
1.0
141
50.0
290
     0
  0
SCALE
  5
70C
102
{ACAD_REACTORS
330
700
102
}
330
700
100
AcDbScale
 70
     0
300
1:100
140
1.0
141
100.0
290
     0
  0
SCALE
  5
70D
102
{ACAD_REACTORS
330
700
102
}
330
700
100
AcDbScale
 70
     0
300
2:1
140
2.0
141
1.0
290
     0
  0
SCALE
  5
70E
102
{ACAD_REACTORS
330
700
102
}
330
700
100
AcDbScale
 70
     0
300
4:1
140
4.0
141
1.0
290
     0
  0
SCALE
  5
70F
102
{ACAD_REACTORS
330
700
102
}
330
700
100
AcDbScale
 70
     0
300
8:1
140
8.0
141
1.0
290
     0
  0
SCALE
  5
710
102
{ACAD_REACTORS
330
700
102
}
330
700
100
AcDbScale
 70
     0
300
10:1
140
10.0
141
1.0
290
     0
  0
SCALE
  5
711
102
{ACAD_REACTORS
330
700
102
}
330
700
100
AcDbScale
 70
     0
300
100:1
140
100.0
141
1.0
290
     0
  0
SCALE
  5
712
102
{ACAD_REACTORS
330
700
102
}
330
700
100
AcDbScale
 70
     0
300
1/128" = 1'-0"
140
0.0078125
141
12.0
290
     0
  0
SCALE
  5
713
102
{ACAD_REACTORS
330
700
102
}
330
700
100
AcDbScale
 70
     0
300
1/64" = 1'-0"
140
0.015625
141
12.0
290
     0
  0
SCALE
  5
714
102
{ACAD_REACTORS
330
700
102
}
330
700
100
AcDbScale
 70
     0
300
1/32" = 1'-0"
140
0.03125
141
12.0
290
     0
  0
SCALE
  5
715
102
{ACAD_REACTORS
330
700
102
}
330
700
100
AcDbScale
 70
     0
300
1/16" = 1'-0"
140
0.0625
141
12.0
290
     0
  0
SCALE
  5
716
102
{ACAD_REACTORS
330
700
102
}
330
700
100
AcDbScale
 70
     0
300
3/32" = 1'-0"
140
0.09375
141
12.0
290
     0
  0
SCALE
  5
717
102
{ACAD_REACTORS
330
700
102
}
330
700
100
AcDbScale
 70
     0
300
1/8" = 1'-0"
140
0.125
141
12.0
290
     0
  0
SCALE
  5
718
102
{ACAD_REACTORS
330
700
102
}
330
700
100
AcDbScale
 70
     0
300
3/16" = 1'-0"
140
0.1875
141
12.0
290
     0
  0
SCALE
  5
719
102
{ACAD_REACTORS
330
700
102
}
330
700
100
AcDbScale
 70
     0
300
1/4" = 1'-0"
140
0.25
141
12.0
290
     0
  0
SCALE
  5
71A
102
{ACAD_REACTORS
330
700
102
}
330
700
100
AcDbScale
 70
     0
300
3/8" = 1'-0"
140
0.375
141
12.0
290
     0
  0
SCALE
  5
71B
102
{ACAD_REACTORS
330
700
102
}
330
700
100
AcDbScale
 70
     0
300
1/2" = 1'-0"
140
0.5
141
12.0
290
     0
  0
SCALE
  5
71C
102
{ACAD_REACTORS
330
700
102
}
330
700
100
AcDbScale
 70
     0
300
3/4" = 1'-0"
140
0.75
141
12.0
290
     0
  0
SCALE
  5
71D
102
{ACAD_REACTORS
330
700
102
}
330
700
100
AcDbScale
 70
     0
300
1" = 1'-0"
140
1.0
141
12.0
290
     0
  0
SCALE
  5
71E
102
{ACAD_REACTORS
330
700
102
}
330
700
100
AcDbScale
 70
     0
300
1-1/2" = 1'-0"
140
1.5
141
12.0
290
     0
  0
SCALE
  5
71F
102
{ACAD_REACTORS
330
700
102
}
330
700
100
AcDbScale
 70
     0
300
3" = 1'-0"
140
3.0
141
12.0
290
     0
  0
SCALE
  5
720
102
{ACAD_REACTORS
330
700
102
}
330
700
100
AcDbScale
 70
     0
300
6" = 1'-0"
140
6.0
141
12.0
290
     0
  0
SCALE
  5
721
102
{ACAD_REACTORS
330
700
102
}
330
700
100
AcDbScale
 70
     0
300
1'-0" = 1'-0"
140
12.0
141
12.0
290
     0
  0
DICTIONARYVAR
  5
1119
102
{ACAD_REACTORS
330
6FD
102
}
330
6FD
100
DictionaryVariables
280
     0
  1
1:1
  0
DICTIONARYVAR
  5
6FE
102
{ACAD_REACTORS
330
6FD
102
}
330
6FD
100
DictionaryVariables
280
     0
  1
1
  0
ENDSEC
  0
SECTION
  2
THUMBNAILIMAGE
 90
    16364
310
28000000B40000005500000001000800000000000000000000000000000000000000000000000000FFFFFF000000FF0000FFFF0000FF0000FFFF0000FF000000FF00FF000000000080808000C0C0C0000000FF007F7FFF000000A5005252A50000007F003F3F7F0000004C0026264C000000260013132600003FFF007F9FFF
310
000029A5005267A500001F7F003F4F7F0000134C00262F4C000009260013172600007FFF007FBFFF000052A500527CA500003F7F003F5F7F0000264C0026394C0000132600131C260000BFFF007FDFFF00007CA5005291A500005F7F003F6F7F0000394C0026424C00001C26001321260000FFFF007FFFFF0000A5A50052A5
310
A500007F7F003F7F7F00004C4C00264C4C00002626001326260000FFBF007FFFDF0000A57C0052A59100007F5F003F7F6F00004C3900264C420000261C001326210000FF7F007FFFBF0000A5520052A57C00007F3F003F7F5F00004C2600264C39000026130013261C0000FF3F007FFF9F0000A5290052A56700007F1F003F
310
7F4F00004C1300264C2F00002609001326170000FF00007FFF7F0000A5000052A55200007F00003F7F3F00004C0000264C260000260000132613003FFF00009FFF7F0029A5000067A552001F7F00004F7F3F00134C00002F4C260009260000172613007FFF0000BFFF7F0052A500007CA552003F7F00005F7F3F00264C0000
310
394C2600132600001C261300BFFF0000DFFF7F007CA5000091A552005F7F00006F7F3F00394C0000424C26001C26000021261300FFFF0000FFFF7F00A5A50000A5A552007F7F00007F7F3F004C4C00004C4C26002626000026261300FFBF0000FFDF7F00A57C0000A59152007F5F00007F6F3F004C3900004C422600261C00
310
0026211300FF7F0000FFBF7F00A5520000A57C52007F3F00007F5F3F004C2600004C39260026130000261C1300FF3F0000FF9F7F00A5290000A56752007F1F00007F4F3F004C1300004C2F26002609000026171300FF000000FF7F7F00A5000000A55252007F0000007F3F3F004C0000004C2626002600000026131300FF00
310
3F00FF7F9F00A5002900A55267007F001F007F3F4F004C0013004C262F002600090026131700FF007F00FF7FBF00A5005200A5527C007F003F007F3F5F004C0026004C2639002600130026131C00FF00BF00FF7FDF00A5007C00A55291007F005F007F3F6F004C0039004C26420026001C0026132100FF00FF00FF7FFF00A5
310
00A500A552A5007F007F007F3F7F004C004C004C264C002600260026132600BF00FF00DF7FFF007C00A5009152A5005F007F006F3F7F0039004C0042264C001C002600211326007F00FF00BF7FFF005200A5007C52A5003F007F005F3F7F0026004C0039264C00130026001C1326003F00FF009F7FFF002900A5006752A500
310
1F007F004F3F7F0013004C002F264C000900260017132600000000002D2D2D005B5B5B0089898900B7B7B700B3B3B30000000000000000000000000000000000000000000000000000000000000000000000000000000000000000000000000000000000000000000000000000000000000000000000000000000000000000
310
00000000000000000000000000000000000000000000000000000000000000000000000000000000000000000000000000000000000000000000000000000000000000000000000000000000000000000000000000000000000000000000000000000000000000000000000000000000000000000000000000000000000000
310
00000000000000000000000000000000000000000000000000000000000000000000000000000000000000000000000000000000000000000000000000000000000000000000000000000000000000000000000000000000000000000000000000000000000000000000000000000000000000000000000000000000000000
310
00000000000000000000000000000000000000000000000000000000000000000000000000000000000000000000000000000000000000000000000000000000000000000000000000000000000000000000000000000000000000000000000000000000000000000000000000000000000000000000000000000000000000
310
00000000000000000000000000000000000000000000000000000000000000000000000000000000000000000000000000000000000000000000000000000000000000000000000000000000000000000000000000000000000000000000000007070707070707070707070707070707070707070707070707070700000000
310
00000000000000000000000707070707070707070707070707070707070707070707070707070700000000000000000000000000000007070707070707070707070707070707070707070707070707070700000000000000000000000000000007070707070707070707070707070707070707070707070707070707000000
310
00000000000000000000000000000000000000000000070000000000000000000000000000000000000000000000000000070000000000000000000000000000070000000000000000000000000000000000000000000000000000070000000000000000000000000000000700000000000000000000000000000000000000
310
00000000000007000000000000000000000000000000070000000000000000000000000000000000000000000000000000070000000000000000000000000000000000000000000000000007000000000000000000000000000000000000000000000000000007000000000000000000000000000007070707070707070707
310
07070707070707070707070707070707070700000000000000000000000000000007070707070707070707070707070707070707070707070707070700000000000000000000000000000007070707070707070707070707070707070707070707070707070707000000000000000000000000000000000000000000000000
310
00070707070707070707070707070707070707070707070707070707070000000000000000000000000000000707070707070707070707070707070707070707070707070707070000000000000000000000000000000707070707070707070707070707070707070707070707070707070000000000000000000000000000
310
00070707070707070707070707070707070707070707070707070707000000000000000000000000000000000000000000000000000000000000000000070000000000000000000000000700000000000000000000000000000000000000000000000007000000000000000000000000000000000000000007000000000000
310
00000000000000000000000000000007000000000000000000000000000000000000000700000000000000000000000000000000000000070000000000000000000000000000000000000000000000000700000000000000000000000000000000000000000000000000000000000000000007000000000000000000000000
310
07000000000000000000000000000000000000000000000000070000000000000000000000000000000000000000070000000000000000000000000000000000000000000700000000000000000000000000000000000000070000000000000000000000000000000000000007000000000000000000000000000000000000
310
00000000000007000000000000000000000000000000000000000000000000000000000000000000070000000000000000000000000700000000000000000000000000000000000000000000000007000000000000000000000000000000000000000007000000000000000000000000000000000000000000070000000000
310
00000000000000000000000000000700000000000000000000000000000000000000070000000000000000000000000000000000000000000000000700000000000000000000000000000000000000000000000000000000000000000007000000000000000000000000070000000000000000000000000000000000000000
310
00000000070000000000000000000000000000000000000000070000000000000000000000000000000000000000000700000000000000000000000000000000000000070000000000000000000000000000000000000007000000000000000000000000000000000000000000000000070000000000000000000000000000
310
00000000000000000000000000000000000000070000000000000000000000000700000000000000000000000000000000000000000000000007000000000000000000000000000000000000000007000000000000000000000000000000000000000000070000000000000000000000000000000000000007000000000000
310
00000000000000000000000000070000000000000000000000000000000000000000000000000700000000000000000000000000000000000000000000000000000000000000000007000000000000000000000000070000000000000000000000000000000000000000000000000700000000000000000000000000000000
310
00000000070000000000000000000000000000000000000000000700000000000000000000000000000000000000070000000000000000000000000000000000000007000000000000000000000000000000000000000000000000070000000000000000000000000000000000000000000000000000000000000000000700
310
00000000000000000000000700000000000000000000000000000000000000000000000007000000000000000000000000000000000000000007000000000000000000000000000000000000000000070000000000000000000000000000000000000007000000000000000000000000000000000000000700000000000000
310
00000000000000000000000000000000000700000000000000000000000000000000000000000000000000000000000000000007000000000000000000000000070000000000000000000000000000000000000000000000000700000000000000000000000000000000000000000700000000000000000000000000000000
310
00000000000700000000000000000000000000000000000000070000000000000000000000000000000000000007000000000000000000000000000000000000000000000000070000000000000000000000000000000000000000000000000000000000000000000700000000000000000000000007000000000000000000
310
00000000000000000000000000000007000000000000000000000000000000000000000007000000000000000000000000000000000000000000070000000000000000000000000000000000000007000000000000000000000000000000000000000700000000000000000000000000000000000000000000000007000000
310
00000000000000000000000000000000000000000000000000000000000007000000070707070707000000070000000000000000000000000000000000000000000000000700000000000000000000000000000000000000000700000000000000000000000000000000000000000007000000000000000000000000000000
310
00000000070000000000000000000000000000000000000007000000000000000000000000000000000000000000000000070000000000000000000000000000000000000000000000000000000000000000000700070700000000070707070007000000000000000000000000000000000000000000000000070000000000
310
00000000000000000000000000000007000000000000000000000000000000000000000000070000000000000000000000000000000000000007000000000000000000000000000000000000000700000000000000000000000000000000000000000000000007000000000000000000000000000000000000000000000000
310
00000000000000000007070000000000000000000707070000000000000000000000000000000000000000000000000700000000000000000000000000000000000000000700000000000000000000000000000000000000000007000000000000000000000000000000000000000700000000000000000000000000000000
310
00000007000000000000000000000000000000000000000000000000070000000000000000000000000000000000000000000000000000000000000000000707000000000000000000000707000000000000000000000000000000000000000000000000070000000000000000000000000000000000000000070000000000
310
00000000000000000000000000000000070000000000000000000000000000000000000007000000000000000000000000000000000000000700000000000000000000000000000000000000000000000700000000000000000000000000000000000000000000000000000000000000000000070000000000000000000000
310
00070000000000000000000000000000000000000000000000000700000000000000000000000000000000000000000700000000000000000000000000000000000000000007000000000000000000000000000000000000000700000000000000000000000000000000000000070000000000000000000000000000000000
310
00000000000007000000000000000000000000000000000000000000000000000000000000000000000700000000000000000000000007000000000000000000000000000000000000000000000000070000000000000000000000000000000000000000070000000000000000000000000000000000000000000700000000
310
00000000000000000000000000000007000000000000000000000000000000000000000700000000000000000000000000000000000000000000000700000000000000000000000000000000000000000000000000000000000000000000070000070707070707070700000700000000000000000000000000000000000000
310
00000007070700000000000000000007070000000000000000000707070000000000000000000000000000000000070707000000000000000007070700000000000000000707070000000000000000000000000000000000070000000000000000000000000000000000000000000000070000000000000000000000000000
310
00000000000000000000000000000000000000000700070700070707070000070007000000000000000000000000000000000000000000000707070000000000000000000707000000000000000000070707000000000000000000000000000000000007070700000000000000000707070000000000000000070707000000
310
00000000000000000000000000000700000000000000000000000000000000000000000000000700000000000000000000000000000000000000000000000000000000000000000000070700070700000000070700070700000000000000000000000000000000000000000000000007000000000000000000000000000000
310
00000000000700000000000000000000000000000000000000000007000000000000000000000000000000000000000700000000000000000000000000000000000000000700000000000000000000000000000000000000000000070000000000000000000000000000000000000000000000000000000000000000000007
310
07070000000000000007070700000000000000000000000000000000000000000000000000070000000000000000000000000000000000000000070000000000000000000000000000000000000000000700000000000000000000000000000000000000070000000000000000000000000000000000000000070000000000
310
00000000000000000000000000000000000700000000000000000000000000000000000000000000000000000000000000000000070007000000000000000007000700000000000000000000000000000000000000000000000007000000000000000000000000000000000000000007000000000000000000000000000000
310
00000000000007000000000000000000000000000000000000000700000000000000000000000000000000000000000700000000000000000000000000000000000000000000070000000000000000000000000000000000000000000000000000000000000000000007070700000000000000000707000000000000000000
310
00000000000000000000000000000000070000000000000000000000000000000000000000070000000000000000000000000000000000000000000700000000000000000000000000000000000000070000000000000000000000000000000000000000070000000000000000070707070700000000000000000007000000
310
00000000000000000000000000000000000000000000000000000000000000000707000000000000000007070000000000000000000000000000000000000000000000000007070707070707070707070707070707070707070707000000000000000000000000000000000000000000070707070707070707070707070707
310
07070707070700000000000000000000000000000000000000000700000000000000070000000000070700000000000000070000000000000000000000000000000000000000000000000000000000000000000000000700000000000000000700000000000000000000000000000000000000000000000000000000000000
310
00000000000000000000000000000000000000000000000000000000000000000000000000000000000000000000000000000000000000000000000000000000000000000000000000000000000000070000000000070700000000000000000707000000000007000000000000000000000000000000000000000000000000
310
00000000000000000000000007000000000000000007000000000000000000000000000000000000000000000000000000000000000000000000000000000000000000000000000000000000000000000000000000000000000000000000000000000000000000000000000000000000000000000000000000000000000000
310
00000000000700000000000700000707070707070007070000000000070000000000000000000000000000000000000000000000000000000000000000000000000700000000000000000700000000000000000000000000000000000000000000000000000000000000000000000000000000000000000000000000000000
310
00000000000000000000000000000000000000000000000000000000000000000000000000000000000000000000000000000000000000000000070000000000070707070707070707070007000000000700000000000000000000000000000000000000000000000000000000000000000000000000070000000000000000
310
07000000000000000000000000000000000000000000000000000000000000000000000000000000000000000000000000000000000000000000000000000000000000000000000000000000000000000000000000000000000000000000000000000000000000000000000000000007000000000007000000000000000000
310
00070000000007000000000000000000000000000000000000000000000000000000000000000000000000000700000000000000000700000000000000000000000000000000000000000000000000000000000000000000000000000000000000000000000000000000000000000000000000000000000000000000000000
310
00000000000000000000000000000000000000000000000000000000000000000000000000070000000000070000000000000000000707000000000700000000000000000000000000000000000000000000000000000000000000000000000000070000000000000000070000000000000000000000000000000000000000
310
00000000000000000000000000000000000000000000000000000000000000000000000000000000000000000000000000000000000000000000000000000000000000000000000000000000000000000000000000000000000007000000000007070700000000000007000700000000070000000000000000000000000000
310
00000000000000000000000000000000000000000000000700000000000000000700000000000000000000000000000000000000000000000000000000000000000000000000000000000000000000000000000000000000000000000000000000000000000000000000000000000000000000000000000000000000000000
310
00000000000000000000000000000000000700000000070000070707070707000007000000000700000000000000000000000000000000000000000000000000000000000000000000000000070000000000000000070000000000000000000000000000000000000000000000000000000000000000000000000000000000
310
00000000000000000000000000000000000000000000000000000000000000000000000000000000000000000000000000000000000000000000000000000000000000000000070000000007000000000000000000000700000000070000000000000000000000000000000000000000000000000000000000000000000000
310
00000700000000000000000700000000000000000000000000000000000000000000000000000000000000000000000000000000000000000000000000000000000000000000000000000000000000000000000000000000000000000000000000000000000000000000000000000000000000000000000000000007000000
310
00070000000000000000000007000000000700000000000000000000000000000000000000000000000000000000000000000000000000070000000000000000070000000000000000000000000000000000000000000000000000000000000000000000000000000000000000000000000000000000000000000000000000
310
00000000000000000000000000000000000000000000000000000000000000000000000000000000000000000000000000070000000007000000000000000000000700000007000000000000000000000000000000000000000000000000000000000000000000000000000007000000000000000007000000000000000000
310
00000000000000000000000000000000000000000000000000000000000000000000000000000000000000000000000000000000000000000000000000000000000000000000000000000000000000000000000000000000000000000000000000000000000007000000000700000000000000000000070000000700000000
310
00000000000000000000000000000000000000000000000000000000000000000000070000000000000000070000000000000000000000000000000000000000000000000000000000000000000000000000000000000000000000000000000000000000000000000000000000000000000000000000000000000000000000
310
00000000000000000000000000000000000000000000000000000000070000000007000000000000000000000700000007000000000000000000000000000000000000000000000000000000000000000000000000000007000000000000000007000000000000000000000000000000000000000000000000000000000000
310
00000000000000000000000000000000000000000000000000000000000000000000000000000000000000000000000000000000000000000000000000000000000000000000000000000000000000000007000000000700000000000000000000070000000700000000000000000000000000000000000000000000000000
310
00000000000000000000000000070000000000000000070000000000000000000000000000000000000000000000000000000000000000000000000000000000000000000000000000000000000000000000000000000000000000000000000000000000000000000000000000000000000000000000000000000000000000
310
00000000000000000700000007000000000000000000000700000007000000000000000000000000000000000000000000000000000000000000000000000000000007000000000000000007000000000000000000000000000000000000000000000000000000000000000000000000000000000000000000000000000000
310
00000000000000000000000000000000000000000000000000000000000000000000000000000000000000000000000000000000000000000000000000070000000700000000000000000000070000000700000000000000000000000000000000000000000000000000000000000000000000000000000700000000000000
310
00070000000000000000000000000000000000000000000000000000000000000000000000000000000000000000000000000000000000000000000000000000000000000000000000000000000000000000000000000000000000000000000000000000000000000000000000000000000007000000070000000000000000
310
00000700000700000000000000000000000000000000000000000000000000000000000000000000000000000007000000000000000007000000000000000000000000000000000000000000000000000000000000000000000000000000000000000000000000000000000000000000000000000000000000000000000000
310
00000000000000000000000000000000000000000000000000000000000000000000000000000000070000000700000000000000000000070000070000000000000000000000000000000000000000000000000000000000000000000000000000000700000000000000000700000000000000000000000000000000000000
310
00000000000000000000000000000000000000000000000000000000000000000000000000000000000000000000000000000000000000000000000000000000000000000000000000000000000000000000000000000000000000000007000000070000000000000000000007000007000000000000000000000000000000
310
00000000000000000000000000000000000000000000000007000000000000000007000000000000000000000000000000000000000000000000000000000000000000000000000000000000000000000000000000000000000000000000000000000000000000000000000000000000000000000000000000000000000000
310
00000000000000000000000000000000000000000700070000000000000000000000070000070000000000000000000000000000000000000000000000000000000000000000000000000000000700000000000000000700000000000000000000000000000000000000000000000000000000000000000000000000000000
310
00000000000000000000000000000000000000000000000000000000000000000000000000000000000000000000000000000000000000000000000000000000000000000000000000070007000000000000000000000007000700000000000000000000000000000000000000000000000000000000000000000000000000
310
00000007000007070707000007000000000000000000000000000000000000000000000000000000000000000000000000000000000000000000000000000000000000000000000000000000000000000000000000000000000000000000000000000000000000000000000000000000000000000000000000000000000007
310
00000000000000000000000000070007000000000000000000000000000000000000000000000000000000000000000000000000000000000700070000000007000700000000000000000000000000000000000000000000000000000000000000000000000000000000000000000000000000000000000000000000000000
310
00000000000000000000000000000000000000000000000000000000000000000000000000000000000000000000000000000000070000000000000000000000000000000700000000000000000000000000000000000000000000000000000000000000000000000000000000070700070707070007070000000000000000
310
00000000000000000000000000000000000000000000000000000000000000000000000000000000000000000000000000000000000000000000000000000000000000000000000000000000000000000000000000000000000000000000000000000000000000000000070000000000000000000000000000070000000000
310
00000000000000000000000000000000000000000000000000000000000000000000000700070000000007070700000000000000000000000000000000000000000000000000000000000000000000000000000000000000000000000000000000000000000000000000000000000000000000000000000000000000000000
310
00000000000000000000000000000000000000000000000000000000000000000700000000000000000000000000070000000000000000000000000000000000000000000000000000000000000000000000000000000000070700000000000007070000000000000000000000000000000000000000000000000000000000
310
00000000000000000000000000000000000000000000000000000000000000000000000000000000000000000000000000000000000000000000000000000000000000000000000000000000000000000000000000000700000000000000000000000700000000000000000000000000000000000000000000000000000000
310
00000000000000000000000000000707000000000000070700000000000000000000000000000000000000000000000000000000000000000000000000000000000000000000000000000000000000000000000000000000000000000000000000000000000000000000000000000000000000000000000000000000000000
310
00000000000000000000000000070000000000000000000700000000000000000000000000000000000000000000000000000000000000000000000000000000000000070700000707000007070000000000000000000000000000000000000000000000000000000000000000000000000000000000000000000000000000
310
00000000000000000000000000000000000000000000000000000000000000000000000000000000000000000000000000000000000000000000000000000000000000070700000000000007000000000000000000000000000000000000000000000000000000000000000000000000000000000000000007070707070707
310
07070000000000000000000000000000000000000000000000000000000000000000000000000000000000000000000000000000000000000000000000000000000000000000000000000000000000000000000000000000000000000000000000000000000000000000000000000000000000000000000000000707070707
310
07000000000000000000000000000000000000000000000000000000000000000000000000000000000707070707070707070707070707070707070707000000000000000000000000000000000000000000000000000000000000000000000000000000000000000000000000000000000000000000000000000000000000
310
00000000000000000000000000000000000000000000000000000000000000000000000000000000000000000000000000000000000000000000000000000000000000000000000000000000000000000000000000000000000000000707070707070707070007070700000700000007070707070000000000000000000000
310
00000000000000000000000000000000000000000000000000000000000000000000000000000000000000000000000000000000000000000000000000000000000000000000000000000000000000000000000000000000000000000000000000000000000000000000000000000000000000000000000000000000000000
310
00000000000000000000000000000707070707070700070700000707000000070007000007070007070707070700000000000000000000000000000000000000000000000000000000000000000000000000000000000000000000000000000000000000000000000000000000000000000000000000000000000000000000
310
00000000000000000000000000000000000000000000000000000000000000000000000000000000000000000000000000000000000000000000000000000000000007000707000000070000000707000700070007000007070000000700000007070707000000000000000000000000000000000000000000000000000000
310
00000000000000000000000000000000000000000000000000000000000000000000000000000000000000000000000000000000000000000000000000000000000000000000000000000000000000000000000000000000000000000000000000000000000000000000000000000000000000000000070707000000070000
310
00070000070700000700000007000000070000000700000007070700000000000000000000000000000000000000000000000000000000000000000000000000000000000000000000000000000000000000000000000000000000000000000000000000000000000000000000000000000000000000000000000000000000
310
00000000000000000000000000000000000000000000000000000000000000000000000000000000000000070707000007000007070000070707070700070700070707070700000700000707000007070700000000000000000000000000000000000000000000000000000000000000000000000000000000000000000000
310
00000000000000000000000000000000000000000000000000000000000000000000000000000000000000000000000000000000000000000000000000000000000000000000000000000000000000000000000000000000000000000000000007070000000700000707000707000707070700000707070700070700070000
310
07070000000707000000000000000000000000000000000000000000000000000000000000000000000000000000000000000000000000000000000000000000000000000000000000000000000000000000000000000000000000000000000000000000000000000000000000000000000000000000000000000000000000
310
00000000000000000000000000000000000000000007070700000707000007000007070000000707070707070000000707000007000007070007070700000000000000000000000000000000000000000000000000000000000000000000000000000000000000000000000000000000000000000000000000000000000000
310
00000000000000000000000000000000000000000000000000000000000000000000000000000000000000000000000000000000000000000000000000000000000000000000000000000707070700000700000707000007070000000707070000000007070000070000070700000707070700000000000000000000000000
310
00000000000000000000000000000000000000000000000000000000000000000000000000000000000000000000000000000000000000000000000000000000000000000000000000000000000000000000000000000000000000000000000000000000000000000000000000000000000000000000000000000000000000
310
07070707000007000007070007000007070000070000000700000007000700000007000007070707000000000000000000000000000000000000000000000000000000000000000000000000000000000000000000000000000000000000000000000000000000000000000000000000000000000000000000000000000000
310
00000000000000000000000000000000000000000000000000000000000000000000000000000000000000000000000000000000000707070707000000070000000700070707000007000000070707000700000007000000070707070700000000000000000000000000000000000000000000000000000000000000000000
310
00000000000000000000000000000000000000000000000000000000000000000000000000000000000000000000000000000000000000000000000000000000000000000000000000000000000000000000000000000000000000000000000000000000000000000000070007070700070007000700000007070007000000
310
07000007070000000700070007000707070007000000000000000000000000000000000000000000000000000000000000000000000000000000000000000000000000000000000000000000000000000000000000000000000000000000000000000000000000000000000000000000000000000000000000000000000000
310
00000000000000000000000000000000000000000000000000000000000000000700000707070700070700000707000707000007000000070000070700000707000707070700000700000000000000000000000000000000000000000000000000000000000000000000000000000000000000000000000000000000000000
310
00000000000000000000000000000000000000000000000000000000000000000000000000000000000000000000000000000000000000000000000000000000000000000000000000000000000000000000000000070000000707070707070707000000070700070700000007000000000700070707070707000000070000
310
00000000000000000000000000000000000000000000000000000000000000000000000000000000000000000000000000000000000000000000000000000000000000000000000000000000000000000000000000000000000000000000000000000000000000000000000000000000000000000000000000000000000000
310
00000000000000000000000700000000000007070707070707070000070000070700000707070707070707070000000000000700000000000000000000000000000000000000000000000000000000000000000000000000000000000000000000000000000000000000000000000000000000000000000000000000000000
310
00000000000000000000000000000000000000000000000000000000000000000000000000000000000000000000000000000000000000000000000000000000070000000000000000070707070707070707070707070707070707070707070000000000000000070000000000000000000000000000000000000000000000
310
00000000000000000000000000000000000000000000000000000000000000000000000000000000000000000000000000000000000000000000000000000000000000000000000000000000000000000000000000000000000000000000000000000000000000000000000000000000000000000007000000000000000000
310
00000000000007070707070707070000000000000000000000000000070000000000000000000000000000000000000000000000000000000000000000000000000000000000000000000000000000000000000000000000000000000000000000000000000000000000000000000000000000000000000000000000000000
310
00000000000000000000000000000000000000000000000000000000000000000000000000000000000000000700000000000000000000000000000000000000000000000000000000000000000000000007000000000000000000000000000000000000000000000000000000000000000000000000000000000000000000
310
00000000000000000000000000000000000000000000000000000000000000000000000000000000000000000000000000000000000000000000000000000000000000000000000000000000000000000000000000000000000000000000000000000700000000000000000000000000000000000000000000000000000000
310
00000000000007000000000000000000000000000000000000000000000000000000000000000000000000000000000000000000000000000000000000000000000000000000000000000000000000000000000000000000000000000000000000000000000000000000000000000000000000000000000000000000000000
310
00000000000000000000000000000000000000000000000000070000000000000000000000000000000000000000000000000000000000000000070000000000000000000000000000000000000000000000000000000000000000000000000000000000000000000000000000000000000000000000000000000000000000
310
00000000000000000000000000000000000000000000000000000000000000000000000000000000000000000000000000000000000000000000000000000000000000000000000000000000000000070000000000000000000000000000000000000000000000000000000000070700000000000000000000000000000000
310
00000000000000000000000000000000000000000000000000000000000000000000000000000000000000000000000000000000000000000000000000000000000000000000000000000000000000000000000000000000000000000000000000000000000000000000000000000000000000000000000000000000000000
310
00000000000007070707000000000000000000000000000000000000000000000707070700000000000000000000000000000000000000000000000000000000000000000000000000000000000000000000000000000000000000000000000000000000000000000000000000000000000000000000000000000000000000
310
00000000000000000000000000000000000000000000000000000000000000000000000000000000000000000000000000000000000000000000000000070707070707000000000000000000000000000707070707070700000000000000000000000000000000000000000000000000000000000000000000000000000000
310
00000000000000000000000000000000000000000000000000000000000000000000000000000000000000000000000000000000000000000000000000000000000000000000000000000000000000000000000000000000000000000000000000000000000000000000000000000000000000000000070707070707070707
310
07070707070707070700000000000000000000000000000000000000000000000000000000000000000000000000000000000000000000000000000000000000000000000000000000000000000000000000000000000000000000000000000000000000000000000000000000000000000000000000000000000000000000
310
00000000000000000000000000000000000000000000000000000000000000000000000000000000000000000000000000000000000000000000000000000000000000000000000000000000000000000000000000000000000000000000000000000000000000000000000000000000000000000000000000000000000000
310
00000000000000000000000000000000000000000000000000000000000000000000000000000000000000000000000000000000000000000000000000000000000000000000000000000000000000000000000000000000000000000000000000000000000000000000000000000000000000000000000000000000000000
310
00000000000000000000000000000000000000000000000000000000000000000000000000000000000000000000000000000000000000000000000000000000000000000000000000000000000000000000000000000000000000000000000000000000000000000000000000000000000000000000000000000000000000
310
00000000000000000000000000000000000000000000000000000000000000000000000000000000000000000000000000000000000000000000000000000000000000000000000000000000000000000000000000000000000000000000000000000000000000000000000000000000000000000000000000000000000000
310
00000000000000000000000000000000000000000000000000000000000000000000000000000000000000000000000000000000000000000000000000000000000000000000000000000000000000000000000000000000000000000000000000000000000000000000000000000000000000000000000000000000000000
310
000000000000000000000000000000000000000000000000000000000000000000000000000000000000000000000000000000000000000000000000000000000000000000000000000000000000000000000000000000000000000000000000000000000000000000000000
  0
ENDSEC
  0
EOF
