  0
SECTION
  2
HEADER
  9
$ACADVER
  1
AC1015
  9
$ACADMAINTVER
 70
     6
  9
$DWGCODEPAGE
  3
ANSI_1252
  9
$INSBASE
 10
0.0
 20
0.0
 30
0.0
  9
$EXTMIN
 10
0.0105
 20
0.0434
 30
0.0
  9
$EXTMAX
 10
406.1645
 20
288.9576
 30
0.0
  9
$LIMMIN
 10
0.0
 20
0.0
  9
$LIMMAX
 10
12.0
 20
9.0
  9
$ORTHOMODE
 70
     0
  9
$REGENMODE
 70
     1
  9
$FILLMODE
 70
     1
  9
$QTEXTMODE
 70
     0
  9
$MIRRTEXT
 70
     1
  9
$LTSCALE
 40
1.0
  9
$ATTMODE
 70
     1
  9
$TEXTSIZE
 40
0.2
  9
$TRACEWID
 40
0.05
  9
$TEXTSTYLE
  7
STANDARD
  9
$CLAYER
  8
0
  9
$CELTYPE
  6
CONTINUOUS
  9
$CECOLOR
 62
   256
  9
$CELTSCALE
 40
1.0
  9
$DISPSILH
 70
     0
  9
$DIMSCALE
 40
1.0
  9
$DIMASZ
 40
0.18
  9
$DIMEXO
 40
0.0625
  9
$DIMDLI
 40
0.38
  9
$DIMRND
 40
0.0
  9
$DIMDLE
 40
0.0
  9
$DIMEXE
 40
0.18
  9
$DIMTP
 40
0.0
  9
$DIMTM
 40
0.0
  9
$DIMTXT
 40
0.18
  9
$DIMCEN
 40
0.09
  9
$DIMTSZ
 40
0.0
  9
$DIMTOL
 70
     0
  9
$DIMLIM
 70
     0
  9
$DIMTIH
 70
     1
  9
$DIMTOH
 70
     1
  9
$DIMSE1
 70
     0
  9
$DIMSE2
 70
     0
  9
$DIMTAD
 70
     0
  9
$DIMZIN
 70
     0
  9
$DIMBLK
  1

  9
$DIMASO
 70
     1
  9
$DIMSHO
 70
     1
  9
$DIMPOST
  1

  9
$DIMAPOST
  1

  9
$DIMALT
 70
     0
  9
$DIMALTD
 70
     2
  9
$DIMALTF
 40
25.4
  9
$DIMLFAC
 40
1.0
  9
$DIMTOFL
 70
     0
  9
$DIMTVP
 40
0.0
  9
$DIMTIX
 70
     0
  9
$DIMSOXD
 70
     0
  9
$DIMSAH
 70
     0
  9
$DIMBLK1
  1

  9
$DIMBLK2
  1

  9
$DIMSTYLE
  2
STANDARD
  9
$DIMCLRD
 70
     0
  9
$DIMCLRE
 70
     0
  9
$DIMCLRT
 70
     0
  9
$DIMTFAC
 40
1.0
  9
$DIMGAP
 40
0.09
  9
$DIMJUST
 70
     0
  9
$DIMSD1
 70
     0
  9
$DIMSD2
 70
     0
  9
$DIMTOLJ
 70
     1
  9
$DIMTZIN
 70
     0
  9
$DIMALTZ
 70
     0
  9
$DIMALTTZ
 70
     0
  9
$DIMUPT
 70
     0
  9
$DIMDEC
 70
     4
  9
$DIMTDEC
 70
     4
  9
$DIMALTU
 70
     2
  9
$DIMALTTD
 70
     2
  9
$DIMTXSTY
  7
STANDARD
  9
$DIMAUNIT
 70
     0
  9
$DIMADEC
 70
     0
  9
$DIMALTRND
 40
0.0
  9
$DIMAZIN
 70
     0
  9
$DIMDSEP
 70
    46
  9
$DIMATFIT
 70
     3
  9
$DIMFRAC
 70
     0
  9
$DIMLDRBLK
  1

  9
$DIMLUNIT
 70
     2
  9
$DIMLWD
 70
    -2
  9
$DIMLWE
 70
    -2
  9
$DIMTMOVE
 70
     2
  9
$LUNITS
 70
     2
  9
$LUPREC
 70
     4
  9
$SKETCHINC
 40
0.1
  9
$FILLETRAD
 40
0.0
  9
$AUNITS
 70
     0
  9
$AUPREC
 70
     0
  9
$MENU
  1
.
  9
$ELEVATION
 40
0.0
  9
$PELEVATION
 40
0.0
  9
$THICKNESS
 40
0.0
  9
$LIMCHECK
 70
     0
  9
$CHAMFERA
 40
0.0
  9
$CHAMFERB
 40
0.0
  9
$CHAMFERC
 40
0.0
  9
$CHAMFERD
 40
0.0
  9
$SKPOLY
 70
     0
  9
$TDCREATE
 40
2454690.830347037
  9
$TDUCREATE
 40
2454690.747013704
  9
$TDUPDATE
 40
2456209.737428738
  9
$TDUUPDATE
 40
2456209.654095405
  9
$TDINDWG
 40
0.0067948843
  9
$TDUSRTIMER
 40
0.0067948843
  9
$USRTIMER
 70
     1
  9
$ANGBASE
 50
0.0
  9
$ANGDIR
 70
     0
  9
$PDMODE
 70
     0
  9
$PDSIZE
 40
0.0
  9
$PLINEWID
 40
0.0
  9
$SPLFRAME
 70
     0
  9
$SPLINETYPE
 70
     6
  9
$SPLINESEGS
 70
     8
  9
$HANDSEED
  5
626
  9
$SURFTAB1
 70
     6
  9
$SURFTAB2
 70
     6
  9
$SURFTYPE
 70
     6
  9
$SURFU
 70
     6
  9
$SURFV
 70
     6
  9
$UCSBASE
  2

  9
$UCSNAME
  2

  9
$UCSORG
 10
0.0
 20
0.0
 30
0.0
  9
$UCSXDIR
 10
1.0
 20
0.0
 30
0.0
  9
$UCSYDIR
 10
0.0
 20
1.0
 30
0.0
  9
$UCSORTHOREF
  2

  9
$UCSORTHOVIEW
 70
     0
  9
$UCSORGTOP
 10
0.0
 20
0.0
 30
0.0
  9
$UCSORGBOTTOM
 10
0.0
 20
0.0
 30
0.0
  9
$UCSORGLEFT
 10
0.0
 20
0.0
 30
0.0
  9
$UCSORGRIGHT
 10
0.0
 20
0.0
 30
0.0
  9
$UCSORGFRONT
 10
0.0
 20
0.0
 30
0.0
  9
$UCSORGBACK
 10
0.0
 20
0.0
 30
0.0
  9
$PUCSBASE
  2

  9
$PUCSNAME
  2

  9
$PUCSORG
 10
0.0
 20
0.0
 30
0.0
  9
$PUCSXDIR
 10
1.0
 20
0.0
 30
0.0
  9
$PUCSYDIR
 10
0.0
 20
1.0
 30
0.0
  9
$PUCSORTHOREF
  2

  9
$PUCSORTHOVIEW
 70
     0
  9
$PUCSORGTOP
 10
0.0
 20
0.0
 30
0.0
  9
$PUCSORGBOTTOM
 10
0.0
 20
0.0
 30
0.0
  9
$PUCSORGLEFT
 10
0.0
 20
0.0
 30
0.0
  9
$PUCSORGRIGHT
 10
0.0
 20
0.0
 30
0.0
  9
$PUCSORGFRONT
 10
0.0
 20
0.0
 30
0.0
  9
$PUCSORGBACK
 10
0.0
 20
0.0
 30
0.0
  9
$USERI1
 70
     0
  9
$USERI2
 70
     0
  9
$USERI3
 70
     0
  9
$USERI4
 70
     0
  9
$USERI5
 70
     0
  9
$USERR1
 40
0.0
  9
$USERR2
 40
0.0
  9
$USERR3
 40
0.0
  9
$USERR4
 40
0.0
  9
$USERR5
 40
0.0
  9
$WORLDVIEW
 70
     1
  9
$SHADEDGE
 70
     3
  9
$SHADEDIF
 70
    70
  9
$TILEMODE
 70
     1
  9
$MAXACTVP
 70
    64
  9
$PINSBASE
 10
0.0
 20
0.0
 30
0.0
  9
$PLIMCHECK
 70
     0
  9
$PEXTMIN
 10
1.000000000000E+20
 20
1.000000000000E+20
 30
1.000000000000E+20
  9
$PEXTMAX
 10
-1.000000000000E+20
 20
-1.000000000000E+20
 30
-1.000000000000E+20
  9
$PLIMMIN
 10
0.0
 20
0.0
  9
$PLIMMAX
 10
12.0
 20
9.0
  9
$UNITMODE
 70
     0
  9
$VISRETAIN
 70
     1
  9
$PLINEGEN
 70
     0
  9
$PSLTSCALE
 70
     1
  9
$TREEDEPTH
 70
  3020
  9
$CMLSTYLE
  2
STANDARD
  9
$CMLJUST
 70
     0
  9
$CMLSCALE
 40
1.0
  9
$PROXYGRAPHICS
 70
     1
  9
$MEASUREMENT
 70
     0
  9
$CELWEIGHT
370
    -1
  9
$ENDCAPS
280
     0
  9
$JOINSTYLE
280
     0
  9
$LWDISPLAY
290
     0
  9
$INSUNITS
 70
     0
  9
$HYPERLINKBASE
  1

  9
$STYLESHEET
  1

  9
$XEDIT
290
     1
  9
$CEPSNTYPE
380
     0
  9
$PSTYLEMODE
290
     1
  9
$FINGERPRINTGUID
  2
{563B6E60-B480-4353-98DC-4956885B76DD}
  9
$VERSIONGUID
  2
{21DCDECF-C5AB-40C1-BF5E-5B2071DDACD7}
  9
$EXTNAMES
290
     1
  9
$PSVPSCALE
 40
0.0
  9
$OLESTARTUP
290
     0
  0
ENDSEC
  0
SECTION
  2
CLASSES
  0
CLASS
  1
ACDBDICTIONARYWDFLT
  2
AcDbDictionaryWithDefault
  3
ObjectDBX Classes
 90
        0
280
     0
281
     0
  0
CLASS
  1
ACDBPLACEHOLDER
  2
AcDbPlaceHolder
  3
ObjectDBX Classes
 90
        0
280
     0
281
     0
  0
CLASS
  1
LAYOUT
  2
AcDbLayout
  3
ObjectDBX Classes
 90
        0
280
     0
281
     0
  0
CLASS
  1
DICTIONARYVAR
  2
AcDbDictionaryVar
  3
ObjectDBX Classes
 90
        0
280
     0
281
     0
  0
CLASS
  1
DUMMY
  2
AcDbLongTransaction
  3
DUMMY
 90
        0
280
     0
281
     0
  0
CLASS
  1
LWPOLYLINE
  2
AcDbPolyline
  3
AutoCAD 2000
 90
        0
280
     0
281
     1
  0
CLASS
  1
HATCH
  2
AcDbHatch
  3
AutoCAD 2000
 90
        0
280
     0
281
     1
  0
CLASS
  1
XRECORD
  2
AcDbXrecord
  3
AutoCAD 2000
 90
        0
280
     0
281
     0
  0
CLASS
  1
SCALE
  2
AcDbScale
  3
ObjectDBX Classes
 90
     1153
280
     0
281
     0
  0
ENDSEC
  0
SECTION
  2
TABLES
  0
TABLE
  2
VPORT
  5
8
330
0
100
AcDbSymbolTable
 70
     1
  0
VPORT
  5
27A
330
8
100
AcDbSymbolTableRecord
100
AcDbViewportTableRecord
  2
*ACTIVE
 70
     0
 10
0.0
 20
0.0
 11
1.0
 21
1.0
 12
203.08225
 22
144.4788
 13
0.0
 23
0.0
 14
1.0
 24
1.0
 15
0.0
 25
0.0
 16
0.0
 26
0.0
 36
1.0
 17
0.0
 27
0.0
 37
0.0
 40
294.736752
 41
2.271724137931
 42
50.0
 43
0.0
 44
0.0
 50
0.0
 51
0.0
 71
    16
 72
   100
 73
     1
 74
     3
 75
     0
 76
     0
 77
     0
 78
     0
281
     0
 65
     1
110
0.0
120
0.0
130
0.0
111
1.0
121
0.0
131
0.0
112
0.0
122
1.0
132
0.0
 79
     0
146
0.0
  0
ENDTAB
  0
TABLE
  2
LTYPE
  5
5
330
0
100
AcDbSymbolTable
 70
     1
  0
LTYPE
  5
13
330
5
100
AcDbSymbolTableRecord
100
AcDbLinetypeTableRecord
  2
BYBLOCK
 70
     0
  3

 72
    65
 73
     0
 40
0.0
  0
LTYPE
  5
14
330
5
100
AcDbSymbolTableRecord
100
AcDbLinetypeTableRecord
  2
BYLAYER
 70
     0
  3

 72
    65
 73
     0
 40
0.0
  0
LTYPE
  5
15
330
5
100
AcDbSymbolTableRecord
100
AcDbLinetypeTableRecord
  2
CONTINUOUS
 70
     0
  3
Solid line
 72
    65
 73
     0
 40
0.0
  0
ENDTAB
  0
TABLE
  2
LAYER
  5
2
330
0
100
AcDbSymbolTable
 70
     1
  0
LAYER
  5
10
330
2
100
AcDbSymbolTableRecord
100
AcDbLayerTableRecord
  2
0
 70
     0
 62
     7
  6
CONTINUOUS
370
    -3
390
F
  0
ENDTAB
  0
TABLE
  2
STYLE
  5
3
330
0
100
AcDbSymbolTable
 70
     1
  0
STYLE
  5
11
330
3
100
AcDbSymbolTableRecord
100
AcDbTextStyleTableRecord
  2
STANDARD
 70
     0
 40
0.0
 41
1.0
 50
0.0
 71
     0
 42
0.2
  3
txt
  4

  0
ENDTAB
  0
TABLE
  2
VIEW
  5
6
330
0
100
AcDbSymbolTable
 70
     0
  0
ENDTAB
  0
TABLE
  2
UCS
  5
7
330
0
100
AcDbSymbolTable
 70
     0
  0
ENDTAB
  0
TABLE
  2
APPID
  5
9
330
0
100
AcDbSymbolTable
 70
     1
  0
APPID
  5
12
330
9
100
AcDbSymbolTableRecord
100
AcDbRegAppTableRecord
  2
ACAD
 70
     0
  0
ENDTAB
  0
TABLE
  2
DIMSTYLE
  5
A
330
0
100
AcDbSymbolTable
 70
     1
100
AcDbDimStyleTable
  0
DIMSTYLE
105
274
330
A
100
AcDbSymbolTableRecord
100
AcDbDimStyleTableRecord
  2
STANDARD
 70
     0
340
11
  0
ENDTAB
  0
TABLE
  2
BLOCK_RECORD
  5
1
330
0
100
AcDbSymbolTable
 70
     1
  0
BLOCK_RECORD
  5
1E
330
1
100
AcDbSymbolTableRecord
100
AcDbBlockTableRecord
  2
*MODEL_SPACE
340
29F
  0
BLOCK_RECORD
  5
1A
330
1
100
AcDbSymbolTableRecord
100
AcDbBlockTableRecord
  2
*PAPER_SPACE
340
2A0
  0
ENDTAB
  0
ENDSEC
  0
SECTION
  2
BLOCKS
  0
BLOCK
  5
1F
330
1E
100
AcDbEntity
  8
0
100
AcDbBlockBegin
  2
*MODEL_SPACE
 70
     0
 10
0.0
 20
0.0
 30
0.0
  3
*MODEL_SPACE
  1
*MODEL_SPACE
  0
ENDBLK
  5
20
330
1E
100
AcDbEntity
  8
0
100
AcDbBlockEnd
  0
BLOCK
  5
1B
330
1A
100
AcDbEntity
 67
     1
  8
0
100
AcDbBlockBegin
  2
*PAPER_SPACE
 70
     0
 10
0.0
 20
0.0
 30
0.0
  3
*PAPER_SPACE
  1
*PAPER_SPACE
  0
ENDBLK
  5
1C
330
1A
100
AcDbEntity
 67
     1
  8
0
100
AcDbBlockEnd
  0
ENDSEC
  0
SECTION
  2
ENTITIES
  0
LINE
  5
22
330
1E
100
AcDbEntity
  8
0
100
AcDbLine
 10
137.0265
 20
0.0434
 30
0.0
 11
142.3625
 21
0.7953
 31
0.0
  0
LINE
  5
23
330
1E
100
AcDbEntity
  8
0
100
AcDbLine
 10
137.0265
 20
0.0434
 30
0.0
 11
142.3625
 21
0.7953
 31
0.0
  0
LINE
  5
24
330
1E
100
AcDbEntity
  8
0
100
AcDbLine
 10
127.1055
 20
2.954
 30
0.0
 11
131.6465
 21
0.8014
 31
0.0
  0
LINE
  5
25
330
1E
100
AcDbEntity
  8
0
100
AcDbLine
 10
127.1055
 20
2.954
 30
0.0
 11
131.6465
 21
0.8014
 31
0.0
  0
LINE
  5
26
330
1E
100
AcDbEntity
  8
0
100
AcDbLine
 10
131.6465
 20
0.8014
 30
0.0
 11
137.0265
 21
0.0434
 31
0.0
  0
LINE
  5
27
330
1E
100
AcDbEntity
  8
0
100
AcDbLine
 10
131.6465
 20
0.8014
 30
0.0
 11
137.0265
 21
0.0434
 31
0.0
  0
LINE
  5
28
330
1E
100
AcDbEntity
  8
0
100
AcDbLine
 10
142.3625
 20
0.7953
 30
0.0
 11
146.9045
 21
2.9427
 31
0.0
  0
LINE
  5
29
330
1E
100
AcDbEntity
  8
0
100
AcDbLine
 10
146.9045
 20
2.9427
 30
0.0
 11
149.9385
 21
6.1588
 31
0.0
  0
LINE
  5
2A
330
1E
100
AcDbEntity
  8
0
100
AcDbLine
 10
124.0705
 20
6.1734
 30
0.0
 11
127.1055
 21
2.954
 31
0.0
  0
LINE
  5
2B
330
1E
100
AcDbEntity
  8
0
100
AcDbLine
 10
137.0155
 20
7.1571
 30
0.0
 11
140.6155
 21
7.5571
 31
0.0
  0
LINE
  5
2C
330
1E
100
AcDbEntity
  8
0
100
AcDbLine
 10
133.4365
 20
7.1487
 30
0.0
 11
137.0235
 21
6.6433
 31
0.0
  0
LINE
  5
2D
330
1E
100
AcDbEntity
  8
0
100
AcDbLine
 10
137.0235
 20
6.6433
 30
0.0
 11
140.5805
 21
7.1447
 31
0.0
  0
LINE
  5
2E
330
1E
100
AcDbEntity
  8
0
100
AcDbLine
 10
137.0345
 20
6.6308
 30
0.0
 11
142.3695
 21
7.3828
 31
0.0
  0
LINE
  5
2F
330
1E
100
AcDbEntity
  8
0
100
AcDbLine
 10
140.5805
 20
7.1447
 30
0.0
 11
142.517584486927
 21
8.060592952422
 31
0.0
  0
LINE
  5
30
330
1E
100
AcDbEntity
  8
0
100
AcDbLine
 10
130.0155
 20
8.4571
 30
0.0
 11
133.4155
 21
7.5571
 31
0.0
  0
LINE
  5
31
330
1E
100
AcDbEntity
  8
0
100
AcDbLine
 10
131.51152019977
 20
8.061094653002
 30
0.0
 11
133.4365
 21
7.1487
 31
0.0
  0
LINE
  5
32
330
1E
100
AcDbEntity
  8
0
100
AcDbLine
 10
123.933123015173
 20
13.275532779156
 30
0.0
 11
124.028353132083
 21
13.61455556872
 31
0.0
  0
LINE
  5
33
330
1E
100
AcDbEntity
  8
0
100
AcDbLine
 10
123.0045
 20
9.9696
 30
0.0
 11
123.0125
 21
16.5571
 31
0.0
  0
LINE
  5
34
330
1E
100
AcDbEntity
  8
0
100
AcDbLine
 10
123.0045
 20
9.9696
 30
0.0
 11
124.0705
 21
6.1734
 31
0.0
  0
LINE
  5
35
330
1E
100
AcDbEntity
  8
0
100
AcDbLine
 10
124.9155
 20
12.1571
 30
0.0
 11
127.1155
 21
10.0571
 31
0.0
  0
LINE
  5
36
330
1E
100
AcDbEntity
  8
0
100
AcDbLine
 10
127.1155
 20
10.0571
 30
0.0
 11
130.0155
 21
8.4571
 31
0.0
  0
LINE
  5
37
330
1E
100
AcDbEntity
  8
0
100
AcDbLine
 10
124.0775
 20
12.7609
 30
0.0
 11
127.1125
 21
9.5414
 31
0.0
  0
LINE
  5
38
330
1E
100
AcDbEntity
  8
0
100
AcDbLine
 10
127.1125
 20
9.5414
 30
0.0
 11
131.6545
 21
7.3888
 31
0.0
  0
LINE
  5
39
330
1E
100
AcDbEntity
  8
0
100
AcDbLine
 10
140.6155
 20
7.5571
 30
0.0
 11
144.0155
 21
8.4571
 31
0.0
  0
LINE
  5
3A
330
1E
100
AcDbEntity
  8
0
100
AcDbLine
 10
144.0155
 20
8.4571
 30
0.0
 11
146.9155
 21
10.0571
 31
0.0
  0
LINE
  5
3B
330
1E
100
AcDbEntity
  8
0
100
AcDbLine
 10
133.4155
 20
7.5571
 30
0.0
 11
137.0155
 21
7.1571
 31
0.0
  0
LINE
  5
3C
330
1E
100
AcDbEntity
  8
0
100
AcDbLine
 10
131.6545
 20
7.3888
 30
0.0
 11
137.0345
 21
6.6308
 31
0.0
  0
LINE
  5
3D
330
1E
100
AcDbEntity
  8
0
100
AcDbLine
 10
142.3695
 20
7.3828
 30
0.0
 11
146.9115
 21
9.5302
 31
0.0
  0
LINE
  5
3E
330
1E
100
AcDbEntity
  8
0
100
AcDbLine
 10
149.1155
 20
12.1571
 30
0.0
 11
150.5155
 21
14.4571
 31
0.0
  0
LINE
  5
3F
330
1E
100
AcDbEntity
  8
0
100
AcDbLine
 10
146.9155
 20
10.0571
 30
0.0
 11
149.1155
 21
12.1571
 31
0.0
  0
LINE
  5
40
330
1E
100
AcDbEntity
  8
0
100
AcDbLine
 10
146.9115
 20
9.5302
 30
0.0
 11
149.9465
 21
12.7462
 31
0.0
  0
LINE
  5
41
330
1E
100
AcDbEntity
  8
0
100
AcDbLine
 10
149.9385
 20
6.1588
 30
0.0
 11
151.0045
 21
9.9617
 31
0.0
  0
LINE
  5
42
330
1E
100
AcDbEntity
  8
0
100
AcDbLine
 10
149.9465
 20
12.7462
 30
0.0
 11
150.349761877407
 21
14.184815941454
 31
0.0
  0
LINE
  5
43
330
1E
100
AcDbEntity
  8
0
100
AcDbLine
 10
123.5155
 20
14.4571
 30
0.0
 11
124.9155
 21
12.1571
 31
0.0
  0
LINE
  5
44
330
1E
100
AcDbEntity
  8
0
100
AcDbLine
 10
150.5155
 20
14.4571
 30
0.0
 11
151.0155
 21
17.0571
 31
0.0
  0
LINE
  5
45
330
1E
100
AcDbEntity
  8
0
100
AcDbLine
 10
123.675286107679
 20
14.19459425167
 30
0.0
 11
124.0775
 21
12.7609
 31
0.0
  0
LINE
  5
46
330
1E
100
AcDbEntity
  8
0
100
AcDbLine
 10
26.2467
 20
226.9556
 30
0.0
 11
27.0121
 21
226.9556
 31
0.0
  0
LINE
  5
47
330
1E
100
AcDbEntity
  8
0
100
AcDbLine
 10
25.5979
 20
226.9586
 30
0.0
 11
26.2467
 21
226.9586
 31
0.0
  0
LINE
  5
48
330
1E
100
AcDbEntity
  8
0
100
AcDbLine
 10
25.1643
 20
226.9576
 30
0.0
 11
25.5979
 21
226.9586
 31
0.0
  0
LINE
  5
49
330
1E
100
AcDbEntity
  8
0
100
AcDbLine
 10
25.0121
 20
226.9576
 30
0.0
 11
25.1643
 21
226.9566
 31
0.0
  0
LINE
  5
4A
330
1E
100
AcDbEntity
  8
0
100
AcDbLine
 10
25.0121
 20
226.9576
 30
0.0
 11
25.0121
 21
229.355421701456
 31
0.0
  0
LINE
  5
4B
330
1E
100
AcDbEntity
  8
0
100
AcDbLine
 10
25.0121
 20
226.9576
 30
0.0
 11
25.1643
 21
226.9576
 31
0.0
  0
LINE
  5
4C
330
1E
100
AcDbEntity
  8
0
100
AcDbLine
 10
25.1643
 20
226.9566
 30
0.0
 11
25.5979
 21
226.9566
 31
0.0
  0
LINE
  5
4D
330
1E
100
AcDbEntity
  8
0
100
AcDbLine
 10
26.2467
 20
226.9586
 30
0.0
 11
27.0121
 21
226.9586
 31
0.0
  0
LINE
  5
4E
330
1E
100
AcDbEntity
  8
0
100
AcDbLine
 10
25.5979
 20
226.9566
 30
0.0
 11
26.2467
 21
226.9556
 31
0.0
  0
LINE
  5
4F
330
1E
100
AcDbEntity
  8
0
100
AcDbLine
 10
27.0121
 20
226.9556
 30
0.0
 11
27.7775
 21
226.9556
 31
0.0
  0
LINE
  5
50
330
1E
100
AcDbEntity
  8
0
100
AcDbLine
 10
27.0121
 20
226.9586
 30
0.0
 11
27.7775
 21
226.9586
 31
0.0
  0
LINE
  5
51
330
1E
100
AcDbEntity
  8
0
100
AcDbLine
 10
3.9151
 20
244.3896
 30
0.0
 11
9.3344
 21
236.2796
 31
0.0
  0
LINE
  5
52
330
1E
100
AcDbEntity
  8
0
100
AcDbLine
 10
0.0115
 20
252.1096
 30
0.0
 11
0.0121
 21
251.9576
 31
0.0
  0
LINE
  5
53
330
1E
100
AcDbEntity
  8
0
100
AcDbLine
 10
0.0121
 20
251.9576
 30
0.0
 11
2.409925859726
 21
251.9576
 31
0.0
  0
LINE
  5
54
330
1E
100
AcDbEntity
  8
0
100
AcDbLine
 10
0.0121
 20
251.9576
 30
0.0
 11
0.0127
 21
252.1096
 31
0.0
  0
LINE
  5
55
330
1E
100
AcDbEntity
  8
0
100
AcDbLine
 10
0.0121
 20
251.9576
 30
0.0
 11
2.409925859726
 21
251.9576
 31
0.0
  0
LINE
  5
56
330
1E
100
AcDbEntity
  8
0
100
AcDbLine
 10
0.0106
 20
253.1916
 30
0.0
 11
0.011
 21
252.5426
 31
0.0
  0
LINE
  5
57
330
1E
100
AcDbEntity
  8
0
100
AcDbLine
 10
0.011
 20
252.5426
 30
0.0
 11
0.0115
 21
252.1096
 31
0.0
  0
LINE
  5
58
330
1E
100
AcDbEntity
  8
0
100
AcDbLine
 10
0.0127
 20
252.1096
 30
0.0
 11
0.0132
 21
252.5426
 31
0.0
  0
LINE
  5
59
330
1E
100
AcDbEntity
  8
0
100
AcDbLine
 10
0.0132
 20
252.5426
 30
0.0
 11
0.0136
 21
253.1916
 31
0.0
  0
LINE
  5
5A
330
1E
100
AcDbEntity
  8
0
100
AcDbLine
 10
0.0105
 20
253.9576
 30
0.0
 11
0.0106
 21
253.1916
 31
0.0
  0
LINE
  5
5B
330
1E
100
AcDbEntity
  8
0
100
AcDbLine
 10
0.0105
 20
253.9576
 30
0.0
 11
0.0106
 21
254.7226
 31
0.0
  0
LINE
  5
5C
330
1E
100
AcDbEntity
  8
0
100
AcDbLine
 10
0.0136
 20
253.1916
 30
0.0
 11
0.0137
 21
253.9576
 31
0.0
  0
LINE
  5
5D
330
1E
100
AcDbEntity
  8
0
100
AcDbLine
 10
2.409726946796
 20
251.9576
 30
0.0
 11
3.9151
 21
244.3896
 31
0.0
  0
LINE
  5
5E
330
1E
100
AcDbEntity
  8
0
100
AcDbLine
 10
0.0115
 20
255.8046
 30
0.0
 11
0.0121
 21
255.9576
 31
0.0
  0
LINE
  5
5F
330
1E
100
AcDbEntity
  8
0
100
AcDbLine
 10
0.011
 20
255.3716
 30
0.0
 11
0.0115
 21
255.8046
 31
0.0
  0
LINE
  5
60
330
1E
100
AcDbEntity
  8
0
100
AcDbLine
 10
0.0106
 20
254.7226
 30
0.0
 11
0.011
 21
255.3716
 31
0.0
  0
LINE
  5
61
330
1E
100
AcDbEntity
  8
0
100
AcDbLine
 10
0.0136
 20
254.7226
 30
0.0
 11
0.0137
 21
253.9576
 31
0.0
  0
LINE
  5
62
330
1E
100
AcDbEntity
  8
0
100
AcDbLine
 10
0.0132
 20
255.3716
 30
0.0
 11
0.0136
 21
254.7226
 31
0.0
  0
LINE
  5
63
330
1E
100
AcDbEntity
  8
0
100
AcDbLine
 10
0.0127
 20
255.8046
 30
0.0
 11
0.0132
 21
255.3716
 31
0.0
  0
LINE
  5
64
330
1E
100
AcDbEntity
  8
0
100
AcDbLine
 10
0.0121
 20
255.9576
 30
0.0
 11
2.409925859726
 21
255.9576
 31
0.0
  0
LINE
  5
65
330
1E
100
AcDbEntity
  8
0
100
AcDbLine
 10
0.0121
 20
255.9576
 30
0.0
 11
0.0127
 21
255.8046
 31
0.0
  0
LINE
  5
66
330
1E
100
AcDbEntity
  8
0
100
AcDbLine
 10
0.0121
 20
255.9576
 30
0.0
 11
2.409925859726
 21
255.9576
 31
0.0
  0
LINE
  5
67
330
1E
100
AcDbEntity
  8
0
100
AcDbLine
 10
2.0121
 20
253.9576
 30
0.0
 11
3.9151
 21
244.3906
 31
0.0
  0
LINE
  5
68
330
1E
100
AcDbEntity
  8
0
100
AcDbLine
 10
2.0121
 20
253.9576
 30
0.0
 11
3.9151
 21
263.5246
 31
0.0
  0
LINE
  5
69
330
1E
100
AcDbEntity
  8
0
100
AcDbLine
 10
9.3344
 20
271.6346
 30
0.0
 11
17.445
 21
277.0546
 31
0.0
  0
LINE
  5
6A
330
1E
100
AcDbEntity
  8
0
100
AcDbLine
 10
3.9151
 20
263.5246
 30
0.0
 11
9.3344
 21
271.6346
 31
0.0
  0
LINE
  5
6B
330
1E
100
AcDbEntity
  8
0
100
AcDbLine
 10
2.409726946796
 20
251.9576
 30
0.0
 11
3.9151
 21
244.3896
 31
0.0
  0
LINE
  5
6C
330
1E
100
AcDbEntity
  8
0
100
AcDbLine
 10
3.9151
 20
244.3906
 30
0.0
 11
9.3344
 21
236.2796
 31
0.0
  0
LINE
  5
6D
330
1E
100
AcDbEntity
  8
0
100
AcDbLine
 10
17.445
 20
277.0546
 30
0.0
 11
27.0121
 21
278.9576
 31
0.0
  0
LINE
  5
6E
330
1E
100
AcDbEntity
  8
0
100
AcDbLine
 10
9.3344
 20
236.2796
 30
0.0
 11
17.445
 21
230.8606
 31
0.0
  0
LINE
  5
6F
330
1E
100
AcDbEntity
  8
0
100
AcDbLine
 10
9.3344
 20
236.2796
 30
0.0
 11
17.445
 21
230.8596
 31
0.0
  0
LINE
  5
70
330
1E
100
AcDbEntity
  8
0
100
AcDbLine
 10
17.445
 20
230.8596
 30
0.0
 11
25.0121
 21
229.354421701456
 31
0.0
  0
LINE
  5
71
330
1E
100
AcDbEntity
  8
0
100
AcDbLine
 10
25.0121
 20
229.355421701456
 30
0.0
 11
25.0121
 21
226.9576
 31
0.0
  0
LINE
  5
72
330
1E
100
AcDbEntity
  8
0
100
AcDbLine
 10
25.0121
 20
280.9576
 30
0.0
 11
25.0121
 21
278.559778298544
 31
0.0
  0
LINE
  5
73
330
1E
100
AcDbEntity
  8
0
100
AcDbLine
 10
25.0121
 20
280.9576
 30
0.0
 11
25.1643
 21
280.9576
 31
0.0
  0
LINE
  5
74
330
1E
100
AcDbEntity
  8
0
100
AcDbLine
 10
26.2467
 20
280.9586
 30
0.0
 11
27.0121
 21
280.9586
 31
0.0
  0
LINE
  5
75
330
1E
100
AcDbEntity
  8
0
100
AcDbLine
 10
25.5979
 20
280.9586
 30
0.0
 11
26.2467
 21
280.9586
 31
0.0
  0
LINE
  5
76
330
1E
100
AcDbEntity
  8
0
100
AcDbLine
 10
25.1643
 20
280.9576
 30
0.0
 11
25.5979
 21
280.9586
 31
0.0
  0
LINE
  5
77
330
1E
100
AcDbEntity
  8
0
100
AcDbLine
 10
25.0121
 20
278.559778298544
 30
0.0
 11
25.0121
 21
280.9576
 31
0.0
  0
LINE
  5
78
330
1E
100
AcDbEntity
  8
0
100
AcDbLine
 10
27.0121
 20
280.9586
 30
0.0
 11
27.7775
 21
280.9586
 31
0.0
  0
LINE
  5
79
330
1E
100
AcDbEntity
  8
0
100
AcDbLine
 10
17.445
 20
230.8606
 30
0.0
 11
27.0121
 21
228.9576
 31
0.0
  0
LINE
  5
7A
330
1E
100
AcDbEntity
  8
0
100
AcDbLine
 10
27.0121
 20
228.9576
 30
0.0
 11
36.5792
 21
230.8606
 31
0.0
  0
LINE
  5
7B
330
1E
100
AcDbEntity
  8
0
100
AcDbLine
 10
27.7775
 20
226.9556
 30
0.0
 11
28.4263
 21
226.9566
 31
0.0
  0
LINE
  5
7C
330
1E
100
AcDbEntity
  8
0
100
AcDbLine
 10
28.4263
 20
226.9566
 30
0.0
 11
28.8599
 21
226.9566
 31
0.0
  0
LINE
  5
7D
330
1E
100
AcDbEntity
  8
0
100
AcDbLine
 10
28.8599
 20
226.9566
 30
0.0
 11
29.0121
 21
226.9576
 31
0.0
  0
LINE
  5
7E
330
1E
100
AcDbEntity
  8
0
100
AcDbLine
 10
28.8599
 20
226.9576
 30
0.0
 11
29.0121
 21
226.9576
 31
0.0
  0
LINE
  5
7F
330
1E
100
AcDbEntity
  8
0
100
AcDbLine
 10
29.0121
 20
226.9576
 30
0.0
 11
29.0121
 21
229.355421701456
 31
0.0
  0
LINE
  5
80
330
1E
100
AcDbEntity
  8
0
100
AcDbLine
 10
28.4263
 20
226.9586
 30
0.0
 11
28.8599
 21
226.9576
 31
0.0
  0
LINE
  5
81
330
1E
100
AcDbEntity
  8
0
100
AcDbLine
 10
29.0121
 20
229.355421701456
 30
0.0
 11
29.0121
 21
226.9576
 31
0.0
  0
LINE
  5
82
330
1E
100
AcDbEntity
  8
0
100
AcDbLine
 10
27.7775
 20
226.9586
 30
0.0
 11
28.4263
 21
226.9586
 31
0.0
  0
LINE
  5
83
330
1E
100
AcDbEntity
  8
0
100
AcDbLine
 10
29.0121
 20
229.354421701456
 30
0.0
 11
36.5792
 21
230.8596
 31
0.0
  0
LINE
  5
84
330
1E
100
AcDbEntity
  8
0
100
AcDbLine
 10
36.5792
 20
230.8596
 30
0.0
 11
44.6898
 21
236.2796
 31
0.0
  0
LINE
  5
85
330
1E
100
AcDbEntity
  8
0
100
AcDbLine
 10
36.5792
 20
230.8606
 30
0.0
 11
44.6898
 21
236.2796
 31
0.0
  0
LINE
  5
86
330
1E
100
AcDbEntity
  8
0
100
AcDbLine
 10
44.6898
 20
236.2796
 30
0.0
 11
50.1091
 21
244.3896
 31
0.0
  0
LINE
  5
87
330
1E
100
AcDbEntity
  8
0
100
AcDbLine
 10
44.6898
 20
236.2796
 30
0.0
 11
50.1091
 21
244.3906
 31
0.0
  0
LINE
  5
88
330
1E
100
AcDbEntity
  8
0
100
AcDbLine
 10
50.1091
 20
244.3906
 30
0.0
 11
52.0121
 21
253.9576
 31
0.0
  0
LINE
  5
89
330
1E
100
AcDbEntity
  8
0
100
AcDbLine
 10
51.614274140274
 20
251.9576
 30
0.0
 11
54.0121
 21
251.9576
 31
0.0
  0
LINE
  5
8A
330
1E
100
AcDbEntity
  8
0
100
AcDbLine
 10
54.0121
 20
251.9576
 30
0.0
 11
54.0127
 21
252.1096
 31
0.0
  0
LINE
  5
8B
330
1E
100
AcDbEntity
  8
0
100
AcDbLine
 10
54.0127
 20
252.1096
 30
0.0
 11
54.0132
 21
252.5426
 31
0.0
  0
LINE
  5
8C
330
1E
100
AcDbEntity
  8
0
100
AcDbLine
 10
54.0132
 20
252.5426
 30
0.0
 11
54.0136
 21
253.1916
 31
0.0
  0
LINE
  5
8D
330
1E
100
AcDbEntity
  8
0
100
AcDbLine
 10
121.6155
 20
37.8571
 30
0.0
 11
123.0155
 21
17.0571
 31
0.0
  0
LINE
  5
8E
330
1E
100
AcDbEntity
  8
0
100
AcDbLine
 10
123.0155
 20
17.0571
 30
0.0
 11
123.5155
 21
14.4571
 31
0.0
  0
LINE
  5
8F
330
1E
100
AcDbEntity
  8
0
100
AcDbLine
 10
119.7155
 20
60.8571
 30
0.0
 11
121.6155
 21
37.8571
 31
0.0
  0
LINE
  5
90
330
1E
100
AcDbEntity
  8
0
100
AcDbLine
 10
117.7155
 20
85.5571
 30
0.0
 11
119.7155
 21
60.8571
 31
0.0
  0
LINE
  5
91
330
1E
100
AcDbEntity
  8
0
100
AcDbLine
 10
116.1155
 20
107.4571
 30
0.0
 11
117.7155
 21
85.5571
 31
0.0
  0
LINE
  5
92
330
1E
100
AcDbEntity
  8
0
100
AcDbLine
 10
114.6155
 20
126.2571
 30
0.0
 11
116.1155
 21
107.4571
 31
0.0
  0
LINE
  5
93
330
1E
100
AcDbEntity
  8
0
100
AcDbLine
 10
112.6155
 20
148.8571
 30
0.0
 11
114.6155
 21
126.2571
 31
0.0
  0
LINE
  5
94
330
1E
100
AcDbEntity
  8
0
100
AcDbLine
 10
111.4155
 20
165.8566
 30
0.0
 11
112.6155
 21
148.8571
 31
0.0
  0
LINE
  5
95
330
1E
100
AcDbEntity
  8
0
100
AcDbLine
 10
110.3155
 20
182.2566
 30
0.0
 11
111.4155
 21
165.8566
 31
0.0
  0
LINE
  5
96
330
1E
100
AcDbEntity
  8
0
100
AcDbLine
 10
108.5157
 20
200.6566
 30
0.0
 11
110.3155
 21
182.2566
 31
0.0
  0
LINE
  5
97
330
1E
100
AcDbEntity
  8
0
100
AcDbLine
 10
107.1157
 20
219.0576
 30
0.0
 11
108.5157
 21
200.6566
 31
0.0
  0
LINE
  5
98
330
1E
100
AcDbEntity
  8
0
100
AcDbLine
 10
105.9157
 20
232.7566
 30
0.0
 11
107.1157
 21
219.0576
 31
0.0
  0
LINE
  5
99
330
1E
100
AcDbEntity
  8
0
100
AcDbLine
 10
105.1157
 20
243.1566
 30
0.0
 11
105.9157
 21
232.7566
 31
0.0
  0
LINE
  5
9A
330
1E
100
AcDbEntity
  8
0
100
AcDbLine
 10
104.7157
 20
249.5576
 30
0.0
 11
105.1157
 21
243.1566
 31
0.0
  0
LINE
  5
9B
330
1E
100
AcDbEntity
  8
0
100
AcDbLine
 10
104.5157
 20
253.9566
 30
0.0
 11
105.6157
 21
262.3576
 31
0.0
  0
LINE
  5
9C
330
1E
100
AcDbEntity
  8
0
100
AcDbLine
 10
104.5157
 20
253.9566
 30
0.0
 11
104.5157
 21
252.7566
 31
0.0
  0
LINE
  5
9D
330
1E
100
AcDbEntity
  8
0
100
AcDbLine
 10
104.5157
 20
252.7566
 30
0.0
 11
104.5157
 21
253.9566
 31
0.0
  0
LINE
  5
9E
330
1E
100
AcDbEntity
  8
0
100
AcDbLine
 10
104.5157
 20
252.7566
 30
0.0
 11
104.7157
 21
249.5576
 31
0.0
  0
LINE
  5
9F
330
1E
100
AcDbEntity
  8
0
100
AcDbLine
 10
54.0136
 20
253.1916
 30
0.0
 11
54.0137
 21
253.9576
 31
0.0
  0
LINE
  5
A0
330
1E
100
AcDbEntity
  8
0
100
AcDbLine
 10
54.0136
 20
254.7226
 30
0.0
 11
54.0137
 21
253.9576
 31
0.0
  0
LINE
  5
A1
330
1E
100
AcDbEntity
  8
0
100
AcDbLine
 10
54.0132
 20
255.3716
 30
0.0
 11
54.0136
 21
254.7226
 31
0.0
  0
LINE
  5
A2
330
1E
100
AcDbEntity
  8
0
100
AcDbLine
 10
54.0127
 20
255.8046
 30
0.0
 11
54.0132
 21
255.3716
 31
0.0
  0
LINE
  5
A3
330
1E
100
AcDbEntity
  8
0
100
AcDbLine
 10
54.0121
 20
255.9576
 30
0.0
 11
54.0127
 21
255.8046
 31
0.0
  0
LINE
  5
A4
330
1E
100
AcDbEntity
  8
0
100
AcDbLine
 10
105.6157
 20
262.3576
 30
0.0
 11
108.8157
 21
270.0576
 31
0.0
  0
LINE
  5
A5
330
1E
100
AcDbEntity
  8
0
100
AcDbLine
 10
51.614274140274
 20
255.9576
 30
0.0
 11
54.0121
 21
255.9576
 31
0.0
  0
LINE
  5
A6
330
1E
100
AcDbEntity
  8
0
100
AcDbLine
 10
50.1091
 20
244.3896
 30
0.0
 11
51.614473053204
 21
251.9576
 31
0.0
  0
LINE
  5
A7
330
1E
100
AcDbEntity
  8
0
100
AcDbLine
 10
108.8157
 20
270.0576
 30
0.0
 11
114.0155
 21
276.8576
 31
0.0
  0
LINE
  5
A8
330
1E
100
AcDbEntity
  8
0
100
AcDbLine
 10
114.0155
 20
276.8576
 30
0.0
 11
120.8155
 21
281.9566
 31
0.0
  0
LINE
  5
A9
330
1E
100
AcDbEntity
  8
0
100
AcDbLine
 10
50.1091
 20
263.5246
 30
0.0
 11
52.0121
 21
253.9576
 31
0.0
  0
LINE
  5
AA
330
1E
100
AcDbEntity
  8
0
100
AcDbLine
 10
44.6898
 20
271.6346
 30
0.0
 11
50.1091
 21
263.5246
 31
0.0
  0
LINE
  5
AB
330
1E
100
AcDbEntity
  8
0
100
AcDbLine
 10
29.0121
 20
280.9576
 30
0.0
 11
29.0121
 21
278.559778298544
 31
0.0
  0
LINE
  5
AC
330
1E
100
AcDbEntity
  8
0
100
AcDbLine
 10
28.8599
 20
280.9576
 30
0.0
 11
29.0121
 21
280.9576
 31
0.0
  0
LINE
  5
AD
330
1E
100
AcDbEntity
  8
0
100
AcDbLine
 10
29.0121
 20
278.559778298544
 30
0.0
 11
29.0121
 21
280.9576
 31
0.0
  0
LINE
  5
AE
330
1E
100
AcDbEntity
  8
0
100
AcDbLine
 10
120.8155
 20
281.9566
 30
0.0
 11
128.6155
 21
285.1566
 31
0.0
  0
LINE
  5
AF
330
1E
100
AcDbEntity
  8
0
100
AcDbLine
 10
145.4155
 20
285.1566
 30
0.0
 11
153.2155
 21
281.9566
 31
0.0
  0
LINE
  5
B0
330
1E
100
AcDbEntity
  8
0
100
AcDbLine
 10
137.0155
 20
286.4566
 30
0.0
 11
145.4155
 21
285.1566
 31
0.0
  0
LINE
  5
B1
330
1E
100
AcDbEntity
  8
0
100
AcDbLine
 10
128.6155
 20
285.1566
 30
0.0
 11
137.0155
 21
286.4566
 31
0.0
  0
LINE
  5
B2
330
1E
100
AcDbEntity
  8
0
100
AcDbLine
 10
28.4263
 20
280.9586
 30
0.0
 11
28.8599
 21
280.9576
 31
0.0
  0
LINE
  5
B3
330
1E
100
AcDbEntity
  8
0
100
AcDbLine
 10
27.7775
 20
280.9586
 30
0.0
 11
28.4263
 21
280.9586
 31
0.0
  0
LINE
  5
B4
330
1E
100
AcDbEntity
  8
0
100
AcDbLine
 10
36.5792
 20
277.0546
 30
0.0
 11
44.6898
 21
271.6346
 31
0.0
  0
LINE
  5
B5
330
1E
100
AcDbEntity
  8
0
100
AcDbLine
 10
27.0121
 20
278.9576
 30
0.0
 11
36.5792
 21
277.0546
 31
0.0
  0
LINE
  5
B6
330
1E
100
AcDbEntity
  8
0
100
AcDbLine
 10
123.0125
 20
16.5571
 30
0.0
 11
123.327756631071
 21
15.433365518429
 31
0.0
  0
LINE
  5
B7
330
1E
100
AcDbEntity
  8
0
100
AcDbLine
 10
123.0125
 20
16.5571
 30
0.0
 11
123.071336374546
 21
16.766750852361
 31
0.0
  0
LINE
  5
B8
330
1E
100
AcDbEntity
  8
0
100
AcDbLine
 10
150.710886255243
 20
15.473108527265
 30
0.0
 11
151.0125
 21
16.5491
 31
0.0
  0
LINE
  5
B9
330
1E
100
AcDbEntity
  8
0
100
AcDbLine
 10
149.984824996647
 20
13.585276780207
 30
0.0
 11
150.083454934068
 21
13.234779661131
 31
0.0
  0
LINE
  5
BA
330
1E
100
AcDbEntity
  8
0
100
AcDbLine
 10
151.0155
 20
17.0571
 30
0.0
 11
152.4155
 21
37.8571
 31
0.0
  0
LINE
  5
BB
330
1E
100
AcDbEntity
  8
0
100
AcDbLine
 10
152.4155
 20
37.8571
 30
0.0
 11
154.3155
 21
60.8571
 31
0.0
  0
LINE
  5
BC
330
1E
100
AcDbEntity
  8
0
100
AcDbLine
 10
154.3155
 20
60.8571
 30
0.0
 11
156.3155
 21
85.5571
 31
0.0
  0
LINE
  5
BD
330
1E
100
AcDbEntity
  8
0
100
AcDbLine
 10
156.3155
 20
85.5571
 30
0.0
 11
157.9155
 21
107.4571
 31
0.0
  0
LINE
  5
BE
330
1E
100
AcDbEntity
  8
0
100
AcDbLine
 10
157.9155
 20
107.4571
 30
0.0
 11
159.4155
 21
126.2571
 31
0.0
  0
LINE
  5
BF
330
1E
100
AcDbEntity
  8
0
100
AcDbLine
 10
159.4155
 20
126.2571
 30
0.0
 11
161.4155
 21
148.8571
 31
0.0
  0
LINE
  5
FE
330
1E
100
AcDbEntity
  8
0
100
AcDbLine
 10
161.4155
 20
148.8571
 30
0.0
 11
162.6155
 21
165.8566
 31
0.0
  0
LINE
  5
FF
330
1E
100
AcDbEntity
  8
0
100
AcDbLine
 10
162.6155
 20
165.8566
 30
0.0
 11
163.7155
 21
182.2566
 31
0.0
  0
LINE
  5
100
330
1E
100
AcDbEntity
  8
0
100
AcDbLine
 10
163.7155
 20
182.2566
 30
0.0
 11
165.5155
 21
200.6566
 31
0.0
  0
LINE
  5
101
330
1E
100
AcDbEntity
  8
0
100
AcDbLine
 10
165.5155
 20
200.6566
 30
0.0
 11
166.9155
 21
219.0576
 31
0.0
  0
LINE
  5
102
330
1E
100
AcDbEntity
  8
0
100
AcDbLine
 10
166.9155
 20
219.0576
 30
0.0
 11
168.1155
 21
232.7566
 31
0.0
  0
LINE
  5
116
330
1E
100
AcDbEntity
  8
0
100
AcDbLine
 10
246.2465
 20
226.9556
 30
0.0
 11
247.0125
 21
226.9556
 31
0.0
  0
LINE
  5
117
330
1E
100
AcDbEntity
  8
0
100
AcDbLine
 10
247.0125
 20
226.9556
 30
0.0
 11
247.7775
 21
226.9556
 31
0.0
  0
LINE
  5
118
330
1E
100
AcDbEntity
  8
0
100
AcDbLine
 10
245.5975
 20
226.9586
 30
0.0
 11
246.2465
 21
226.9586
 31
0.0
  0
LINE
  5
119
330
1E
100
AcDbEntity
  8
0
100
AcDbLine
 10
245.1645
 20
226.9576
 30
0.0
 11
245.5975
 21
226.9586
 31
0.0
  0
LINE
  5
11A
330
1E
100
AcDbEntity
  8
0
100
AcDbLine
 10
245.0125
 20
226.9576
 30
0.0
 11
245.1645
 21
226.9566
 31
0.0
  0
LINE
  5
11B
330
1E
100
AcDbEntity
  8
0
100
AcDbLine
 10
245.0125
 20
226.9576
 30
0.0
 11
245.0125
 21
229.355425859726
 31
0.0
  0
LINE
  5
11C
330
1E
100
AcDbEntity
  8
0
100
AcDbLine
 10
245.0125
 20
226.9576
 30
0.0
 11
245.1645
 21
226.9576
 31
0.0
  0
LINE
  5
11D
330
1E
100
AcDbEntity
  8
0
100
AcDbLine
 10
245.1645
 20
226.9566
 30
0.0
 11
245.5975
 21
226.9566
 31
0.0
  0
LINE
  5
11E
330
1E
100
AcDbEntity
  8
0
100
AcDbLine
 10
246.2465
 20
226.9586
 30
0.0
 11
247.0125
 21
226.9586
 31
0.0
  0
LINE
  5
11F
330
1E
100
AcDbEntity
  8
0
100
AcDbLine
 10
245.5975
 20
226.9566
 30
0.0
 11
246.2465
 21
226.9556
 31
0.0
  0
LINE
  5
120
330
1E
100
AcDbEntity
  8
0
100
AcDbLine
 10
247.7775
 20
226.9556
 30
0.0
 11
248.4265
 21
226.9566
 31
0.0
  0
LINE
  5
121
330
1E
100
AcDbEntity
  8
0
100
AcDbLine
 10
248.4265
 20
226.9566
 30
0.0
 11
248.8595
 21
226.9566
 31
0.0
  0
LINE
  5
122
330
1E
100
AcDbEntity
  8
0
100
AcDbLine
 10
248.8595
 20
226.9566
 30
0.0
 11
249.0125
 21
226.9576
 31
0.0
  0
LINE
  5
123
330
1E
100
AcDbEntity
  8
0
100
AcDbLine
 10
248.8595
 20
226.9576
 30
0.0
 11
249.0125
 21
226.9576
 31
0.0
  0
LINE
  5
124
330
1E
100
AcDbEntity
  8
0
100
AcDbLine
 10
249.0125
 20
226.9576
 30
0.0
 11
249.0125
 21
229.355425859726
 31
0.0
  0
LINE
  5
125
330
1E
100
AcDbEntity
  8
0
100
AcDbLine
 10
248.4265
 20
226.9586
 30
0.0
 11
248.8595
 21
226.9576
 31
0.0
  0
LINE
  5
126
330
1E
100
AcDbEntity
  8
0
100
AcDbLine
 10
247.7775
 20
226.9586
 30
0.0
 11
248.4265
 21
226.9586
 31
0.0
  0
LINE
  5
127
330
1E
100
AcDbEntity
  8
0
100
AcDbLine
 10
247.0125
 20
226.9586
 30
0.0
 11
247.7775
 21
226.9586
 31
0.0
  0
LINE
  5
12F
330
1E
100
AcDbEntity
  8
0
100
AcDbLine
 10
245.0125
 20
229.355425859726
 30
0.0
 11
245.0125
 21
226.9576
 31
0.0
  0
LINE
  5
130
330
1E
100
AcDbEntity
  8
0
100
AcDbLine
 10
249.0125
 20
229.355425859726
 30
0.0
 11
249.0125
 21
226.9576
 31
0.0
  0
LINE
  5
131
330
1E
100
AcDbEntity
  8
0
100
AcDbLine
 10
237.4455
 20
230.8596
 30
0.0
 11
245.0125
 21
229.354425859726
 31
0.0
  0
LINE
  5
132
330
1E
100
AcDbEntity
  8
0
100
AcDbLine
 10
237.4455
 20
230.8606
 30
0.0
 11
247.0125
 21
228.9576
 31
0.0
  0
LINE
  5
133
330
1E
100
AcDbEntity
  8
0
100
AcDbLine
 10
249.0125
 20
229.354425859726
 30
0.0
 11
256.5795
 21
230.8596
 31
0.0
  0
LINE
  5
134
330
1E
100
AcDbEntity
  8
0
100
AcDbLine
 10
247.0125
 20
228.9576
 30
0.0
 11
256.5795
 21
230.8606
 31
0.0
  0
LINE
  5
135
330
1E
100
AcDbEntity
  8
0
100
AcDbLine
 10
256.5795
 20
230.8596
 30
0.0
 11
264.6895
 21
236.2796
 31
0.0
  0
LINE
  5
136
330
1E
100
AcDbEntity
  8
0
100
AcDbLine
 10
168.1155
 20
232.7566
 30
0.0
 11
168.9155
 21
243.1566
 31
0.0
  0
LINE
  5
137
330
1E
100
AcDbEntity
  8
0
100
AcDbLine
 10
168.9155
 20
243.1566
 30
0.0
 11
169.3155
 21
249.5576
 31
0.0
  0
LINE
  5
138
330
1E
100
AcDbEntity
  8
0
100
AcDbLine
 10
223.9155
 20
244.3896
 30
0.0
 11
229.3345
 21
236.2796
 31
0.0
  0
LINE
  5
139
330
1E
100
AcDbEntity
  8
0
100
AcDbLine
 10
229.3345
 20
236.2796
 30
0.0
 11
237.4455
 21
230.8606
 31
0.0
  0
LINE
  5
13A
330
1E
100
AcDbEntity
  8
0
100
AcDbLine
 10
229.3345
 20
236.2796
 30
0.0
 11
237.4455
 21
230.8596
 31
0.0
  0
LINE
  5
13B
330
1E
100
AcDbEntity
  8
0
100
AcDbLine
 10
256.5795
 20
230.8606
 30
0.0
 11
264.6895
 21
236.2796
 31
0.0
  0
LINE
  5
13C
330
1E
100
AcDbEntity
  8
0
100
AcDbLine
 10
264.6895
 20
236.2796
 30
0.0
 11
270.1095
 21
244.3896
 31
0.0
  0
LINE
  5
13D
330
1E
100
AcDbEntity
  8
0
100
AcDbLine
 10
264.6895
 20
236.2796
 30
0.0
 11
270.1095
 21
244.3906
 31
0.0
  0
LINE
  5
13E
330
1E
100
AcDbEntity
  8
0
100
AcDbLine
 10
169.3155
 20
249.5576
 30
0.0
 11
169.5155
 21
252.7566
 31
0.0
  0
LINE
  5
13F
330
1E
100
AcDbEntity
  8
0
100
AcDbLine
 10
169.5155
 20
252.7566
 30
0.0
 11
169.5155
 21
253.9566
 31
0.0
  0
LINE
  5
140
330
1E
100
AcDbEntity
  8
0
100
AcDbLine
 10
220.0115
 20
252.5426
 30
0.0
 11
220.0115
 21
252.1096
 31
0.0
  0
LINE
  5
141
330
1E
100
AcDbEntity
  8
0
100
AcDbLine
 10
220.0105
 20
253.1916
 30
0.0
 11
220.0115
 21
252.5426
 31
0.0
  0
LINE
  5
142
330
1E
100
AcDbEntity
  8
0
100
AcDbLine
 10
220.0105
 20
253.1916
 30
0.0
 11
220.0105
 21
253.9576
 31
0.0
  0
LINE
  5
143
330
1E
100
AcDbEntity
  8
0
100
AcDbLine
 10
220.0115
 20
252.1096
 30
0.0
 11
220.0125
 21
251.9576
 31
0.0
  0
LINE
  5
144
330
1E
100
AcDbEntity
  8
0
100
AcDbLine
 10
220.0115
 20
252.1096
 30
0.0
 11
220.0115
 21
252.5426
 31
0.0
  0
LINE
  5
145
330
1E
100
AcDbEntity
  8
0
100
AcDbLine
 10
220.0125
 20
251.9576
 30
0.0
 11
222.410325859726
 21
251.9576
 31
0.0
  0
LINE
  5
146
330
1E
100
AcDbEntity
  8
0
100
AcDbLine
 10
220.0125
 20
251.9576
 30
0.0
 11
220.0125
 21
252.1096
 31
0.0
  0
LINE
  5
147
330
1E
100
AcDbEntity
  8
0
100
AcDbLine
 10
220.0135
 20
252.5426
 30
0.0
 11
220.0135
 21
253.1916
 31
0.0
  0
LINE
  5
148
330
1E
100
AcDbEntity
  8
0
100
AcDbLine
 10
220.0125
 20
252.1096
 30
0.0
 11
220.0135
 21
252.5426
 31
0.0
  0
LINE
  5
149
330
1E
100
AcDbEntity
  8
0
100
AcDbLine
 10
220.0125
 20
252.1096
 30
0.0
 11
220.0125
 21
251.9576
 31
0.0
  0
LINE
  5
14A
330
1E
100
AcDbEntity
  8
0
100
AcDbLine
 10
220.0135
 20
253.1916
 30
0.0
 11
220.0135
 21
252.5426
 31
0.0
  0
LINE
  5
14B
330
1E
100
AcDbEntity
  8
0
100
AcDbLine
 10
220.0135
 20
253.1916
 30
0.0
 11
220.0135
 21
253.9576
 31
0.0
  0
LINE
  5
14C
330
1E
100
AcDbEntity
  8
0
100
AcDbLine
 10
222.410126946796
 20
251.9576
 30
0.0
 11
223.9155
 21
244.3896
 31
0.0
  0
LINE
  5
14D
330
1E
100
AcDbEntity
  8
0
100
AcDbLine
 10
223.9155
 20
244.3906
 30
0.0
 11
229.3345
 21
236.2796
 31
0.0
  0
LINE
  5
14E
330
1E
100
AcDbEntity
  8
0
100
AcDbLine
 10
271.614674140274
 20
251.9576
 30
0.0
 11
274.0125
 21
251.9576
 31
0.0
  0
LINE
  5
14F
330
1E
100
AcDbEntity
  8
0
100
AcDbLine
 10
274.0125
 20
251.9576
 30
0.0
 11
274.0125
 21
252.1096
 31
0.0
  0
LINE
  5
150
330
1E
100
AcDbEntity
  8
0
100
AcDbLine
 10
274.0125
 20
252.1096
 30
0.0
 11
274.0135
 21
252.5426
 31
0.0
  0
LINE
  5
151
330
1E
100
AcDbEntity
  8
0
100
AcDbLine
 10
274.0125
 20
252.1096
 30
0.0
 11
274.0125
 21
251.9576
 31
0.0
  0
LINE
  5
152
330
1E
100
AcDbEntity
  8
0
100
AcDbLine
 10
274.0135
 20
252.5426
 30
0.0
 11
274.0135
 21
253.1916
 31
0.0
  0
LINE
  5
153
330
1E
100
AcDbEntity
  8
0
100
AcDbLine
 10
274.0135
 20
253.1916
 30
0.0
 11
274.0135
 21
253.9576
 31
0.0
  0
LINE
  5
154
330
1E
100
AcDbEntity
  8
0
100
AcDbLine
 10
274.0135
 20
253.1916
 30
0.0
 11
274.0135
 21
252.5426
 31
0.0
  0
LINE
  5
155
330
1E
100
AcDbEntity
  8
0
100
AcDbLine
 10
270.1095
 20
244.3906
 30
0.0
 11
272.0125
 21
253.9576
 31
0.0
  0
LINE
  5
156
330
1E
100
AcDbEntity
  8
0
100
AcDbLine
 10
270.1095
 20
244.3896
 30
0.0
 11
271.614873053204
 21
251.9576
 31
0.0
  0
LINE
  5
168
330
1E
100
AcDbEntity
  8
0
100
AcDbLine
 10
169.5155
 20
253.9566
 30
0.0
 11
169.5155
 21
252.7566
 31
0.0
  0
LINE
  5
169
330
1E
100
AcDbEntity
  8
0
100
AcDbLine
 10
220.0105
 20
253.9576
 30
0.0
 11
220.0105
 21
254.7226
 31
0.0
  0
LINE
  5
16A
330
1E
100
AcDbEntity
  8
0
100
AcDbLine
 10
220.0105
 20
253.9576
 30
0.0
 11
220.0105
 21
253.1916
 31
0.0
  0
LINE
  5
16B
330
1E
100
AcDbEntity
  8
0
100
AcDbLine
 10
220.0135
 20
253.9576
 30
0.0
 11
220.0135
 21
253.1916
 31
0.0
  0
LINE
  5
16C
330
1E
100
AcDbEntity
  8
0
100
AcDbLine
 10
220.0135
 20
253.9576
 30
0.0
 11
220.0135
 21
254.7226
 31
0.0
  0
LINE
  5
16D
330
1E
100
AcDbEntity
  8
0
100
AcDbLine
 10
274.0135
 20
253.9576
 30
0.0
 11
274.0135
 21
254.7226
 31
0.0
  0
LINE
  5
16E
330
1E
100
AcDbEntity
  8
0
100
AcDbLine
 10
274.0135
 20
253.9576
 30
0.0
 11
274.0135
 21
253.1916
 31
0.0
  0
LINE
  5
16F
330
1E
100
AcDbEntity
  8
0
100
AcDbLine
 10
220.0115
 20
255.8046
 30
0.0
 11
220.0125
 21
255.9576
 31
0.0
  0
LINE
  5
170
330
1E
100
AcDbEntity
  8
0
100
AcDbLine
 10
220.0115
 20
255.8046
 30
0.0
 11
220.0115
 21
255.3716
 31
0.0
  0
LINE
  5
171
330
1E
100
AcDbEntity
  8
0
100
AcDbLine
 10
220.0115
 20
255.3716
 30
0.0
 11
220.0115
 21
255.8046
 31
0.0
  0
LINE
  5
172
330
1E
100
AcDbEntity
  8
0
100
AcDbLine
 10
220.0105
 20
254.7226
 30
0.0
 11
220.0115
 21
255.3716
 31
0.0
  0
LINE
  5
173
330
1E
100
AcDbEntity
  8
0
100
AcDbLine
 10
220.0105
 20
254.7226
 30
0.0
 11
220.0105
 21
253.9576
 31
0.0
  0
LINE
  5
174
330
1E
100
AcDbEntity
  8
0
100
AcDbLine
 10
220.0125
 20
255.8046
 30
0.0
 11
220.0135
 21
255.3716
 31
0.0
  0
LINE
  5
175
330
1E
100
AcDbEntity
  8
0
100
AcDbLine
 10
220.0125
 20
255.8046
 30
0.0
 11
220.0125
 21
255.9576
 31
0.0
  0
LINE
  5
176
330
1E
100
AcDbEntity
  8
0
100
AcDbLine
 10
220.0135
 20
254.7226
 30
0.0
 11
220.0135
 21
253.9576
 31
0.0
  0
LINE
  5
177
330
1E
100
AcDbEntity
  8
0
100
AcDbLine
 10
220.0135
 20
254.7226
 30
0.0
 11
220.0135
 21
255.3716
 31
0.0
  0
LINE
  5
178
330
1E
100
AcDbEntity
  8
0
100
AcDbLine
 10
274.0125
 20
255.9576
 30
0.0
 11
274.0125
 21
255.8046
 31
0.0
  0
LINE
  5
179
330
1E
100
AcDbEntity
  8
0
100
AcDbLine
 10
220.0135
 20
255.3716
 30
0.0
 11
220.0135
 21
254.7226
 31
0.0
  0
LINE
  5
17A
330
1E
100
AcDbEntity
  8
0
100
AcDbLine
 10
274.0135
 20
255.3716
 30
0.0
 11
274.0135
 21
254.7226
 31
0.0
  0
LINE
  5
17B
330
1E
100
AcDbEntity
  8
0
100
AcDbLine
 10
274.0135
 20
254.7226
 30
0.0
 11
274.0135
 21
255.3716
 31
0.0
  0
LINE
  5
17C
330
1E
100
AcDbEntity
  8
0
100
AcDbLine
 10
274.0135
 20
254.7226
 30
0.0
 11
274.0135
 21
253.9576
 31
0.0
  0
LINE
  5
17D
330
1E
100
AcDbEntity
  8
0
100
AcDbLine
 10
274.0125
 20
255.8046
 30
0.0
 11
274.0125
 21
255.9576
 31
0.0
  0
LINE
  5
17E
330
1E
100
AcDbEntity
  8
0
100
AcDbLine
 10
274.0125
 20
255.8046
 30
0.0
 11
274.0135
 21
255.3716
 31
0.0
  0
LINE
  5
17F
330
1E
100
AcDbEntity
  8
0
100
AcDbLine
 10
271.614674140274
 20
255.9576
 30
0.0
 11
274.0125
 21
255.9576
 31
0.0
  0
LINE
  5
180
330
1E
100
AcDbEntity
  8
0
100
AcDbLine
 10
220.0125
 20
255.9576
 30
0.0
 11
220.0125
 21
255.8046
 31
0.0
  0
LINE
  5
181
330
1E
100
AcDbEntity
  8
0
100
AcDbLine
 10
220.0125
 20
255.9576
 30
0.0
 11
222.410325859726
 21
255.9576
 31
0.0
  0
LINE
  5
182
330
1E
100
AcDbEntity
  8
0
100
AcDbLine
 10
222.0125
 20
253.9576
 30
0.0
 11
223.9155
 21
244.3906
 31
0.0
  0
LINE
  5
183
330
1E
100
AcDbEntity
  8
0
100
AcDbLine
 10
222.0125
 20
253.9576
 30
0.0
 11
223.9155
 21
263.5246
 31
0.0
  0
LINE
  5
185
330
1E
100
AcDbEntity
  8
0
100
AcDbLine
 10
168.4155
 20
262.3576
 30
0.0
 11
169.5155
 21
253.9566
 31
0.0
  0
LINE
  5
186
330
1E
100
AcDbEntity
  8
0
100
AcDbLine
 10
223.9155
 20
263.5246
 30
0.0
 11
229.3345
 21
271.6346
 31
0.0
  0
LINE
  5
187
330
1E
100
AcDbEntity
  8
0
100
AcDbLine
 10
270.1095
 20
263.5246
 30
0.0
 11
272.0125
 21
253.9576
 31
0.0
  0
LINE
  5
195
330
1E
100
AcDbEntity
  8
0
100
AcDbLine
 10
165.2155
 20
270.0576
 30
0.0
 11
168.4155
 21
262.3576
 31
0.0
  0
LINE
  5
196
330
1E
100
AcDbEntity
  8
0
100
AcDbLine
 10
229.3345
 20
271.6346
 30
0.0
 11
237.4455
 21
277.0546
 31
0.0
  0
LINE
  5
197
330
1E
100
AcDbEntity
  8
0
100
AcDbLine
 10
264.6895
 20
271.6346
 30
0.0
 11
270.1095
 21
263.5246
 31
0.0
  0
LINE
  5
1A4
330
1E
100
AcDbEntity
  8
0
100
AcDbLine
 10
160.0155
 20
276.8576
 30
0.0
 11
165.2155
 21
270.0576
 31
0.0
  0
LINE
  5
1A5
330
1E
100
AcDbEntity
  8
0
100
AcDbLine
 10
237.4455
 20
277.0546
 30
0.0
 11
247.0125
 21
278.9576
 31
0.0
  0
LINE
  5
1A6
330
1E
100
AcDbEntity
  8
0
100
AcDbLine
 10
245.0125
 20
278.559774140274
 30
0.0
 11
245.0125
 21
280.9576
 31
0.0
  0
LINE
  5
1A7
330
1E
100
AcDbEntity
  8
0
100
AcDbLine
 10
249.0125
 20
278.559774140274
 30
0.0
 11
249.0125
 21
280.9576
 31
0.0
  0
LINE
  5
1A8
330
1E
100
AcDbEntity
  8
0
100
AcDbLine
 10
256.5795
 20
277.0546
 30
0.0
 11
264.6895
 21
271.6346
 31
0.0
  0
LINE
  5
1AA
330
1E
100
AcDbEntity
  8
0
100
AcDbLine
 10
245.1645
 20
280.9576
 30
0.0
 11
245.5975
 21
280.9586
 31
0.0
  0
LINE
  5
1AB
330
1E
100
AcDbEntity
  8
0
100
AcDbLine
 10
153.2155
 20
281.9566
 30
0.0
 11
160.0155
 21
276.8576
 31
0.0
  0
LINE
  5
1AC
330
1E
100
AcDbEntity
  8
0
100
AcDbLine
 10
246.2465
 20
280.9586
 30
0.0
 11
247.0125
 21
280.9586
 31
0.0
  0
LINE
  5
1AD
330
1E
100
AcDbEntity
  8
0
100
AcDbLine
 10
245.5975
 20
280.9586
 30
0.0
 11
246.2465
 21
280.9586
 31
0.0
  0
LINE
  5
1AE
330
1E
100
AcDbEntity
  8
0
100
AcDbLine
 10
245.0125
 20
280.9576
 30
0.0
 11
245.0125
 21
278.559774140274
 31
0.0
  0
LINE
  5
1AF
330
1E
100
AcDbEntity
  8
0
100
AcDbLine
 10
245.0125
 20
280.9576
 30
0.0
 11
245.1645
 21
280.9576
 31
0.0
  0
LINE
  5
1B0
330
1E
100
AcDbEntity
  8
0
100
AcDbLine
 10
249.0125
 20
280.9576
 30
0.0
 11
249.0125
 21
278.559774140274
 31
0.0
  0
LINE
  5
1B1
330
1E
100
AcDbEntity
  8
0
100
AcDbLine
 10
248.8595
 20
280.9576
 30
0.0
 11
249.0125
 21
280.9576
 31
0.0
  0
LINE
  5
1B2
330
1E
100
AcDbEntity
  8
0
100
AcDbLine
 10
248.4265
 20
280.9586
 30
0.0
 11
248.8595
 21
280.9576
 31
0.0
  0
LINE
  5
1B3
330
1E
100
AcDbEntity
  8
0
100
AcDbLine
 10
247.7775
 20
280.9586
 30
0.0
 11
248.4265
 21
280.9586
 31
0.0
  0
LINE
  5
1B4
330
1E
100
AcDbEntity
  8
0
100
AcDbLine
 10
247.0125
 20
280.9586
 30
0.0
 11
247.7775
 21
280.9586
 31
0.0
  0
LINE
  5
1B5
330
1E
100
AcDbEntity
  8
0
100
AcDbLine
 10
247.0125
 20
278.9576
 30
0.0
 11
256.5795
 21
277.0546
 31
0.0
  0
LINE
  5
272
330
1E
100
AcDbEntity
  8
0
100
AcDbLine
 10
151.0045
 20
9.9617
 30
0.0
 11
151.0125
 21
16.5491
 31
0.0
  0
LINE
  5
273
330
1E
100
AcDbEntity
  8
0
100
AcDbLine
 10
150.95624923377
 20
16.748996015603
 30
0.0
 11
151.0125
 21
16.5491
 31
0.0
  0
LINE
  5
473
330
1E
100
AcDbEntity
  8
0
100
AcDbLine
 10
325.7995
 20
48.78092
 30
0.0
 11
331.2735
 21
45.47288
 31
0.0
  0
LINE
  5
474
330
1E
100
AcDbEntity
  8
0
100
AcDbLine
 10
331.2735
 20
45.47288
 30
0.0
 11
337.0405
 21
42.8932
 31
0.0
  0
LINE
  5
475
330
1E
100
AcDbEntity
  8
0
100
AcDbLine
 10
337.0405
 20
42.8932
 30
0.0
 11
343.2445
 21
41.0409
 31
0.0
  0
LINE
  5
476
330
1E
100
AcDbEntity
  8
0
100
AcDbLine
 10
343.2445
 20
41.0409
 30
0.0
 11
349.7415
 21
39.85
 31
0.0
  0
LINE
  5
477
330
1E
100
AcDbEntity
  8
0
100
AcDbLine
 10
349.7415
 20
39.85
 30
0.0
 11
356.1645
 21
39.3873
 31
0.0
  0
LINE
  5
478
330
1E
100
AcDbEntity
  8
0
100
AcDbLine
 10
349.7415
 20
48.72492
 30
0.0
 11
356.1645
 21
48.26237
 31
0.0
  0
LINE
  5
479
330
1E
100
AcDbEntity
  8
0
100
AcDbLine
 10
356.1645
 20
39.3873
 30
0.0
 11
362.5875
 21
39.85
 31
0.0
  0
LINE
  5
47A
330
1E
100
AcDbEntity
  8
0
100
AcDbLine
 10
381.0555
 20
45.47288
 30
0.0
 11
386.5295
 21
48.78092
 31
0.0
  0
LINE
  5
47B
330
1E
100
AcDbEntity
  8
0
100
AcDbLine
 10
375.2885
 20
42.8932
 30
0.0
 11
381.0555
 21
45.47288
 31
0.0
  0
LINE
  5
47C
330
1E
100
AcDbEntity
  8
0
100
AcDbLine
 10
369.0845
 20
41.0409
 30
0.0
 11
375.2885
 21
42.8932
 31
0.0
  0
LINE
  5
47D
330
1E
100
AcDbEntity
  8
0
100
AcDbLine
 10
362.5875
 20
39.85
 30
0.0
 11
369.0845
 21
41.0409
 31
0.0
  0
LINE
  5
47E
330
1E
100
AcDbEntity
  8
0
100
AcDbLine
 10
386.5295
 20
48.78092
 30
0.0
 11
391.4925
 21
52.68437
 31
0.0
  0
LINE
  5
47F
330
1E
100
AcDbEntity
  8
0
100
AcDbLine
 10
362.5875
 20
48.72492
 30
0.0
 11
369.0845
 21
49.91585
 31
0.0
  0
LINE
  5
480
330
1E
100
AcDbEntity
  8
0
100
AcDbLine
 10
356.1645
 20
48.26237
 30
0.0
 11
362.5875
 21
48.72492
 31
0.0
  0
LINE
  5
481
330
1E
100
AcDbEntity
  8
0
100
AcDbLine
 10
306.6755
 20
78.8808
 30
0.0
 11
307.9895
 21
72.9931
 31
0.0
  0
LINE
  5
482
330
1E
100
AcDbEntity
  8
0
100
AcDbLine
 10
306.6755
 20
87.7557
 30
0.0
 11
307.9895
 21
81.868
 31
0.0
  0
LINE
  5
483
330
1E
100
AcDbEntity
  8
0
100
AcDbLine
 10
306.1645
 20
84.7025
 30
0.0
 11
306.1645
 21
93.5775
 31
0.0
  0
LINE
  5
484
330
1E
100
AcDbEntity
  8
0
100
AcDbLine
 10
306.1645
 20
84.7025
 30
0.0
 11
306.6755
 21
78.8808
 31
0.0
  0
LINE
  5
485
330
1E
100
AcDbEntity
  8
0
100
AcDbLine
 10
306.6755
 20
99.399
 30
0.0
 11
307.9895
 21
105.2866
 31
0.0
  0
LINE
  5
486
330
1E
100
AcDbEntity
  8
0
100
AcDbLine
 10
306.1645
 20
93.5775
 30
0.0
 11
306.6755
 21
99.399
 31
0.0
  0
LINE
  5
487
330
1E
100
AcDbEntity
  8
0
100
AcDbLine
 10
306.1645
 20
93.5775
 30
0.0
 11
306.6755
 21
87.7557
 31
0.0
  0
LINE
  5
488
330
1E
100
AcDbEntity
  8
0
100
AcDbLine
 10
306.1645
 20
93.5775
 30
0.0
 11
306.1645
 21
84.7025
 31
0.0
  0
LINE
  5
489
330
1E
100
AcDbEntity
  8
0
100
AcDbLine
 10
310.0335
 20
67.3701
 30
0.0
 11
312.8795
 21
62.1438
 31
0.0
  0
LINE
  5
48A
330
1E
100
AcDbEntity
  8
0
100
AcDbLine
 10
307.9895
 20
72.9931
 30
0.0
 11
310.0335
 21
67.3701
 31
0.0
  0
LINE
  5
48B
330
1E
100
AcDbEntity
  8
0
100
AcDbLine
 10
310.0335
 20
76.2451
 30
0.0
 11
312.8795
 21
71.0189
 31
0.0
  0
LINE
  5
48C
330
1E
100
AcDbEntity
  8
0
100
AcDbLine
 10
307.9895
 20
81.868
 30
0.0
 11
310.0335
 21
76.2451
 31
0.0
  0
LINE
  5
48D
330
1E
100
AcDbEntity
  8
0
100
AcDbLine
 10
316.5295
 20
57.1823
 30
0.0
 11
320.8365
 21
52.68437
 31
0.0
  0
LINE
  5
48E
330
1E
100
AcDbEntity
  8
0
100
AcDbLine
 10
312.8795
 20
62.1438
 30
0.0
 11
316.5295
 21
57.1823
 31
0.0
  0
LINE
  5
48F
330
1E
100
AcDbEntity
  8
0
100
AcDbLine
 10
316.5295
 20
66.0573
 30
0.0
 11
320.8365
 21
61.5594
 31
0.0
  0
LINE
  5
490
330
1E
100
AcDbEntity
  8
0
100
AcDbLine
 10
312.8795
 20
71.0189
 30
0.0
 11
316.5295
 21
66.0573
 31
0.0
  0
LINE
  5
491
330
1E
100
AcDbEntity
  8
0
100
AcDbLine
 10
320.8365
 20
52.68437
 30
0.0
 11
325.7995
 21
48.78092
 31
0.0
  0
LINE
  5
492
330
1E
100
AcDbEntity
  8
0
100
AcDbLine
 10
320.8365
 20
61.5594
 30
0.0
 11
325.7995
 21
57.6559
 31
0.0
  0
LINE
  5
493
330
1E
100
AcDbEntity
  8
0
100
AcDbLine
 10
321.3465
 20
62.4446
 30
0.0
 11
326.2375
 21
58.608
 31
0.0
  0
LINE
  5
494
330
1E
100
AcDbEntity
  8
0
100
AcDbLine
 10
317.1135
 20
66.8765
 30
0.0
 11
321.3465
 21
62.4446
 31
0.0
  0
LINE
  5
495
330
1E
100
AcDbEntity
  8
0
100
AcDbLine
 10
313.4635
 20
71.7721
 30
0.0
 11
317.1135
 21
66.8765
 31
0.0
  0
LINE
  5
496
330
1E
100
AcDbEntity
  8
0
100
AcDbLine
 10
310.7635
 20
76.9325
 30
0.0
 11
313.4635
 21
71.7721
 31
0.0
  0
LINE
  5
497
330
1E
100
AcDbEntity
  8
0
100
AcDbLine
 10
308.6465
 20
82.7542
 30
0.0
 11
310.7635
 21
76.9325
 31
0.0
  0
LINE
  5
498
330
1E
100
AcDbEntity
  8
0
100
AcDbLine
 10
307.4055
 20
88.2443
 30
0.0
 11
308.6465
 21
82.7542
 31
0.0
  0
LINE
  5
499
330
1E
100
AcDbEntity
  8
0
100
AcDbLine
 10
307.9895
 20
105.2866
 30
0.0
 11
310.0335
 21
110.9098
 31
0.0
  0
LINE
  5
49A
330
1E
100
AcDbEntity
  8
0
100
AcDbLine
 10
310.0335
 20
110.9098
 30
0.0
 11
312.8795
 21
116.1358
 31
0.0
  0
LINE
  5
49B
330
1E
100
AcDbEntity
  8
0
100
AcDbLine
 10
312.8795
 20
116.1358
 30
0.0
 11
316.5295
 21
121.0974
 31
0.0
  0
LINE
  5
49C
330
1E
100
AcDbEntity
  8
0
100
AcDbLine
 10
316.5295
 20
121.0974
 30
0.0
 11
320.8365
 21
125.5959
 31
0.0
  0
LINE
  5
49D
330
1E
100
AcDbEntity
  8
0
100
AcDbLine
 10
317.1135
 20
121.123
 30
0.0
 11
321.3465
 21
125.5554
 31
0.0
  0
LINE
  5
49E
330
1E
100
AcDbEntity
  8
0
100
AcDbLine
 10
313.4635
 20
116.2277
 30
0.0
 11
317.1135
 21
121.123
 31
0.0
  0
LINE
  5
49F
330
1E
100
AcDbEntity
  8
0
100
AcDbLine
 10
310.7635
 20
111.0677
 30
0.0
 11
313.4635
 21
116.2277
 31
0.0
  0
LINE
  5
4A0
330
1E
100
AcDbEntity
  8
0
100
AcDbLine
 10
308.6465
 20
105.2461
 30
0.0
 11
310.7635
 21
111.0677
 31
0.0
  0
LINE
  5
4A1
330
1E
100
AcDbEntity
  8
0
100
AcDbLine
 10
307.4055
 20
99.7554
 30
0.0
 11
308.6465
 21
105.2461
 31
0.0
  0
LINE
  5
4A2
330
1E
100
AcDbEntity
  8
0
100
AcDbLine
 10
306.8945
 20
94.0001
 30
0.0
 11
307.4055
 21
99.7554
 31
0.0
  0
LINE
  5
4A3
330
1E
100
AcDbEntity
  8
0
100
AcDbLine
 10
306.8945
 20
94.0001
 30
0.0
 11
307.4055
 21
88.2443
 31
0.0
  0
LINE
  5
4A4
330
1E
100
AcDbEntity
  8
0
100
AcDbLine
 10
320.8365
 20
125.5959
 30
0.0
 11
325.7995
 21
129.4988
 31
0.0
  0
LINE
  5
4A5
330
1E
100
AcDbEntity
  8
0
100
AcDbLine
 10
325.7995
 20
57.6559
 30
0.0
 11
331.2735
 21
54.34783
 31
0.0
  0
LINE
  5
4A6
330
1E
100
AcDbEntity
  8
0
100
AcDbLine
 10
331.2735
 20
54.34783
 30
0.0
 11
337.0405
 21
51.76819
 31
0.0
  0
LINE
  5
4A7
330
1E
100
AcDbEntity
  8
0
100
AcDbLine
 10
326.2375
 20
58.608
 30
0.0
 11
331.6385
 21
55.3
 31
0.0
  0
LINE
  5
4A8
330
1E
100
AcDbEntity
  8
0
100
AcDbLine
 10
331.6385
 20
55.3
 30
0.0
 11
337.3325
 21
52.85221
 31
0.0
  0
LINE
  5
4A9
330
1E
100
AcDbEntity
  8
0
100
AcDbLine
 10
321.3465
 20
125.5554
 30
0.0
 11
326.2375
 21
129.3922
 31
0.0
  0
LINE
  5
4AA
330
1E
100
AcDbEntity
  8
0
100
AcDbLine
 10
325.7995
 20
129.4988
 30
0.0
 11
331.2735
 21
132.8066
 31
0.0
  0
LINE
  5
4AB
330
1E
100
AcDbEntity
  8
0
100
AcDbLine
 10
331.2735
 20
132.8066
 30
0.0
 11
337.0405
 21
135.3866
 31
0.0
  0
LINE
  5
4AC
330
1E
100
AcDbEntity
  8
0
100
AcDbLine
 10
326.2375
 20
129.3922
 30
0.0
 11
331.6385
 21
132.7
 31
0.0
  0
LINE
  5
4AD
330
1E
100
AcDbEntity
  8
0
100
AcDbLine
 10
337.0405
 20
51.76819
 30
0.0
 11
343.2445
 21
49.91585
 31
0.0
  0
LINE
  5
4AE
330
1E
100
AcDbEntity
  8
0
100
AcDbLine
 10
343.2445
 20
49.91585
 30
0.0
 11
349.7415
 21
48.72492
 31
0.0
  0
LINE
  5
4AF
330
1E
100
AcDbEntity
  8
0
100
AcDbLine
 10
337.3325
 20
52.85221
 30
0.0
 11
343.7555
 21
50.93398
 31
0.0
  0
LINE
  5
4B0
330
1E
100
AcDbEntity
  8
0
100
AcDbLine
 10
343.7555
 20
50.93398
 30
0.0
 11
349.8145
 21
49.80894
 31
0.0
  0
LINE
  5
4B1
330
1E
100
AcDbEntity
  8
0
100
AcDbLine
 10
331.6385
 20
132.7
 30
0.0
 11
337.3325
 21
135.1477
 31
0.0
  0
LINE
  5
4B2
330
1E
100
AcDbEntity
  8
0
100
AcDbLine
 10
337.0405
 20
135.3866
 30
0.0
 11
343.2445
 21
137.2389
 31
0.0
  0
LINE
  5
4B3
330
1E
100
AcDbEntity
  8
0
100
AcDbLine
 10
343.2445
 20
137.2389
 30
0.0
 11
349.7415
 21
138.4297
 31
0.0
  0
LINE
  5
4B4
330
1E
100
AcDbEntity
  8
0
100
AcDbLine
 10
337.3325
 20
135.1477
 30
0.0
 11
343.7555
 21
137.0662
 31
0.0
  0
LINE
  5
4B5
330
1E
100
AcDbEntity
  8
0
100
AcDbLine
 10
347.5245
 20
138.023358057565
 30
0.0
 11
347.5245
 21
147.5326
 31
0.0
  0
LINE
  5
4B6
330
1E
100
AcDbEntity
  8
0
100
AcDbLine
 10
349.8145
 20
49.80894
 30
0.0
 11
356.1645
 21
49.3464
 31
0.0
  0
LINE
  5
4B7
330
1E
100
AcDbEntity
  8
0
100
AcDbLine
 10
343.7555
 20
137.0662
 30
0.0
 11
349.8145
 21
138.1907
 31
0.0
  0
LINE
  5
4B8
330
1E
100
AcDbEntity
  8
0
100
AcDbLine
 10
349.7415
 20
138.4297
 30
0.0
 11
356.1645
 21
138.8928
 31
0.0
  0
LINE
  5
4B9
330
1E
100
AcDbEntity
  8
0
100
AcDbLine
 10
349.8145
 20
138.1907
 30
0.0
 11
356.1645
 21
138.6538
 31
0.0
  0
LINE
  5
4BA
330
1E
100
AcDbEntity
  8
0
100
AcDbLine
 10
362.5145
 20
138.1907
 30
0.0
 11
368.5735
 21
137.0662
 31
0.0
  0
LINE
  5
4BB
330
1E
100
AcDbEntity
  8
0
100
AcDbLine
 10
344.5485
 20
146.1526
 30
0.0
 11
345.7965
 21
144.8506
 31
0.0
  0
LINE
  5
4BC
330
1E
100
AcDbEntity
  8
0
100
AcDbLine
 10
344.1645
 20
147.5326
 30
0.0
 11
344.5485
 21
148.9526
 31
0.0
  0
LINE
  5
4BD
330
1E
100
AcDbEntity
  8
0
100
AcDbLine
 10
344.1645
 20
147.5326
 30
0.0
 11
344.5485
 21
146.1526
 31
0.0
  0
LINE
  5
4BE
330
1E
100
AcDbEntity
  8
0
100
AcDbLine
 10
344.1645
 20
147.5326
 30
0.0
 11
344.1645
 21
208.0136
 31
0.0
  0
LINE
  5
4BF
330
1E
100
AcDbEntity
  8
0
100
AcDbLine
 10
345.7965
 20
144.8506
 30
0.0
 11
347.5245
 21
143.82136
 31
0.0
  0
LINE
  5
4C0
330
1E
100
AcDbEntity
  8
0
100
AcDbLine
 10
344.5485
 20
148.9526
 30
0.0
 11
345.7965
 21
150.2546
 31
0.0
  0
LINE
  5
4C1
330
1E
100
AcDbEntity
  8
0
100
AcDbLine
 10
345.7965
 20
150.2546
 30
0.0
 11
347.7165
 21
151.3976
 31
0.0
  0
LINE
  5
4C2
330
1E
100
AcDbEntity
  8
0
100
AcDbLine
 10
347.7165
 20
151.3976
 30
0.0
 11
350.2125
 21
152.2656
 31
0.0
  0
LINE
  5
4C3
330
1E
100
AcDbEntity
  8
0
100
AcDbLine
 10
353.9565
 20
151.3186
 30
0.0
 11
356.1645
 21
151.4766
 31
0.0
  0
LINE
  5
4C4
330
1E
100
AcDbEntity
  8
0
100
AcDbLine
 10
351.8445
 20
150.9236
 30
0.0
 11
353.9565
 21
151.3186
 31
0.0
  0
LINE
  5
4C5
330
1E
100
AcDbEntity
  8
0
100
AcDbLine
 10
350.0205
 20
150.2936
 30
0.0
 11
351.8445
 21
150.9236
 31
0.0
  0
LINE
  5
4C6
330
1E
100
AcDbEntity
  8
0
100
AcDbLine
 10
348.6765
 20
149.5046
 30
0.0
 11
350.0205
 21
150.2936
 31
0.0
  0
LINE
  5
4C7
330
1E
100
AcDbEntity
  8
0
100
AcDbLine
 10
347.8125
 20
148.5576
 30
0.0
 11
348.6765
 21
149.5046
 31
0.0
  0
LINE
  5
4C8
330
1E
100
AcDbEntity
  8
0
100
AcDbLine
 10
347.5245
 20
147.5326
 30
0.0
 11
347.5245
 21
138.023358057565
 31
0.0
  0
LINE
  5
4C9
330
1E
100
AcDbEntity
  8
0
100
AcDbLine
 10
347.5245
 20
147.5326
 30
0.0
 11
347.8125
 21
148.5576
 31
0.0
  0
LINE
  5
4CA
330
1E
100
AcDbEntity
  8
0
100
AcDbLine
 10
340.7675
 20
207.0486
 30
0.0
 11
342.2295
 21
204.1936
 31
0.0
  0
LINE
  5
4CB
330
1E
100
AcDbEntity
  8
0
100
AcDbLine
 10
343.8135
 20
202.4196
 30
0.0
 11
344.1645
 21
202.144841803279
 31
0.0
  0
LINE
  5
4CC
330
1E
100
AcDbEntity
  8
0
100
AcDbLine
 10
342.2295
 20
204.1936
 30
0.0
 11
342.6865
 21
203.9886
 31
0.0
  0
LINE
  5
4CD
330
1E
100
AcDbEntity
  8
0
100
AcDbLine
 10
342.338549608484
 20
204.144682779564
 30
0.0
 11
343.8135
 21
202.4196
 31
0.0
  0
LINE
  5
4CE
330
1E
100
AcDbEntity
  8
0
100
AcDbLine
 10
342.6865
 20
203.9886
 30
0.0
 11
344.1645
 21
202.408958841779
 31
0.0
  0
LINE
  5
4CF
330
1E
100
AcDbEntity
  8
0
100
AcDbLine
 10
341.1045
 20
206.3726
 30
0.0
 11
341.164267041061
 21
206.273791585343
 31
0.0
  0
LINE
  5
4D0
330
1E
100
AcDbEntity
  8
0
100
AcDbLine
 10
340.1315
 20
211.0996
 30
0.0
 11
340.6545
 21
213.7716
 31
0.0
  0
LINE
  5
4D1
330
1E
100
AcDbEntity
  8
0
100
AcDbLine
 10
340.1315
 20
211.0996
 30
0.0
 11
340.3145
 21
208.6976
 31
0.0
  0
LINE
  5
4D2
330
1E
100
AcDbEntity
  8
0
100
AcDbLine
 10
340.3145
 20
208.6976
 30
0.0
 11
340.7675
 21
207.0486
 31
0.0
  0
LINE
  5
4D3
330
1E
100
AcDbEntity
  8
0
100
AcDbLine
 10
344.1645
 20
208.0136
 30
0.0
 11
344.1645
 21
147.5326
 31
0.0
  0
LINE
  5
4D4
330
1E
100
AcDbEntity
  8
0
100
AcDbLine
 10
344.1645
 20
208.0136
 30
0.0
 11
344.5485
 21
210.4076
 31
0.0
  0
LINE
  5
4D5
330
1E
100
AcDbEntity
  8
0
100
AcDbLine
 10
344.5485
 20
210.4076
 30
0.0
 11
345.7965
 21
212.6336
 31
0.0
  0
LINE
  5
4D6
330
1E
100
AcDbEntity
  8
0
100
AcDbLine
 10
340.6545
 20
213.7716
 30
0.0
 11
341.9595
 21
216.2876
 31
0.0
  0
LINE
  5
4D7
330
1E
100
AcDbEntity
  8
0
100
AcDbLine
 10
345.7965
 20
212.6336
 30
0.0
 11
347.7165
 21
214.5636
 31
0.0
  0
LINE
  5
4D8
330
1E
100
AcDbEntity
  8
0
100
AcDbLine
 10
347.7165
 20
214.5636
 30
0.0
 11
350.2125
 21
215.9876
 31
0.0
  0
LINE
  5
4D9
330
1E
100
AcDbEntity
  8
0
100
AcDbLine
 10
341.9595
 20
216.2876
 30
0.0
 11
343.8935
 21
218.5536
 31
0.0
  0
LINE
  5
4DA
330
1E
100
AcDbEntity
  8
0
100
AcDbLine
 10
350.2125
 20
215.9876
 30
0.0
 11
353.0925
 21
216.8676
 31
0.0
  0
LINE
  5
4DB
330
1E
100
AcDbEntity
  8
0
100
AcDbLine
 10
350.2125
 20
152.2656
 30
0.0
 11
353.0925
 21
152.7776
 31
0.0
  0
LINE
  5
4DC
330
1E
100
AcDbEntity
  8
0
100
AcDbLine
 10
353.0925
 20
216.8676
 30
0.0
 11
356.1645
 21
217.2046
 31
0.0
  0
LINE
  5
4DD
330
1E
100
AcDbEntity
  8
0
100
AcDbLine
 10
353.0925
 20
152.7776
 30
0.0
 11
356.1645
 21
152.9746
 31
0.0
  0
LINE
  5
4DE
330
1E
100
AcDbEntity
  8
0
100
AcDbLine
 10
343.8935
 20
218.5536
 30
0.0
 11
346.7785
 21
220.5906
 31
0.0
  0
LINE
  5
4DF
330
1E
100
AcDbEntity
  8
0
100
AcDbLine
 10
346.7785
 20
220.5906
 30
0.0
 11
350.5925
 21
222.1436
 31
0.0
  0
LINE
  5
4E0
330
1E
100
AcDbEntity
  8
0
100
AcDbLine
 10
356.1645
 20
217.2046
 30
0.0
 11
359.2365
 21
216.8676
 31
0.0
  0
LINE
  5
4E1
330
1E
100
AcDbEntity
  8
0
100
AcDbLine
 10
356.1645
 20
152.9746
 30
0.0
 11
359.2365
 21
152.7776
 31
0.0
  0
LINE
  5
4E2
330
1E
100
AcDbEntity
  8
0
100
AcDbLine
 10
356.1645
 20
151.4766
 30
0.0
 11
358.3725
 21
151.3186
 31
0.0
  0
LINE
  5
4E3
330
1E
100
AcDbEntity
  8
0
100
AcDbLine
 10
362.3085
 20
150.2936
 30
0.0
 11
363.6525
 21
149.5046
 31
0.0
  0
LINE
  5
4E4
330
1E
100
AcDbEntity
  8
0
100
AcDbLine
 10
360.4845
 20
150.9236
 30
0.0
 11
362.3085
 21
150.2936
 31
0.0
  0
LINE
  5
4E5
330
1E
100
AcDbEntity
  8
0
100
AcDbLine
 10
359.2365
 20
216.8676
 30
0.0
 11
362.1165
 21
215.9876
 31
0.0
  0
LINE
  5
4E6
330
1E
100
AcDbEntity
  8
0
100
AcDbLine
 10
362.1165
 20
215.9876
 30
0.0
 11
364.6125
 21
214.5636
 31
0.0
  0
LINE
  5
4E7
330
1E
100
AcDbEntity
  8
0
100
AcDbLine
 10
362.1165
 20
152.2656
 30
0.0
 11
364.6125
 21
151.3976
 31
0.0
  0
LINE
  5
4E8
330
1E
100
AcDbEntity
  8
0
100
AcDbLine
 10
359.2365
 20
152.7776
 30
0.0
 11
362.1165
 21
152.2656
 31
0.0
  0
LINE
  5
4E9
330
1E
100
AcDbEntity
  8
0
100
AcDbLine
 10
358.3725
 20
151.3186
 30
0.0
 11
360.4845
 21
150.9236
 31
0.0
  0
LINE
  5
4EA
330
1E
100
AcDbEntity
  8
0
100
AcDbLine
 10
356.1645
 20
138.8928
 30
0.0
 11
362.5875
 21
138.4297
 31
0.0
  0
LINE
  5
4EB
330
1E
100
AcDbEntity
  8
0
100
AcDbLine
 10
356.1645
 20
138.6538
 30
0.0
 11
362.5145
 21
138.1907
 31
0.0
  0
LINE
  5
4EC
330
1E
100
AcDbEntity
  8
0
100
AcDbLine
 10
369.0845
 20
49.91585
 30
0.0
 11
375.2885
 21
51.76819
 31
0.0
  0
LINE
  5
4ED
330
1E
100
AcDbEntity
  8
0
100
AcDbLine
 10
374.9965
 20
135.1477
 30
0.0
 11
380.6905
 21
132.7
 31
0.0
  0
LINE
  5
4EE
330
1E
100
AcDbEntity
  8
0
100
AcDbLine
 10
364.8045
 20
143.82136
 30
0.0
 11
366.5325
 21
144.8506
 31
0.0
  0
LINE
  5
4EF
330
1E
100
AcDbEntity
  8
0
100
AcDbLine
 10
366.5325
 20
144.8506
 30
0.0
 11
367.7805
 21
146.1526
 31
0.0
  0
LINE
  5
4F0
330
1E
100
AcDbEntity
  8
0
100
AcDbLine
 10
368.1645
 20
147.5326
 30
0.0
 11
368.1645
 21
208.0136
 31
0.0
  0
LINE
  5
4F1
330
1E
100
AcDbEntity
  8
0
100
AcDbLine
 10
367.7805
 20
146.1526
 30
0.0
 11
368.1645
 21
147.5326
 31
0.0
  0
LINE
  5
4F2
330
1E
100
AcDbEntity
  8
0
100
AcDbLine
 10
364.6125
 20
214.5636
 30
0.0
 11
366.5325
 21
212.6336
 31
0.0
  0
LINE
  5
4F3
330
1E
100
AcDbEntity
  8
0
100
AcDbLine
 10
367.7805
 20
148.9526
 30
0.0
 11
368.1645
 21
147.5326
 31
0.0
  0
LINE
  5
4F4
330
1E
100
AcDbEntity
  8
0
100
AcDbLine
 10
368.1645
 20
202.192163492063
 30
0.0
 11
368.8855
 21
202.9336
 31
0.0
  0
LINE
  5
4F5
330
1E
100
AcDbEntity
  8
0
100
AcDbLine
 10
368.1645
 20
202.879929273793
 30
0.0
 11
368.3885
 21
203.0816
 31
0.0
  0
LINE
  5
4F6
330
1E
100
AcDbEntity
  8
0
100
AcDbLine
 10
368.8855
 20
202.9336
 30
0.0
 11
370.7755
 21
205.3466
 31
0.0
  0
LINE
  5
4F7
330
1E
100
AcDbEntity
  8
0
100
AcDbLine
 10
371.7635
 20
207.7256
 30
0.0
 11
372.1515
 21
209.8156
 31
0.0
  0
LINE
  5
4F8
330
1E
100
AcDbEntity
  8
0
100
AcDbLine
 10
370.7755
 20
205.3466
 30
0.0
 11
371.7635
 21
207.7256
 31
0.0
  0
LINE
  5
4F9
330
1E
100
AcDbEntity
  8
0
100
AcDbLine
 10
368.1645
 20
208.0136
 30
0.0
 11
368.1645
 21
147.5326
 31
0.0
  0
LINE
  5
4FA
330
1E
100
AcDbEntity
  8
0
100
AcDbLine
 10
367.0955
 20
219.5886
 30
0.0
 11
368.9505
 21
218.0256
 31
0.0
  0
LINE
  5
4FB
330
1E
100
AcDbEntity
  8
0
100
AcDbLine
 10
368.9505
 20
218.0256
 30
0.0
 11
370.1795
 21
216.4856
 31
0.0
  0
LINE
  5
4FC
330
1E
100
AcDbEntity
  8
0
100
AcDbLine
 10
371.9225
 20
212.8176
 30
0.0
 11
372.1515
 21
209.8156
 31
0.0
  0
LINE
  5
4FD
330
1E
100
AcDbEntity
  8
0
100
AcDbLine
 10
371.1725
 20
214.8456
 30
0.0
 11
371.232489660265
 21
214.668896279193
 31
0.0
  0
LINE
  5
4FE
330
1E
100
AcDbEntity
  8
0
100
AcDbLine
 10
371.3455
 20
214.5746
 30
0.0
 11
371.9225
 21
212.8176
 31
0.0
  0
LINE
  5
4FF
330
1E
100
AcDbEntity
  8
0
100
AcDbLine
 10
370.1795
 20
216.4856
 30
0.0
 11
371.1725
 21
214.8456
 31
0.0
  0
LINE
  5
500
330
1E
100
AcDbEntity
  8
0
100
AcDbLine
 10
367.7805
 20
210.4076
 30
0.0
 11
368.1645
 21
208.0136
 31
0.0
  0
LINE
  5
501
330
1E
100
AcDbEntity
  8
0
100
AcDbLine
 10
366.5325
 20
212.6336
 30
0.0
 11
367.7805
 21
210.4076
 31
0.0
  0
LINE
  5
502
330
1E
100
AcDbEntity
  8
0
100
AcDbLine
 10
366.5325
 20
150.2546
 30
0.0
 11
367.7805
 21
148.9526
 31
0.0
  0
LINE
  5
503
330
1E
100
AcDbEntity
  8
0
100
AcDbLine
 10
364.6125
 20
151.3976
 30
0.0
 11
366.5325
 21
150.2546
 31
0.0
  0
LINE
  5
504
330
1E
100
AcDbEntity
  8
0
100
AcDbLine
 10
364.8045
 20
147.5326
 30
0.0
 11
364.8045
 21
138.023358057565
 31
0.0
  0
LINE
  5
505
330
1E
100
AcDbEntity
  8
0
100
AcDbLine
 10
364.5165
 20
148.5576
 30
0.0
 11
364.8045
 21
147.5326
 31
0.0
  0
LINE
  5
506
330
1E
100
AcDbEntity
  8
0
100
AcDbLine
 10
364.8045
 20
138.023358057565
 30
0.0
 11
364.8045
 21
147.5326
 31
0.0
  0
LINE
  5
507
330
1E
100
AcDbEntity
  8
0
100
AcDbLine
 10
363.6525
 20
149.5046
 30
0.0
 11
364.5165
 21
148.5576
 31
0.0
  0
LINE
  5
508
330
1E
100
AcDbEntity
  8
0
100
AcDbLine
 10
369.0845
 20
137.2389
 30
0.0
 11
375.2885
 21
135.3866
 31
0.0
  0
LINE
  5
509
330
1E
100
AcDbEntity
  8
0
100
AcDbLine
 10
362.5875
 20
138.4297
 30
0.0
 11
369.0845
 21
137.2389
 31
0.0
  0
LINE
  5
50A
330
1E
100
AcDbEntity
  8
0
100
AcDbLine
 10
368.5735
 20
137.0662
 30
0.0
 11
374.9965
 21
135.1477
 31
0.0
  0
LINE
  5
50B
330
1E
100
AcDbEntity
  8
0
100
AcDbLine
 10
391.4925
 20
52.68437
 30
0.0
 11
395.7995
 21
57.1823
 31
0.0
  0
LINE
  5
50C
330
1E
100
AcDbEntity
  8
0
100
AcDbLine
 10
381.0555
 20
54.34783
 30
0.0
 11
386.5295
 21
57.6559
 31
0.0
  0
LINE
  5
50D
330
1E
100
AcDbEntity
  8
0
100
AcDbLine
 10
375.2885
 20
51.76819
 30
0.0
 11
381.0555
 21
54.34783
 31
0.0
  0
LINE
  5
50E
330
1E
100
AcDbEntity
  8
0
100
AcDbLine
 10
386.0915
 20
129.3922
 30
0.0
 11
390.9825
 21
125.5554
 31
0.0
  0
LINE
  5
50F
330
1E
100
AcDbEntity
  8
0
100
AcDbLine
 10
381.0555
 20
132.8066
 30
0.0
 11
386.5295
 21
129.4988
 31
0.0
  0
LINE
  5
510
330
1E
100
AcDbEntity
  8
0
100
AcDbLine
 10
375.2885
 20
135.3866
 30
0.0
 11
381.0555
 21
132.8066
 31
0.0
  0
LINE
  5
511
330
1E
100
AcDbEntity
  8
0
100
AcDbLine
 10
380.6905
 20
132.7
 30
0.0
 11
386.0915
 21
129.3922
 31
0.0
  0
LINE
  5
512
330
1E
100
AcDbEntity
  8
0
100
AcDbLine
 10
395.7995
 20
57.1823
 30
0.0
 11
399.4495
 21
62.1438
 31
0.0
  0
LINE
  5
513
330
1E
100
AcDbEntity
  8
0
100
AcDbLine
 10
391.4925
 20
61.5594
 30
0.0
 11
395.7995
 21
66.0573
 31
0.0
  0
LINE
  5
514
330
1E
100
AcDbEntity
  8
0
100
AcDbLine
 10
390.9825
 20
62.4446
 30
0.0
 11
395.2155
 21
66.8765
 31
0.0
  0
LINE
  5
515
330
1E
100
AcDbEntity
  8
0
100
AcDbLine
 10
399.4495
 20
62.1438
 30
0.0
 11
402.2955
 21
67.3701
 31
0.0
  0
LINE
  5
516
330
1E
100
AcDbEntity
  8
0
100
AcDbLine
 10
395.7995
 20
66.0573
 30
0.0
 11
399.4495
 21
71.0189
 31
0.0
  0
LINE
  5
517
330
1E
100
AcDbEntity
  8
0
100
AcDbLine
 10
399.4495
 20
71.0189
 30
0.0
 11
402.2955
 21
76.2451
 31
0.0
  0
LINE
  5
518
330
1E
100
AcDbEntity
  8
0
100
AcDbLine
 10
395.2155
 20
66.8765
 30
0.0
 11
398.8655
 21
71.7721
 31
0.0
  0
LINE
  5
519
330
1E
100
AcDbEntity
  8
0
100
AcDbLine
 10
398.8655
 20
71.7721
 30
0.0
 11
401.5655
 21
76.9325
 31
0.0
  0
LINE
  5
51A
330
1E
100
AcDbEntity
  8
0
100
AcDbLine
 10
402.2955
 20
67.3701
 30
0.0
 11
404.3395
 21
72.9931
 31
0.0
  0
LINE
  5
51B
330
1E
100
AcDbEntity
  8
0
100
AcDbLine
 10
404.3395
 20
72.9931
 30
0.0
 11
405.6535
 21
78.8808
 31
0.0
  0
LINE
  5
51C
330
1E
100
AcDbEntity
  8
0
100
AcDbLine
 10
402.2955
 20
76.2451
 30
0.0
 11
404.3395
 21
81.868
 31
0.0
  0
LINE
  5
51D
330
1E
100
AcDbEntity
  8
0
100
AcDbLine
 10
404.3395
 20
81.868
 30
0.0
 11
405.6535
 21
87.7557
 31
0.0
  0
LINE
  5
51E
330
1E
100
AcDbEntity
  8
0
100
AcDbLine
 10
401.5655
 20
76.9325
 30
0.0
 11
403.6825
 21
82.7542
 31
0.0
  0
LINE
  5
51F
330
1E
100
AcDbEntity
  8
0
100
AcDbLine
 10
399.4495
 20
116.1358
 30
0.0
 11
402.2955
 21
110.9098
 31
0.0
  0
LINE
  5
520
330
1E
100
AcDbEntity
  8
0
100
AcDbLine
 10
386.5295
 20
129.4988
 30
0.0
 11
391.4925
 21
125.5959
 31
0.0
  0
LINE
  5
521
330
1E
100
AcDbEntity
  8
0
100
AcDbLine
 10
391.4925
 20
125.5959
 30
0.0
 11
395.7995
 21
121.0974
 31
0.0
  0
LINE
  5
522
330
1E
100
AcDbEntity
  8
0
100
AcDbLine
 10
390.9825
 20
125.5554
 30
0.0
 11
395.2155
 21
121.123
 31
0.0
  0
LINE
  5
523
330
1E
100
AcDbEntity
  8
0
100
AcDbLine
 10
395.7995
 20
121.0974
 30
0.0
 11
399.4495
 21
116.1358
 31
0.0
  0
LINE
  5
524
330
1E
100
AcDbEntity
  8
0
100
AcDbLine
 10
395.2155
 20
121.123
 30
0.0
 11
398.8655
 21
116.2277
 31
0.0
  0
LINE
  5
525
330
1E
100
AcDbEntity
  8
0
100
AcDbLine
 10
398.8655
 20
116.2277
 30
0.0
 11
401.5655
 21
111.0677
 31
0.0
  0
LINE
  5
526
330
1E
100
AcDbEntity
  8
0
100
AcDbLine
 10
402.2955
 20
110.9098
 30
0.0
 11
404.3395
 21
105.2866
 31
0.0
  0
LINE
  5
527
330
1E
100
AcDbEntity
  8
0
100
AcDbLine
 10
404.3395
 20
105.2866
 30
0.0
 11
405.6535
 21
99.399
 31
0.0
  0
LINE
  5
528
330
1E
100
AcDbEntity
  8
0
100
AcDbLine
 10
401.5655
 20
111.0677
 30
0.0
 11
403.6825
 21
105.2461
 31
0.0
  0
LINE
  5
529
330
1E
100
AcDbEntity
  8
0
100
AcDbLine
 10
403.6825
 20
105.2461
 30
0.0
 11
404.9235
 21
99.7554
 31
0.0
  0
LINE
  5
52A
330
1E
100
AcDbEntity
  8
0
100
AcDbLine
 10
404.9235
 20
99.7554
 30
0.0
 11
405.4345
 21
94.0001
 31
0.0
  0
LINE
  5
52B
330
1E
100
AcDbEntity
  8
0
100
AcDbLine
 10
403.6825
 20
82.7542
 30
0.0
 11
404.9235
 21
88.2443
 31
0.0
  0
LINE
  5
52C
330
1E
100
AcDbEntity
  8
0
100
AcDbLine
 10
406.1645
 20
84.7025
 30
0.0
 11
406.1645
 21
93.5775
 31
0.0
  0
LINE
  5
52D
330
1E
100
AcDbEntity
  8
0
100
AcDbLine
 10
405.6535
 20
78.8808
 30
0.0
 11
406.1645
 21
84.7025
 31
0.0
  0
LINE
  5
52E
330
1E
100
AcDbEntity
  8
0
100
AcDbLine
 10
406.1645
 20
93.5775
 30
0.0
 11
406.1645
 21
84.7025
 31
0.0
  0
LINE
  5
52F
330
1E
100
AcDbEntity
  8
0
100
AcDbLine
 10
405.6535
 20
99.399
 30
0.0
 11
406.1645
 21
93.5775
 31
0.0
  0
LINE
  5
530
330
1E
100
AcDbEntity
  8
0
100
AcDbLine
 10
405.6535
 20
87.7557
 30
0.0
 11
406.1645
 21
93.5775
 31
0.0
  0
LINE
  5
531
330
1E
100
AcDbEntity
  8
0
100
AcDbLine
 10
404.9235
 20
88.2443
 30
0.0
 11
405.4345
 21
94.0001
 31
0.0
  0
LINE
  5
532
330
1E
100
AcDbEntity
  8
0
100
AcDbLine
 10
386.5295
 20
57.6559
 30
0.0
 11
391.4925
 21
61.5594
 31
0.0
  0
LINE
  5
533
330
1E
100
AcDbEntity
  8
0
100
AcDbLine
 10
386.0915
 20
58.608
 30
0.0
 11
390.9825
 21
62.4446
 31
0.0
  0
LINE
  5
534
330
1E
100
AcDbEntity
  8
0
100
AcDbLine
 10
380.6905
 20
55.3
 30
0.0
 11
386.0915
 21
58.608
 31
0.0
  0
LINE
  5
535
330
1E
100
AcDbEntity
  8
0
100
AcDbLine
 10
374.9965
 20
52.85221
 30
0.0
 11
380.6905
 21
55.3
 31
0.0
  0
LINE
  5
536
330
1E
100
AcDbEntity
  8
0
100
AcDbLine
 10
368.5735
 20
50.93398
 30
0.0
 11
374.9965
 21
52.85221
 31
0.0
  0
LINE
  5
537
330
1E
100
AcDbEntity
  8
0
100
AcDbLine
 10
362.5145
 20
49.80894
 30
0.0
 11
368.5735
 21
50.93398
 31
0.0
  0
LINE
  5
538
330
1E
100
AcDbEntity
  8
0
100
AcDbLine
 10
356.1645
 20
49.3464
 30
0.0
 11
362.5145
 21
49.80894
 31
0.0
  0
LINE
  5
539
330
1E
100
AcDbEntity
  8
0
100
AcDbLine
 10
333.8195
 20
226.9756
 30
0.0
 11
336.5385
 21
224.9986
 31
0.0
  0
LINE
  5
53A
330
1E
100
AcDbEntity
  8
0
100
AcDbLine
 10
336.5385
 20
224.9986
 30
0.0
 11
339.3855
 21
223.3286
 31
0.0
  0
LINE
  5
53B
330
1E
100
AcDbEntity
  8
0
100
AcDbLine
 10
331.3785
 20
229.2476
 30
0.0
 11
332.413310987608
 21
228.284433034066
 31
0.0
  0
LINE
  5
53C
330
1E
100
AcDbEntity
  8
0
100
AcDbLine
 10
332.413310987608
 20
228.284433034066
 30
0.0
 11
333.8195
 21
226.9756
 31
0.0
  0
LINE
  5
53D
330
1E
100
AcDbEntity
  8
0
100
AcDbLine
 10
340.1465
 20
221.9146
 30
0.0
 11
340.174207367469
 21
211.317791368792
 31
0.0
  0
LINE
  5
53E
330
1E
100
AcDbEntity
  8
0
100
AcDbLine
 10
340.1465
 20
221.9146
 30
0.0
 11
340.3685
 21
224.9196
 31
0.0
  0
LINE
  5
53F
330
1E
100
AcDbEntity
  8
0
100
AcDbLine
 10
340.388118492412
 20
224.965243349202
 30
0.0
 11
340.5315
 21
226.0116
 31
0.0
  0
LINE
  5
540
330
1E
100
AcDbEntity
  8
0
100
AcDbLine
 10
340.3685
 20
224.9196
 30
0.0
 11
341.5965
 21
227.7766
 31
0.0
  0
LINE
  5
541
330
1E
100
AcDbEntity
  8
0
100
AcDbLine
 10
350.5925
 20
222.1436
 30
0.0
 11
354.4175
 21
222.8376
 31
0.0
  0
LINE
  5
542
330
1E
100
AcDbEntity
  8
0
100
AcDbLine
 10
363.5885
 20
221.5336
 30
0.0
 11
367.0955
 21
219.5886
 31
0.0
  0
LINE
  5
543
330
1E
100
AcDbEntity
  8
0
100
AcDbLine
 10
354.4175
 20
222.8376
 30
0.0
 11
359.5105
 21
222.6356
 31
0.0
  0
LINE
  5
544
330
1E
100
AcDbEntity
  8
0
100
AcDbLine
 10
359.5105
 20
222.6356
 30
0.0
 11
363.5885
 21
221.5336
 31
0.0
  0
LINE
  5
545
330
1E
100
AcDbEntity
  8
0
100
AcDbLine
 10
372.117607158879
 20
222.940292505437
 30
0.0
 11
375.7675
 21
225.0196
 31
0.0
  0
LINE
  5
546
330
1E
100
AcDbEntity
  8
0
100
AcDbLine
 10
371.9415
 20
225.0606
 30
0.0
 11
372.1385
 21
223.1436
 31
0.0
  0
LINE
  5
547
330
1E
100
AcDbEntity
  8
0
100
AcDbLine
 10
371.8515
 20
225.1386
 30
0.0
 11
372.1255
 21
221.5376
 31
0.0
  0
LINE
  5
548
330
1E
100
AcDbEntity
  8
0
100
AcDbLine
 10
372.1385
 20
222.952194948335
 30
0.0
 11
372.1385
 21
248.9626
 31
0.0
  0
LINE
  5
549
330
1E
100
AcDbEntity
  8
0
100
AcDbLine
 10
372.1255
 20
221.5376
 30
0.0
 11
372.1445
 21
210.1186
 31
0.0
  0
LINE
  5
54A
330
1E
100
AcDbEntity
  8
0
100
AcDbLine
 10
340.5315
 20
226.0116
 30
0.0
 11
341.8815
 21
228.7086
 31
0.0
  0
LINE
  5
54B
330
1E
100
AcDbEntity
  8
0
100
AcDbLine
 10
341.5965
 20
227.7766
 30
0.0
 11
343.6375
 21
230.3416
 31
0.0
  0
LINE
  5
54C
330
1E
100
AcDbEntity
  8
0
100
AcDbLine
 10
371.1865
 20
226.8766
 30
0.0
 11
371.8515
 21
225.1386
 31
0.0
  0
LINE
  5
54D
330
1E
100
AcDbEntity
  8
0
100
AcDbLine
 10
375.7675
 20
225.0196
 30
0.0
 11
379.6655
 21
228.1066
 31
0.0
  0
LINE
  5
54E
330
1E
100
AcDbEntity
  8
0
100
AcDbLine
 10
370.9635
 20
227.8516
 30
0.0
 11
371.9415
 21
225.0606
 31
0.0
  0
LINE
  5
54F
330
1E
100
AcDbEntity
  8
0
100
AcDbLine
 10
341.8815
 20
228.7076
 30
0.0
 11
343.1935
 21
230.3476
 31
0.0
  0
LINE
  5
550
330
1E
100
AcDbEntity
  8
0
100
AcDbLine
 10
379.6655
 20
228.1066
 30
0.0
 11
382.0195
 21
230.4606
 31
0.0
  0
LINE
  5
551
330
1E
100
AcDbEntity
  8
0
100
AcDbLine
 10
370.2225
 20
228.5256
 30
0.0
 11
371.1865
 21
226.8766
 31
0.0
  0
LINE
  5
552
330
1E
100
AcDbEntity
  8
0
100
AcDbLine
 10
339.3835
 20
223.3306
 30
0.0
 11
340.157588335217
 21
222.953002246379
 31
0.0
  0
LINE
  5
553
330
1E
100
AcDbEntity
  8
0
100
AcDbLine
 10
337.7235
 20
232.3096
 30
0.0
 11
340.0275
 21
230.5486
 31
0.0
  0
LINE
  5
554
330
1E
100
AcDbEntity
  8
0
100
AcDbLine
 10
329.1085
 20
231.6896
 30
0.0
 11
331.3785
 21
229.2476
 31
0.0
  0
LINE
  5
555
330
1E
100
AcDbEntity
  8
0
100
AcDbLine
 10
343.6375
 20
230.3416
 30
0.0
 11
347.0995
 21
232.7906
 31
0.0
  0
LINE
  5
556
330
1E
100
AcDbEntity
  8
0
100
AcDbLine
 10
372.1385
 20
230.480979603399
 30
0.0
 11
372.2485
 21
230.5486
 31
0.0
  0
LINE
  5
557
330
1E
100
AcDbEntity
  8
0
100
AcDbLine
 10
372.2485
 20
230.5486
 30
0.0
 11
374.5525
 21
232.3106
 31
0.0
  0
LINE
  5
558
330
1E
100
AcDbEntity
  8
0
100
AcDbLine
 10
343.1935
 20
230.3476
 30
0.0
 11
344.8245
 21
231.8106
 31
0.0
  0
LINE
  5
559
330
1E
100
AcDbEntity
  8
0
100
AcDbLine
 10
382.0195
 20
230.4606
 30
0.0
 11
383.1405
 21
231.6946
 31
0.0
  0
LINE
  5
55A
330
1E
100
AcDbEntity
  8
0
100
AcDbLine
 10
344.8245
 20
231.8106
 30
0.0
 11
346.7335
 21
233.0596
 31
0.0
  0
LINE
  5
55B
330
1E
100
AcDbEntity
  8
0
100
AcDbLine
 10
368.3405
 20
231.1286
 30
0.0
 11
370.9635
 21
227.8516
 31
0.0
  0
LINE
  5
55C
330
1E
100
AcDbEntity
  8
0
100
AcDbLine
 10
365.5635
 20
232.5516
 30
0.0
 11
367.9105
 21
230.9516
 31
0.0
  0
LINE
  5
55D
330
1E
100
AcDbEntity
  8
0
100
AcDbLine
 10
374.5525
 20
232.3106
 30
0.0
 11
376.6645
 21
234.2976
 31
0.0
  0
LINE
  5
55E
330
1E
100
AcDbEntity
  8
0
100
AcDbLine
 10
383.1405
 20
231.6946
 30
0.0
 11
386.8735
 21
237.2056
 31
0.0
  0
LINE
  5
55F
330
1E
100
AcDbEntity
  8
0
100
AcDbLine
 10
367.9105
 20
230.9516
 30
0.0
 11
370.2225
 21
228.5256
 31
0.0
  0
LINE
  5
560
330
1E
100
AcDbEntity
  8
0
100
AcDbLine
 10
340.0275
 20
230.5486
 30
0.0
 11
340.1385
 21
230.480364872521
 31
0.0
  0
LINE
  5
561
330
1E
100
AcDbEntity
  8
0
100
AcDbLine
 10
347.0995
 20
232.7906
 30
0.0
 11
350.6035
 21
234.1446
 31
0.0
  0
LINE
  5
562
330
1E
100
AcDbEntity
  8
0
100
AcDbLine
 10
348.6115
 20
233.3766
 30
0.0
 11
348.723277742498
 21
233.418052929036
 31
0.0
  0
LINE
  5
563
330
1E
100
AcDbEntity
  8
0
100
AcDbLine
 10
346.7335
 20
233.0596
 30
0.0
 11
348.8745
 21
234.0646
 31
0.0
  0
LINE
  5
564
330
1E
100
AcDbEntity
  8
0
100
AcDbLine
 10
362.8545
 20
233.7706
 30
0.0
 11
365.5635
 21
232.5516
 31
0.0
  0
LINE
  5
565
330
1E
100
AcDbEntity
  8
0
100
AcDbLine
 10
350.6035
 20
234.1446
 30
0.0
 11
353.6425
 21
234.7506
 31
0.0
  0
LINE
  5
566
330
1E
100
AcDbEntity
  8
0
100
AcDbLine
 10
348.8745
 20
234.0646
 30
0.0
 11
351.1945
 21
234.8006
 31
0.0
  0
LINE
  5
567
330
1E
100
AcDbEntity
  8
0
100
AcDbLine
 10
364.5255
 20
233.6246
 30
0.0
 11
368.3405
 21
231.1286
 31
0.0
  0
LINE
  5
568
330
1E
100
AcDbEntity
  8
0
100
AcDbLine
 10
335.6115
 20
234.2976
 30
0.0
 11
337.7235
 21
232.3096
 31
0.0
  0
LINE
  5
569
330
1E
100
AcDbEntity
  8
0
100
AcDbLine
 10
376.6645
 20
234.2976
 30
0.0
 11
378.5635
 21
236.4896
 31
0.0
  0
LINE
  5
56A
330
1E
100
AcDbEntity
  8
0
100
AcDbLine
 10
327.1415
 20
234.3446
 30
0.0
 11
329.1085
 21
231.6896
 31
0.0
  0
LINE
  5
56B
330
1E
100
AcDbEntity
  8
0
100
AcDbLine
 10
359.8875
 20
234.5596
 30
0.0
 11
362.8545
 21
233.7706
 31
0.0
  0
LINE
  5
56C
330
1E
100
AcDbEntity
  8
0
100
AcDbLine
 10
353.6425
 20
234.7506
 30
0.0
 11
356.7765
 21
234.8906
 31
0.0
  0
LINE
  5
56D
330
1E
100
AcDbEntity
  8
0
100
AcDbLine
 10
351.1945
 20
234.8006
 30
0.0
 11
353.6355
 21
235.2496
 31
0.0
  0
LINE
  5
56E
330
1E
100
AcDbEntity
  8
0
100
AcDbLine
 10
356.7765
 20
234.8906
 30
0.0
 11
359.8875
 21
234.5596
 31
0.0
  0
LINE
  5
56F
330
1E
100
AcDbEntity
  8
0
100
AcDbLine
 10
358.6405
 20
235.2496
 30
0.0
 11
361.0825
 21
234.8006
 31
0.0
  0
LINE
  5
570
330
1E
100
AcDbEntity
  8
0
100
AcDbLine
 10
361.0825
 20
234.8006
 30
0.0
 11
364.5255
 21
233.6246
 31
0.0
  0
LINE
  5
571
330
1E
100
AcDbEntity
  8
0
100
AcDbLine
 10
356.1385
 20
235.4006
 30
0.0
 11
358.6405
 21
235.2496
 31
0.0
  0
LINE
  5
572
330
1E
100
AcDbEntity
  8
0
100
AcDbLine
 10
372.1385
 20
235.531929842932
 30
0.0
 11
373.0055
 21
236.7076
 31
0.0
  0
LINE
  5
573
330
1E
100
AcDbEntity
  8
0
100
AcDbLine
 10
353.6355
 20
235.2496
 30
0.0
 11
356.1385
 21
235.4006
 31
0.0
  0
LINE
  5
574
330
1E
100
AcDbEntity
  8
0
100
AcDbLine
 10
339.4785
 20
236.4156
 30
0.0
 11
340.1385
 21
235.481607326007
 31
0.0
  0
LINE
  5
575
330
1E
100
AcDbEntity
  8
0
100
AcDbLine
 10
333.7125
 20
236.4886
 30
0.0
 11
335.6115
 21
234.2976
 31
0.0
  0
LINE
  5
576
330
1E
100
AcDbEntity
  8
0
100
AcDbLine
 10
378.5635
 20
236.4896
 30
0.0
 11
380.2295
 21
238.8636
 31
0.0
  0
LINE
  5
577
330
1E
100
AcDbEntity
  8
0
100
AcDbLine
 10
373.0055
 20
236.7076
 30
0.0
 11
374.4565
 21
239.2826
 31
0.0
  0
LINE
  5
578
330
1E
100
AcDbEntity
  8
0
100
AcDbLine
 10
325.4605
 20
237.2536
 30
0.0
 11
327.1415
 21
234.3446
 31
0.0
  0
LINE
  5
579
330
1E
100
AcDbEntity
  8
0
100
AcDbLine
 10
386.8735
 20
237.2056
 30
0.0
 11
389.4935
 21
243.2306
 31
0.0
  0
LINE
  5
57A
330
1E
100
AcDbEntity
  8
0
100
AcDbLine
 10
332.0475
 20
238.8636
 30
0.0
 11
333.7125
 21
236.4886
 31
0.0
  0
LINE
  5
57B
330
1E
100
AcDbEntity
  8
0
100
AcDbLine
 10
338.0685
 20
238.7986
 30
0.0
 11
339.4785
 21
236.4156
 31
0.0
  0
LINE
  5
57C
330
1E
100
AcDbEntity
  8
0
100
AcDbLine
 10
380.2295
 20
238.8636
 30
0.0
 11
381.6445
 21
241.3946
 31
0.0
  0
LINE
  5
57D
330
1E
100
AcDbEntity
  8
0
100
AcDbLine
 10
374.4565
 20
239.2826
 30
0.0
 11
375.4625
 21
241.5026
 31
0.0
  0
LINE
  5
57E
330
1E
100
AcDbEntity
  8
0
100
AcDbLine
 10
330.6315
 20
241.3936
 30
0.0
 11
332.0475
 21
238.8636
 31
0.0
  0
LINE
  5
57F
330
1E
100
AcDbEntity
  8
0
100
AcDbLine
 10
336.8935
 20
241.3356
 30
0.0
 11
338.0685
 21
238.7986
 31
0.0
  0
LINE
  5
580
330
1E
100
AcDbEntity
  8
0
100
AcDbLine
 10
381.6445
 20
241.3946
 30
0.0
 11
382.7945
 21
244.0566
 31
0.0
  0
LINE
  5
581
330
1E
100
AcDbEntity
  8
0
100
AcDbLine
 10
375.4625
 20
241.5026
 30
0.0
 11
376.8575
 21
245.8676
 31
0.0
  0
LINE
  5
582
330
1E
100
AcDbEntity
  8
0
100
AcDbLine
 10
324.0085
 20
240.2456
 30
0.0
 11
325.4605
 21
237.2536
 31
0.0
  0
LINE
  5
583
330
1E
100
AcDbEntity
  8
0
100
AcDbLine
 10
322.8255
 20
243.3566
 30
0.0
 11
324.0085
 21
240.2456
 31
0.0
  0
LINE
  5
584
330
1E
100
AcDbEntity
  8
0
100
AcDbLine
 10
389.4935
 20
243.2306
 30
0.0
 11
390.6025
 21
248.1936
 31
0.0
  0
LINE
  5
585
330
1E
100
AcDbEntity
  8
0
100
AcDbLine
 10
336.0595
 20
243.6756
 30
0.0
 11
336.8935
 21
241.3356
 31
0.0
  0
LINE
  5
586
330
1E
100
AcDbEntity
  8
0
100
AcDbLine
 10
329.4815
 20
244.0566
 30
0.0
 11
330.6315
 21
241.3936
 31
0.0
  0
LINE
  5
587
330
1E
100
AcDbEntity
  8
0
100
AcDbLine
 10
382.7945
 20
244.0566
 30
0.0
 11
383.6685
 21
246.8226
 31
0.0
  0
LINE
  5
588
330
1E
100
AcDbEntity
  8
0
100
AcDbLine
 10
376.8575
 20
245.8676
 30
0.0
 11
377.4415
 21
249.5756
 31
0.0
  0
LINE
  5
589
330
1E
100
AcDbEntity
  8
0
100
AcDbLine
 10
335.4195
 20
246.0756
 30
0.0
 11
336.0595
 21
243.6756
 31
0.0
  0
LINE
  5
58A
330
1E
100
AcDbEntity
  8
0
100
AcDbLine
 10
321.9855
 20
246.5736
 30
0.0
 11
322.8255
 21
243.3566
 31
0.0
  0
LINE
  5
58B
330
1E
100
AcDbEntity
  8
0
100
AcDbLine
 10
328.6075
 20
246.8216
 30
0.0
 11
329.4815
 21
244.0566
 31
0.0
  0
LINE
  5
58C
330
1E
100
AcDbEntity
  8
0
100
AcDbLine
 10
383.6685
 20
246.8226
 30
0.0
 11
384.2555
 21
249.6626
 31
0.0
  0
LINE
  5
58D
330
1E
100
AcDbEntity
  8
0
100
AcDbLine
 10
334.9705
 20
248.5076
 30
0.0
 11
335.4195
 21
246.0726
 31
0.0
  0
LINE
  5
58E
330
1E
100
AcDbEntity
  8
0
100
AcDbLine
 10
334.9715
 20
248.5086
 30
0.0
 11
335.4195
 21
246.0756
 31
0.0
  0
LINE
  5
58F
330
1E
100
AcDbEntity
  8
0
100
AcDbLine
 10
390.6025
 20
248.1936
 30
0.0
 11
391.0195
 21
251.4956
 31
0.0
  0
LINE
  5
590
330
1E
100
AcDbEntity
  8
0
100
AcDbLine
 10
328.0205
 20
249.6626
 30
0.0
 11
328.6075
 21
246.8216
 31
0.0
  0
LINE
  5
591
330
1E
100
AcDbEntity
  8
0
100
AcDbLine
 10
377.4415
 20
249.5756
 30
0.0
 11
377.5885
 21
251.3636
 31
0.0
  0
LINE
  5
592
330
1E
100
AcDbEntity
  8
0
100
AcDbLine
 10
384.2555
 20
249.6626
 30
0.0
 11
384.5515
 21
252.5466
 31
0.0
  0
LINE
  5
593
330
1E
100
AcDbEntity
  8
0
100
AcDbLine
 10
340.1385
 20
248.9626
 30
0.0
 11
340.1475
 21
249.7016
 31
0.0
  0
LINE
  5
594
330
1E
100
AcDbEntity
  8
0
100
AcDbLine
 10
340.1385
 20
248.9626
 30
0.0
 11
340.157588335217
 21
222.953002246379
 31
0.0
  0
LINE
  5
595
330
1E
100
AcDbEntity
  8
0
100
AcDbLine
 10
334.7595
 20
250.3506
 30
0.0
 11
334.9715
 21
248.5086
 31
0.0
  0
LINE
  5
596
330
1E
100
AcDbEntity
  8
0
100
AcDbLine
 10
334.7595
 20
250.3506
 30
0.0
 11
334.9705
 21
248.5076
 31
0.0
  0
LINE
  5
597
330
1E
100
AcDbEntity
  8
0
100
AcDbLine
 10
340.2295
 20
251.1846
 30
0.0
 11
340.9225
 21
255.7256
 31
0.0
  0
LINE
  5
598
330
1E
100
AcDbEntity
  8
0
100
AcDbLine
 10
377.5885
 20
251.3636
 30
0.0
 11
377.6385
 21
253.1586
 31
0.0
  0
LINE
  5
599
330
1E
100
AcDbEntity
  8
0
100
AcDbLine
 10
391.0195
 20
251.4956
 30
0.0
 11
391.0775
 21
254.8226
 31
0.0
  0
LINE
  5
59A
330
1E
100
AcDbEntity
  8
0
100
AcDbLine
 10
340.1475
 20
249.7016
 30
0.0
 11
340.2295
 21
251.1846
 31
0.0
  0
LINE
  5
59B
330
1E
100
AcDbEntity
  8
0
100
AcDbLine
 10
334.6515
 20
252.2006
 30
0.0
 11
334.7595
 21
250.3506
 31
0.0
  0
LINE
  5
59C
330
1E
100
AcDbEntity
  8
0
100
AcDbLine
 10
334.6525
 20
252.2006
 30
0.0
 11
334.7595
 21
250.3506
 31
0.0
  0
LINE
  5
59D
330
1E
100
AcDbEntity
  8
0
100
AcDbLine
 10
327.7245
 20
252.5476
 30
0.0
 11
328.0205
 21
249.6626
 31
0.0
  0
LINE
  5
59E
330
1E
100
AcDbEntity
  8
0
100
AcDbLine
 10
327.7245
 20
252.5476
 30
0.0
 11
327.7245
 21
255.4476
 31
0.0
  0
LINE
  5
59F
330
1E
100
AcDbEntity
  8
0
100
AcDbLine
 10
384.5515
 20
252.5466
 30
0.0
 11
384.5515
 21
255.4466
 31
0.0
  0
LINE
  5
5A0
330
1E
100
AcDbEntity
  8
0
100
AcDbLine
 10
371.8375
 20
253.1656
 30
0.0
 11
372.1385
 21
248.9626
 31
0.0
  0
LINE
  5
5A1
330
1E
100
AcDbEntity
  8
0
100
AcDbLine
 10
334.6385
 20
253.1586
 30
0.0
 11
334.6805
 21
254.8136
 31
0.0
  0
LINE
  5
5A2
330
1E
100
AcDbEntity
  8
0
100
AcDbLine
 10
334.6385
 20
253.1586
 30
0.0
 11
334.6525
 21
252.2006
 31
0.0
  0
LINE
  5
5A3
330
1E
100
AcDbEntity
  8
0
100
AcDbLine
 10
334.6385
 20
253.1586
 30
0.0
 11
334.6515
 21
252.2006
 31
0.0
  0
LINE
  5
5A4
330
1E
100
AcDbEntity
  8
0
100
AcDbLine
 10
334.6385
 20
253.1586
 30
0.0
 11
334.6795
 21
254.8136
 31
0.0
  0
LINE
  5
5A5
330
1E
100
AcDbEntity
  8
0
100
AcDbLine
 10
321.2165
 20
251.5076
 30
0.0
 11
321.3765
 21
258.1576
 31
0.0
  0
LINE
  5
5A6
330
1E
100
AcDbEntity
  8
0
100
AcDbLine
 10
321.2165
 20
251.5076
 30
0.0
 11
321.9855
 21
246.5736
 31
0.0
  0
LINE
  5
5A7
330
1E
100
AcDbEntity
  8
0
100
AcDbLine
 10
321.3765
 20
258.1576
 30
0.0
 11
322.7265
 21
264.3486
 31
0.0
  0
LINE
  5
5A8
330
1E
100
AcDbEntity
  8
0
100
AcDbLine
 10
334.6795
 20
254.8136
 30
0.0
 11
334.8055
 21
256.4656
 31
0.0
  0
LINE
  5
5A9
330
1E
100
AcDbEntity
  8
0
100
AcDbLine
 10
327.7245
 20
255.4476
 30
0.0
 11
328.0205
 21
258.3316
 31
0.0
  0
LINE
  5
5AA
330
1E
100
AcDbEntity
  8
0
100
AcDbLine
 10
334.8055
 20
256.4656
 30
0.0
 11
335.0115
 21
258.0816
 31
0.0
  0
LINE
  5
5AB
330
1E
100
AcDbEntity
  8
0
100
AcDbLine
 10
377.6245
 20
254.1156
 30
0.0
 11
377.6385
 21
253.1586
 31
0.0
  0
LINE
  5
5AC
330
1E
100
AcDbEntity
  8
0
100
AcDbLine
 10
340.9225
 20
255.7256
 30
0.0
 11
342.4465
 21
259.7716
 31
0.0
  0
LINE
  5
5AD
330
1E
100
AcDbEntity
  8
0
100
AcDbLine
 10
335.0115
 20
258.0816
 30
0.0
 11
335.2995
 21
259.6866
 31
0.0
  0
LINE
  5
5AE
330
1E
100
AcDbEntity
  8
0
100
AcDbLine
 10
335.2995
 20
259.6866
 30
0.0
 11
336.5805
 21
264.3056
 31
0.0
  0
LINE
  5
5AF
330
1E
100
AcDbEntity
  8
0
100
AcDbLine
 10
328.0205
 20
258.3316
 30
0.0
 11
328.6075
 21
261.1716
 31
0.0
  0
LINE
  5
5B0
330
1E
100
AcDbEntity
  8
0
100
AcDbLine
 10
377.3055
 20
257.8076
 30
0.0
 11
377.5175
 21
255.9656
 31
0.0
  0
LINE
  5
5B1
330
1E
100
AcDbEntity
  8
0
100
AcDbLine
 10
384.2555
 20
258.3316
 30
0.0
 11
384.5515
 21
255.4466
 31
0.0
  0
LINE
  5
5B2
330
1E
100
AcDbEntity
  8
0
100
AcDbLine
 10
377.245020079663
 20
258.101639997313
 30
0.0
 11
377.3145
 21
257.7176
 31
0.0
  0
LINE
  5
5B3
330
1E
100
AcDbEntity
  8
0
100
AcDbLine
 10
369.8805
 20
259.7216
 30
0.0
 11
371.0295
 21
256.6006
 31
0.0
  0
LINE
  5
5B4
330
1E
100
AcDbEntity
  8
0
100
AcDbLine
 10
371.0295
 20
256.6016
 30
0.0
 11
371.8375
 21
253.1656
 31
0.0
  0
LINE
  5
5B5
330
1E
100
AcDbEntity
  8
0
100
AcDbLine
 10
390.6605
 20
259.7306
 30
0.0
 11
391.0775
 21
254.8226
 31
0.0
  0
LINE
  5
5B6
330
1E
100
AcDbEntity
  8
0
100
AcDbLine
 10
328.6075
 20
261.1716
 30
0.0
 11
329.4815
 21
263.9376
 31
0.0
  0
LINE
  5
5B7
330
1E
100
AcDbEntity
  8
0
100
AcDbLine
 10
342.4465
 20
259.7716
 30
0.0
 11
343.4805
 21
261.7386
 31
0.0
  0
LINE
  5
5B8
330
1E
100
AcDbEntity
  8
0
100
AcDbLine
 10
383.6685
 20
261.1726
 30
0.0
 11
384.2555
 21
258.3316
 31
0.0
  0
LINE
  5
5B9
330
1E
100
AcDbEntity
  8
0
100
AcDbLine
 10
322.7265
 20
264.3486
 30
0.0
 11
323.9775
 21
267.8056
 31
0.0
  0
LINE
  5
5BA
330
1E
100
AcDbEntity
  8
0
100
AcDbLine
 10
329.4815
 20
263.9376
 30
0.0
 11
330.6315
 21
266.5996
 31
0.0
  0
LINE
  5
5BB
330
1E
100
AcDbEntity
  8
0
100
AcDbLine
 10
323.9775
 20
267.8056
 30
0.0
 11
326.2695
 21
272.2106
 31
0.0
  0
LINE
  5
5BC
330
1E
100
AcDbEntity
  8
0
100
AcDbLine
 10
336.5805
 20
264.3056
 30
0.0
 11
338.4705
 21
268.3076
 31
0.0
  0
LINE
  5
5BD
330
1E
100
AcDbEntity
  8
0
100
AcDbLine
 10
343.4805
 20
261.7386
 30
0.0
 11
344.5805
 21
263.4056
 31
0.0
  0
LINE
  5
5BE
330
1E
100
AcDbEntity
  8
0
100
AcDbLine
 10
367.1385
 20
264.1296
 30
0.0
 11
368.0325
 21
262.9316
 31
0.0
  0
LINE
  5
5BF
330
1E
100
AcDbEntity
  8
0
100
AcDbLine
 10
368.4485
 20
262.3106
 30
0.0
 11
369.8805
 21
259.7216
 31
0.0
  0
LINE
  5
5C0
330
1E
100
AcDbEntity
  8
0
100
AcDbLine
 10
376.2175
 20
262.6396
 30
0.0
 11
376.8575
 21
260.2436
 31
0.0
  0
LINE
  5
5C1
330
1E
100
AcDbEntity
  8
0
100
AcDbLine
 10
368.033123970016
 20
262.867171044129
 30
0.0
 11
368.4485
 21
262.3106
 31
0.0
  0
LINE
  5
5C2
330
1E
100
AcDbEntity
  8
0
100
AcDbLine
 10
345.8425
 20
264.9496
 30
0.0
 11
347.2655
 21
266.3436
 31
0.0
  0
LINE
  5
5C3
330
1E
100
AcDbEntity
  8
0
100
AcDbLine
 10
345.8415
 20
264.9496
 30
0.0
 11
347.2655
 21
266.3436
 31
0.0
  0
LINE
  5
5C4
330
1E
100
AcDbEntity
  8
0
100
AcDbLine
 10
344.5805
 20
263.4056
 30
0.0
 11
345.8425
 21
264.9496
 31
0.0
  0
LINE
  5
5C5
330
1E
100
AcDbEntity
  8
0
100
AcDbLine
 10
344.5805
 20
263.4056
 30
0.0
 11
345.8415
 21
264.9496
 31
0.0
  0
LINE
  5
5C6
330
1E
100
AcDbEntity
  8
0
100
AcDbLine
 10
330.6315
 20
266.5996
 30
0.0
 11
332.0475
 21
269.1306
 31
0.0
  0
LINE
  5
5C7
330
1E
100
AcDbEntity
  8
0
100
AcDbLine
 10
364.2995
 20
266.9286
 30
0.0
 11
365.1575
 21
266.2146
 31
0.0
  0
LINE
  5
5C8
330
1E
100
AcDbEntity
  8
0
100
AcDbLine
 10
348.8065
 20
267.5276
 30
0.0
 11
349.709259554752
 21
268.051957346173
 31
0.0
  0
LINE
  5
5C9
330
1E
100
AcDbEntity
  8
0
100
AcDbLine
 10
347.2655
 20
266.3436
 30
0.0
 11
348.8065
 21
267.5276
 31
0.0
  0
LINE
  5
5CA
330
1E
100
AcDbEntity
  8
0
100
AcDbLine
 10
374.2105
 20
267.5156
 30
0.0
 11
375.3825
 21
264.9796
 31
0.0
  0
LINE
  5
5CB
330
1E
100
AcDbEntity
  8
0
100
AcDbLine
 10
365.1575
 20
266.2146
 30
0.0
 11
366.1895
 21
265.2126
 31
0.0
  0
LINE
  5
5CC
330
1E
100
AcDbEntity
  8
0
100
AcDbLine
 10
374.2095
 20
267.5156
 30
0.0
 11
375.3825
 21
264.9796
 31
0.0
  0
LINE
  5
5CD
330
1E
100
AcDbEntity
  8
0
100
AcDbLine
 10
366.1895
 20
265.2126
 30
0.0
 11
367.1385
 21
264.1296
 31
0.0
  0
LINE
  5
5CE
330
1E
100
AcDbEntity
  8
0
100
AcDbLine
 10
382.7945
 20
263.9376
 30
0.0
 11
383.6685
 21
261.1726
 31
0.0
  0
LINE
  5
5CF
330
1E
100
AcDbEntity
  8
0
100
AcDbLine
 10
381.6445
 20
266.6006
 30
0.0
 11
382.7945
 21
263.9376
 31
0.0
  0
LINE
  5
5D0
330
1E
100
AcDbEntity
  8
0
100
AcDbLine
 10
389.4305
 20
264.6306
 30
0.0
 11
390.6605
 21
259.7306
 31
0.0
  0
LINE
  5
5D1
330
1E
100
AcDbEntity
  8
0
100
AcDbLine
 10
338.4705
 20
268.3076
 30
0.0
 11
340.2215
 21
270.9586
 31
0.0
  0
LINE
  5
5D2
330
1E
100
AcDbEntity
  8
0
100
AcDbLine
 10
332.0475
 20
269.1306
 30
0.0
 11
333.7125
 21
271.5046
 31
0.0
  0
LINE
  5
5D3
330
1E
100
AcDbEntity
  8
0
100
AcDbLine
 10
360.6555
 20
268.9986
 30
0.0
 11
361.6015
 21
268.5936
 31
0.0
  0
LINE
  5
5D4
330
1E
100
AcDbEntity
  8
0
100
AcDbLine
 10
359.6825
 20
269.3296
 30
0.0
 11
360.6555
 21
268.9986
 31
0.0
  0
LINE
  5
5D5
330
1E
100
AcDbEntity
  8
0
100
AcDbLine
 10
361.6015
 20
268.5936
 30
0.0
 11
362.5145
 21
268.1186
 31
0.0
  0
LINE
  5
5D6
330
1E
100
AcDbEntity
  8
0
100
AcDbLine
 10
352.2655
 20
269.2276
 30
0.0
 11
353.8605
 21
269.6366
 31
0.0
  0
LINE
  5
5D7
330
1E
100
AcDbEntity
  8
0
100
AcDbLine
 10
350.4765
 20
268.4976
 30
0.0
 11
352.2655
 21
269.2276
 31
0.0
  0
LINE
  5
5D8
330
1E
100
AcDbEntity
  8
0
100
AcDbLine
 10
349.719095267995
 20
268.057670305362
 30
0.0
 11
350.4765
 21
268.4976
 31
0.0
  0
LINE
  5
5D9
330
1E
100
AcDbEntity
  8
0
100
AcDbLine
 10
363.3925
 20
267.5786
 30
0.0
 11
364.2995
 21
266.9286
 31
0.0
  0
LINE
  5
5DA
330
1E
100
AcDbEntity
  8
0
100
AcDbLine
 10
362.5145
 20
268.1186
 30
0.0
 11
363.3925
 21
267.5786
 31
0.0
  0
LINE
  5
5DB
330
1E
100
AcDbEntity
  8
0
100
AcDbLine
 10
340.2215
 20
270.9586
 30
0.0
 11
341.8725
 21
272.9536
 31
0.0
  0
LINE
  5
5DC
330
1E
100
AcDbEntity
  8
0
100
AcDbLine
 10
340.2225
 20
270.9586
 30
0.0
 11
341.8725
 21
272.9546
 31
0.0
  0
LINE
  5
5DD
330
1E
100
AcDbEntity
  8
0
100
AcDbLine
 10
357.6725
 20
269.7526
 30
0.0
 11
358.6865
 21
269.5826
 31
0.0
  0
LINE
  5
5DE
330
1E
100
AcDbEntity
  8
0
100
AcDbLine
 10
355.7635
 20
269.8436
 30
0.0
 11
357.6725
 21
269.7526
 31
0.0
  0
LINE
  5
5DF
330
1E
100
AcDbEntity
  8
0
100
AcDbLine
 10
353.8605
 20
269.6366
 30
0.0
 11
355.7635
 21
269.8436
 31
0.0
  0
LINE
  5
5E0
330
1E
100
AcDbEntity
  8
0
100
AcDbLine
 10
372.7865
 20
269.9176
 30
0.0
 11
374.2095
 21
267.5156
 31
0.0
  0
LINE
  5
5E1
330
1E
100
AcDbEntity
  8
0
100
AcDbLine
 10
371.9815
 20
271.0566
 30
0.0
 11
372.7865
 21
269.9176
 31
0.0
  0
LINE
  5
5E2
330
1E
100
AcDbEntity
  8
0
100
AcDbLine
 10
358.6865
 20
269.5826
 30
0.0
 11
359.6825
 21
269.3296
 31
0.0
  0
LINE
  5
5E3
330
1E
100
AcDbEntity
  8
0
100
AcDbLine
 10
380.2295
 20
269.1306
 30
0.0
 11
381.6445
 21
266.6006
 31
0.0
  0
LINE
  5
5E4
330
1E
100
AcDbEntity
  8
0
100
AcDbLine
 10
388.2685
 20
267.7486
 30
0.0
 11
389.4305
 21
264.6306
 31
0.0
  0
LINE
  5
5E5
330
1E
100
AcDbEntity
  8
0
100
AcDbLine
 10
326.2695
 20
272.2106
 30
0.0
 11
329.1345
 21
276.2996
 31
0.0
  0
LINE
  5
5E6
330
1E
100
AcDbEntity
  8
0
100
AcDbLine
 10
333.7125
 20
271.5046
 30
0.0
 11
335.6115
 21
273.6966
 31
0.0
  0
LINE
  5
5E7
330
1E
100
AcDbEntity
  8
0
100
AcDbLine
 10
341.8725
 20
272.9546
 30
0.0
 11
343.7305
 21
274.7536
 31
0.0
  0
LINE
  5
5E8
330
1E
100
AcDbEntity
  8
0
100
AcDbLine
 10
370.1865
 20
273.1866
 30
0.0
 11
371.1145
 21
272.1486
 31
0.0
  0
LINE
  5
5E9
330
1E
100
AcDbEntity
  8
0
100
AcDbLine
 10
378.5635
 20
271.5056
 30
0.0
 11
380.2295
 21
269.1306
 31
0.0
  0
LINE
  5
5EA
330
1E
100
AcDbEntity
  8
0
100
AcDbLine
 10
386.0345
 20
272.2156
 30
0.0
 11
388.2685
 21
267.7486
 31
0.0
  0
LINE
  5
5EB
330
1E
100
AcDbEntity
  8
0
100
AcDbLine
 10
371.1145
 20
272.1486
 30
0.0
 11
371.9815
 21
271.0566
 31
0.0
  0
LINE
  5
5EC
330
1E
100
AcDbEntity
  8
0
100
AcDbLine
 10
335.6115
 20
273.6966
 30
0.0
 11
337.7235
 21
275.6836
 31
0.0
  0
LINE
  5
5ED
330
1E
100
AcDbEntity
  8
0
100
AcDbLine
 10
376.6645
 20
273.6976
 30
0.0
 11
378.5635
 21
271.5056
 31
0.0
  0
LINE
  5
5EE
330
1E
100
AcDbEntity
  8
0
100
AcDbLine
 10
329.1345
 20
276.2996
 30
0.0
 11
333.5165
 21
280.7296
 31
0.0
  0
LINE
  5
5EF
330
1E
100
AcDbEntity
  8
0
100
AcDbLine
 10
340.0275
 20
277.4456
 30
0.0
 11
342.4985
 21
278.9646
 31
0.0
  0
LINE
  5
5F0
330
1E
100
AcDbEntity
  8
0
100
AcDbLine
 10
337.7235
 20
275.6836
 30
0.0
 11
340.0275
 21
277.4456
 31
0.0
  0
LINE
  5
5F1
330
1E
100
AcDbEntity
  8
0
100
AcDbLine
 10
346.0145
 20
276.4696
 30
0.0
 11
347.8355
 21
277.5256
 31
0.0
  0
LINE
  5
5F2
330
1E
100
AcDbEntity
  8
0
100
AcDbLine
 10
344.8435
 20
275.6506
 30
0.0
 11
346.0145
 21
276.4696
 31
0.0
  0
LINE
  5
5F3
330
1E
100
AcDbEntity
  8
0
100
AcDbLine
 10
343.7305
 20
274.7536
 30
0.0
 11
344.8435
 21
275.6506
 31
0.0
  0
LINE
  5
5F4
330
1E
100
AcDbEntity
  8
0
100
AcDbLine
 10
342.4985
 20
278.9646
 30
0.0
 11
345.0595
 21
280.2016
 31
0.0
  0
LINE
  5
5F5
330
1E
100
AcDbEntity
  8
0
100
AcDbLine
 10
347.8355
 20
277.5256
 30
0.0
 11
349.8345
 21
278.3996
 31
0.0
  0
LINE
  5
5F6
330
1E
100
AcDbEntity
  8
0
100
AcDbLine
 10
361.3855
 20
278.7566
 30
0.0
 11
362.6345
 21
278.3266
 31
0.0
  0
LINE
  5
5F7
330
1E
100
AcDbEntity
  8
0
100
AcDbLine
 10
352.2415
 20
279.1136
 30
0.0
 11
353.5435
 21
279.3546
 31
0.0
  0
LINE
  5
5F8
330
1E
100
AcDbEntity
  8
0
100
AcDbLine
 10
354.8585
 20
279.4986
 30
0.0
 11
356.1805
 21
279.5446
 31
0.0
  0
LINE
  5
5F9
330
1E
100
AcDbEntity
  8
0
100
AcDbLine
 10
353.5435
 20
279.3546
 30
0.0
 11
354.8585
 21
279.4986
 31
0.0
  0
LINE
  5
5FA
330
1E
100
AcDbEntity
  8
0
100
AcDbLine
 10
360.1095
 20
279.0966
 30
0.0
 11
361.3855
 21
278.7566
 31
0.0
  0
LINE
  5
5FB
330
1E
100
AcDbEntity
  8
0
100
AcDbLine
 10
358.853817971249
 20
279.311379524006
 30
0.0
 11
360.1095
 21
279.0966
 31
0.0
  0
LINE
  5
5FC
330
1E
100
AcDbEntity
  8
0
100
AcDbLine
 10
351.1915
 20
278.8466
 30
0.0
 11
352.2415
 21
279.1136
 31
0.0
  0
LINE
  5
5FD
330
1E
100
AcDbEntity
  8
0
100
AcDbLine
 10
349.8345
 20
278.3996
 30
0.0
 11
351.1915
 21
278.8466
 31
0.0
  0
LINE
  5
5FE
330
1E
100
AcDbEntity
  8
0
100
AcDbLine
 10
362.6345
 20
278.3266
 30
0.0
 11
363.8515
 21
277.8096
 31
0.0
  0
LINE
  5
5FF
330
1E
100
AcDbEntity
  8
0
100
AcDbLine
 10
363.8515
 20
277.8096
 30
0.0
 11
364.9117062358
 21
277.251336121021
 31
0.0
  0
LINE
  5
600
330
1E
100
AcDbEntity
  8
0
100
AcDbLine
 10
364.9117062358
 20
277.251336121021
 30
0.0
 11
367.2585
 21
275.7806
 31
0.0
  0
LINE
  5
601
330
1E
100
AcDbEntity
  8
0
100
AcDbLine
 10
369.1995
 20
274.1666
 30
0.0
 11
370.1865
 21
273.1866
 31
0.0
  0
LINE
  5
602
330
1E
100
AcDbEntity
  8
0
100
AcDbLine
 10
367.2585
 20
275.7806
 30
0.0
 11
369.1995
 21
274.1666
 31
0.0
  0
LINE
  5
603
330
1E
100
AcDbEntity
  8
0
100
AcDbLine
 10
356.1805
 20
279.5446
 30
0.0
 11
358.853817971249
 21
279.311379524006
 31
0.0
  0
LINE
  5
604
330
1E
100
AcDbEntity
  8
0
100
AcDbLine
 10
345.0595
 20
280.2016
 30
0.0
 11
347.7305
 21
281.1756
 31
0.0
  0
LINE
  5
605
330
1E
100
AcDbEntity
  8
0
100
AcDbLine
 10
333.5165
 20
280.7296
 30
0.0
 11
337.8875
 21
283.8966
 31
0.0
  0
LINE
  5
606
330
1E
100
AcDbEntity
  8
0
100
AcDbLine
 10
347.7305
 20
281.1756
 30
0.0
 11
350.4855
 21
281.8806
 31
0.0
  0
LINE
  5
607
330
1E
100
AcDbEntity
  8
0
100
AcDbLine
 10
353.2985
 20
282.3056
 30
0.0
 11
356.1375
 21
282.4466
 31
0.0
  0
LINE
  5
608
330
1E
100
AcDbEntity
  8
0
100
AcDbLine
 10
350.4855
 20
281.8806
 30
0.0
 11
353.2985
 21
282.3056
 31
0.0
  0
LINE
  5
609
330
1E
100
AcDbEntity
  8
0
100
AcDbLine
 10
364.5455
 20
281.1756
 30
0.0
 11
367.2165
 21
280.2016
 31
0.0
  0
LINE
  5
60A
330
1E
100
AcDbEntity
  8
0
100
AcDbLine
 10
361.7905
 20
281.8806
 30
0.0
 11
364.5455
 21
281.1756
 31
0.0
  0
LINE
  5
60B
330
1E
100
AcDbEntity
  8
0
100
AcDbLine
 10
356.1375
 20
282.4466
 30
0.0
 11
358.9775
 21
282.3056
 31
0.0
  0
LINE
  5
60C
330
1E
100
AcDbEntity
  8
0
100
AcDbLine
 10
337.8875
 20
283.8966
 30
0.0
 11
340.8735
 21
285.4366
 31
0.0
  0
LINE
  5
60D
330
1E
100
AcDbEntity
  8
0
100
AcDbLine
 10
358.9775
 20
282.3056
 30
0.0
 11
361.7905
 21
281.8806
 31
0.0
  0
LINE
  5
60E
330
1E
100
AcDbEntity
  8
0
100
AcDbLine
 10
367.2165
 20
280.2016
 30
0.0
 11
369.7775
 21
278.9646
 31
0.0
  0
LINE
  5
60F
330
1E
100
AcDbEntity
  8
0
100
AcDbLine
 10
374.5525
 20
275.6846
 30
0.0
 11
376.6645
 21
273.6976
 31
0.0
  0
LINE
  5
610
330
1E
100
AcDbEntity
  8
0
100
AcDbLine
 10
379.6695
 20
279.9056
 30
0.0
 11
383.0945
 21
276.2406
 31
0.0
  0
LINE
  5
611
330
1E
100
AcDbEntity
  8
0
100
AcDbLine
 10
372.2485
 20
277.4456
 30
0.0
 11
374.5525
 21
275.6846
 31
0.0
  0
LINE
  5
612
330
1E
100
AcDbEntity
  8
0
100
AcDbLine
 10
383.0945
 20
276.2406
 30
0.0
 11
386.0345
 21
272.2156
 31
0.0
  0
LINE
  5
613
330
1E
100
AcDbEntity
  8
0
100
AcDbLine
 10
375.8055
 20
282.9846
 30
0.0
 11
379.6695
 21
279.9056
 31
0.0
  0
LINE
  5
614
330
1E
100
AcDbEntity
  8
0
100
AcDbLine
 10
369.7775
 20
278.9646
 30
0.0
 11
372.2485
 21
277.4456
 31
0.0
  0
LINE
  5
615
330
1E
100
AcDbEntity
  8
0
100
AcDbLine
 10
372.892021434841
 20
284.664722630543
 30
0.0
 11
375.8055
 21
282.9846
 31
0.0
  0
LINE
  5
616
330
1E
100
AcDbEntity
  8
0
100
AcDbLine
 10
340.8735
 20
285.4366
 30
0.0
 11
343.9345
 21
286.8316
 31
0.0
  0
LINE
  5
617
330
1E
100
AcDbEntity
  8
0
100
AcDbLine
 10
368.3885
 20
286.8076
 30
0.0
 11
372.892021434841
 21
284.664722630543
 31
0.0
  0
LINE
  5
618
330
1E
100
AcDbEntity
  8
0
100
AcDbLine
 10
343.9345
 20
286.8316
 30
0.0
 11
348.7025
 21
288.2216
 31
0.0
  0
LINE
  5
619
330
1E
100
AcDbEntity
  8
0
100
AcDbLine
 10
348.7025
 20
288.2216
 30
0.0
 11
351.1085
 21
288.6626
 31
0.0
  0
LINE
  5
61A
330
1E
100
AcDbEntity
  8
0
100
AcDbLine
 10
351.1085
 20
288.6626
 30
0.0
 11
356.9775
 21
288.9576
 31
0.0
  0
LINE
  5
61B
330
1E
100
AcDbEntity
  8
0
100
AcDbLine
 10
362.0765
 20
288.5256
 30
0.0
 11
368.3885
 21
286.8076
 31
0.0
  0
LINE
  5
61C
330
1E
100
AcDbEntity
  8
0
100
AcDbLine
 10
356.9775
 20
288.9576
 30
0.0
 11
362.0765
 21
288.5256
 31
0.0
  0
LINE
  5
61D
330
1E
100
AcDbEntity
  8
0
100
AcDbLine
 10
375.3825
 20
264.9796
 30
0.0
 11
376.2175
 21
262.6396
 31
0.0
  0
LINE
  5
61E
330
1E
100
AcDbEntity
  8
0
100
AcDbLine
 10
376.8575
 20
260.2436
 30
0.0
 11
377.245020079663
 21
258.101639997313
 31
0.0
  0
LINE
  5
61F
330
1E
100
AcDbEntity
  8
0
100
AcDbLine
 10
377.5175
 20
255.9656
 30
0.0
 11
377.6245
 21
254.1156
 31
0.0
  0
ENDSEC
  0
SECTION
  2
OBJECTS
  0
DICTIONARY
  5
C
330
0
100
AcDbDictionary
281
     1
  3
ACAD_GROUP
350
D
  3
ACAD_LAYOUT
350
19
  3
ACAD_MLEADERSTYLE
350
622
  3
ACAD_MLINESTYLE
350
16
  3
ACAD_PLOTSETTINGS
350
18
  3
ACAD_PLOTSTYLENAME
350
E
  3
ACAD_SCALELIST
350
2A1
  3
ACDBVARIABLEDICTIONARY
350
278
  3
DWGPROPS
350
625
  0
DICTIONARY
  5
D
102
{ACAD_REACTORS
330
C
102
}
330
C
100
AcDbDictionary
281
     1
  0
DICTIONARY
  5
19
102
{ACAD_REACTORS
330
C
102
}
330
C
100
AcDbDictionary
281
     1
  3
Layout1
350
2A0
  3
Model
350
29F
  0
DICTIONARY
  5
622
102
{ACAD_REACTORS
330
C
102
}
330
C
100
AcDbDictionary
281
     1
  0
DICTIONARY
  5
16
102
{ACAD_REACTORS
330
C
102
}
330
C
100
AcDbDictionary
281
     1
  3
STANDARD
350
17
  0
DICTIONARY
  5
18
102
{ACAD_REACTORS
330
C
102
}
330
C
100
AcDbDictionary
281
     1
  0
ACDBDICTIONARYWDFLT
  5
E
102
{ACAD_REACTORS
330
C
102
}
330
C
100
AcDbDictionary
281
     1
  3
Normal
350
F
100
AcDbDictionaryWithDefault
340
F
  0
DICTIONARY
  5
2A1
102
{ACAD_REACTORS
330
C
102
}
330
C
100
AcDbDictionary
281
     1
  3
A0
350
2A2
  3
A1
350
2A3
  3
A2
350
2A4
  3
A3
350
2A5
  3
A4
350
2A6
  3
A5
350
2A7
  3
A6
350
2A8
  3
A7
350
2A9
  3
A8
350
2AA
  3
A9
350
2AB
  3
B0
350
2AC
  3
B1
350
2AD
  3
B2
350
2AE
  3
B3
350
2AF
  3
B4
350
2B0
  3
B5
350
2B1
  3
B6
350
2B2
  3
B7
350
2B3
  3
B8
350
2B4
  3
B9
350
2B5
  3
C0
350
2B6
  3
C1
350
2B7
  3
C2
350
2B8
  3
C3
350
2B9
  3
C4
350
2BA
  3
C5
350
2BB
  3
C6
350
2BC
  3
C7
350
2BD
  3
C8
350
2BE
  3
C9
350
2BF
  3
D0
350
2C0
  3
D1
350
2C1
  3
D2
350
2C2
  0
DICTIONARY
  5
278
102
{ACAD_REACTORS
330
C
102
}
330
C
100
AcDbDictionary
281
     1
  3
CANNOSCALE
350
623
  3
DIMASSOC
350
279
  0
XRECORD
  5
625
102
{ACAD_REACTORS
330
C
102
}
330
C
100
AcDbXrecord
280
     1
  1
DWGPROPS COOKIE
  2

  3

  4

  6

  7

  8
MARTIN
  9

300
=
301
=
302
=
303
=
304
=
305
=
306
=
307
=
308
=
309
=
 40
0.0
 41
2454690.747013704
 42
2456209.654095405
  1

 90
        0
  0
LAYOUT
  5
2A0
102
{ACAD_REACTORS
330
19
102
}
330
19
100
AcDbPlotSettings
  1

  2
none_device
  4

  6

 40
0.0
 41
0.0
 42
0.0
 43
0.0
 44
0.0
 45
0.0
 46
0.0
 47
0.0
 48
0.0
 49
0.0
140
0.0
141
0.0
142
1.0
143
1.0
 70
   688
 72
     0
 73
     0
 74
     5
  7

 75
    16
147
1.0
148
0.0
149
0.0
100
AcDbLayout
  1
Layout1
 70
     1
 71
     1
 10
0.0
 20
0.0
 11
0.0
 21
0.0
 12
0.0
 22
0.0
 32
0.0
 14
0.0
 24
0.0
 34
0.0
 15
0.0
 25
0.0
 35
0.0
146
0.0
 13
0.0
 23
0.0
 33
0.0
 16
1.0
 26
0.0
 36
0.0
 17
0.0
 27
1.0
 37
0.0
 76
     0
330
1A
  0
LAYOUT
  5
29F
102
{ACAD_REACTORS
330
19
102
}
330
19
100
AcDbPlotSettings
  1

  2
none_device
  4

  6

 40
0.0
 41
0.0
 42
0.0
 43
0.0
 44
0.0
 45
0.0
 46
0.0
 47
0.0
 48
0.0
 49
0.0
140
0.0
141
0.0
142
1.0
143
1.0
 70
   688
 72
     0
 73
     0
 74
     5
  7

 75
    16
147
1.0
148
0.0
149
0.0
100
AcDbLayout
  1
Model
 70
     1
 71
     0
 10
0.0
 20
0.0
 11
0.0
 21
0.0
 12
0.0
 22
0.0
 32
0.0
 14
0.0
 24
0.0
 34
0.0
 15
406.1645
 25
288.9576
 35
0.0
146
0.0
 13
0.0
 23
0.0
 33
0.0
 16
1.0
 26
0.0
 36
0.0
 17
0.0
 27
1.0
 37
0.0
 76
     0
330
1E
331
27A
  0
MLINESTYLE
  5
17
102
{ACAD_REACTORS
330
16
102
}
330
16
100
AcDbMlineStyle
  2
STANDARD
 70
     0
  3

 62
   256
 51
90.0
 52
90.0
 71
     2
 49
0.5
 62
   256
  6
BYLAYER
 49
-0.5
 62
   256
  6
BYLAYER
  0
ACDBPLACEHOLDER
  5
F
102
{ACAD_REACTORS
330
E
102
}
330
E
  0
SCALE
  5
2A2
102
{ACAD_REACTORS
330
2A1
102
}
330
2A1
100
AcDbScale
 70
     0
300
1:1
140
1.0
141
1.0
290
     1
  0
SCALE
  5
2A3
102
{ACAD_REACTORS
330
2A1
102
}
330
2A1
100
AcDbScale
 70
     0
300
1:2
140
1.0
141
2.0
290
     0
  0
SCALE
  5
2A4
102
{ACAD_REACTORS
330
2A1
102
}
330
2A1
100
AcDbScale
 70
     0
300
1:4
140
1.0
141
4.0
290
     0
  0
SCALE
  5
2A5
102
{ACAD_REACTORS
330
2A1
102
}
330
2A1
100
AcDbScale
 70
     0
300
1:5
140
1.0
141
5.0
290
     0
  0
SCALE
  5
2A6
102
{ACAD_REACTORS
330
2A1
102
}
330
2A1
100
AcDbScale
 70
     0
300
1:8
140
1.0
141
8.0
290
     0
  0
SCALE
  5
2A7
102
{ACAD_REACTORS
330
2A1
102
}
330
2A1
100
AcDbScale
 70
     0
300
1:10
140
1.0
141
10.0
290
     0
  0
SCALE
  5
2A8
102
{ACAD_REACTORS
330
2A1
102
}
330
2A1
100
AcDbScale
 70
     0
300
1:16
140
1.0
141
16.0
290
     0
  0
SCALE
  5
2A9
102
{ACAD_REACTORS
330
2A1
102
}
330
2A1
100
AcDbScale
 70
     0
300
1:20
140
1.0
141
20.0
290
     0
  0
SCALE
  5
2AA
102
{ACAD_REACTORS
330
2A1
102
}
330
2A1
100
AcDbScale
 70
     0
300
1:30
140
1.0
141
30.0
290
     0
  0
SCALE
  5
2AB
102
{ACAD_REACTORS
330
2A1
102
}
330
2A1
100
AcDbScale
 70
     0
300
1:40
140
1.0
141
40.0
290
     0
  0
SCALE
  5
2AC
102
{ACAD_REACTORS
330
2A1
102
}
330
2A1
100
AcDbScale
 70
     0
300
1:50
140
1.0
141
50.0
290
     0
  0
SCALE
  5
2AD
102
{ACAD_REACTORS
330
2A1
102
}
330
2A1
100
AcDbScale
 70
     0
300
1:100
140
1.0
141
100.0
290
     0
  0
SCALE
  5
2AE
102
{ACAD_REACTORS
330
2A1
102
}
330
2A1
100
AcDbScale
 70
     0
300
2:1
140
2.0
141
1.0
290
     0
  0
SCALE
  5
2AF
102
{ACAD_REACTORS
330
2A1
102
}
330
2A1
100
AcDbScale
 70
     0
300
4:1
140
4.0
141
1.0
290
     0
  0
SCALE
  5
2B0
102
{ACAD_REACTORS
330
2A1
102
}
330
2A1
100
AcDbScale
 70
     0
300
8:1
140
8.0
141
1.0
290
     0
  0
SCALE
  5
2B1
102
{ACAD_REACTORS
330
2A1
102
}
330
2A1
100
AcDbScale
 70
     0
300
10:1
140
10.0
141
1.0
290
     0
  0
SCALE
  5
2B2
102
{ACAD_REACTORS
330
2A1
102
}
330
2A1
100
AcDbScale
 70
     0
300
100:1
140
100.0
141
1.0
290
     0
  0
SCALE
  5
2B3
102
{ACAD_REACTORS
330
2A1
102
}
330
2A1
100
AcDbScale
 70
     0
300
1/128" = 1'-0"
140
0.0078125
141
12.0
290
     0
  0
SCALE
  5
2B4
102
{ACAD_REACTORS
330
2A1
102
}
330
2A1
100
AcDbScale
 70
     0
300
1/64" = 1'-0"
140
0.015625
141
12.0
290
     0
  0
SCALE
  5
2B5
102
{ACAD_REACTORS
330
2A1
102
}
330
2A1
100
AcDbScale
 70
     0
300
1/32" = 1'-0"
140
0.03125
141
12.0
290
     0
  0
SCALE
  5
2B6
102
{ACAD_REACTORS
330
2A1
102
}
330
2A1
100
AcDbScale
 70
     0
300
1/16" = 1'-0"
140
0.0625
141
12.0
290
     0
  0
SCALE
  5
2B7
102
{ACAD_REACTORS
330
2A1
102
}
330
2A1
100
AcDbScale
 70
     0
300
3/32" = 1'-0"
140
0.09375
141
12.0
290
     0
  0
SCALE
  5
2B8
102
{ACAD_REACTORS
330
2A1
102
}
330
2A1
100
AcDbScale
 70
     0
300
1/8" = 1'-0"
140
0.125
141
12.0
290
     0
  0
SCALE
  5
2B9
102
{ACAD_REACTORS
330
2A1
102
}
330
2A1
100
AcDbScale
 70
     0
300
3/16" = 1'-0"
140
0.1875
141
12.0
290
     0
  0
SCALE
  5
2BA
102
{ACAD_REACTORS
330
2A1
102
}
330
2A1
100
AcDbScale
 70
     0
300
1/4" = 1'-0"
140
0.25
141
12.0
290
     0
  0
SCALE
  5
2BB
102
{ACAD_REACTORS
330
2A1
102
}
330
2A1
100
AcDbScale
 70
     0
300
3/8" = 1'-0"
140
0.375
141
12.0
290
     0
  0
SCALE
  5
2BC
102
{ACAD_REACTORS
330
2A1
102
}
330
2A1
100
AcDbScale
 70
     0
300
1/2" = 1'-0"
140
0.5
141
12.0
290
     0
  0
SCALE
  5
2BD
102
{ACAD_REACTORS
330
2A1
102
}
330
2A1
100
AcDbScale
 70
     0
300
3/4" = 1'-0"
140
0.75
141
12.0
290
     0
  0
SCALE
  5
2BE
102
{ACAD_REACTORS
330
2A1
102
}
330
2A1
100
AcDbScale
 70
     0
300
1" = 1'-0"
140
1.0
141
12.0
290
     0
  0
SCALE
  5
2BF
102
{ACAD_REACTORS
330
2A1
102
}
330
2A1
100
AcDbScale
 70
     0
300
1-1/2" = 1'-0"
140
1.5
141
12.0
290
     0
  0
SCALE
  5
2C0
102
{ACAD_REACTORS
330
2A1
102
}
330
2A1
100
AcDbScale
 70
     0
300
3" = 1'-0"
140
3.0
141
12.0
290
     0
  0
SCALE
  5
2C1
102
{ACAD_REACTORS
330
2A1
102
}
330
2A1
100
AcDbScale
 70
     0
300
6" = 1'-0"
140
6.0
141
12.0
290
     0
  0
SCALE
  5
2C2
102
{ACAD_REACTORS
330
2A1
102
}
330
2A1
100
AcDbScale
 70
     0
300
1'-0" = 1'-0"
140
12.0
141
12.0
290
     0
  0
DICTIONARYVAR
  5
623
102
{ACAD_REACTORS
330
278
102
}
330
278
100
DictionaryVariables
280
     0
  1
1:1
  0
DICTIONARYVAR
  5
279
102
{ACAD_REACTORS
330
278
102
}
330
278
100
DictionaryVariables
280
     0
  1
1
  0
ENDSEC
  0
SECTION
  2
THUMBNAILIMAGE
 90
    16364
310
28000000B40000005500000001000800000000000000000000000000000000000000000000000000FFFFFF000000FF0000FFFF0000FF0000FFFF0000FF000000FF00FF000000000080808000C0C0C0000000FF007F7FFF000000A5005252A50000007F003F3F7F0000004C0026264C000000260013132600003FFF007F9FFF
310
000029A5005267A500001F7F003F4F7F0000134C00262F4C000009260013172600007FFF007FBFFF000052A500527CA500003F7F003F5F7F0000264C0026394C0000132600131C260000BFFF007FDFFF00007CA5005291A500005F7F003F6F7F0000394C0026424C00001C26001321260000FFFF007FFFFF0000A5A50052A5
310
A500007F7F003F7F7F00004C4C00264C4C00002626001326260000FFBF007FFFDF0000A57C0052A59100007F5F003F7F6F00004C3900264C420000261C001326210000FF7F007FFFBF0000A5520052A57C00007F3F003F7F5F00004C2600264C39000026130013261C0000FF3F007FFF9F0000A5290052A56700007F1F003F
310
7F4F00004C1300264C2F00002609001326170000FF00007FFF7F0000A5000052A55200007F00003F7F3F00004C0000264C260000260000132613003FFF00009FFF7F0029A5000067A552001F7F00004F7F3F00134C00002F4C260009260000172613007FFF0000BFFF7F0052A500007CA552003F7F00005F7F3F00264C0000
310
394C2600132600001C261300BFFF0000DFFF7F007CA5000091A552005F7F00006F7F3F00394C0000424C26001C26000021261300FFFF0000FFFF7F00A5A50000A5A552007F7F00007F7F3F004C4C00004C4C26002626000026261300FFBF0000FFDF7F00A57C0000A59152007F5F00007F6F3F004C3900004C422600261C00
310
0026211300FF7F0000FFBF7F00A5520000A57C52007F3F00007F5F3F004C2600004C39260026130000261C1300FF3F0000FF9F7F00A5290000A56752007F1F00007F4F3F004C1300004C2F26002609000026171300FF000000FF7F7F00A5000000A55252007F0000007F3F3F004C0000004C2626002600000026131300FF00
310
3F00FF7F9F00A5002900A55267007F001F007F3F4F004C0013004C262F002600090026131700FF007F00FF7FBF00A5005200A5527C007F003F007F3F5F004C0026004C2639002600130026131C00FF00BF00FF7FDF00A5007C00A55291007F005F007F3F6F004C0039004C26420026001C0026132100FF00FF00FF7FFF00A5
310
00A500A552A5007F007F007F3F7F004C004C004C264C002600260026132600BF00FF00DF7FFF007C00A5009152A5005F007F006F3F7F0039004C0042264C001C002600211326007F00FF00BF7FFF005200A5007C52A5003F007F005F3F7F0026004C0039264C00130026001C1326003F00FF009F7FFF002900A5006752A500
310
1F007F004F3F7F0013004C002F264C000900260017132600000000002D2D2D005B5B5B0089898900B7B7B700B3B3B30000000000000000000000000000000000000000000000000000000000000000000000000000000000000000000000000000000000000000000000000000000000000000000000000000000000000000
310
00000000000000000000000000000000000000000000000000000000000000000000000000000000000000000000000000000000000000000000000000000000000000000000000000000000000000000000000000000000000000000000000000000000000000000000000000000000000000000000000000000000000000
310
00000000000000000000000000000000000000000000000000000000000000000000000000000000000000000000000000000000000000000000000000000000000000000000000000000000000000000000000000000000000000000000000000000000000000000000000000000000000000000000000000000000000000
310
00000000000000000000000000000000000000000000000000000000000000000000000000000000000000000000000000000000000000000000000000000000000000000000000000000000000000000000000000000000000000000000000000000000000000000000000000000000000000000000000000000000000000
310
00000000000000000000000000000000000000000000000000000000000000000000000000000000000000000000000000000000000000000000000000000000000000000000000000000000000000000000000000000000000000000000000000000000000000000000000000000000000000000000000000000000000000
310
00000000000000000000000000000000000000000000000707070707070000000000000000000000000000000000000000000000000000000000000000000000000000000000000000000000000000000000000000000000000000000000000000000000000000000000000000000000000000000000000000000000000000
310
00000000000000000000000000000000000000000000000000000000000000000000000000000000000000000000000000000000000000000000000000000000000000000000000000000007000007000000070000000000000000000000000000000000000000000000000000000000000000000000000000000000000000
310
00000000000000000000000000000000000000000000000000000000000000000000000000000000000000000000000000000000000000000000000000000000000000000000000000000000000000000000000000000000000000000000000000000000000000000000000000000000000000000000000000000000000000
310
07000707070707070700000000000000000000000000000000000000000000000000000000000000000000000000000000000000000000000000000000000000000000000000000000000000000000000000000000000000000000000000000000000000000000000000000000000000000000000000000000000000000000
310
00000000000000000000000000000000000000000000000000000000000000000000000000000000000000000000000000000000000707000000000007070000000000000000000000000000000000000000000000000000000000000000000000000000000000000000000000000000000000000000000000000000000000
310
00000000000000000000000000000000000000000000000000000000000000000000000000000000000000000000000000000000000000000000000000000000000000000000000000000000000000000000000000000000000000000000000000000000000000000000070700000000000007000000000000000000000000
310
00000000000000000000000000000000000000000000000000000000000000000000000000000000000000000000000000000000000000000000000000000000000000000000000000000000000000000000000000000000000000000000000000000000000000000000000000000000000000000000000000000000000000
310
00000000000000000000000000000000000000000000000000000000000000000700000000000000070000000000000000000000000000000000000000000000000000000000000000000000000000000000000000000000000000000000000000000000000000000000000000000000000000000000000000000000000000
310
00000000000000000000000000000000000000000000000000000000000000000000000000000000000000000000000000000000000000000000000000000000000000000000000000000000000000000000000000070000000000000007000000000000000000000000000000000000000000000000000000000000000000
310
00000000000000000000000000000000000000000000000000000000000000000000000000000000000000000000000000000000000000000000000000000000000000000000000000000000000000000000000000000000000000000000000000000000000000000000000000000000000000000000000000000000000000
310
00000000000000000000000700000000000000070000000000000000000000000000000000000000000000000000000000000000000000000000000000000000000000000000000000000000000000000000000000000000000000000000000000000000000000000000000000000000000000000000000000000000000000
310
00000000000000000000000000000000000000000000000000000000000000000000000000000000000000000000000000000000000000000000000000000000070000000000000007000000000000000000000000000000000000000000000000000000000000000000000000000000000000000000000000000000000000
310
00000000000000000000000000000000000000000000000000000000000000000000000000000000000000000000000000000000000000000000000000000000000000000000000000000000000000000000000000000000000000000000000000000000000000000000000000000000000000000007000000000000000700
310
00000000000000000000000000000000000000000000000000000000000000000000000000000000000000000000000000000000000000000000000000000000000000000000000000000000000000000000000000000000000000000000000000000000000000000000000000000000000000000000000000000000000000
310
00000000000000000000000000000000000000000000000000000000000000000000000000000000000000070000000000000007000000000000000000000000000000000000000000000000000000000000000000000000000000000000000000000000000000000707070707000000000000000000000000000000000000
310
00000000000000000000000000000000000000000000000000000000000000000000000000000000000000000000000000000000000000000000000000000000000000000000000000000000000000000000000000000000000000000000000007000000000000000700000000000000000000000000000000000000000000
310
00000000000000000000000000000000000000000000000000000007070700000000000707070000000000000000000000000000000000000000000000000000000000000000000000000000000000000000000000000000000000000000000000000000000000000000000000000000000000000000000000000000000000
310
00000000000000000000000000000000000000000000070000000000000007000000000000000000000000000000000000000000000000000000000000000000000000000000000000000000000007070000000000000000000000070700000000000000000000000000000000000000000000000000000000000000000000
310
00000000000000000000000000000000000000000000000000000000000000000000000000000000000000000000000000000000000000000000000000000000000000000000000000000007000000000000000700000000000000000000000000000000000000000000000000000000000000000000000000000000000000
310
00000007000000000707070707070707000000070000000000000000000000000000000000000000000000000000000000000000000000000000000000000000000000000000000000000000000000000000000000000000000000000000000000000000000000000000000000000000000000000000000000000000000000
310
00070000000000000000070000000000000000000000000000000000000000000000000000000000000000000000000000000000000000070007070707000000000000000707070700070700000000000000000000000000000000000000000000000000000000000000000000000000000000000000000000000000000000
310
00000000000000000000000000000000000000000000000000000000000000000000000000000000000000000000000000000000000007000000000000000007000000000000000000000000000000000000000000000000000000000000000000000000000000000000070700070707000000000000000000000007070700
310
00070000000000000000000000000000000000000000000000000000000000000000000000000000000000000000000000000000000000000000000000000000000000000000000000000000000000000000000000000000000000000000000000000000000000000000000700000000000000000700000000000000000000
310
00000000000000000000000000000000000000000000000000000000000000000700070000000000000000000000000000000000070700070000000000000000000000000000000000000000000000000000000000000000000000000000000000000000000000000000000000000000000000000000000000000000000000
310
00000000000000000000000000000000000000000000000000000000000000000007000000000000000007000000000000000000000000000000000000000000000000000000000000000000000000000000000007070700000000000000000000000000000000000000070707000000000000000000000000000000000000
310
00000000000000000000000000000000000000000000000000000000000000000000000000000000000000000000000000000000000000000000000000000000000000000000000000000000000000000000000000000700000000000000000700000000000000000000000000000000000000000000000000000000000000
310
00000000000000000000070707000000000000000000000000000000000000000007000700000000000000000000000000000000000000000000000000000000000000000000000000000000000000000000000000000000000000000000000000000000000000000000000000000000000000000000000000000000000000
310
00000000000000000000000007000000000000000007000000000000000000000000000000000000000000000000000000000000000000000000000000000700070000000000000000000000000000000000000000000007070000000000000000000000000000000000000000000000000000000000000000000000000000
310
00000000000000000000000000000000000000000000000000000000000000000000000000000000000000000000000000000000000000000000000000000000070000000000000000000700000000000000000000000000000000000000000000000000000000000000000000000000000000070700000000000000000000
310
00000000000000000000000000070700000000000000000000000000000000000000000000000000000000000000000000000000000000000000000000000000000000000000000000000000000000000000000000000000000000000000000000000000000000000000000000000000000000000007000000000000000000
310
07000000000000000000000000000000000000000000000000000000000000000000000000000000000700000000000000000000000000000000000000000000000007070000000000000000000000000000000000000000000000000000000000000000000000000000000000000000000000000000000000000000000000
310
00000000000000000000000000000000000000000000000000000000000000000000000000000000000000070000000000000000000700000000000000000000000000000000000000000000000000000000000000000000000000000000070000000000000000000000000000000000000000000000000007070000000000
310
00000000000000000000000000000000000000000000000000000000000000000000000000000000000000000000000000000000000000000000000000000000000000000000000000000000000000000000000000000000000000000000000007000000000000000000070000000000000000000000000000000000000000
310
00000000000000000000000000000000000000000700000000000000000000000000000000000000000000000000070700000000000000000000000000000000000000000000000000000000000000000000000000000000000000000000000000000000000000000000000000000000000000000000000000000000000000
310
00000000000000000000000000000000000000000000070000000000000000000700000000000000000000000000000000000000000000000000000000000000000000000000000000070000000000000000000000000000000000000000000000000007070000000000000000000000000000000000000000000000000000
310
00000000000000000000000000000000000000000000000000000000000000000000000000000000000000000000000000000000000000000000000000000000000000000000000000000007000000000000000000070000000000000000000000000000000000000000000000000000000000000000000000000000000007
310
00000000000000000000000000000000000000000000000000000700000000000000000000000000000000000000000000000000000000000000000000000000000000000000000000000000000000000000000000000000000000000000000000000000000000000000000000000000000000000000000000000000000000
310
00070000000000000000000700000000000000000000000000000000000000000000000000000000000000000000000000000000070000000000000000000000000000000000000000000000000007000000000000000000000000000000000000000000000000000000000000000000000000000000000000000000000000
310
00000000000000000000000000000000000000000000000000000000000000000000000000000000000000000000000000000000000007000000000000000000000700000000000000000000000000000000000000000000000000000000000000000000000000000007000000000000000000000000000000000000000000
310
00000000070000000000000000000000000000000000000000000000000000000000000000000000000000000000000000000000000000000000000000000000000000000000000000000000000000000000000000000000000000000000000000000000000000000000000700000000000000000000070000000000000000
310
00000000000000000000000000000000000000000000000000000000000000070000000000000000000000000000000000000000000000000007000000000000000000000000000000000000000000000000000000000000000000000000000000000000000000000000000000000000000000000000000000000000000000
310
00000000000000000000000000000000000000000000000000000000000000000007000000000000000000000700000000000000000000000000000000000000000000000000000000000000000000000000000007070000000000000000000000000000000000000000000000070700000000000000000000000000000000
310
00000000000000000000000000000000000000000000000000000000000000000000000000000000000000000000000000000000000000000000000000000000000000000000000000000000000000000000000000000700000000000000000000070000000000000000000000000000000000000000000000000000000000
310
00000000000000000000000700000000000000000000000000000000000000000000000700000000000000000000000000000000000000000000000000000000000000000000000000000000000000000000000000000000000000000000000000000000000000000000000000000000000000000000000000000000000000
310
00000000000000000000000007000000000000000000000700000000000000000000000000000000000000000000000000000000000000000000000000000000000700000000000000000000000000000000000000000000070000000000000000000000000000000000000000000000000000000000000000000000000000
310
00000000000000000000000000000000000000000000000000000000000000000000000000000000000000000000000000000000000000000000000000000000070000000000000000000000070000000000000000000000000000000000000000000000000000000000000000000000000000000000070700000000000000
310
00000000000000000000000000070000000000000000000000000000000000000000000000000000000000000000000000000000000000000000000000000000000000000000000000000000000000000000000000000000000000000000000000000000000000000000000000000000000000000007000000000000000000
310
00000700000000000000000000000000000000000000000000000000000000000000000000000000000000000007070000000000000000000000000000000000000700000000000000000000000000000000000000000000000000000000000000000000000000000000000000000000000000000000000000000000000000
310
00000000000000000000000000000000000000000000000000000000000000000000000000000000000000070000000000000000000000070000000000000000000000000000000000000000000000000000000000000000000000000000000000000000070000000000000000000000000000000707000000000000000000
310
00000000000000000000000000000000000000000000000000000000000000000000000000000000000000000000000000000000000000000000000000000000000000000000000000000000000000000000000000000000000000000000000007000000000000000000000007000000000000000000000000000000000000
310
00000000000000000000000000000000000000000000000000000007070000000000000000000000000700000000000000000000000000000000000000000000000000000000000000000000000000000000000000000000000000000000000000000000000000000000000000000000000000000000000000000000000000
310
00000000000000000000000000000000000000000000070000000000000000000000070000000000000000000000000000000000000000000000000000000000000000000000000000000000000000000007070000000000000000000707000000000000000000000000000000000000000000000000000000000000000000
310
00000000000000000000000000000000000000000000000000000000000000000000000000000000000000000000000000000000000000000000000000000000000000000000000000000007000000000000000000000007000000000000000000000000000000000000000000000000000000000000000000000000000000
310
00000000000000000007070707070707070700000000000000000000000000000000000000000000000000000000000000000000000000000000000000000000000000000000000000000000000000000000000000000000000000000000000000000000000000000000000000000000000000000000000000000000000000
310
00070000000000000000000000000700000000000000000000000000000000000000000000000000000000000000000000000000000000000000000000000000070000000700000000000000000000000000000000000000000000000000000000000000000000000000000000000000000000000000000000000000000000
310
00000000000000000000000000000000000000000000000000000000000000000000000000000000000000000000000000000000000007000000000000000000000000070000000000000000000000000000000000000000000000000000000000000000000000000000000000000000000000000707000000070700000000
310
00000000000000000000000000000000000000000000000000000000000000000000000000000000000000000000000000000000000000000000000000000000000000000000000000000000000000000000000000000000000000000000000000000000000000000000000700000000000000000000000007000000000000
310
00000000000000000000000000000000000000000000000000000000000000000000000000000000000007070707070707000000000000000000000000000000000000000000000000000000000000000000000000000000000000000000000000000000000000000000000000000000000000000000000000000000000000
310
00000000000000000000000000000000000000000000000000000000000000000007000000000000000000000000070000000000000000000000000000000000000000000000000000000000000000000000000000000000000000000000000700070707070700000000000000000000000000000000000000000000000000
310
00000000000000000000000000000000000000000000000000000000000000000000000000000000000000000000000000000000000000000000000000000000000000000000000000000000000000000000000000070000000000000000000000000007000000000000000000000000000000000000000000000000000000
310
00000000000000000000000000000000000000000007000000000007000000000000000000000000000000000000000000000000000000000000000000000000000000000000000000000000000000000000000000000000000000000000000000000000000000000000000000000000000000000000000000000000000000
310
00000000000000000000000700000000000000000000000000070000000000000000000000000000000000000000000000000000000000000000000000000000000000000000000000000700000000000700000000000000000000000000000000000000000000000000000000000000000000000000000000000000000000
310
00000000000000000000000000000000000000000000000000000000000000000000000000000000000000000000000000000000000000000000000000000000070000000000000000000000000007000000000000000000000000000000000000000000000000000000000000000000000000000000000000000000000000
310
07000000000007000000000000000000000000000000000000000000000000000000000000000000000000000000000000000000000000000000000000000000000000000000000000000000000000000000000000000000000000000000000000000000000000000000000000000000000000000007000000000000000000
310
00000000070000000000000000000000000000000000000000000000000000000000000000000000000000000000000000000000000700000000000700000000000000000000000000000000000000000000000000000000000000000000000000000000000000000000000000000000000000000000000000000000000000
310
00000000000000000000000000000000000000000000000000000000000000000000000000000000000000070000000000000000000000000007000000000000000000000000000000000000000000000000000000000000000000000000000000000000000000000000070000000000070000000000000000000000000000
310
00000000000000000000000000000000000000000000000000000000000000000000000000000000000000000000000000000000000000000000000000000000000000000000000000000000000000000000000000000000000000000000000007000000000000000000000000000700000000000000000000000000000000
310
00000000000000000000000000000000000000000000000000000000000000000700000000000700000000000000000000000000000000000000000000000000000000000000000000000000000000000000000000000000000000000000000000000000000000000000000000000000000000000000000000000000000000
310
00000000000000000000000000000000000000000000070000000000000000000000000007000000000000000000000000000000000000000000000000000000000000000000000000000000000000000000000000070000000000070000000000000000000000000000000000000000000000000000000000000000000000
310
00000000000000000000000000000000000000000000000000000000000000000000000000000000000000000000000000000000000000000000000000000000000000000000000000000007000000000000000000000000000700000000000000000000000000000000000000000000000000000000000000000000000000
310
00000000000000000000000700000000000700000000000000000000000000000000000000000000000000000000000000000000000000000000000000000000000000000000000000000000000000000000000000000000000000000000000000000000000000000000000000000000000000000000000000000000000000
310
00070000000000000000000000000007000000000000000000000000000000000000000000000000000000000000000000000000000000000000000000000000070000000000070000000000000000000000000000000000000000000000000000000000000000000000000000000000000000000000000000000000000000
310
00000000000000000000000000000000000000000000000000000000000000000000000000000000000000000000000000000000000007000000000000000000000000000700000000000000000000000000000000000000000000000000000000000000000000000000000000000000000000000007000000000007000000
310
00000000000000000000000000000000000000000000000000000000000000000000000000000000000000000000000000000000000000000000000000000000000000000000000000000000000000000000000000000000000000000000000000000000000000000000000700000000000000000000000000000700000000
310
00000000000000000000000000000000000000000000000000000000000000000000000000000000000000070000000000070000000000000000000000000000000000000000000000000000000000000000000000000000000000000000000000000000000000000000000000000000000000000000000000000000000000
310
00000000000000000000000000000000000000000000000000000000000000000007000000000000000000000000000007000000000000000000000000000000000000000000000000000000000000000000000000000000000000000000000007000000000007000000000000000000000000000000000000000000000000
310
00000000000000000000000000000000000000000000000000000000000000000000000000000000000000000000000000000000000000000000000000000000000000000000000000000000000000000000000000000700000000000000000000000000000700000000000000000000000000000000000000000000000000
310
00000000000000000000000000000000000000000000070000000000070700000000000000000000000000000000000000000000000000000000000000000000000000000000000000000000000000000000000000000000000000000000000000000000000000000000000000000000000000000000000000000000000000
310
00000000000000000000000007000000000000000000000000000007000000000000000000000000000000000000000000000000000000000000000000000000000000000000000000000707000000000007070000000000000000000000000000000000000000000000000000000000000000000000000000000000000000
310
00000000000000000000000000000000000000000000000000000000000000000000000000000000000000000000000000000000000000000000000000000000000700000000000000000000000000000700000000000000000000000000000000000000000000000000000000000000000000000000000000000000000000
310
07070000000000070700000000000000000000000000000000000000000000000000000000000000000000000000000000000000000000000000000000000000000000000000000000000000000000000000000000000000000000000000000000000000000000000000000000000000000000000007000000000000000000
310
00000000000007000000000000000000000000000000000000000000000000000000000000000000000000000000000000000000000707070000000707070000000000000000000000000000000000000000000000000000000000000000000000000000000000000000000000000000000000000000000000000000000000
310
00000000000000000000000000000000000000000000000000000000000000000000000000000000000000070000000000000000000000000000000700000000000000000000000000000000000000000000000000000000000000000000000000000000000000000000070700070707070007000000000000000000000000
310
00000000000000000000000000000000000000000000000000000000000000000000000000000000000000000000000000000000000000000000000000000000000000000000000000000000000000000000000000000000000000000000000007000000000000000000000000000000070000000000000000000000000000
310
00000000000000000000000000000000000000000000000000000000000000000700070700000707070000000000000000000000000000000000000000000000000000000000000000000000000000000000000000000000000000000000000000000000000000000000000000000000000000000000000000000000000000
310
00000000000000000000000000000000000000000000070000000000000000000000000000000700000000000000000000000000000000000000000000000000000000000000000000000000000000000000000007070000000707000007070000000000000000000000000000000000000000000000000000000000000000
310
00000000000000000000000000000000000000000000000000000000000000000000000000000000000000000000000000000000000707000000000000000000000000000000000000000007000000000000000000000000000000000700000000000000000000000000000000000000070700000000000000000000000000
310
00000000000000000707000700000000000000070007000000000000000000000000000000000000000000000000000000000000000000000000000000000000000000000000000000000000000000000000000000000000000000000000000000000000000000000707000007070000000000000000000000000000000000
310
00070000000000000000000000000000000007000000000000000000000000000000000007070000070707000000000000000000000000000000000000070007070707000000070707070007000000000000000000000000000000000000000000000000000000000000000000000000000000000000000000000000000000
310
00000000000000000000000000000000000000000000000000000000070700000000000007070000000000000000000000000000000007000000000000000000000000000000000700000000000000000000000000000007070000000000000007070000000000000000000000000000000700070707000707070707000707
310
07000700000000000000000000000000000000000000000000000000000000000000000000000000000000000000000000000000000000000000000000000000000000000000000000000000000000000700000000000000000000070000000000000000000000000000000700000000000000000000000000000000070000
310
00000000000000000000000007000000000000000000000700000000000000000000000000000007000707070000000000000007070007070000000000000000000000000000000000000000000000000000000000000000000000000000000000000000000000000000000000000000000000000000000000000000000000
310
00000000000700000000000000000000000007000000000000000000000000000007000000000000000000000000000000000700000000000000000000000000000700000000000000000000000700000000000000000000000000070007000707000000000000000707000700070000000000000000000000000000000000
310
00000000000000000000000000000000000000000000000000000000000000000000000000000000000000000000000000000000000000000000070000000000000000000000000700000000000000000000000000000700000000000000000000000000000000070000000000000000000000000007070000000000000000
310
00000007000000000000000000000000000700070707070000000000000007000700070700000000000000000000000000000000000000000000000000000000000000000000000000000000000000000000000000000000000000000000000000000000000000000000000000000707000000000000000000000000070700
310
00000000000000000000000007000000000000000000000000000000000700000000000000000000000000070000000000000000000000000707000000000000000000000000070007070007000000000000000000070007000700000000000000000000000000000000000000000000000000000000000000000000000000
310
00000000000000000000000000000000000000000000000000000000000000000000000007070000000000000000000000000707000000000000000000000000000700000000000000000000000000000000070000000000000000000000000007000000000000000000000000070700000000000000000000000007000707
310
00070000000000000007000700070000000000000000000000000000000000000000000000000000000000000000000000000000000000000000000000000000000000000000000000000000000000000000000000000000000007000000000000000000000000070000000000000000000000000000070000000000000000
310
00000000000000000700000000000000000000000000070000000000000000000000000007000000000000000000000000070007070707000000000000000700070007070000000000000000000000000000000000000000000000000000000000000000000000000000000000000000000000000000000000000000000000
310
00000000000000000000000000000000070000000000000000000000000700000000000000000000000000000700000000000000000000000000000000070000000000000000000000000000070000000000000000000000070000000000000000000000000007000700070007000000000007000007000707000000000000
310
00000000000000000000000000000000000000000000000000000000000000000000000000000000000000000000000000000000000000000000000000000000000000000007000000000000000000000000070000000000000000000000000000070000000000000000000000000000000700000000000000000000000000
310
00000700000000000000000000000700000000000000000000000000070007000700070700000007070007000700070000000000000000000000000000000000000000000000000000000000000000000000000000000000000000000000000000000000000000000000000000000000000000000000000000000007000000
310
00000000000000070000000000000000000000000000000007000000000000000000000000000007000000000000000000000000000000070000000000000000000007000000000000000000000000000000070007070000070707070700000700070007000000000000000000000000000000000000000000000000000000
310
00000000000000000000000000000000000000000000000000000000000000000000000000000000000000000000000000000700000000000000000700000000000000000000000000000000000700000000000000000000000000070000000000000000000000000000000000070000000000000000070700000000000000
310
00000000000000000700070707000000000000000700070007000000000000000000000000000000000000000000000000000000000000000000000000000000000000000000000000000000000000000000000000000000000000000000000000000000000000000707070000000707000000000000000000000000000000
310
00000000070000000000000000000000070000000000000000000000000000000000000007070700000007070000000000000000000000000000000000000700070707070000000707070700070000000000000000000000000000000000000000000000000000000000000000000000000000000000000000000000000000
310
00000000000000000000000000000000000000000000000000000000000000000007070700000000000000000000000000000000000000000000070700000000000000070700000000000000000000000000000000000000000000000707070000000000000000000000000000000000000000000700070707070707070707
310
00070000000000000000000000000000000000000000000000000000000000000000000000000000000000000000000000000000000000000000000000000000000000000000000000000000000000000000000000000000000000000000000000000000000000000000000000000000000707000000070700000000000000
310
00000000000000000000000000000000000000000000000000000000000000000000000000000000000000070700000707070000000700000000000000000000000000000000000000000000000000000000000000000000000000000000000000000000000000000000000000000000000000000000000000000000000000
310
00000000000000000000000000000000000000000000000000000000000000000000000000000000000707070000000000000000000000000000000000000000000000000000000000000000000000000000000000000000000000000000000000000707070707070707000000000000000000000000000000000000000000
310
00000000000000000000000000000000000000000000000000000000000000000000000000000000000000000000000000000000000000000000000000000000000000000000000000000000000000000000000000000000000000000000000000000000000000000000000000000000000000000000000000000000000000
310
00000000000000000000000000000000000000000000000000000000000000000000000000000000000000000000000000000000000000000000000000000000000000000000000000000000000000000000000000000000000000000000000000000000000000000000000000000000000000000000000000000000000000
310
00000000000000000000000000000000000000000000000000000000000000000000000000000000000000000000000000000000000000000000000000000000000000000000000000000000000000000000000000000000000000000000000000000000000000000000000000000000000000000000000000000000000000
310
00000000000000000000000000000000000000000000000000000000000000000000000000000000000000000000000000000000000000000000000000000000000000000000000000000000000000000000000000000000000000000000000000000000000000000000000000000000000000000000000000000000000000
310
00000000000000000000000000000000000000000000000000000000000000000000000000000000000000000000000000000000000000000000000000000000000000000000000000000000000000000000000000000000000000000000000000000000000000000000000000000000000000000000000000000000000000
310
000000000000000000000000000000000000000000000000000000000000000000000000000000000000000000000000000000000000000000000000000000000000000000000000000000000000000000000000000000000000000000000000000000000000000000000000
  0
ENDSEC
  0
EOF
