  0
SECTION
  2
HEADER
  9
$ACADVER
  1
AC1015
  9
$ACADMAINTVER
 70
     6
  9
$DWGCODEPAGE
  3
ANSI_1252
  9
$INSBASE
 10
0.0
 20
0.0
 30
0.0
  9
$EXTMIN
 10
0.0434
 20
0.0165
 30
0.0
  9
$EXTMAX
 10
291.4176
 20
201.946888
 30
0.0
  9
$LIMMIN
 10
0.0
 20
0.0
  9
$LIMMAX
 10
12.0
 20
9.0
  9
$ORTHOMODE
 70
     0
  9
$REGENMODE
 70
     1
  9
$FILLMODE
 70
     1
  9
$QTEXTMODE
 70
     0
  9
$MIRRTEXT
 70
     1
  9
$LTSCALE
 40
1.0
  9
$ATTMODE
 70
     1
  9
$TEXTSIZE
 40
0.2
  9
$TRACEWID
 40
0.05
  9
$TEXTSTYLE
  7
STANDARD
  9
$CLAYER
  8
0
  9
$CELTYPE
  6
CONTINUOUS
  9
$CECOLOR
 62
   256
  9
$CELTSCALE
 40
1.0
  9
$DISPSILH
 70
     0
  9
$DIMSCALE
 40
1.0
  9
$DIMASZ
 40
0.18
  9
$DIMEXO
 40
0.0625
  9
$DIMDLI
 40
0.38
  9
$DIMRND
 40
0.0
  9
$DIMDLE
 40
0.0
  9
$DIMEXE
 40
0.18
  9
$DIMTP
 40
0.0
  9
$DIMTM
 40
0.0
  9
$DIMTXT
 40
0.18
  9
$DIMCEN
 40
0.09
  9
$DIMTSZ
 40
0.0
  9
$DIMTOL
 70
     0
  9
$DIMLIM
 70
     0
  9
$DIMTIH
 70
     1
  9
$DIMTOH
 70
     1
  9
$DIMSE1
 70
     0
  9
$DIMSE2
 70
     0
  9
$DIMTAD
 70
     0
  9
$DIMZIN
 70
     0
  9
$DIMBLK
  1

  9
$DIMASO
 70
     1
  9
$DIMSHO
 70
     1
  9
$DIMPOST
  1

  9
$DIMAPOST
  1

  9
$DIMALT
 70
     0
  9
$DIMALTD
 70
     2
  9
$DIMALTF
 40
25.4
  9
$DIMLFAC
 40
1.0
  9
$DIMTOFL
 70
     0
  9
$DIMTVP
 40
0.0
  9
$DIMTIX
 70
     0
  9
$DIMSOXD
 70
     0
  9
$DIMSAH
 70
     0
  9
$DIMBLK1
  1

  9
$DIMBLK2
  1

  9
$DIMSTYLE
  2
STANDARD
  9
$DIMCLRD
 70
     0
  9
$DIMCLRE
 70
     0
  9
$DIMCLRT
 70
     0
  9
$DIMTFAC
 40
1.0
  9
$DIMGAP
 40
0.09
  9
$DIMJUST
 70
     0
  9
$DIMSD1
 70
     0
  9
$DIMSD2
 70
     0
  9
$DIMTOLJ
 70
     1
  9
$DIMTZIN
 70
     0
  9
$DIMALTZ
 70
     0
  9
$DIMALTTZ
 70
     0
  9
$DIMUPT
 70
     0
  9
$DIMDEC
 70
     4
  9
$DIMTDEC
 70
     4
  9
$DIMALTU
 70
     2
  9
$DIMALTTD
 70
     2
  9
$DIMTXSTY
  7
STANDARD
  9
$DIMAUNIT
 70
     0
  9
$DIMADEC
 70
     0
  9
$DIMALTRND
 40
0.0
  9
$DIMAZIN
 70
     0
  9
$DIMDSEP
 70
    46
  9
$DIMATFIT
 70
     3
  9
$DIMFRAC
 70
     0
  9
$DIMLDRBLK
  1

  9
$DIMLUNIT
 70
     2
  9
$DIMLWD
 70
    -2
  9
$DIMLWE
 70
    -2
  9
$DIMTMOVE
 70
     2
  9
$LUNITS
 70
     2
  9
$LUPREC
 70
     4
  9
$SKETCHINC
 40
0.1
  9
$FILLETRAD
 40
0.0
  9
$AUNITS
 70
     0
  9
$AUPREC
 70
     0
  9
$MENU
  1
.
  9
$ELEVATION
 40
0.0
  9
$PELEVATION
 40
0.0
  9
$THICKNESS
 40
0.0
  9
$LIMCHECK
 70
     0
  9
$CHAMFERA
 40
0.0
  9
$CHAMFERB
 40
0.0
  9
$CHAMFERC
 40
0.0
  9
$CHAMFERD
 40
0.0
  9
$SKPOLY
 70
     0
  9
$TDCREATE
 40
2454690.830344861
  9
$TDUCREATE
 40
2454690.747011528
  9
$TDUPDATE
 40
2456209.733829028
  9
$TDUUPDATE
 40
2456209.650495694
  9
$TDINDWG
 40
0.0078490394
  9
$TDUSRTIMER
 40
0.0078490394
  9
$USRTIMER
 70
     1
  9
$ANGBASE
 50
0.0
  9
$ANGDIR
 70
     0
  9
$PDMODE
 70
     0
  9
$PDSIZE
 40
0.0
  9
$PLINEWID
 40
0.0
  9
$SPLFRAME
 70
     0
  9
$SPLINETYPE
 70
     6
  9
$SPLINESEGS
 70
     8
  9
$HANDSEED
  5
6CA
  9
$SURFTAB1
 70
     6
  9
$SURFTAB2
 70
     6
  9
$SURFTYPE
 70
     6
  9
$SURFU
 70
     6
  9
$SURFV
 70
     6
  9
$UCSBASE
  2

  9
$UCSNAME
  2

  9
$UCSORG
 10
0.0
 20
0.0
 30
0.0
  9
$UCSXDIR
 10
1.0
 20
0.0
 30
0.0
  9
$UCSYDIR
 10
0.0
 20
1.0
 30
0.0
  9
$UCSORTHOREF
  2

  9
$UCSORTHOVIEW
 70
     0
  9
$UCSORGTOP
 10
0.0
 20
0.0
 30
0.0
  9
$UCSORGBOTTOM
 10
0.0
 20
0.0
 30
0.0
  9
$UCSORGLEFT
 10
0.0
 20
0.0
 30
0.0
  9
$UCSORGRIGHT
 10
0.0
 20
0.0
 30
0.0
  9
$UCSORGFRONT
 10
0.0
 20
0.0
 30
0.0
  9
$UCSORGBACK
 10
0.0
 20
0.0
 30
0.0
  9
$PUCSBASE
  2

  9
$PUCSNAME
  2

  9
$PUCSORG
 10
0.0
 20
0.0
 30
0.0
  9
$PUCSXDIR
 10
1.0
 20
0.0
 30
0.0
  9
$PUCSYDIR
 10
0.0
 20
1.0
 30
0.0
  9
$PUCSORTHOREF
  2

  9
$PUCSORTHOVIEW
 70
     0
  9
$PUCSORGTOP
 10
0.0
 20
0.0
 30
0.0
  9
$PUCSORGBOTTOM
 10
0.0
 20
0.0
 30
0.0
  9
$PUCSORGLEFT
 10
0.0
 20
0.0
 30
0.0
  9
$PUCSORGRIGHT
 10
0.0
 20
0.0
 30
0.0
  9
$PUCSORGFRONT
 10
0.0
 20
0.0
 30
0.0
  9
$PUCSORGBACK
 10
0.0
 20
0.0
 30
0.0
  9
$USERI1
 70
     0
  9
$USERI2
 70
     0
  9
$USERI3
 70
     0
  9
$USERI4
 70
     0
  9
$USERI5
 70
     0
  9
$USERR1
 40
0.0
  9
$USERR2
 40
0.0
  9
$USERR3
 40
0.0
  9
$USERR4
 40
0.0
  9
$USERR5
 40
0.0
  9
$WORLDVIEW
 70
     1
  9
$SHADEDGE
 70
     3
  9
$SHADEDIF
 70
    70
  9
$TILEMODE
 70
     1
  9
$MAXACTVP
 70
    64
  9
$PINSBASE
 10
0.0
 20
0.0
 30
0.0
  9
$PLIMCHECK
 70
     0
  9
$PEXTMIN
 10
1.000000000000E+20
 20
1.000000000000E+20
 30
1.000000000000E+20
  9
$PEXTMAX
 10
-1.000000000000E+20
 20
-1.000000000000E+20
 30
-1.000000000000E+20
  9
$PLIMMIN
 10
0.0
 20
0.0
  9
$PLIMMAX
 10
12.0
 20
9.0
  9
$UNITMODE
 70
     0
  9
$VISRETAIN
 70
     1
  9
$PLINEGEN
 70
     0
  9
$PSLTSCALE
 70
     1
  9
$TREEDEPTH
 70
  3020
  9
$CMLSTYLE
  2
STANDARD
  9
$CMLJUST
 70
     0
  9
$CMLSCALE
 40
1.0
  9
$PROXYGRAPHICS
 70
     1
  9
$MEASUREMENT
 70
     0
  9
$CELWEIGHT
370
    -1
  9
$ENDCAPS
280
     0
  9
$JOINSTYLE
280
     0
  9
$LWDISPLAY
290
     0
  9
$INSUNITS
 70
     0
  9
$HYPERLINKBASE
  1

  9
$STYLESHEET
  1

  9
$XEDIT
290
     1
  9
$CEPSNTYPE
380
     0
  9
$PSTYLEMODE
290
     1
  9
$FINGERPRINTGUID
  2
{9A7A2D8A-E9B1-4050-88EC-11C78E28005A}
  9
$VERSIONGUID
  2
{06550070-07DB-4BC9-84EF-B46AD5369899}
  9
$EXTNAMES
290
     1
  9
$PSVPSCALE
 40
0.0
  9
$OLESTARTUP
290
     0
  0
ENDSEC
  0
SECTION
  2
CLASSES
  0
CLASS
  1
ACDBDICTIONARYWDFLT
  2
AcDbDictionaryWithDefault
  3
ObjectDBX Classes
 90
        0
280
     0
281
     0
  0
CLASS
  1
ACDBPLACEHOLDER
  2
AcDbPlaceHolder
  3
ObjectDBX Classes
 90
        0
280
     0
281
     0
  0
CLASS
  1
LAYOUT
  2
AcDbLayout
  3
ObjectDBX Classes
 90
        0
280
     0
281
     0
  0
CLASS
  1
DICTIONARYVAR
  2
AcDbDictionaryVar
  3
ObjectDBX Classes
 90
        0
280
     0
281
     0
  0
CLASS
  1
DUMMY
  2
AcDbLongTransaction
  3
DUMMY
 90
        0
280
     0
281
     0
  0
CLASS
  1
LWPOLYLINE
  2
AcDbPolyline
  3
AutoCAD 2000
 90
        0
280
     0
281
     1
  0
CLASS
  1
HATCH
  2
AcDbHatch
  3
AutoCAD 2000
 90
        0
280
     0
281
     1
  0
CLASS
  1
XRECORD
  2
AcDbXrecord
  3
AutoCAD 2000
 90
        0
280
     0
281
     0
  0
CLASS
  1
SCALE
  2
AcDbScale
  3
ObjectDBX Classes
 90
     1153
280
     0
281
     0
  0
ENDSEC
  0
SECTION
  2
TABLES
  0
TABLE
  2
VPORT
  5
8
330
0
100
AcDbSymbolTable
 70
     1
  0
VPORT
  5
224
330
8
100
AcDbSymbolTableRecord
100
AcDbViewportTableRecord
  2
*ACTIVE
 70
     0
 10
0.0
 20
0.0
 11
1.0
 21
1.0
 12
145.7088
 22
100.973444
 13
0.0
 23
0.0
 14
1.0
 24
1.0
 15
0.0
 25
0.0
 16
0.0
 26
0.0
 36
1.0
 17
0.0
 27
0.0
 37
0.0
 40
205.98582576
 41
2.271724137931
 42
50.0
 43
0.0
 44
0.0
 50
0.0
 51
0.0
 71
    16
 72
   100
 73
     1
 74
     3
 75
     0
 76
     0
 77
     0
 78
     0
281
     0
 65
     1
110
0.0
120
0.0
130
0.0
111
1.0
121
0.0
131
0.0
112
0.0
122
1.0
132
0.0
 79
     0
146
0.0
  0
ENDTAB
  0
TABLE
  2
LTYPE
  5
5
330
0
100
AcDbSymbolTable
 70
     1
  0
LTYPE
  5
13
330
5
100
AcDbSymbolTableRecord
100
AcDbLinetypeTableRecord
  2
BYBLOCK
 70
     0
  3

 72
    65
 73
     0
 40
0.0
  0
LTYPE
  5
14
330
5
100
AcDbSymbolTableRecord
100
AcDbLinetypeTableRecord
  2
BYLAYER
 70
     0
  3

 72
    65
 73
     0
 40
0.0
  0
LTYPE
  5
15
330
5
100
AcDbSymbolTableRecord
100
AcDbLinetypeTableRecord
  2
CONTINUOUS
 70
     0
  3
Solid line
 72
    65
 73
     0
 40
0.0
  0
ENDTAB
  0
TABLE
  2
LAYER
  5
2
330
0
100
AcDbSymbolTable
 70
     1
  0
LAYER
  5
10
330
2
100
AcDbSymbolTableRecord
100
AcDbLayerTableRecord
  2
0
 70
     0
 62
     7
  6
CONTINUOUS
370
    -3
390
F
  0
ENDTAB
  0
TABLE
  2
STYLE
  5
3
330
0
100
AcDbSymbolTable
 70
     1
  0
STYLE
  5
11
330
3
100
AcDbSymbolTableRecord
100
AcDbTextStyleTableRecord
  2
STANDARD
 70
     0
 40
0.0
 41
1.0
 50
0.0
 71
     0
 42
0.2
  3
txt
  4

  0
ENDTAB
  0
TABLE
  2
VIEW
  5
6
330
0
100
AcDbSymbolTable
 70
     0
  0
ENDTAB
  0
TABLE
  2
UCS
  5
7
330
0
100
AcDbSymbolTable
 70
     0
  0
ENDTAB
  0
TABLE
  2
APPID
  5
9
330
0
100
AcDbSymbolTable
 70
     1
  0
APPID
  5
12
330
9
100
AcDbSymbolTableRecord
100
AcDbRegAppTableRecord
  2
ACAD
 70
     0
  0
ENDTAB
  0
TABLE
  2
DIMSTYLE
  5
A
330
0
100
AcDbSymbolTable
 70
     1
100
AcDbDimStyleTable
  0
DIMSTYLE
105
21E
330
A
100
AcDbSymbolTableRecord
100
AcDbDimStyleTableRecord
  2
STANDARD
 70
     0
340
11
  0
ENDTAB
  0
TABLE
  2
BLOCK_RECORD
  5
1
330
0
100
AcDbSymbolTable
 70
     1
  0
BLOCK_RECORD
  5
1E
330
1
100
AcDbSymbolTableRecord
100
AcDbBlockTableRecord
  2
*MODEL_SPACE
340
249
  0
BLOCK_RECORD
  5
1A
330
1
100
AcDbSymbolTableRecord
100
AcDbBlockTableRecord
  2
*PAPER_SPACE
340
24A
  0
ENDTAB
  0
ENDSEC
  0
SECTION
  2
BLOCKS
  0
BLOCK
  5
1F
330
1E
100
AcDbEntity
  8
0
100
AcDbBlockBegin
  2
*MODEL_SPACE
 70
     0
 10
0.0
 20
0.0
 30
0.0
  3
*MODEL_SPACE
  1
*MODEL_SPACE
  0
ENDBLK
  5
20
330
1E
100
AcDbEntity
  8
0
100
AcDbBlockEnd
  0
BLOCK
  5
1B
330
1A
100
AcDbEntity
 67
     1
  8
0
100
AcDbBlockBegin
  2
*PAPER_SPACE
 70
     0
 10
0.0
 20
0.0
 30
0.0
  3
*PAPER_SPACE
  1
*PAPER_SPACE
  0
ENDBLK
  5
1C
330
1A
100
AcDbEntity
 67
     1
  8
0
100
AcDbBlockEnd
  0
ENDSEC
  0
SECTION
  2
ENTITIES
  0
LINE
  5
22
330
1E
100
AcDbEntity
  8
0
100
AcDbLine
 10
0.0434
 20
125.0765
 30
0.0
 11
6.6308
 21
131.6895
 31
0.0
  0
LINE
  5
23
330
1E
100
AcDbEntity
  8
0
100
AcDbLine
 10
0.0434
 20
125.0765
 30
0.0
 11
0.7953
 21
124.3215
 31
0.0
  0
LINE
  5
24
330
1E
100
AcDbEntity
  8
0
100
AcDbLine
 10
0.0434
 20
125.0765
 30
0.0
 11
6.6308
 21
131.6895
 31
0.0
  0
LINE
  5
25
330
1E
100
AcDbEntity
  8
0
100
AcDbLine
 10
0.0434
 20
125.0765
 30
0.0
 11
0.7953
 21
124.3215
 31
0.0
  0
LINE
  5
26
330
1E
100
AcDbEntity
  8
0
100
AcDbLine
 10
7.1571
 20
132.2165
 30
0.0
 11
31.7571
 21
145.5165
 31
0.0
  0
LINE
  5
27
330
1E
100
AcDbEntity
  8
0
100
AcDbLine
 10
7.1571
 20
132.2165
 30
0.0
 11
7.5571
 21
131.8165
 31
0.0
  0
LINE
  5
28
330
1E
100
AcDbEntity
  8
0
100
AcDbLine
 10
7.1571
 20
132.2165
 30
0.0
 11
31.7571
 21
145.5165
 31
0.0
  0
LINE
  5
29
330
1E
100
AcDbEntity
  8
0
100
AcDbLine
 10
6.6308
 20
131.6895
 30
0.0
 11
7.3828
 21
130.9345
 31
0.0
  0
LINE
  5
2A
330
1E
100
AcDbEntity
  8
0
100
AcDbLine
 10
6.6308
 20
131.6895
 30
0.0
 11
7.3888
 21
130.9405
 31
0.0
  0
LINE
  5
2B
330
1E
100
AcDbEntity
  8
0
100
AcDbLine
 10
0.7953
 20
124.3215
 30
0.0
 11
2.9427
 21
122.1775
 31
0.0
  0
LINE
  5
2C
330
1E
100
AcDbEntity
  8
0
100
AcDbLine
 10
8.4571
 20
130.9165
 30
0.0
 11
10.0571
 21
129.3165
 31
0.0
  0
LINE
  5
2D
330
1E
100
AcDbEntity
  8
0
100
AcDbLine
 10
7.5571
 20
131.8165
 30
0.0
 11
8.4571
 21
130.9165
 31
0.0
  0
LINE
  5
2E
330
1E
100
AcDbEntity
  8
0
100
AcDbLine
 10
7.3888
 20
130.9405
 30
0.0
 11
9.5414
 21
128.8005
 31
0.0
  0
LINE
  5
2F
330
1E
100
AcDbEntity
  8
0
100
AcDbLine
 10
7.3828
 20
130.9345
 30
0.0
 11
9.5302
 21
128.7895
 31
0.0
  0
LINE
  5
30
330
1E
100
AcDbEntity
  8
0
100
AcDbLine
 10
2.9427
 20
122.1775
 30
0.0
 11
6.1588
 21
118.9705
 31
0.0
  0
LINE
  5
31
330
1E
100
AcDbEntity
  8
0
100
AcDbLine
 10
12.1571
 20
127.2165
 30
0.0
 11
14.4571
 21
124.8165
 31
0.0
  0
LINE
  5
32
330
1E
100
AcDbEntity
  8
0
100
AcDbLine
 10
10.0571
 20
129.3165
 30
0.0
 11
12.1571
 21
127.2165
 31
0.0
  0
LINE
  5
33
330
1E
100
AcDbEntity
  8
0
100
AcDbLine
 10
9.5414
 20
128.8005
 30
0.0
 11
12.7609
 21
125.5975
 31
0.0
  0
LINE
  5
34
330
1E
100
AcDbEntity
  8
0
100
AcDbLine
 10
9.5302
 20
128.7895
 30
0.0
 11
12.7462
 21
125.5825
 31
0.0
  0
LINE
  5
35
330
1E
100
AcDbEntity
  8
0
100
AcDbLine
 10
6.1588
 20
118.9705
 30
0.0
 11
9.9617
 21
115.1805
 31
0.0
  0
LINE
  5
36
330
1E
100
AcDbEntity
  8
0
100
AcDbLine
 10
12.7609
 20
125.5975
 30
0.0
 11
16.5571
 21
121.8165
 31
0.0
  0
LINE
  5
37
330
1E
100
AcDbEntity
  8
0
100
AcDbLine
 10
12.7462
 20
125.5825
 30
0.0
 11
16.5491
 21
121.7925
 31
0.0
  0
LINE
  5
38
330
1E
100
AcDbEntity
  8
0
100
AcDbLine
 10
9.9617
 20
115.1805
 30
0.0
 11
13.7499
 21
111.4075
 31
0.0
  0
LINE
  5
39
330
1E
100
AcDbEntity
  8
0
100
AcDbLine
 10
14.4571
 20
124.8165
 30
0.0
 11
17.0571
 21
122.3165
 31
0.0
  0
LINE
  5
3A
330
1E
100
AcDbEntity
  8
0
100
AcDbLine
 10
17.0571
 20
122.3165
 30
0.0
 11
19.5571
 21
119.8165
 31
0.0
  0
LINE
  5
3B
330
1E
100
AcDbEntity
  8
0
100
AcDbLine
 10
16.5571
 20
121.8165
 30
0.0
 11
20.352
 21
118.0345
 31
0.0
  0
LINE
  5
3C
330
1E
100
AcDbEntity
  8
0
100
AcDbLine
 10
16.5491
 20
121.7925
 30
0.0
 11
20.3373
 21
118.0205
 31
0.0
  0
LINE
  5
3D
330
1E
100
AcDbEntity
  8
0
100
AcDbLine
 10
13.7499
 20
111.4075
 30
0.0
 11
16.9694
 21
108.2035
 31
0.0
  0
LINE
  5
3E
330
1E
100
AcDbEntity
  8
0
100
AcDbLine
 10
16.9694
 20
108.2035
 30
0.0
 11
19.1066
 21
106.0795
 31
0.0
  0
LINE
  5
3F
330
1E
100
AcDbEntity
  8
0
100
AcDbLine
 10
25.6571
 20
113.7165
 30
0.0
 11
26.5571
 21
112.8165
 31
0.0
  0
LINE
  5
40
330
1E
100
AcDbEntity
  8
0
100
AcDbLine
 10
19.5571
 20
119.8165
 30
0.0
 11
21.9571
 21
117.4165
 31
0.0
  0
LINE
  5
41
330
1E
100
AcDbEntity
  8
0
100
AcDbLine
 10
21.9571
 20
117.4165
 30
0.0
 11
24.0571
 21
115.3165
 31
0.0
  0
LINE
  5
42
330
1E
100
AcDbEntity
  8
0
100
AcDbLine
 10
24.0571
 20
115.3165
 30
0.0
 11
25.6571
 21
113.7165
 31
0.0
  0
LINE
  5
43
330
1E
100
AcDbEntity
  8
0
100
AcDbLine
 10
20.352
 20
118.0345
 30
0.0
 11
23.568
 21
114.8275
 31
0.0
  0
LINE
  5
44
330
1E
100
AcDbEntity
  8
0
100
AcDbLine
 10
20.3373
 20
118.0205
 30
0.0
 11
23.5568
 21
114.8165
 31
0.0
  0
LINE
  5
45
330
1E
100
AcDbEntity
  8
0
100
AcDbLine
 10
23.5568
 20
114.8165
 30
0.0
 11
25.6941
 21
112.6925
 31
0.0
  0
LINE
  5
46
330
1E
100
AcDbEntity
  8
0
100
AcDbLine
 10
19.1066
 20
106.0795
 30
0.0
 11
19.8799
 21
105.3155
 31
0.0
  0
LINE
  5
47
330
1E
100
AcDbEntity
  8
0
100
AcDbLine
 10
19.8799
 20
105.3155
 30
0.0
 11
26.4674
 21
111.9285
 31
0.0
  0
LINE
  5
57
330
1E
100
AcDbEntity
  8
0
100
AcDbLine
 10
221.5576
 20
0.0165
 30
0.0
 11
222.7566
 21
0.0165
 31
0.0
  0
LINE
  5
58
330
1E
100
AcDbEntity
  8
0
100
AcDbLine
 10
222.7566
 20
0.0165
 30
0.0
 11
225.9566
 21
0.0165
 31
0.0
  0
LINE
  5
67
330
1E
100
AcDbEntity
  8
0
100
AcDbLine
 10
225.9566
 20
0.0165
 30
0.0
 11
231.0576
 21
0.0165
 31
0.0
  0
LINE
  5
72
330
1E
100
AcDbEntity
  8
0
100
AcDbLine
 10
228.9566
 20
0.016633
 30
0.0
 11
230.8596
 21
0.016628
 31
0.0
  0
LINE
  5
7B
330
1E
100
AcDbEntity
  8
0
100
AcDbLine
 10
26.9571
 20
112.4165
 30
0.0
 11
43.9571
 21
120.4165
 31
0.0
  0
LINE
  5
8F
330
1E
100
AcDbEntity
  8
0
100
AcDbLine
 10
231.0576
 20
0.0165
 30
0.0
 11
237.8576
 21
0.0165
 31
0.0
  0
LINE
  5
90
330
1E
100
AcDbEntity
  8
0
100
AcDbLine
 10
230.8596
 20
0.016628
 30
0.0
 11
236.2796
 21
0.016614
 31
0.0
  0
LINE
  5
96
330
1E
100
AcDbEntity
  8
0
100
AcDbLine
 10
237.8576
 20
0.0165
 30
0.0
 11
245.5576
 21
0.0165
 31
0.0
  0
LINE
  5
97
330
1E
100
AcDbEntity
  8
0
100
AcDbLine
 10
236.2796
 20
0.016614
 30
0.0
 11
244.3896
 21
0.016592
 31
0.0
  0
LINE
  5
9C
330
1E
100
AcDbEntity
  8
0
100
AcDbLine
 10
245.5576
 20
0.0165
 30
0.0
 11
253.9566
 21
0.0165
 31
0.0
  0
LINE
  5
9D
330
1E
100
AcDbEntity
  8
0
100
AcDbLine
 10
244.3896
 20
0.016592
 30
0.0
 11
253.9566
 21
0.016567
 31
0.0
  0
LINE
  5
A1
330
1E
100
AcDbEntity
  8
0
100
AcDbLine
 10
253.9566
 20
0.0165
 30
0.0
 11
262.3576
 21
0.0165
 31
0.0
  0
LINE
  5
A2
330
1E
100
AcDbEntity
  8
0
100
AcDbLine
 10
253.9566
 20
0.016567
 30
0.0
 11
263.5246
 21
0.016541
 31
0.0
  0
LINE
  5
AF
330
1E
100
AcDbEntity
  8
0
100
AcDbLine
 10
242.152347825977
 20
50.0166
 30
0.0
 11
244.3906
 21
50.0166
 31
0.0
  0
LINE
  5
B0
330
1E
100
AcDbEntity
  8
0
100
AcDbLine
 10
252.1096
 20
43.2297
 30
0.0
 11
252.5426
 21
42.5809
 31
0.0
  0
LINE
  5
B1
330
1E
100
AcDbEntity
  8
0
100
AcDbLine
 10
251.9576
 20
43.9951
 30
0.0
 11
252.1096
 21
44.7605
 31
0.0
  0
LINE
  5
B2
330
1E
100
AcDbEntity
  8
0
100
AcDbLine
 10
251.9576
 20
43.9951
 30
0.0
 11
252.1096
 21
43.2297
 31
0.0
  0
LINE
  5
B3
330
1E
100
AcDbEntity
  8
0
100
AcDbLine
 10
252.5426
 20
42.5809
 30
0.0
 11
253.1916
 21
42.1473
 31
0.0
  0
LINE
  5
B4
330
1E
100
AcDbEntity
  8
0
100
AcDbLine
 10
252.1096
 20
44.7605
 30
0.0
 11
252.5426
 21
45.4093
 31
0.0
  0
LINE
  5
B5
330
1E
100
AcDbEntity
  8
0
100
AcDbLine
 10
252.5426
 20
45.4093
 30
0.0
 11
253.1916
 21
45.8429
 31
0.0
  0
LINE
  5
B6
330
1E
100
AcDbEntity
  8
0
100
AcDbLine
 10
244.3906
 20
50.0166
 30
0.0
 11
253.9576
 21
50.0166
 31
0.0
  0
LINE
  5
B8
330
1E
100
AcDbEntity
  8
0
100
AcDbLine
 10
255.8046
 20
43.2297
 30
0.0
 11
255.9576
 21
43.9951
 31
0.0
  0
LINE
  5
B9
330
1E
100
AcDbEntity
  8
0
100
AcDbLine
 10
255.3716
 20
42.5809
 30
0.0
 11
255.8046
 21
43.2297
 31
0.0
  0
LINE
  5
BA
330
1E
100
AcDbEntity
  8
0
100
AcDbLine
 10
254.7226
 20
42.1473
 30
0.0
 11
255.3716
 21
42.5809
 31
0.0
  0
LINE
  5
BB
330
1E
100
AcDbEntity
  8
0
100
AcDbLine
 10
253.9576
 20
41.9951
 30
0.0
 11
254.7226
 21
42.1473
 31
0.0
  0
LINE
  5
BC
330
1E
100
AcDbEntity
  8
0
100
AcDbLine
 10
253.1916
 20
42.1473
 30
0.0
 11
253.9576
 21
41.9951
 31
0.0
  0
LINE
  5
BD
330
1E
100
AcDbEntity
  8
0
100
AcDbLine
 10
253.1916
 20
45.8429
 30
0.0
 11
253.9576
 21
45.9951
 31
0.0
  0
LINE
  5
BE
330
1E
100
AcDbEntity
  8
0
100
AcDbLine
 10
253.9576
 20
45.9951
 30
0.0
 11
254.7226
 21
45.8429
 31
0.0
  0
LINE
  5
BF
330
1E
100
AcDbEntity
  8
0
100
AcDbLine
 10
254.7226
 20
45.8429
 30
0.0
 11
255.3716
 21
45.4093
 31
0.0
  0
LINE
  5
C0
330
1E
100
AcDbEntity
  8
0
100
AcDbLine
 10
255.3716
 20
45.4093
 30
0.0
 11
255.8046
 21
44.7605
 31
0.0
  0
LINE
  5
C1
330
1E
100
AcDbEntity
  8
0
100
AcDbLine
 10
255.8046
 20
44.7605
 30
0.0
 11
255.9576
 21
43.9951
 31
0.0
  0
LINE
  5
C2
330
1E
100
AcDbEntity
  8
0
100
AcDbLine
 10
253.9576
 20
50.0166
 30
0.0
 11
263.5246
 21
50.0165
 31
0.0
  0
LINE
  5
C7
330
1E
100
AcDbEntity
  8
0
100
AcDbLine
 10
262.3576
 20
0.0165
 30
0.0
 11
270.0576
 21
0.0165
 31
0.0
  0
LINE
  5
C8
330
1E
100
AcDbEntity
  8
0
100
AcDbLine
 10
263.5246
 20
0.016541
 30
0.0
 11
271.6346
 21
0.01652
 31
0.0
  0
LINE
  5
CD
330
1E
100
AcDbEntity
  8
0
100
AcDbLine
 10
270.0576
 20
0.0165
 30
0.0
 11
276.8576
 21
0.0165
 31
0.0
  0
LINE
  5
CE
330
1E
100
AcDbEntity
  8
0
100
AcDbLine
 10
271.6346
 20
0.01652
 30
0.0
 11
277.0536
 21
0.016505
 31
0.0
  0
LINE
  5
D3
330
1E
100
AcDbEntity
  8
0
100
AcDbLine
 10
276.8576
 20
0.0165
 30
0.0
 11
281.9566
 21
0.0165
 31
0.0
  0
LINE
  5
D4
330
1E
100
AcDbEntity
  8
0
100
AcDbLine
 10
277.0536
 20
0.016505
 30
0.0
 11
278.9566
 21
0.0165
 31
0.0
  0
LINE
  5
DB
330
1E
100
AcDbEntity
  8
0
100
AcDbLine
 10
281.9566
 20
0.0165
 30
0.0
 11
285.1566
 21
0.0165
 31
0.0
  0
LINE
  5
E0
330
1E
100
AcDbEntity
  8
0
100
AcDbLine
 10
285.1566
 20
0.0165
 30
0.0
 11
286.4566
 21
0.0165
 31
0.0
  0
LINE
  5
101
330
1E
100
AcDbEntity
  8
0
100
AcDbLine
 10
263.5246
 20
50.0165
 30
0.0
 11
271.6346
 21
50.0165
 31
0.0
  0
LINE
  5
104
330
1E
100
AcDbEntity
  8
0
100
AcDbLine
 10
278.957439601897
 20
41.996594828021
 30
0.0
 11
280.9556
 21
41.995
 31
0.0
  0
LINE
  5
105
330
1E
100
AcDbEntity
  8
0
100
AcDbLine
 10
278.957519489142
 20
45.990957076227
 30
0.0
 11
278.9576
 21
50.0165
 31
0.0
  0
LINE
  5
106
330
1E
100
AcDbEntity
  8
0
100
AcDbLine
 10
271.6346
 20
50.0165
 30
0.0
 11
277.0546
 21
50.0165
 31
0.0
  0
LINE
  5
107
330
1E
100
AcDbEntity
  8
0
100
AcDbLine
 10
277.0546
 20
50.0165
 30
0.0
 11
278.9576
 21
50.0165
 31
0.0
  0
LINE
  5
108
330
1E
100
AcDbEntity
  8
0
100
AcDbLine
 10
280.3576
 20
41.2165
 30
0.0
 11
284.8576
 21
19.4165
 31
0.0
  0
LINE
  5
109
330
1E
100
AcDbEntity
  8
0
100
AcDbLine
 10
280.062460695981
 20
41.995712857482
 30
0.0
 11
280.9556
 21
41.995
 31
0.0
  0
LINE
  5
10A
330
1E
100
AcDbEntity
  8
0
100
AcDbLine
 10
280.062460695981
 20
41.995712857482
 30
0.0
 11
280.3576
 21
41.2165
 31
0.0
  0
LINE
  5
10B
330
1E
100
AcDbEntity
  8
0
100
AcDbLine
 10
280.9556
 20
41.995
 30
0.0
 11
280.9556
 21
42.1472
 31
0.0
  0
LINE
  5
10C
330
1E
100
AcDbEntity
  8
0
100
AcDbLine
 10
280.9556
 20
42.1472
 30
0.0
 11
280.9556
 21
42.5808
 31
0.0
  0
LINE
  5
10D
330
1E
100
AcDbEntity
  8
0
100
AcDbLine
 10
280.9556
 20
42.1472
 30
0.0
 11
280.9556
 21
41.995
 31
0.0
  0
LINE
  5
10E
330
1E
100
AcDbEntity
  8
0
100
AcDbLine
 10
280.9556
 20
42.5808
 30
0.0
 11
280.9566
 21
43.2296
 31
0.0
  0
LINE
  5
10F
330
1E
100
AcDbEntity
  8
0
100
AcDbLine
 10
280.9556
 20
42.5808
 30
0.0
 11
280.9556
 21
42.1472
 31
0.0
  0
LINE
  5
110
330
1E
100
AcDbEntity
  8
0
100
AcDbLine
 10
280.9566
 20
43.2296
 30
0.0
 11
280.9576
 21
43.995
 31
0.0
  0
LINE
  5
111
330
1E
100
AcDbEntity
  8
0
100
AcDbLine
 10
280.9576
 20
43.995
 30
0.0
 11
280.9576
 21
44.7604
 31
0.0
  0
LINE
  5
112
330
1E
100
AcDbEntity
  8
0
100
AcDbLine
 10
280.9576
 20
44.7604
 30
0.0
 11
280.9586
 21
45.4092
 31
0.0
  0
LINE
  5
113
330
1E
100
AcDbEntity
  8
0
100
AcDbLine
 10
280.9576
 20
44.7604
 30
0.0
 11
280.9576
 21
43.995
 31
0.0
  0
LINE
  5
114
330
1E
100
AcDbEntity
  8
0
100
AcDbLine
 10
284.8576
 20
19.4165
 30
0.0
 11
285.3018158772
 21
9.087563877996
 31
0.0
  0
LINE
  5
115
330
1E
100
AcDbEntity
  8
0
100
AcDbLine
 10
280.9586
 20
45.4092
 30
0.0
 11
280.9586
 21
45.8428
 31
0.0
  0
LINE
  5
116
330
1E
100
AcDbEntity
  8
0
100
AcDbLine
 10
280.9586
 20
45.995
 30
0.0
 11
280.9586
 21
45.8428
 31
0.0
  0
LINE
  5
117
330
1E
100
AcDbEntity
  8
0
100
AcDbLine
 10
278.957519601943
 20
45.996597158614
 30
0.0
 11
280.9586
 21
45.995
 31
0.0
  0
LINE
  5
118
330
1E
100
AcDbEntity
  8
0
100
AcDbLine
 10
280.9586
 20
45.8428
 30
0.0
 11
280.9586
 21
45.995
 31
0.0
  0
LINE
  5
119
330
1E
100
AcDbEntity
  8
0
100
AcDbLine
 10
280.9586
 20
45.8428
 30
0.0
 11
280.9586
 21
45.4092
 31
0.0
  0
LINE
  5
11A
330
1E
100
AcDbEntity
  8
0
100
AcDbLine
 10
278.957519489142
 20
45.990957076227
 30
0.0
 11
278.9576
 21
50.0165
 31
0.0
  0
LINE
  5
11B
330
1E
100
AcDbEntity
  8
0
100
AcDbLine
 10
278.956968328753
 20
9.506240730782
 30
0.0
 11
278.957439601897
 21
41.996594828021
 31
0.0
  0
LINE
  5
11F
330
1E
100
AcDbEntity
  8
0
100
AcDbLine
 10
239.0576
 20
108.6165
 30
0.0
 11
257.1566
 21
87.6165
 31
0.0
  0
LINE
  5
120
330
1E
100
AcDbEntity
  8
0
100
AcDbLine
 10
257.1566
 20
87.6165
 30
0.0
 11
271.4566
 21
64.7165
 31
0.0
  0
LINE
  5
121
330
1E
100
AcDbEntity
  8
0
100
AcDbLine
 10
271.4566
 20
64.7165
 30
0.0
 11
277.024459574468
 21
50.0165
 31
0.0
  0
LINE
  5
125
330
1E
100
AcDbEntity
  8
0
100
AcDbLine
 10
26.5571
 20
112.8165
 30
0.0
 11
26.9571
 21
112.4165
 31
0.0
  0
LINE
  5
126
330
1E
100
AcDbEntity
  8
0
100
AcDbLine
 10
43.9571
 20
120.4165
 30
0.0
 11
64.4571
 21
126.8165
 31
0.0
  0
LINE
  5
127
330
1E
100
AcDbEntity
  8
0
100
AcDbLine
 10
64.4571
 20
126.8165
 30
0.0
 11
87.3571
 21
131.6165
 31
0.0
  0
LINE
  5
128
330
1E
100
AcDbEntity
  8
0
100
AcDbLine
 10
87.3571
 20
131.6165
 30
0.0
 11
107.4571
 21
133.0165
 31
0.0
  0
LINE
  5
129
330
1E
100
AcDbEntity
  8
0
100
AcDbLine
 10
31.7571
 20
145.5165
 30
0.0
 11
57.1571
 21
153.9165
 31
0.0
  0
LINE
  5
12F
330
1E
100
AcDbEntity
  8
0
100
AcDbLine
 10
57.1571
 20
153.9165
 30
0.0
 11
83.7571
 21
159.3165
 31
0.0
  0
LINE
  5
130
330
1E
100
AcDbEntity
  8
0
100
AcDbLine
 10
107.4571
 20
133.0165
 30
0.0
 11
123.7571
 21
131.4165
 31
0.0
  0
LINE
  5
131
330
1E
100
AcDbEntity
  8
0
100
AcDbLine
 10
123.7571
 20
131.4165
 30
0.0
 11
142.8571
 21
126.0165
 31
0.0
  0
LINE
  5
167
330
1E
100
AcDbEntity
  8
0
100
AcDbLine
 10
142.8571
 20
126.0165
 30
0.0
 11
146.0881
 21
124.359888
 31
0.0
  0
LINE
  5
169
330
1E
100
AcDbEntity
  8
0
100
AcDbLine
 10
170.900907733049
 20
150.273179271197
 30
0.0
 11
174.5576
 21
149.1165
 31
0.0
  0
LINE
  5
16A
330
1E
100
AcDbEntity
  8
0
100
AcDbLine
 10
174.5576
 20
149.1165
 30
0.0
 11
194.1566
 21
140.8165
 31
0.0
  0
LINE
  5
16B
330
1E
100
AcDbEntity
  8
0
100
AcDbLine
 10
194.1566
 20
140.8165
 30
0.0
 11
216.3576
 21
127.3165
 31
0.0
  0
LINE
  5
16C
330
1E
100
AcDbEntity
  8
0
100
AcDbLine
 10
216.3576
 20
127.3165
 30
0.0
 11
239.0576
 21
108.6165
 31
0.0
  0
LINE
  5
21C
330
1E
100
AcDbEntity
  8
0
100
AcDbLine
 10
25.7139
 20
112.6845
 30
0.0
 11
26.4674
 21
111.9285
 31
0.0
  0
LINE
  5
21D
330
1E
100
AcDbEntity
  8
0
100
AcDbLine
 10
25.6941
 20
112.6925
 30
0.0
 11
26.4674
 21
111.9285
 31
0.0
  0
LINE
  5
499
330
1E
100
AcDbEntity
  8
0
100
AcDbLine
 10
42.5488
 20
180.885888
 30
0.0
 11
43.6737
 21
180.361888
 31
0.0
  0
LINE
  5
49A
330
1E
100
AcDbEntity
  8
0
100
AcDbLine
 10
42.0861
 20
181.102888
 30
0.0
 11
42.5488
 21
180.885888
 31
0.0
  0
LINE
  5
49B
330
1E
100
AcDbEntity
  8
0
100
AcDbLine
 10
45.0428
 20
178.619888
 30
0.0
 11
45.431635565906
 21
179.453961451239
 31
0.0
  0
LINE
  5
49C
330
1E
100
AcDbEntity
  8
0
100
AcDbLine
 10
45.0428
 20
178.619888
 30
0.0
 11
45.7042
 21
178.310888
 31
0.0
  0
LINE
  5
49D
330
1E
100
AcDbEntity
  8
0
100
AcDbLine
 10
44.070711357239
 20
180.176658805021
 30
0.0
 11
45.418473917022
 21
179.425728998061
 31
0.0
  0
LINE
  5
49E
330
1E
100
AcDbEntity
  8
0
100
AcDbLine
 10
44.070711357239
 20
180.176658805021
 30
0.0
 11
45.418473917022
 21
179.425728998061
 31
0.0
  0
LINE
  5
49F
330
1E
100
AcDbEntity
  8
0
100
AcDbLine
 10
47.09704
 20
177.661888
 30
0.0
 11
47.157156606623
 21
177.633849125723
 31
0.0
  0
LINE
  5
4A0
330
1E
100
AcDbEntity
  8
0
100
AcDbLine
 10
47.09704
 20
177.661888
 30
0.0
 11
47.157156606623
 21
177.633849125723
 31
0.0
  0
LINE
  5
4A1
330
1E
100
AcDbEntity
  8
0
100
AcDbLine
 10
46.850117912894
 20
177.776947871842
 30
0.0
 11
46.92756
 21
177.740888
 31
0.0
  0
LINE
  5
4A2
330
1E
100
AcDbEntity
  8
0
100
AcDbLine
 10
46.850128241592
 20
177.776970026414
 30
0.0
 11
46.92756
 21
177.740888
 31
0.0
  0
LINE
  5
4A3
330
1E
100
AcDbEntity
  8
0
100
AcDbLine
 10
47.47172
 20
177.486888
 30
0.0
 11
47.875836906299
 21
178.353689480178
 31
0.0
  0
LINE
  5
4A4
330
1E
100
AcDbEntity
  8
0
100
AcDbLine
 10
47.47172
 20
177.486888
 30
0.0
 11
48.61764
 21
176.952888
 31
0.0
  0
LINE
  5
4A5
330
1E
100
AcDbEntity
  8
0
100
AcDbLine
 10
46.096729238476
 20
178.127964147496
 30
0.0
 11
46.2661
 21
178.048888
 31
0.0
  0
LINE
  5
4A6
330
1E
100
AcDbEntity
  8
0
100
AcDbLine
 10
46.096729238475
 20
178.127964147496
 30
0.0
 11
46.2661
 21
178.048888
 31
0.0
  0
LINE
  5
4A7
330
1E
100
AcDbEntity
  8
0
100
AcDbLine
 10
45.7042
 20
178.310888
 30
0.0
 11
46.070902637489
 21
179.097475808673
 31
0.0
  0
LINE
  5
4A8
330
1E
100
AcDbEntity
  8
0
100
AcDbLine
 10
45.7042
 20
178.310888
 30
0.0
 11
46.85009
 21
177.776888
 31
0.0
  0
LINE
  5
4A9
330
1E
100
AcDbEntity
  8
0
100
AcDbLine
 10
46.2661
 20
178.048888
 30
0.0
 11
46.656646815683
 21
177.867035100005
 31
0.0
  0
LINE
  5
4AA
330
1E
100
AcDbEntity
  8
0
100
AcDbLine
 10
46.2661
 20
178.048888
 30
0.0
 11
46.656646815683
 21
177.867035100005
 31
0.0
  0
LINE
  5
4AB
330
1E
100
AcDbEntity
  8
0
100
AcDbLine
 10
46.81032
 20
177.795888
 30
0.0
 11
47.180985816734
 21
178.590510190055
 31
0.0
  0
LINE
  5
4AC
330
1E
100
AcDbEntity
  8
0
100
AcDbLine
 10
46.81032
 20
177.795888
 30
0.0
 11
47.47172
 21
177.486888
 31
0.0
  0
LINE
  5
4AD
330
1E
100
AcDbEntity
  8
0
100
AcDbLine
 10
45.592
 20
179.466888
 30
0.0
 11
48.03979
 21
178.325888
 31
0.0
  0
LINE
  5
4AE
330
1E
100
AcDbEntity
  8
0
100
AcDbLine
 10
43.6737
 20
180.361888
 30
0.0
 11
45.592
 21
179.466888
 31
0.0
  0
LINE
  5
4AF
330
1E
100
AcDbEntity
  8
0
100
AcDbLine
 10
43.6737
 20
180.361888
 30
0.0
 11
44.070711357239
 21
180.176658805021
 31
0.0
  0
LINE
  5
4B0
330
1E
100
AcDbEntity
  8
0
100
AcDbLine
 10
43.6737
 20
180.361888
 30
0.0
 11
44.070711357239
 21
180.176658805021
 31
0.0
  0
LINE
  5
4B1
330
1E
100
AcDbEntity
  8
0
100
AcDbLine
 10
48.076611253886
 20
177.205008000022
 30
0.0
 11
48.24196
 21
177.127888
 31
0.0
  0
LINE
  5
4B2
330
1E
100
AcDbEntity
  8
0
100
AcDbLine
 10
48.076611253886
 20
177.205008000022
 30
0.0
 11
48.24196
 21
177.127888
 31
0.0
  0
LINE
  5
4B3
330
1E
100
AcDbEntity
  8
0
100
AcDbLine
 10
48.24196
 20
177.127888
 30
0.0
 11
48.307154439891
 21
177.097574617825
 31
0.0
  0
LINE
  5
4B4
330
1E
100
AcDbEntity
  8
0
100
AcDbLine
 10
48.24196
 20
177.127888
 30
0.0
 11
48.307154439891
 21
177.097574617825
 31
0.0
  0
LINE
  5
4B5
330
1E
100
AcDbEntity
  8
0
100
AcDbLine
 10
48.61776280501
 20
176.953151410964
 30
0.0
 11
48.90437
 21
176.819888
 31
0.0
  0
LINE
  5
4B6
330
1E
100
AcDbEntity
  8
0
100
AcDbLine
 10
48.617876120695
 20
176.953394467772
 30
0.0
 11
48.90437
 21
176.819888
 31
0.0
  0
LINE
  5
4B7
330
1E
100
AcDbEntity
  8
0
100
AcDbLine
 10
48.61764
 20
176.952888
 30
0.0
 11
48.979779992574
 21
177.729661231906
 31
0.0
  0
LINE
  5
4B8
330
1E
100
AcDbEntity
  8
0
100
AcDbLine
 10
48.873131512984
 20
177.500905264966
 30
0.0
 11
50.382916670734
 21
176.659701694774
 31
0.0
  0
LINE
  5
4B9
330
1E
100
AcDbEntity
  8
0
100
AcDbLine
 10
48.90437
 20
176.819888
 30
0.0
 11
49.15006697609
 21
177.346605761435
 31
0.0
  0
LINE
  5
4BA
330
1E
100
AcDbEntity
  8
0
100
AcDbLine
 10
48.873131512984
 20
177.500905264966
 30
0.0
 11
50.382916670734
 21
176.659701694774
 31
0.0
  0
LINE
  5
4BB
330
1E
100
AcDbEntity
  8
0
100
AcDbLine
 10
48.03979
 20
178.325888
 30
0.0
 11
51.34782
 21
176.783888
 31
0.0
  0
LINE
  5
4BC
330
1E
100
AcDbEntity
  8
0
100
AcDbLine
 10
47.93288
 20
179.478888
 30
0.0
 11
51.24092
 21
177.936888
 31
0.0
  0
LINE
  5
4BD
330
1E
100
AcDbEntity
  8
0
100
AcDbLine
 10
45.3532
 20
180.681888
 30
0.0
 11
47.93288
 21
179.478888
 31
0.0
  0
LINE
  5
4BE
330
1E
100
AcDbEntity
  8
0
100
AcDbLine
 10
43.5009
 20
181.545888
 30
0.0
 11
45.3532
 21
180.681888
 31
0.0
  0
LINE
  5
4BF
330
1E
100
AcDbEntity
  8
0
100
AcDbLine
 10
42.31
 20
182.100888
 30
0.0
 11
43.5009
 21
181.545888
 31
0.0
  0
LINE
  5
4C0
330
1E
100
AcDbEntity
  8
0
100
AcDbLine
 10
41.8473
 20
182.317888
 30
0.0
 11
42.31
 21
182.100888
 31
0.0
  0
LINE
  5
4C1
330
1E
100
AcDbEntity
  8
0
100
AcDbLine
 10
41.8473
 20
182.317888
 30
0.0
 11
50.72237
 21
201.349888
 31
0.0
  0
LINE
  5
4C2
330
1E
100
AcDbEntity
  8
0
100
AcDbLine
 10
41.8473
 20
182.317888
 30
0.0
 11
42.0861
 21
181.102888
 31
0.0
  0
LINE
  5
4C3
330
1E
100
AcDbEntity
  8
0
100
AcDbLine
 10
49.654583472668
 20
177.573170662233
 30
0.0
 11
50.602834305409
 21
177.131154482184
 31
0.0
  0
LINE
  5
4C4
330
1E
100
AcDbEntity
  8
0
100
AcDbLine
 10
50.18009
 20
176.224888
 30
0.0
 11
50.570141169576
 21
177.061067924367
 31
0.0
  0
LINE
  5
4C5
330
1E
100
AcDbEntity
  8
0
100
AcDbLine
 10
50.18009
 20
176.224888
 30
0.0
 11
50.84149
 21
175.915888
 31
0.0
  0
LINE
  5
4C6
330
1E
100
AcDbEntity
  8
0
100
AcDbLine
 10
50.18009
 20
176.224888
 30
0.0
 11
51.32501
 21
175.689888
 31
0.0
  0
LINE
  5
4C7
330
1E
100
AcDbEntity
  8
0
100
AcDbLine
 10
49.76024
 20
177.523888
 30
0.0
 11
52.93539
 21
176.042888
 31
0.0
  0
LINE
  5
4C8
330
1E
100
AcDbEntity
  8
0
100
AcDbLine
 10
49.654583472668
 20
177.573170662233
 30
0.0
 11
49.76024
 21
177.523888
 31
0.0
  0
LINE
  5
4C9
330
1E
100
AcDbEntity
  8
0
100
AcDbLine
 10
49.654583472668
 20
177.573170662233
 30
0.0
 11
50.602834305409
 21
177.131154482184
 31
0.0
  0
LINE
  5
4CA
330
1E
100
AcDbEntity
  8
0
100
AcDbLine
 10
49.654583472668
 20
177.573170662233
 30
0.0
 11
49.76024
 21
177.523888
 31
0.0
  0
LINE
  5
4CB
330
1E
100
AcDbEntity
  8
0
100
AcDbLine
 10
200.4276
 20
51.535288
 30
0.0
 11
200.8636
 21
51.989688
 31
0.0
  0
LINE
  5
4CC
330
1E
100
AcDbEntity
  8
0
100
AcDbLine
 10
200.8636
 20
51.989688
 30
0.0
 11
201.8086
 21
52.781388
 31
0.0
  0
LINE
  5
4CD
330
1E
100
AcDbEntity
  8
0
100
AcDbLine
 10
200.3806
 20
50.686188
 30
0.0
 11
200.7786
 21
49.478688
 31
0.0
  0
LINE
  5
4CE
330
1E
100
AcDbEntity
  8
0
100
AcDbLine
 10
200.3806
 20
50.686188
 30
0.0
 11
200.4276
 21
51.535288
 31
0.0
  0
LINE
  5
4CF
330
1E
100
AcDbEntity
  8
0
100
AcDbLine
 10
200.7786
 20
49.478688
 30
0.0
 11
212.8426
 21
35.185288
 31
0.0
  0
LINE
  5
4D0
330
1E
100
AcDbEntity
  8
0
100
AcDbLine
 10
201.3336
 20
53.255788
 30
0.0
 11
201.7096
 21
53.610288
 31
0.0
  0
LINE
  5
4D1
330
1E
100
AcDbEntity
  8
0
100
AcDbLine
 10
201.3336
 20
53.255788
 30
0.0
 11
202.276928535095
 21
53.170825959753
 31
0.0
  0
LINE
  5
4D2
330
1E
100
AcDbEntity
  8
0
100
AcDbLine
 10
201.7096
 20
53.610288
 30
0.0
 11
202.5896
 21
54.364388
 31
0.0
  0
LINE
  5
4D3
330
1E
100
AcDbEntity
  8
0
100
AcDbLine
 10
202.5896
 20
54.364388
 30
0.0
 11
204.0136
 21
55.606088
 31
0.0
  0
LINE
  5
4D4
330
1E
100
AcDbEntity
  8
0
100
AcDbLine
 10
204.0136
 20
55.606088
 30
0.0
 11
205.9036
 21
57.159088
 31
0.0
  0
LINE
  5
4D5
330
1E
100
AcDbEntity
  8
0
100
AcDbLine
 10
205.9036
 20
57.159088
 30
0.0
 11
208.1696
 21
59.066588
 31
0.0
  0
LINE
  5
4D6
330
1E
100
AcDbEntity
  8
0
100
AcDbLine
 10
208.1696
 20
59.066588
 30
0.0
 11
210.4736
 21
61.062388
 31
0.0
  0
LINE
  5
4D7
330
1E
100
AcDbEntity
  8
0
100
AcDbLine
 10
210.4736
 20
61.062388
 30
0.0
 11
212.8676
 21
63.014888
 31
0.0
  0
LINE
  5
4D8
330
1E
100
AcDbEntity
  8
0
100
AcDbLine
 10
213.3466
 20
34.564588
 30
0.0
 11
230.5616
 21
14.078388
 31
0.0
  0
LINE
  5
4D9
330
1E
100
AcDbEntity
  8
0
100
AcDbLine
 10
212.8676
 20
63.014888
 30
0.0
 11
215.0936
 21
64.834188
 31
0.0
  0
LINE
  5
4DA
330
1E
100
AcDbEntity
  8
0
100
AcDbLine
 10
215.0936
 20
64.834188
 30
0.0
 11
217.0236
 21
66.475388
 31
0.0
  0
LINE
  5
4DB
330
1E
100
AcDbEntity
  8
0
100
AcDbLine
 10
217.101188653744
 20
65.52965144926
 30
0.0
 11
217.4076
 21
65.782588
 31
0.0
  0
LINE
  5
4DC
330
1E
100
AcDbEntity
  8
0
100
AcDbLine
 10
217.0236
 20
66.475388
 30
0.0
 11
218.4476
 21
67.717088
 31
0.0
  0
LINE
  5
4DD
330
1E
100
AcDbEntity
  8
0
100
AcDbLine
 10
218.4476
 20
67.717088
 30
0.0
 11
219.3276
 21
68.471088
 31
0.0
  0
LINE
  5
4DE
330
1E
100
AcDbEntity
  8
0
100
AcDbLine
 10
219.612913101317
 20
67.684981027107
 30
0.0
 11
219.6646
 21
68.737388
 31
0.0
  0
LINE
  5
4DF
330
1E
100
AcDbEntity
  8
0
100
AcDbLine
 10
219.3276
 20
68.471088
 30
0.0
 11
219.6646
 21
68.737388
 31
0.0
  0
LINE
  5
4E0
330
1E
100
AcDbEntity
  8
0
100
AcDbLine
 10
50.84149
 20
175.915888
 30
0.0
 11
51.215919233982
 21
176.71902107606
 31
0.0
  0
LINE
  5
4E1
330
1E
100
AcDbEntity
  8
0
100
AcDbLine
 10
50.84149
 20
175.915888
 30
0.0
 11
51.215919233982
 21
176.71902107606
 31
0.0
  0
LINE
  5
4E2
330
1E
100
AcDbEntity
  8
0
100
AcDbLine
 10
50.84149
 20
175.915888
 30
0.0
 11
51.98741
 21
175.381888
 31
0.0
  0
LINE
  5
4E3
330
1E
100
AcDbEntity
  8
0
100
AcDbLine
 10
51.32501
 20
175.689888
 30
0.0
 11
51.98741
 21
175.381888
 31
0.0
  0
LINE
  5
4E4
330
1E
100
AcDbEntity
  8
0
100
AcDbLine
 10
51.34782
 20
176.783888
 30
0.0
 11
55.18438
 21
174.993888
 31
0.0
  0
LINE
  5
4E5
330
1E
100
AcDbEntity
  8
0
100
AcDbLine
 10
51.24092
 20
177.936888
 30
0.0
 11
55.14437
 21
176.116888
 31
0.0
  0
LINE
  5
4E6
330
1E
100
AcDbEntity
  8
0
100
AcDbLine
 10
50.72237
 20
201.349888
 30
0.0
 11
51.8064
 21
201.946888
 31
0.0
  0
LINE
  5
4E7
330
1E
100
AcDbEntity
  8
0
100
AcDbLine
 10
51.98741
 20
175.381888
 30
0.0
 11
52.324922531345
 21
176.105836487208
 31
0.0
  0
LINE
  5
4E8
330
1E
100
AcDbEntity
  8
0
100
AcDbLine
 10
51.98741
 20
175.381888
 30
0.0
 11
52.129462054006
 21
175.686582967008
 31
0.0
  0
LINE
  5
4E9
330
1E
100
AcDbEntity
  8
0
100
AcDbLine
 10
52.79854
 20
174.451888
 30
0.0
 11
53.125633806526
 21
175.153488813061
 31
0.0
  0
LINE
  5
4EA
330
1E
100
AcDbEntity
  8
0
100
AcDbLine
 10
52.79854
 20
174.451888
 30
0.0
 11
53.45994
 21
174.143888
 31
0.0
  0
LINE
  5
4EB
330
1E
100
AcDbEntity
  8
0
100
AcDbLine
 10
52.79854
 20
174.451888
 30
0.0
 11
53.675651838029
 21
174.043149336835
 31
0.0
  0
LINE
  5
4EC
330
1E
100
AcDbEntity
  8
0
100
AcDbLine
 10
52.129462054006
 20
175.686582967008
 30
0.0
 11
53.965034393489
 21
174.663861292078
 31
0.0
  0
LINE
  5
4ED
330
1E
100
AcDbEntity
  8
0
100
AcDbLine
 10
52.129462054006
 20
175.686582967008
 30
0.0
 11
53.965034393489
 21
174.663861292078
 31
0.0
  0
LINE
  5
4EE
330
1E
100
AcDbEntity
  8
0
100
AcDbLine
 10
52.409996023373
 20
176.288315121735
 30
0.0
 11
53.432327470235
 21
175.811332280366
 31
0.0
  0
LINE
  5
4EF
330
1E
100
AcDbEntity
  8
0
100
AcDbLine
 10
52.93539
 20
176.042888
 30
0.0
 11
56.64007
 21
174.314888
 31
0.0
  0
LINE
  5
4F0
330
1E
100
AcDbEntity
  8
0
100
AcDbLine
 10
53.45994
 20
174.143888
 30
0.0
 11
53.765347351285
 21
174.798611061531
 31
0.0
  0
LINE
  5
4F1
330
1E
100
AcDbEntity
  8
0
100
AcDbLine
 10
53.45994
 20
174.143888
 30
0.0
 11
53.765347351285
 21
174.798611061531
 31
0.0
  0
LINE
  5
4F2
330
1E
100
AcDbEntity
  8
0
100
AcDbLine
 10
53.45994
 20
174.143888
 30
0.0
 11
53.675662735508
 21
174.043172711414
 31
0.0
  0
LINE
  5
4F3
330
1E
100
AcDbEntity
  8
0
100
AcDbLine
 10
54.33694
 20
173.733888
 30
0.0
 11
54.548408167268
 21
174.187477261342
 31
0.0
  0
LINE
  5
4F4
330
1E
100
AcDbEntity
  8
0
100
AcDbLine
 10
54.33694
 20
173.733888
 30
0.0
 11
55.48186
 21
173.199888
 31
0.0
  0
LINE
  5
4F5
330
1E
100
AcDbEntity
  8
0
100
AcDbLine
 10
53.67553
 20
174.042888
 30
0.0
 11
54.004766743571
 21
174.749085312117
 31
0.0
  0
LINE
  5
4F6
330
1E
100
AcDbEntity
  8
0
100
AcDbLine
 10
53.67553
 20
174.042888
 30
0.0
 11
54.33694
 21
173.733888
 31
0.0
  0
LINE
  5
4F7
330
1E
100
AcDbEntity
  8
0
100
AcDbLine
 10
54.53252
 20
174.194888
 30
0.0
 11
54.95493134147
 21
175.100940437279
 31
0.0
  0
LINE
  5
4F8
330
1E
100
AcDbEntity
  8
0
100
AcDbLine
 10
54.53252
 20
174.194888
 30
0.0
 11
55.85533
 21
173.577888
 31
0.0
  0
LINE
  5
4F9
330
1E
100
AcDbEntity
  8
0
100
AcDbLine
 10
54.53252
 20
174.194888
 30
0.0
 11
54.887126419493
 21
174.955502072382
 31
0.0
  0
LINE
  5
4FA
330
1E
100
AcDbEntity
  8
0
100
AcDbLine
 10
54.53252
 20
174.194888
 30
0.0
 11
54.95493134147
 21
175.100940437279
 31
0.0
  0
LINE
  5
4FB
330
1E
100
AcDbEntity
  8
0
100
AcDbLine
 10
55.482324987035
 20
173.200885375294
 30
0.0
 11
55.79155
 21
173.056888
 31
0.0
  0
LINE
  5
4FC
330
1E
100
AcDbEntity
  8
0
100
AcDbLine
 10
55.79155
 20
173.056888
 30
0.0
 11
56.009732659217
 21
173.524621399391
 31
0.0
  0
LINE
  5
4FD
330
1E
100
AcDbEntity
  8
0
100
AcDbLine
 10
55.79155
 20
173.056888
 30
0.0
 11
56.009732659217
 21
173.524621399391
 31
0.0
  0
LINE
  5
4FE
330
1E
100
AcDbEntity
  8
0
100
AcDbLine
 10
55.482363986631
 20
173.200969027593
 30
0.0
 11
55.79155
 21
173.056888
 31
0.0
  0
LINE
  5
4FF
330
1E
100
AcDbEntity
  8
0
100
AcDbLine
 10
55.48186
 20
173.199888
 30
0.0
 11
55.693318006211
 21
173.653455466354
 31
0.0
  0
LINE
  5
500
330
1E
100
AcDbEntity
  8
0
100
AcDbLine
 10
55.85533
 20
173.577888
 30
0.0
 11
56.277850288444
 21
174.484163401301
 31
0.0
  0
LINE
  5
501
330
1E
100
AcDbEntity
  8
0
100
AcDbLine
 10
55.85533
 20
173.577888
 30
0.0
 11
56.165533970327
 21
174.243253037802
 31
0.0
  0
LINE
  5
502
330
1E
100
AcDbEntity
  8
0
100
AcDbLine
 10
56.21745
 20
173.408888
 30
0.0
 11
57.035586922777
 21
172.977481934635
 31
0.0
  0
LINE
  5
503
330
1E
100
AcDbEntity
  8
0
100
AcDbLine
 10
56.21745
 20
173.408888
 30
0.0
 11
57.035586922777
 21
172.977481934635
 31
0.0
  0
LINE
  5
504
330
1E
100
AcDbEntity
  8
0
100
AcDbLine
 10
55.867454509096
 20
173.603894193423
 30
0.0
 11
56.21745
 21
173.408888
 31
0.0
  0
LINE
  5
505
330
1E
100
AcDbEntity
  8
0
100
AcDbLine
 10
56.425272081609
 20
174.415442270828
 30
0.0
 11
57.477095494106
 21
173.925131493751
 31
0.0
  0
LINE
  5
506
330
1E
100
AcDbEntity
  8
0
100
AcDbLine
 10
56.425272081609
 20
174.415442270828
 30
0.0
 11
57.477095494106
 21
173.925131493751
 31
0.0
  0
LINE
  5
507
330
1E
100
AcDbEntity
  8
0
100
AcDbLine
 10
56.64007
 20
174.314888
 30
0.0
 11
60.8073
 21
172.371888
 31
0.0
  0
LINE
  5
508
330
1E
100
AcDbEntity
  8
0
100
AcDbLine
 10
55.18438
 20
174.993888
 30
0.0
 11
59.6164
 21
172.927888
 31
0.0
  0
LINE
  5
509
330
1E
100
AcDbEntity
  8
0
100
AcDbLine
 10
55.14437
 20
176.116888
 30
0.0
 11
59.6423
 21
174.018888
 31
0.0
  0
LINE
  5
50A
330
1E
100
AcDbEntity
  8
0
100
AcDbLine
 10
57.5047
 20
172.257888
 30
0.0
 11
57.814205888934
 21
172.921428784132
 31
0.0
  0
LINE
  5
50B
330
1E
100
AcDbEntity
  8
0
100
AcDbLine
 10
57.5047
 20
172.257888
 30
0.0
 11
58.6507
 21
171.722888
 31
0.0
  0
LINE
  5
50C
330
1E
100
AcDbEntity
  8
0
100
AcDbLine
 10
56.84336
 20
172.564888
 30
0.0
 11
57.178674917539
 21
173.284604568162
 31
0.0
  0
LINE
  5
50D
330
1E
100
AcDbEntity
  8
0
100
AcDbLine
 10
56.84336
 20
172.564888
 30
0.0
 11
57.5047
 21
172.257888
 31
0.0
  0
LINE
  5
50E
330
1E
100
AcDbEntity
  8
0
100
AcDbLine
 10
56.84336
 20
172.564888
 30
0.0
 11
57.9893
 21
172.030888
 31
0.0
  0
LINE
  5
50F
330
1E
100
AcDbEntity
  8
0
100
AcDbLine
 10
56.84336
 20
172.564888
 30
0.0
 11
57.035586922777
 21
172.977481934635
 31
0.0
  0
LINE
  5
510
330
1E
100
AcDbEntity
  8
0
100
AcDbLine
 10
57.9893
 20
172.030888
 30
0.0
 11
58.6507
 21
171.722888
 31
0.0
  0
LINE
  5
511
330
1E
100
AcDbEntity
  8
0
100
AcDbLine
 10
58.6507
 20
171.722888
 30
0.0
 11
58.916054762782
 21
172.291774453102
 31
0.0
  0
LINE
  5
512
330
1E
100
AcDbEntity
  8
0
100
AcDbLine
 10
58.80154749159
 20
172.046285603836
 30
0.0
 11
61.478484058796
 21
170.634728883268
 31
0.0
  0
LINE
  5
513
330
1E
100
AcDbEntity
  8
0
100
AcDbLine
 10
58.80154749159
 20
172.046285603836
 30
0.0
 11
61.478484058796
 21
170.634728883268
 31
0.0
  0
LINE
  5
514
330
1E
100
AcDbEntity
  8
0
100
AcDbLine
 10
59.284856552732
 20
173.082438016032
 30
0.0
 11
59.6164
 21
172.927888
 31
0.0
  0
LINE
  5
515
330
1E
100
AcDbEntity
  8
0
100
AcDbLine
 10
59.284856552732
 20
173.082438016032
 30
0.0
 11
59.6164
 21
172.927888
 31
0.0
  0
LINE
  5
516
330
1E
100
AcDbEntity
  8
0
100
AcDbLine
 10
59.6164
 20
172.927888
 30
0.0
 11
64.512
 21
170.644888
 31
0.0
  0
LINE
  5
517
330
1E
100
AcDbEntity
  8
0
100
AcDbLine
 10
59.6423
 20
174.018888
 30
0.0
 11
64.6038
 21
171.705888
 31
0.0
  0
LINE
  5
518
330
1E
100
AcDbEntity
  8
0
100
AcDbLine
 10
74.5844
 20
162.495888
 30
0.0
 11
75.0481
 21
162.279888
 31
0.0
  0
LINE
  5
519
330
1E
100
AcDbEntity
  8
0
100
AcDbLine
 10
74.1994
 20
162.674888
 30
0.0
 11
74.5844
 21
162.495888
 31
0.0
  0
LINE
  5
51A
330
1E
100
AcDbEntity
  8
0
100
AcDbLine
 10
73.9681
 20
162.783888
 30
0.0
 11
74.1994
 21
162.674888
 31
0.0
  0
LINE
  5
51B
330
1E
100
AcDbEntity
  8
0
100
AcDbLine
 10
73.8875
 20
162.820888
 30
0.0
 11
73.9681
 21
162.783888
 31
0.0
  0
LINE
  5
51C
330
1E
100
AcDbEntity
  8
0
100
AcDbLine
 10
77.3682
 20
161.197888
 30
0.0
 11
77.8318
 21
160.981888
 31
0.0
  0
LINE
  5
51D
330
1E
100
AcDbEntity
  8
0
100
AcDbLine
 10
76.824
 20
161.451888
 30
0.0
 11
77.3682
 21
161.197888
 31
0.0
  0
LINE
  5
51E
330
1E
100
AcDbEntity
  8
0
100
AcDbLine
 10
77.8318
 20
160.981888
 30
0.0
 11
78.2159
 21
160.801888
 31
0.0
  0
LINE
  5
51F
330
1E
100
AcDbEntity
  8
0
100
AcDbLine
 10
78.2159
 20
160.801888
 30
0.0
 11
78.4482
 21
160.693888
 31
0.0
  0
LINE
  5
520
330
1E
100
AcDbEntity
  8
0
100
AcDbLine
 10
78.5278
 20
160.656888
 30
0.0
 11
79.495747969856
 21
161.450719707244
 31
0.0
  0
LINE
  5
521
330
1E
100
AcDbEntity
  8
0
100
AcDbLine
 10
78.4482
 20
160.693888
 30
0.0
 11
78.5278
 21
160.656888
 31
0.0
  0
LINE
  5
522
330
1E
100
AcDbEntity
  8
0
100
AcDbLine
 10
77.7361
 20
161.719888
 30
0.0
 11
77.94736833096
 21
162.173070068187
 31
0.0
  0
LINE
  5
523
330
1E
100
AcDbEntity
  8
0
100
AcDbLine
 10
80.1686
 20
160.443888
 30
0.0
 11
80.3643
 21
160.352888
 31
0.0
  0
LINE
  5
524
330
1E
100
AcDbEntity
  8
0
100
AcDbLine
 10
80.1686
 20
160.443888
 30
0.0
 11
80.434044043887
 21
161.013279920926
 31
0.0
  0
LINE
  5
525
330
1E
100
AcDbEntity
  8
0
100
AcDbLine
 10
80.3643
 20
160.352888
 30
0.0
 11
80.8865
 21
160.109888
 31
0.0
  0
LINE
  5
526
330
1E
100
AcDbEntity
  8
0
100
AcDbLine
 10
80.8865
 20
160.109888
 30
0.0
 11
81.7561
 21
159.703888
 31
0.0
  0
LINE
  5
527
330
1E
100
AcDbEntity
  8
0
100
AcDbLine
 10
79.495747969856
 20
161.450719707244
 30
0.0
 11
80.1388
 21
161.150888
 31
0.0
  0
LINE
  5
528
330
1E
100
AcDbEntity
  8
0
100
AcDbLine
 10
75.5922
 20
162.025888
 30
0.0
 11
76.2086
 21
161.738888
 31
0.0
  0
LINE
  5
529
330
1E
100
AcDbEntity
  8
0
100
AcDbLine
 10
75.0481
 20
162.279888
 30
0.0
 11
75.5922
 21
162.025888
 31
0.0
  0
LINE
  5
52A
330
1E
100
AcDbEntity
  8
0
100
AcDbLine
 10
76.2086
 20
161.738888
 30
0.0
 11
76.824
 21
161.451888
 31
0.0
  0
LINE
  5
52B
330
1E
100
AcDbEntity
  8
0
100
AcDbLine
 10
77.1395
 20
162.549888
 30
0.0
 11
77.350806494778
 21
163.003151931653
 31
0.0
  0
LINE
  5
52C
330
1E
100
AcDbEntity
  8
0
100
AcDbLine
 10
77.1395
 20
162.549888
 30
0.0
 11
78.4623
 21
161.932888
 31
0.0
  0
LINE
  5
52D
330
1E
100
AcDbEntity
  8
0
100
AcDbLine
 10
76.4133
 20
162.336888
 30
0.0
 11
76.784795382726
 21
163.13376581458
 31
0.0
  0
LINE
  5
52E
330
1E
100
AcDbEntity
  8
0
100
AcDbLine
 10
76.4133
 20
162.336888
 30
0.0
 11
77.7361
 21
161.719888
 31
0.0
  0
LINE
  5
52F
330
1E
100
AcDbEntity
  8
0
100
AcDbLine
 10
76.4133
 20
162.336888
 30
0.0
 11
76.742624344668
 21
163.043306642787
 31
0.0
  0
LINE
  5
530
330
1E
100
AcDbEntity
  8
0
100
AcDbLine
 10
78.0122
 20
162.694888
 30
0.0
 11
78.281427991133
 21
163.272078156097
 31
0.0
  0
LINE
  5
531
330
1E
100
AcDbEntity
  8
0
100
AcDbLine
 10
76.6884
 20
163.311888
 30
0.0
 11
76.899572542398
 21
163.764614747309
 31
0.0
  0
LINE
  5
532
330
1E
100
AcDbEntity
  8
0
100
AcDbLine
 10
76.6884
 20
163.311888
 30
0.0
 11
78.0122
 21
162.694888
 31
0.0
  0
LINE
  5
533
330
1E
100
AcDbEntity
  8
0
100
AcDbLine
 10
78.4623
 20
161.932888
 30
0.0
 11
78.857612040474
 21
162.780853841671
 31
0.0
  0
LINE
  5
534
330
1E
100
AcDbEntity
  8
0
100
AcDbLine
 10
78.076
 20
163.215888
 30
0.0
 11
78.498781295192
 21
164.122776888054
 31
0.0
  0
LINE
  5
535
330
1E
100
AcDbEntity
  8
0
100
AcDbLine
 10
78.882
 20
161.736888
 30
0.0
 11
80.1388
 21
161.150888
 31
0.0
  0
LINE
  5
536
330
1E
100
AcDbEntity
  8
0
100
AcDbLine
 10
74.7148
 20
163.679888
 30
0.0
 11
75.2433
 21
163.432888
 31
0.0
  0
LINE
  5
537
330
1E
100
AcDbEntity
  8
0
100
AcDbLine
 10
76.7532
 20
163.832888
 30
0.0
 11
77.12610708645
 21
164.632793995899
 31
0.0
  0
LINE
  5
538
330
1E
100
AcDbEntity
  8
0
100
AcDbLine
 10
76.7532
 20
163.832888
 30
0.0
 11
78.076
 21
163.215888
 31
0.0
  0
LINE
  5
539
330
1E
100
AcDbEntity
  8
0
100
AcDbLine
 10
74.45
 20
163.803888
 30
0.0
 11
74.7148
 21
163.679888
 31
0.0
  0
LINE
  5
53A
330
1E
100
AcDbEntity
  8
0
100
AcDbLine
 10
79.307418934547
 20
163.745714110191
 30
0.0
 11
80.9841
 21
162.963888
 31
0.0
  0
LINE
  5
53B
330
1E
100
AcDbEntity
  8
0
100
AcDbLine
 10
81.7561
 20
159.703888
 30
0.0
 11
82.9094
 21
159.165888
 31
0.0
  0
LINE
  5
53C
330
1E
100
AcDbEntity
  8
0
100
AcDbLine
 10
84.2144
 20
158.557888
 30
0.0
 11
85.6062
 21
157.908888
 31
0.0
  0
LINE
  5
53D
330
1E
100
AcDbEntity
  8
0
100
AcDbLine
 10
82.9094
 20
159.165888
 30
0.0
 11
84.2144
 21
158.557888
 31
0.0
  0
LINE
  5
53E
330
1E
100
AcDbEntity
  8
0
100
AcDbLine
 10
85.6062
 20
157.908888
 30
0.0
 11
86.9981
 21
157.258888
 31
0.0
  0
LINE
  5
53F
330
1E
100
AcDbEntity
  8
0
100
AcDbLine
 10
86.9981
 20
157.258888
 30
0.0
 11
87.662665427228
 21
156.949266712832
 31
0.0
  0
LINE
  5
540
330
1E
100
AcDbEntity
  8
0
100
AcDbLine
 10
86.556
 20
158.158888
 30
0.0
 11
86.767224794227
 21
158.611923078592
 31
0.0
  0
LINE
  5
541
330
1E
100
AcDbEntity
  8
0
100
AcDbLine
 10
86.3447
 20
157.705888
 30
0.0
 11
86.555904269183
 21
158.158932652188
 31
0.0
  0
LINE
  5
542
330
1E
100
AcDbEntity
  8
0
100
AcDbLine
 10
85.2332
 20
158.775888
 30
0.0
 11
85.655755763783
 21
159.682293110907
 31
0.0
  0
LINE
  5
543
330
1E
100
AcDbEntity
  8
0
100
AcDbLine
 10
85.022
 20
158.321888
 30
0.0
 11
86.3447
 21
157.705888
 31
0.0
  0
LINE
  5
544
330
1E
100
AcDbEntity
  8
0
100
AcDbLine
 10
85.022
 20
158.321888
 30
0.0
 11
85.233452968041
 21
158.775770006894
 31
0.0
  0
LINE
  5
545
330
1E
100
AcDbEntity
  8
0
100
AcDbLine
 10
85.4445
 20
159.228888
 30
0.0
 11
86.7673
 21
158.611888
 31
0.0
  0
LINE
  5
546
330
1E
100
AcDbEntity
  8
0
100
AcDbLine
 10
85.4445
 20
159.228888
 30
0.0
 11
85.65608719245
 21
159.682754043437
 31
0.0
  0
LINE
  5
547
330
1E
100
AcDbEntity
  8
0
100
AcDbLine
 10
86.7673
 20
158.611888
 30
0.0
 11
87.028402434163
 21
159.17190067377
 31
0.0
  0
LINE
  5
548
330
1E
100
AcDbEntity
  8
0
100
AcDbLine
 10
86.9786
 20
159.065888
 30
0.0
 11
87.401082610513
 21
159.971529180942
 31
0.0
  0
LINE
  5
549
330
1E
100
AcDbEntity
  8
0
100
AcDbLine
 10
85.6558
 20
159.682888
 30
0.0
 11
86.9786
 21
159.065888
 31
0.0
  0
LINE
  5
54A
330
1E
100
AcDbEntity
  8
0
100
AcDbLine
 10
85.6558
 20
159.682888
 30
0.0
 11
86.078220476942
 21
160.588395990321
 31
0.0
  0
LINE
  5
54B
330
1E
100
AcDbEntity
  8
0
100
AcDbLine
 10
86.7398
 20
160.279888
 30
0.0
 11
92.4957
 21
157.595888
 31
0.0
  0
LINE
  5
54C
330
1E
100
AcDbEntity
  8
0
100
AcDbLine
 10
86.7398
 20
160.279888
 30
0.0
 11
92.3628
 21
157.656888
 31
0.0
  0
LINE
  5
54D
330
1E
100
AcDbEntity
  8
0
100
AcDbLine
 10
87.983
 20
156.247888
 30
0.0
 11
88.11179805985
 21
156.188211906609
 31
0.0
  0
LINE
  5
54E
330
1E
100
AcDbEntity
  8
0
100
AcDbLine
 10
87.925071803853
 20
156.275068385289
 30
0.0
 11
87.983
 21
156.247888
 31
0.0
  0
LINE
  5
54F
330
1E
100
AcDbEntity
  8
0
100
AcDbLine
 10
87.7737
 20
156.344888
 30
0.0
 11
87.984
 21
156.247888
 31
0.0
  0
LINE
  5
550
330
1E
100
AcDbEntity
  8
0
100
AcDbLine
 10
87.736
 20
156.362888
 30
0.0
 11
87.9757
 21
156.251888
 31
0.0
  0
LINE
  5
551
330
1E
100
AcDbEntity
  8
0
100
AcDbLine
 10
87.6659
 20
156.395888
 30
0.0
 11
87.736
 21
156.362888
 31
0.0
  0
LINE
  5
552
330
1E
100
AcDbEntity
  8
0
100
AcDbLine
 10
87.6585995371
 20
157.644869255966
 30
0.0
 11
87.6659
 21
156.395888
 31
0.0
  0
LINE
  5
553
330
1E
100
AcDbEntity
  8
0
100
AcDbLine
 10
87.9757
 20
156.251888
 30
0.0
 11
88.3305
 21
156.085888
 31
0.0
  0
LINE
  5
554
330
1E
100
AcDbEntity
  8
0
100
AcDbLine
 10
87.9757
 20
156.251888
 30
0.0
 11
88.3524
 21
156.075888
 31
0.0
  0
LINE
  5
555
330
1E
100
AcDbEntity
  8
0
100
AcDbLine
 10
88.960895958728
 20
155.792102617368
 30
0.0
 11
89.3979
 21
155.587888
 31
0.0
  0
LINE
  5
556
330
1E
100
AcDbEntity
  8
0
100
AcDbLine
 10
88.3524
 20
156.075888
 30
0.0
 11
88.8255
 21
155.854888
 31
0.0
  0
LINE
  5
557
330
1E
100
AcDbEntity
  8
0
100
AcDbLine
 10
88.8255
 20
155.854888
 30
0.0
 11
89.3905
 21
155.592888
 31
0.0
  0
LINE
  5
558
330
1E
100
AcDbEntity
  8
0
100
AcDbLine
 10
89.3979
 20
155.587888
 30
0.0
 11
89.847514918338
 21
155.378782595049
 31
0.0
  0
LINE
  5
559
330
1E
100
AcDbEntity
  8
0
100
AcDbLine
 10
89.3905
 20
155.592888
 30
0.0
 11
89.9839
 21
155.314888
 31
0.0
  0
LINE
  5
55A
330
1E
100
AcDbEntity
  8
0
100
AcDbLine
 10
89.9839
 20
155.314888
 30
0.0
 11
90.571
 21
155.040888
 31
0.0
  0
LINE
  5
55B
330
1E
100
AcDbEntity
  8
0
100
AcDbLine
 10
88.3305
 20
156.085888
 30
0.0
 11
88.489206727656
 21
156.011981242841
 31
0.0
  0
LINE
  5
55C
330
1E
100
AcDbEntity
  8
0
100
AcDbLine
 10
87.1625
 20
161.186888
 30
0.0
 11
92.9842
 21
158.471888
 31
0.0
  0
LINE
  5
55D
330
1E
100
AcDbEntity
  8
0
100
AcDbLine
 10
81.1169
 20
162.901888
 30
0.0
 11
86.739799999996
 21
160.279888000002
 31
0.0
  0
LINE
  5
55E
330
1E
100
AcDbEntity
  8
0
100
AcDbLine
 10
81.1169
 20
162.901888
 30
0.0
 11
86.7398
 21
160.279888
 31
0.0
  0
LINE
  5
55F
330
1E
100
AcDbEntity
  8
0
100
AcDbLine
 10
80.9841
 20
162.963888
 30
0.0
 11
86.7398
 21
160.279888
 31
0.0
  0
LINE
  5
560
330
1E
100
AcDbEntity
  8
0
100
AcDbLine
 10
80.9841
 20
162.963888
 30
0.0
 11
86.078179531862
 21
160.588415083844
 31
0.0
  0
LINE
  5
561
330
1E
100
AcDbEntity
  8
0
100
AcDbLine
 10
64.6525
 20
168.372888
 30
0.0
 11
65.3139
 21
168.064888
 31
0.0
  0
LINE
  5
562
330
1E
100
AcDbEntity
  8
0
100
AcDbLine
 10
65.3139
 20
168.064888
 30
0.0
 11
65.599086996522
 21
168.676292209297
 31
0.0
  0
LINE
  5
563
330
1E
100
AcDbEntity
  8
0
100
AcDbLine
 10
69.0103
 20
165.788888
 30
0.0
 11
69.221431928297
 21
166.241777477049
 31
0.0
  0
LINE
  5
564
330
1E
100
AcDbEntity
  8
0
100
AcDbLine
 10
69.0103
 20
165.788888
 30
0.0
 11
70.1563
 21
165.253888
 31
0.0
  0
LINE
  5
565
330
1E
100
AcDbEntity
  8
0
100
AcDbLine
 10
68.3489
 20
166.097888
 30
0.0
 11
68.695846263959
 21
166.841696128601
 31
0.0
  0
LINE
  5
566
330
1E
100
AcDbEntity
  8
0
100
AcDbLine
 10
68.3489
 20
166.097888
 30
0.0
 11
69.0103
 21
165.788888
 31
0.0
  0
LINE
  5
567
330
1E
100
AcDbEntity
  8
0
100
AcDbLine
 10
68.3489
 20
166.097888
 30
0.0
 11
69.4949
 21
165.561888
 31
0.0
  0
LINE
  5
568
330
1E
100
AcDbEntity
  8
0
100
AcDbLine
 10
68.9725
 20
166.357888
 30
0.0
 11
69.183618805543
 21
166.810695753992
 31
0.0
  0
LINE
  5
569
330
1E
100
AcDbEntity
  8
0
100
AcDbLine
 10
68.9725
 20
166.357888
 30
0.0
 11
70.2953
 21
165.740888
 31
0.0
  0
LINE
  5
56A
330
1E
100
AcDbEntity
  8
0
100
AcDbLine
 10
69.2561
 20
166.776888
 30
0.0
 11
69.538579963889
 21
167.38282289651
 31
0.0
  0
LINE
  5
56B
330
1E
100
AcDbEntity
  8
0
100
AcDbLine
 10
67.9333
 20
167.393888
 30
0.0
 11
68.144946246235
 21
167.847880717019
 31
0.0
  0
LINE
  5
56C
330
1E
100
AcDbEntity
  8
0
100
AcDbLine
 10
67.9333
 20
167.393888
 30
0.0
 11
69.2561
 21
166.776888
 31
0.0
  0
LINE
  5
56D
330
1E
100
AcDbEntity
  8
0
100
AcDbLine
 10
69.4949
 20
165.561888
 30
0.0
 11
70.1563
 21
165.253888
 31
0.0
  0
LINE
  5
56E
330
1E
100
AcDbEntity
  8
0
100
AcDbLine
 10
69.3198
 20
167.299888
 30
0.0
 11
69.742500446232
 21
168.206103343791
 31
0.0
  0
LINE
  5
56F
330
1E
100
AcDbEntity
  8
0
100
AcDbLine
 10
67.997
 20
167.916888
 30
0.0
 11
68.419614760033
 21
168.822919643611
 31
0.0
  0
LINE
  5
570
330
1E
100
AcDbEntity
  8
0
100
AcDbLine
 10
67.997
 20
167.916888
 30
0.0
 11
69.3198
 21
167.299888
 31
0.0
  0
LINE
  5
571
330
1E
100
AcDbEntity
  8
0
100
AcDbLine
 10
67.997
 20
167.916888
 30
0.0
 11
68.292690411864
 21
168.550810179718
 31
0.0
  0
LINE
  5
572
330
1E
100
AcDbEntity
  8
0
100
AcDbLine
 10
65.518834024554
 20
168.504240168117
 30
0.0
 11
69.082752985773
 21
166.624974957692
 31
0.0
  0
LINE
  5
573
330
1E
100
AcDbEntity
  8
0
100
AcDbLine
 10
63.0408
 20
169.124888
 30
0.0
 11
63.297650376536
 21
169.67547700069
 31
0.0
  0
LINE
  5
574
330
1E
100
AcDbEntity
  8
0
100
AcDbLine
 10
62.986527593835
 20
169.150161512396
 30
0.0
 11
63.0408
 21
169.124888
 31
0.0
  0
LINE
  5
575
330
1E
100
AcDbEntity
  8
0
100
AcDbLine
 10
62.9865344649
 20
169.150176241333
 30
0.0
 11
63.0408
 21
169.124888
 31
0.0
  0
LINE
  5
576
330
1E
100
AcDbEntity
  8
0
100
AcDbLine
 10
62.9864
 20
169.149888
 30
0.0
 11
63.197626000402
 21
169.602675782714
 31
0.0
  0
LINE
  5
577
330
1E
100
AcDbEntity
  8
0
100
AcDbLine
 10
64.168
 20
168.598888
 30
0.0
 11
64.482022066565
 21
169.27211088762
 31
0.0
  0
LINE
  5
578
330
1E
100
AcDbEntity
  8
0
100
AcDbLine
 10
64.168
 20
168.598888
 30
0.0
 11
65.3139
 21
168.064888
 31
0.0
  0
LINE
  5
579
330
1E
100
AcDbEntity
  8
0
100
AcDbLine
 10
63.5065
 20
168.906888
 30
0.0
 11
63.832109002278
 21
169.605254403797
 31
0.0
  0
LINE
  5
57A
330
1E
100
AcDbEntity
  8
0
100
AcDbLine
 10
63.5065
 20
168.906888
 30
0.0
 11
64.168
 21
168.598888
 31
0.0
  0
LINE
  5
57B
330
1E
100
AcDbEntity
  8
0
100
AcDbLine
 10
63.5065
 20
168.906888
 30
0.0
 11
64.6525
 21
168.372888
 31
0.0
  0
LINE
  5
57C
330
1E
100
AcDbEntity
  8
0
100
AcDbLine
 10
63.5065
 20
168.906888
 30
0.0
 11
63.752920814616
 21
169.435411526439
 31
0.0
  0
LINE
  5
57D
330
1E
100
AcDbEntity
  8
0
100
AcDbLine
 10
65.518834024554
 20
168.504240168117
 30
0.0
 11
69.082752985773
 21
166.624974957692
 31
0.0
  0
LINE
  5
57E
330
1E
100
AcDbEntity
  8
0
100
AcDbLine
 10
70.1563
 20
165.253888
 30
0.0
 11
70.461841543808
 21
165.909368793898
 31
0.0
  0
LINE
  5
57F
330
1E
100
AcDbEntity
  8
0
100
AcDbLine
 10
71.3157
 20
164.713888
 30
0.0
 11
71.9771
 21
164.404888
 31
0.0
  0
LINE
  5
580
330
1E
100
AcDbEntity
  8
0
100
AcDbLine
 10
71.9771
 20
164.404888
 30
0.0
 11
72.301763727934
 21
165.101226978759
 31
0.0
  0
LINE
  5
581
330
1E
100
AcDbEntity
  8
0
100
AcDbLine
 10
70.2953
 20
165.740888
 30
0.0
 11
70.616480471665
 21
166.429376128069
 31
0.0
  0
LINE
  5
582
330
1E
100
AcDbEntity
  8
0
100
AcDbLine
 10
70.2953
 20
165.740888
 30
0.0
 11
70.550606162115
 21
166.288166795401
 31
0.0
  0
LINE
  5
583
330
1E
100
AcDbEntity
  8
0
100
AcDbLine
 10
70.8322
 20
164.939888
 30
0.0
 11
71.185272206277
 21
165.696739813289
 31
0.0
  0
LINE
  5
584
330
1E
100
AcDbEntity
  8
0
100
AcDbLine
 10
70.8322
 20
164.939888
 30
0.0
 11
71.9771
 21
164.404888
 31
0.0
  0
LINE
  5
585
330
1E
100
AcDbEntity
  8
0
100
AcDbLine
 10
70.1708
 20
165.247888
 30
0.0
 11
70.525960900155
 21
166.009637333943
 31
0.0
  0
LINE
  5
586
330
1E
100
AcDbEntity
  8
0
100
AcDbLine
 10
70.1708
 20
165.247888
 30
0.0
 11
70.8322
 21
164.939888
 31
0.0
  0
LINE
  5
587
330
1E
100
AcDbEntity
  8
0
100
AcDbLine
 10
70.1708
 20
165.247888
 30
0.0
 11
71.3157
 21
164.713888
 31
0.0
  0
LINE
  5
588
330
1E
100
AcDbEntity
  8
0
100
AcDbLine
 10
70.38691906811
 20
165.937284251527
 30
0.0
 11
70.471445702703
 21
165.892713102331
 31
0.0
  0
LINE
  5
589
330
1E
100
AcDbEntity
  8
0
100
AcDbLine
 10
70.38691906811
 20
165.937284251527
 30
0.0
 11
70.471445702703
 21
165.892713102331
 31
0.0
  0
LINE
  5
58A
330
1E
100
AcDbEntity
  8
0
100
AcDbLine
 10
73.873142375552
 20
164.108430224797
 30
0.0
 11
73.8875
 21
162.820888
 31
0.0
  0
LINE
  5
58B
330
1E
100
AcDbEntity
  8
0
100
AcDbLine
 10
72.236778941042
 20
164.961847564781
 30
0.0
 11
73.873248288182
 21
164.098932345476
 31
0.0
  0
LINE
  5
58C
330
1E
100
AcDbEntity
  8
0
100
AcDbLine
 10
72.236778941042
 20
164.961847564781
 30
0.0
 11
73.873248288182
 21
164.098932345476
 31
0.0
  0
LINE
  5
58D
330
1E
100
AcDbEntity
  8
0
100
AcDbLine
 10
70.4655
 20
167.868888
 30
0.0
 11
76.4202
 21
165.091888
 31
0.0
  0
LINE
  5
58E
330
1E
100
AcDbEntity
  8
0
100
AcDbLine
 10
69.6722
 20
168.238888
 30
0.0
 11
75.494
 21
165.523888
 31
0.0
  0
LINE
  5
58F
330
1E
100
AcDbEntity
  8
0
100
AcDbLine
 10
61.2335
 20
169.966888
 30
0.0
 11
61.620299999994
 21
169.786763415787
 31
0.0
  0
LINE
  5
590
330
1E
100
AcDbEntity
  8
0
100
AcDbLine
 10
61.2335
 20
169.966888
 30
0.0
 11
61.620299999994
 21
169.786763415787
 31
0.0
  0
LINE
  5
591
330
1E
100
AcDbEntity
  8
0
100
AcDbLine
 10
61.2335
 20
169.966888
 30
0.0
 11
61.728457141256
 21
169.736233393637
 31
0.0
  0
LINE
  5
592
330
1E
100
AcDbEntity
  8
0
100
AcDbLine
 10
62.074599999976
 20
169.574795234499
 30
0.0
 11
62.325
 21
169.457888
 31
0.0
  0
LINE
  5
593
330
1E
100
AcDbEntity
  8
0
100
AcDbLine
 10
62.074599999977
 20
169.574795234499
 30
0.0
 11
62.325
 21
169.457888
 31
0.0
  0
LINE
  5
594
330
1E
100
AcDbEntity
  8
0
100
AcDbLine
 10
62.325
 20
169.457888
 30
0.0
 11
62.9864
 21
169.149888
 31
0.0
  0
LINE
  5
595
330
1E
100
AcDbEntity
  8
0
100
AcDbLine
 10
61.8405
 20
169.683888
 30
0.0
 11
62.051801594774
 21
170.137087800457
 31
0.0
  0
LINE
  5
596
330
1E
100
AcDbEntity
  8
0
100
AcDbLine
 10
61.8405
 20
169.683888
 30
0.0
 11
62.9864
 21
169.149888
 31
0.0
  0
LINE
  5
597
330
1E
100
AcDbEntity
  8
0
100
AcDbLine
 10
61.1791
 20
169.992888
 30
0.0
 11
61.498856599372
 21
170.678404987769
 31
0.0
  0
LINE
  5
598
330
1E
100
AcDbEntity
  8
0
100
AcDbLine
 10
61.1791
 20
169.992888
 30
0.0
 11
61.8405
 21
169.683888
 31
0.0
  0
LINE
  5
599
330
1E
100
AcDbEntity
  8
0
100
AcDbLine
 10
63.2229
 20
169.590888
 30
0.0
 11
63.512623063294
 21
170.21235973894
 31
0.0
  0
LINE
  5
59A
330
1E
100
AcDbEntity
  8
0
100
AcDbLine
 10
61.9
 20
170.207888
 30
0.0
 11
62.252737882819
 21
170.964440444754
 31
0.0
  0
LINE
  5
59B
330
1E
100
AcDbEntity
  8
0
100
AcDbLine
 10
61.9
 20
170.207888
 30
0.0
 11
63.2229
 21
169.590888
 31
0.0
  0
LINE
  5
59C
330
1E
100
AcDbEntity
  8
0
100
AcDbLine
 10
61.9
 20
170.207888
 30
0.0
 11
62.211064779489
 21
170.875059945124
 31
0.0
  0
LINE
  5
59D
330
1E
100
AcDbEntity
  8
0
100
AcDbLine
 10
63.269302886728
 20
169.690424717509
 30
0.0
 11
63.752920814616
 21
169.435411526439
 31
0.0
  0
LINE
  5
59E
330
1E
100
AcDbEntity
  8
0
100
AcDbLine
 10
60.6389
 20
171.347888
 30
0.0
 11
61.047232576731
 21
172.22319691877
 31
0.0
  0
LINE
  5
59F
330
1E
100
AcDbEntity
  8
0
100
AcDbLine
 10
60.6389
 20
171.347888
 30
0.0
 11
61.9628
 21
170.730888
 31
0.0
  0
LINE
  5
5A0
330
1E
100
AcDbEntity
  8
0
100
AcDbLine
 10
61.9628
 20
170.730888
 30
0.0
 11
62.323996051296
 21
171.505245838321
 31
0.0
  0
LINE
  5
5A1
330
1E
100
AcDbEntity
  8
0
100
AcDbLine
 10
63.885870964574
 20
170.936397035617
 30
0.0
 11
64.351514061711
 21
170.719274719368
 31
0.0
  0
LINE
  5
5A2
330
1E
100
AcDbEntity
  8
0
100
AcDbLine
 10
60.8073
 20
172.371888
 30
0.0
 11
65.504
 21
170.181888
 31
0.0
  0
LINE
  5
5A3
330
1E
100
AcDbEntity
  8
0
100
AcDbLine
 10
60.8073
 20
172.371888
 30
0.0
 11
61.06133814529
 21
172.253433864504
 31
0.0
  0
LINE
  5
5A4
330
1E
100
AcDbEntity
  8
0
100
AcDbLine
 10
60.8073
 20
172.371888
 30
0.0
 11
61.06133814529
 21
172.253433864504
 31
0.0
  0
LINE
  5
5A5
330
1E
100
AcDbEntity
  8
0
100
AcDbLine
 10
64.512
 20
170.644888
 30
0.0
 11
69.6722
 21
168.238888
 31
0.0
  0
LINE
  5
5A6
330
1E
100
AcDbEntity
  8
0
100
AcDbLine
 10
66.135965380995
 20
169.887696281331
 30
0.0
 11
68.419614760033
 21
168.822919643611
 31
0.0
  0
LINE
  5
5A7
330
1E
100
AcDbEntity
  8
0
100
AcDbLine
 10
66.135965380995
 20
169.887696281331
 30
0.0
 11
68.419614760033
 21
168.822919643611
 31
0.0
  0
LINE
  5
5A8
330
1E
100
AcDbEntity
  8
0
100
AcDbLine
 10
64.67981138213
 20
170.566644097553
 30
0.0
 11
65.0132
 21
170.410888
 31
0.0
  0
LINE
  5
5A9
330
1E
100
AcDbEntity
  8
0
100
AcDbLine
 10
64.67981138213
 20
170.566644097553
 30
0.0
 11
65.0132
 21
170.410888
 31
0.0
  0
LINE
  5
5AA
330
1E
100
AcDbEntity
  8
0
100
AcDbLine
 10
65.0132
 20
170.410888
 30
0.0
 11
66.1591
 21
169.876888
 31
0.0
  0
LINE
  5
5AB
330
1E
100
AcDbEntity
  8
0
100
AcDbLine
 10
65.504
 20
170.181888
 30
0.0
 11
70.4655
 21
167.868888
 31
0.0
  0
LINE
  5
5AC
330
1E
100
AcDbEntity
  8
0
100
AcDbLine
 10
64.6038
 20
171.705888
 30
0.0
 11
69.8301
 21
169.268888
 31
0.0
  0
LINE
  5
5AD
330
1E
100
AcDbEntity
  8
0
100
AcDbLine
 10
69.8301
 20
169.268888
 30
0.0
 11
75.4531
 21
166.645888
 31
0.0
  0
LINE
  5
5AE
330
1E
100
AcDbEntity
  8
0
100
AcDbLine
 10
78.533371875216
 20
165.209784547469
 30
0.0
 11
81.3408
 21
163.900888
 31
0.0
  0
LINE
  5
5AF
330
1E
100
AcDbEntity
  8
0
100
AcDbLine
 10
78.533371875217
 20
165.209784547468
 30
0.0
 11
81.3408
 21
163.900888
 31
0.0
  0
LINE
  5
5B0
330
1E
100
AcDbEntity
  8
0
100
AcDbLine
 10
76.4202
 20
165.091888
 30
0.0
 11
81.1169
 21
162.901888
 31
0.0
  0
LINE
  5
5B1
330
1E
100
AcDbEntity
  8
0
100
AcDbLine
 10
75.494
 20
165.523888
 30
0.0
 11
80.9841
 21
162.963888
 31
0.0
  0
LINE
  5
5B2
330
1E
100
AcDbEntity
  8
0
100
AcDbLine
 10
75.494
 20
165.523888
 30
0.0
 11
77.175909890353
 21
164.739623720788
 31
0.0
  0
LINE
  5
5B3
330
1E
100
AcDbEntity
  8
0
100
AcDbLine
 10
75.4531
 20
166.645888
 30
0.0
 11
81.3408
 21
163.900888
 31
0.0
  0
LINE
  5
5B4
330
1E
100
AcDbEntity
  8
0
100
AcDbLine
 10
75.4531
 20
166.645888
 30
0.0
 11
77.598325298077
 21
165.64572776031
 31
0.0
  0
LINE
  5
5B5
330
1E
100
AcDbEntity
  8
0
100
AcDbLine
 10
81.3408
 20
163.900888
 30
0.0
 11
87.1625
 21
161.186888
 31
0.0
  0
LINE
  5
5B6
330
1E
100
AcDbEntity
  8
0
100
AcDbLine
 10
91.099190563277
 20
154.794982367228
 30
0.0
 11
91.1529
 21
154.769888
 31
0.0
  0
LINE
  5
5B7
330
1E
100
AcDbEntity
  8
0
100
AcDbLine
 10
91.73532170133
 20
154.498121270318
 30
0.0
 11
92.0016
 21
154.373888
 31
0.0
  0
LINE
  5
5B8
330
1E
100
AcDbEntity
  8
0
100
AcDbLine
 10
91.765563417723
 20
154.484138632911
 30
0.0
 11
92.0016
 21
154.373888
 31
0.0
  0
LINE
  5
5B9
330
1E
100
AcDbEntity
  8
0
100
AcDbLine
 10
91.861891909718
 20
154.43959994476
 30
0.0
 11
91.9933
 21
154.377888
 31
0.0
  0
LINE
  5
5BA
330
1E
100
AcDbEntity
  8
0
100
AcDbLine
 10
92.3114
 20
154.229888
 30
0.0
 11
93.271917924951
 21
155.026497582376
 31
0.0
  0
LINE
  5
5BB
330
1E
100
AcDbEntity
  8
0
100
AcDbLine
 10
92.0016
 20
154.373888
 30
0.0
 11
92.2402
 21
154.262888
 31
0.0
  0
LINE
  5
5BC
330
1E
100
AcDbEntity
  8
0
100
AcDbLine
 10
91.9933
 20
154.377888
 30
0.0
 11
92.2328
 21
154.266888
 31
0.0
  0
LINE
  5
5BD
330
1E
100
AcDbEntity
  8
0
100
AcDbLine
 10
92.2328
 20
154.266888
 30
0.0
 11
92.3041
 21
154.232888
 31
0.0
  0
LINE
  5
5BE
330
1E
100
AcDbEntity
  8
0
100
AcDbLine
 10
92.2035
 20
154.280888
 30
0.0
 11
92.3041
 21
154.232888
 31
0.0
  0
LINE
  5
5BF
330
1E
100
AcDbEntity
  8
0
100
AcDbLine
 10
92.3041
 20
154.232888
 30
0.0
 11
93.264928294337
 21
155.029754988532
 31
0.0
  0
LINE
  5
5C0
330
1E
100
AcDbEntity
  8
0
100
AcDbLine
 10
91.9932
 20
154.378888
 30
0.0
 11
92.2035
 21
154.280888
 31
0.0
  0
LINE
  5
5C1
330
1E
100
AcDbEntity
  8
0
100
AcDbLine
 10
91.1529
 20
154.769888
 30
0.0
 11
91.226043976652
 21
154.735757112133
 31
0.0
  0
LINE
  5
5C2
330
1E
100
AcDbEntity
  8
0
100
AcDbLine
 10
91.6385
 20
154.542888
 30
0.0
 11
91.9932
 21
154.378888
 31
0.0
  0
LINE
  5
5C3
330
1E
100
AcDbEntity
  8
0
100
AcDbLine
 10
91.1445
 20
154.773888
 30
0.0
 11
91.6385
 21
154.542888
 31
0.0
  0
LINE
  5
5C4
330
1E
100
AcDbEntity
  8
0
100
AcDbLine
 10
90.571
 20
155.040888
 30
0.0
 11
91.1445
 21
154.773888
 31
0.0
  0
LINE
  5
5C5
330
1E
100
AcDbEntity
  8
0
100
AcDbLine
 10
94.9534
 20
153.690888
 30
0.0
 11
95.325056243721
 21
154.488110870169
 31
0.0
  0
LINE
  5
5C6
330
1E
100
AcDbEntity
  8
0
100
AcDbLine
 10
94.6497
 20
154.384888
 30
0.0
 11
94.860840387154
 21
154.837742042246
 31
0.0
  0
LINE
  5
5C7
330
1E
100
AcDbEntity
  8
0
100
AcDbLine
 10
95.5235
 20
154.528888
 30
0.0
 11
95.734870069075
 21
154.982234664182
 31
0.0
  0
LINE
  5
5C8
330
1E
100
AcDbEntity
  8
0
100
AcDbLine
 10
94.1997
 20
155.145888
 30
0.0
 11
95.5235
 21
154.528888
 31
0.0
  0
LINE
  5
5C9
330
1E
100
AcDbEntity
  8
0
100
AcDbLine
 10
94.1997
 20
155.145888
 30
0.0
 11
94.469237254986
 21
155.723991683058
 31
0.0
  0
LINE
  5
5CA
330
1E
100
AcDbEntity
  8
0
100
AcDbLine
 10
95.8814
 20
154.913888
 30
0.0
 11
96.25395311763
 21
155.71259392658
 31
0.0
  0
LINE
  5
5CB
330
1E
100
AcDbEntity
  8
0
100
AcDbLine
 10
93.326
 20
155.000888
 30
0.0
 11
93.841773437542
 21
154.760866516639
 31
0.0
  0
LINE
  5
5CC
330
1E
100
AcDbEntity
  8
0
100
AcDbLine
 10
93.326
 20
155.000888
 30
0.0
 11
94.6497
 21
154.384888
 31
0.0
  0
LINE
  5
5CD
330
1E
100
AcDbEntity
  8
0
100
AcDbLine
 10
93.326
 20
155.000888
 30
0.0
 11
93.721597502085
 21
155.849934224304
 31
0.0
  0
LINE
  5
5CE
330
1E
100
AcDbEntity
  8
0
100
AcDbLine
 10
93.326
 20
155.000888
 30
0.0
 11
93.546826688362
 21
155.474834536547
 31
0.0
  0
LINE
  5
5CF
330
1E
100
AcDbEntity
  8
0
100
AcDbLine
 10
93.6306
 20
154.307888
 30
0.0
 11
94.9534
 21
153.690888
 31
0.0
  0
LINE
  5
5D0
330
1E
100
AcDbEntity
  8
0
100
AcDbLine
 10
93.6306
 20
154.307888
 30
0.0
 11
93.841773437542
 21
154.760866516639
 31
0.0
  0
LINE
  5
5D1
330
1E
100
AcDbEntity
  8
0
100
AcDbLine
 10
93.271917924951
 20
155.026497582376
 30
0.0
 11
93.326155225679
 21
155.001221151186
 31
0.0
  0
LINE
  5
5D2
330
1E
100
AcDbEntity
  8
0
100
AcDbLine
 10
95.9496
 20
153.777888
 30
0.0
 11
97.4712
 21
153.068888
 31
0.0
  0
LINE
  5
5D3
330
1E
100
AcDbEntity
  8
0
100
AcDbLine
 10
97.4712
 20
153.068888
 30
0.0
 11
99.648579325247
 21
152.18039863214
 31
0.0
  0
LINE
  5
5D4
330
1E
100
AcDbEntity
  8
0
100
AcDbLine
 10
92.9063
 20
155.196888
 30
0.0
 11
93.326155225679
 21
155.001221151186
 31
0.0
  0
LINE
  5
5D5
330
1E
100
AcDbEntity
  8
0
100
AcDbLine
 10
94.5586
 20
155.530888
 30
0.0
 11
95.8814
 21
154.913888
 31
0.0
  0
LINE
  5
5D6
330
1E
100
AcDbEntity
  8
0
100
AcDbLine
 10
94.5586
 20
155.530888
 30
0.0
 11
94.981210181389
 21
156.436909827588
 31
0.0
  0
LINE
  5
5D7
330
1E
100
AcDbEntity
  8
0
100
AcDbLine
 10
97.0596
 20
155.466888
 30
0.0
 11
103.0136
 21
152.691888
 31
0.0
  0
LINE
  5
5D8
330
1E
100
AcDbEntity
  8
0
100
AcDbLine
 10
97.9858
 20
155.035888
 30
0.0
 11
103.8074
 21
152.321888
 31
0.0
  0
LINE
  5
5D9
330
1E
100
AcDbEntity
  8
0
100
AcDbLine
 10
97.9858
 20
155.035888
 30
0.0
 11
103.589785319895
 21
152.423338845439
 31
0.0
  0
LINE
  5
5DA
330
1E
100
AcDbEntity
  8
0
100
AcDbLine
 10
92.3628
 20
157.656888
 30
0.0
 11
97.0596
 21
155.466888
 31
0.0
  0
LINE
  5
5DB
330
1E
100
AcDbEntity
  8
0
100
AcDbLine
 10
92.4957
 20
157.595888
 30
0.0
 11
97.9858
 21
155.035888
 31
0.0
  0
LINE
  5
5DC
330
1E
100
AcDbEntity
  8
0
100
AcDbLine
 10
101.2104
 20
150.773888
 30
0.0
 11
102.3564
 21
150.238888
 31
0.0
  0
LINE
  5
5DD
330
1E
100
AcDbEntity
  8
0
100
AcDbLine
 10
101.4939
 20
151.193888
 30
0.0
 11
102.8166
 21
150.576888
 31
0.0
  0
LINE
  5
5DE
330
1E
100
AcDbEntity
  8
0
100
AcDbLine
 10
101.4939
 20
151.193888
 30
0.0
 11
101.814535193401
 21
151.881207259957
 31
0.0
  0
LINE
  5
5DF
330
1E
100
AcDbEntity
  8
0
100
AcDbLine
 10
101.4939
 20
151.193888
 30
0.0
 11
101.748641775298
 21
151.739956965858
 31
0.0
  0
LINE
  5
5E0
330
1E
100
AcDbEntity
  8
0
100
AcDbLine
 10
100.0499
 20
151.313888
 30
0.0
 11
101.1959
 21
150.779888
 31
0.0
  0
LINE
  5
5E1
330
1E
100
AcDbEntity
  8
0
100
AcDbLine
 10
100.5344
 20
151.088888
 30
0.0
 11
101.1959
 21
150.779888
 31
0.0
  0
LINE
  5
5E2
330
1E
100
AcDbEntity
  8
0
100
AcDbLine
 10
99.3885
 20
151.622888
 30
0.0
 11
100.5344
 21
151.088888
 31
0.0
  0
LINE
  5
5E3
330
1E
100
AcDbEntity
  8
0
100
AcDbLine
 10
99.3885
 20
151.622888
 30
0.0
 11
99.713171015981
 21
152.318858520476
 31
0.0
  0
LINE
  5
5E4
330
1E
100
AcDbEntity
  8
0
100
AcDbLine
 10
99.3885
 20
151.622888
 30
0.0
 11
100.0499
 21
151.313888
 31
0.0
  0
LINE
  5
5E5
330
1E
100
AcDbEntity
  8
0
100
AcDbLine
 10
99.3885
 20
151.622888
 30
0.0
 11
99.648579325247
 21
152.18039863214
 31
0.0
  0
LINE
  5
5E6
330
1E
100
AcDbEntity
  8
0
100
AcDbLine
 10
98.8719
 20
155.725888
 30
0.0
 11
104.4946
 21
153.103888
 31
0.0
  0
LINE
  5
5E7
330
1E
100
AcDbEntity
  8
0
100
AcDbLine
 10
92.9842
 20
158.471888
 30
0.0
 11
98.8719
 21
155.725888
 31
0.0
  0
LINE
  5
5E8
330
1E
100
AcDbEntity
  8
0
100
AcDbLine
 10
108.2823
 20
148.026888
 30
0.0
 11
108.607713996383
 21
148.725303747088
 31
0.0
  0
LINE
  5
5E9
330
1E
100
AcDbEntity
  8
0
100
AcDbLine
 10
107.1364
 20
148.561888
 30
0.0
 11
108.2823
 21
148.026888
 31
0.0
  0
LINE
  5
5EA
330
1E
100
AcDbEntity
  8
0
100
AcDbLine
 10
103.0174
 20
149.930888
 30
0.0
 11
103.364627350804
 21
150.67570956532
 31
0.0
  0
LINE
  5
5EB
330
1E
100
AcDbEntity
  8
0
100
AcDbLine
 10
102.3564
 20
150.238888
 30
0.0
 11
103.0174
 21
149.930888
 31
0.0
  0
LINE
  5
5EC
330
1E
100
AcDbEntity
  8
0
100
AcDbLine
 10
102.3564
 20
150.238888
 30
0.0
 11
102.567944896002
 21
150.692878170989
 31
0.0
  0
LINE
  5
5ED
330
1E
100
AcDbEntity
  8
0
100
AcDbLine
 10
106.4749
 20
148.870888
 30
0.0
 11
107.6207
 21
148.335888
 31
0.0
  0
LINE
  5
5EE
330
1E
100
AcDbEntity
  8
0
100
AcDbLine
 10
106.4749
 20
148.870888
 30
0.0
 11
106.759860820573
 21
149.482072156748
 31
0.0
  0
LINE
  5
5EF
330
1E
100
AcDbEntity
  8
0
100
AcDbLine
 10
106.4749
 20
148.870888
 30
0.0
 11
107.1364
 21
148.561888
 31
0.0
  0
LINE
  5
5F0
330
1E
100
AcDbEntity
  8
0
100
AcDbLine
 10
106.4749
 20
148.870888
 30
0.0
 11
106.680160359768
 21
149.311130555613
 31
0.0
  0
LINE
  5
5F1
330
1E
100
AcDbEntity
  8
0
100
AcDbLine
 10
107.6207
 20
148.335888
 30
0.0
 11
108.2823
 21
148.026888
 31
0.0
  0
LINE
  5
5F2
330
1E
100
AcDbEntity
  8
0
100
AcDbLine
 10
107.6207
 20
148.335888
 30
0.0
 11
107.934575171543
 21
149.009167325612
 31
0.0
  0
LINE
  5
5F3
330
1E
100
AcDbEntity
  8
0
100
AcDbLine
 10
108.7479
 20
147.810888
 30
0.0
 11
108.802941025285
 21
147.785190340058
 31
0.0
  0
LINE
  5
5F4
330
1E
100
AcDbEntity
  8
0
100
AcDbLine
 10
108.7479
 20
147.810888
 30
0.0
 11
109.005034410723
 21
148.362455305537
 31
0.0
  0
LINE
  5
5F5
330
1E
100
AcDbEntity
  8
0
100
AcDbLine
 10
108.8028
 20
147.784888
 30
0.0
 11
109.9485
 21
147.250888
 31
0.0
  0
LINE
  5
5F6
330
1E
100
AcDbEntity
  8
0
100
AcDbLine
 10
108.8028
 20
147.784888
 30
0.0
 11
109.014195547751
 21
148.238092842078
 31
0.0
  0
LINE
  5
5F7
330
1E
100
AcDbEntity
  8
0
100
AcDbLine
 10
108.8028
 20
147.784888
 30
0.0
 11
109.4643
 21
147.475888
 31
0.0
  0
LINE
  5
5F8
330
1E
100
AcDbEntity
  8
0
100
AcDbLine
 10
108.52913250825
 20
148.556649204408
 30
0.0
 11
109.035595272083
 21
148.349984809434
 31
0.0
  0
LINE
  5
5F9
330
1E
100
AcDbEntity
  8
0
100
AcDbLine
 10
108.52913250825
 20
148.556649204408
 30
0.0
 11
109.035595272083
 21
148.349984809434
 31
0.0
  0
LINE
  5
5FA
330
1E
100
AcDbEntity
  8
0
100
AcDbLine
 10
102.8166
 20
150.576888
 30
0.0
 11
103.028009937821
 21
151.030123692537
 31
0.0
  0
LINE
  5
5FB
330
1E
100
AcDbEntity
  8
0
100
AcDbLine
 10
104.2788
 20
150.446888
 30
0.0
 11
104.489929730142
 21
150.899522963343
 31
0.0
  0
LINE
  5
5FC
330
1E
100
AcDbEntity
  8
0
100
AcDbLine
 10
102.9556
 20
151.063888
 30
0.0
 11
104.2788
 21
150.446888
 31
0.0
  0
LINE
  5
5FD
330
1E
100
AcDbEntity
  8
0
100
AcDbLine
 10
102.9556
 20
151.063888
 30
0.0
 11
103.237575653505
 21
151.668335987876
 31
0.0
  0
LINE
  5
5FE
330
1E
100
AcDbEntity
  8
0
100
AcDbLine
 10
104.6371
 20
150.830888
 30
0.0
 11
105.059828670733
 21
151.737664005726
 31
0.0
  0
LINE
  5
5FF
330
1E
100
AcDbEntity
  8
0
100
AcDbLine
 10
104.6371
 20
150.830888
 30
0.0
 11
104.932706997984
 21
151.464981099082
 31
0.0
  0
LINE
  5
600
330
1E
100
AcDbEntity
  8
0
100
AcDbLine
 10
103.3141
 20
151.447888
 30
0.0
 11
104.6371
 21
150.830888
 31
0.0
  0
LINE
  5
601
330
1E
100
AcDbEntity
  8
0
100
AcDbLine
 10
103.3141
 20
151.447888
 30
0.0
 11
103.736876151944
 21
152.354765855508
 31
0.0
  0
LINE
  5
602
330
1E
100
AcDbEntity
  8
0
100
AcDbLine
 10
103.090622716987
 20
150.775857438139
 30
0.0
 11
106.680160359768
 21
149.311130555613
 31
0.0
  0
LINE
  5
603
330
1E
100
AcDbEntity
  8
0
100
AcDbLine
 10
105.059828670733
 20
151.737664005726
 30
0.0
 11
107.319960311792
 21
150.683373916573
 31
0.0
  0
LINE
  5
604
330
1E
100
AcDbEntity
  8
0
100
AcDbLine
 10
107.9752
 20
150.376888
 30
0.0
 11
112.6721
 21
148.186888
 31
0.0
  0
LINE
  5
605
330
1E
100
AcDbEntity
  8
0
100
AcDbLine
 10
108.9889
 20
148.249888
 30
0.0
 11
110.3121
 21
147.632888
 31
0.0
  0
LINE
  5
606
330
1E
100
AcDbEntity
  8
0
100
AcDbLine
 10
108.9889
 20
148.249888
 30
0.0
 11
109.278706416471
 21
148.871122149587
 31
0.0
  0
LINE
  5
607
330
1E
100
AcDbEntity
  8
0
100
AcDbLine
 10
108.9889
 20
148.249888
 30
0.0
 11
109.255565766011
 21
148.821517442816
 31
0.0
  0
LINE
  5
608
330
1E
100
AcDbEntity
  8
0
100
AcDbLine
 10
109.4643
 20
147.475888
 30
0.0
 11
110.6101
 21
146.941888
 31
0.0
  0
LINE
  5
609
330
1E
100
AcDbEntity
  8
0
100
AcDbLine
 10
109.12701114297
 20
149.839838796673
 30
0.0
 11
109.592575316403
 21
149.622762525129
 31
0.0
  0
LINE
  5
60A
330
1E
100
AcDbEntity
  8
0
100
AcDbLine
 10
109.127245990744
 20
149.840342835791
 30
0.0
 11
109.59279401355
 21
149.623231642412
 31
0.0
  0
LINE
  5
60B
330
1E
100
AcDbEntity
  8
0
100
AcDbLine
 10
108.9674
 20
149.914888
 30
0.0
 11
113.8628
 21
147.631888
 31
0.0
  0
LINE
  5
60C
330
1E
100
AcDbEntity
  8
0
100
AcDbLine
 10
103.0136
 20
152.691888
 30
0.0
 11
107.9752
 21
150.376888
 31
0.0
  0
LINE
  5
60D
330
1E
100
AcDbEntity
  8
0
100
AcDbLine
 10
103.8074
 20
152.321888
 30
0.0
 11
108.9674
 21
149.914888
 31
0.0
  0
LINE
  5
60E
330
1E
100
AcDbEntity
  8
0
100
AcDbLine
 10
110.6101
 20
146.941888
 30
0.0
 11
110.930581350213
 21
147.629337938401
 31
0.0
  0
LINE
  5
60F
330
1E
100
AcDbEntity
  8
0
100
AcDbLine
 10
110.3121
 20
147.632888
 30
0.0
 11
110.664987972878
 21
148.389434387665
 31
0.0
  0
LINE
  5
610
330
1E
100
AcDbEntity
  8
0
100
AcDbLine
 10
110.6719
 20
148.015888
 30
0.0
 11
111.995
 21
147.398888
 31
0.0
  0
LINE
  5
611
330
1E
100
AcDbEntity
  8
0
100
AcDbLine
 10
110.6719
 20
148.015888
 30
0.0
 11
111.033504202371
 21
148.791548694391
 31
0.0
  0
LINE
  5
612
330
1E
100
AcDbEntity
  8
0
100
AcDbLine
 10
110.6719
 20
148.015888
 30
0.0
 11
111.007006730766
 21
148.734710175674
 31
0.0
  0
LINE
  5
613
330
1E
100
AcDbEntity
  8
0
100
AcDbLine
 10
109.9485
 20
147.250888
 30
0.0
 11
110.6101
 21
146.941888
 31
0.0
  0
LINE
  5
614
330
1E
100
AcDbEntity
  8
0
100
AcDbLine
 10
109.9485
 20
147.250888
 30
0.0
 11
110.159806340896
 21
147.703901594065
 31
0.0
  0
LINE
  5
615
330
1E
100
AcDbEntity
  8
0
100
AcDbLine
 10
111.995
 20
147.398888
 30
0.0
 11
112.403546771058
 21
148.275243059072
 31
0.0
  0
LINE
  5
616
330
1E
100
AcDbEntity
  8
0
100
AcDbLine
 10
110.909974837908
 20
147.585135847996
 30
0.0
 11
113.712085603721
 21
146.441722022888
 31
0.0
  0
LINE
  5
617
330
1E
100
AcDbEntity
  8
0
100
AcDbLine
 10
110.909974837908
 20
147.585135847996
 30
0.0
 11
113.712085603721
 21
146.441722022888
 31
0.0
  0
LINE
  5
618
330
1E
100
AcDbEntity
  8
0
100
AcDbLine
 10
110.946037766773
 20
148.991968967101
 30
0.0
 11
111.094678558194
 21
148.922771017044
 31
0.0
  0
LINE
  5
619
330
1E
100
AcDbEntity
  8
0
100
AcDbLine
 10
112.417662971326
 20
148.305523076922
 30
0.0
 11
112.6721
 21
148.186888
 31
0.0
  0
LINE
  5
61A
330
1E
100
AcDbEntity
  8
0
100
AcDbLine
 10
112.417783019275
 20
148.305780586305
 30
0.0
 11
113.8628
 21
147.631888
 31
0.0
  0
LINE
  5
61B
330
1E
100
AcDbEntity
  8
0
100
AcDbLine
 10
112.6721
 20
148.186888
 30
0.0
 11
114.618791101849
 21
147.279332079254
 31
0.0
  0
LINE
  5
61C
330
1E
100
AcDbEntity
  8
0
100
AcDbLine
 10
109.7209
 20
150.666888
 30
0.0
 11
114.6825
 21
148.352888
 31
0.0
  0
LINE
  5
61D
330
1E
100
AcDbEntity
  8
0
100
AcDbLine
 10
104.4946
 20
153.103888
 30
0.0
 11
109.7209
 21
150.666888
 31
0.0
  0
LINE
  5
61E
330
1E
100
AcDbEntity
  8
0
100
AcDbLine
 10
113.5611
 20
146.117888
 30
0.0
 11
114.7069
 21
145.583888
 31
0.0
  0
LINE
  5
61F
330
1E
100
AcDbEntity
  8
0
100
AcDbLine
 10
113.5611
 20
146.117888
 30
0.0
 11
113.825996927568
 21
146.686039105739
 31
0.0
  0
LINE
  5
620
330
1E
100
AcDbEntity
  8
0
100
AcDbLine
 10
113.5611
 20
146.117888
 30
0.0
 11
114.573586946205
 21
145.64601853825
 31
0.0
  0
LINE
  5
621
330
1E
100
AcDbEntity
  8
0
100
AcDbLine
 10
113.5611
 20
146.117888
 30
0.0
 11
113.712085603721
 21
146.441722022888
 31
0.0
  0
LINE
  5
622
330
1E
100
AcDbEntity
  8
0
100
AcDbLine
 10
113.5611
 20
146.117888
 30
0.0
 11
114.573586946205
 21
145.64601853825
 31
0.0
  0
LINE
  5
623
330
1E
100
AcDbEntity
  8
0
100
AcDbLine
 10
121.607422605326
 20
142.917501026838
 30
0.0
 11
122.4547
 21
142.521888
 31
0.0
  0
LINE
  5
624
330
1E
100
AcDbEntity
  8
0
100
AcDbLine
 10
121.607422605326
 20
142.917501026838
 30
0.0
 11
122.4547
 21
142.521888
 31
0.0
  0
LINE
  5
625
330
1E
100
AcDbEntity
  8
0
100
AcDbLine
 10
117.5661
 20
144.249888
 30
0.0
 11
117.81400477865
 21
144.134461436396
 31
0.0
  0
LINE
  5
626
330
1E
100
AcDbEntity
  8
0
100
AcDbLine
 10
117.5661
 20
144.249888
 30
0.0
 11
117.81400477865
 21
144.134461436396
 31
0.0
  0
LINE
  5
627
330
1E
100
AcDbEntity
  8
0
100
AcDbLine
 10
117.3909
 20
144.331888
 30
0.0
 11
117.540600000006
 21
144.262120326756
 31
0.0
  0
LINE
  5
628
330
1E
100
AcDbEntity
  8
0
100
AcDbLine
 10
117.3909
 20
144.331888
 30
0.0
 11
117.540600000006
 21
144.262120326756
 31
0.0
  0
LINE
  5
629
330
1E
100
AcDbEntity
  8
0
100
AcDbLine
 10
119.4129
 20
143.388888
 30
0.0
 11
119.732137713733
 21
144.073589259906
 31
0.0
  0
LINE
  5
62A
330
1E
100
AcDbEntity
  8
0
100
AcDbLine
 10
118.7513
 20
143.697888
 30
0.0
 11
119.4129
 21
143.388888
 31
0.0
  0
LINE
  5
62B
330
1E
100
AcDbEntity
  8
0
100
AcDbLine
 10
118.2671
 20
143.922888
 30
0.0
 11
119.4129
 21
143.388888
 31
0.0
  0
LINE
  5
62C
330
1E
100
AcDbEntity
  8
0
100
AcDbLine
 10
117.917799999991
 20
144.086053079369
 30
0.0
 11
118.2671
 21
143.922888
 31
0.0
  0
LINE
  5
62D
330
1E
100
AcDbEntity
  8
0
100
AcDbLine
 10
118.536708828742
 20
143.797906927687
 30
0.0
 11
118.7513
 21
143.697888
 31
0.0
  0
LINE
  5
62E
330
1E
100
AcDbEntity
  8
0
100
AcDbLine
 10
117.8752
 20
144.105888
 30
0.0
 11
118.5367
 21
143.797888
 31
0.0
  0
LINE
  5
62F
330
1E
100
AcDbEntity
  8
0
100
AcDbLine
 10
120.6473
 20
143.364888
 30
0.0
 11
121.7933
 21
142.830888
 31
0.0
  0
LINE
  5
630
330
1E
100
AcDbEntity
  8
0
100
AcDbLine
 10
120.6473
 20
143.364888
 30
0.0
 11
120.984915253302
 21
144.089005418948
 31
0.0
  0
LINE
  5
631
330
1E
100
AcDbEntity
  8
0
100
AcDbLine
 10
120.6473
 20
143.364888
 30
0.0
 11
120.789673593837
 21
143.670250978382
 31
0.0
  0
LINE
  5
632
330
1E
100
AcDbEntity
  8
0
100
AcDbLine
 10
121.7933
 20
142.830888
 30
0.0
 11
122.4547
 21
142.521888
 31
0.0
  0
LINE
  5
633
330
1E
100
AcDbEntity
  8
0
100
AcDbLine
 10
118.826425763746
 20
144.419022741963
 30
0.0
 11
120.789673593837
 21
143.670250978382
 31
0.0
  0
LINE
  5
634
330
1E
100
AcDbEntity
  8
0
100
AcDbLine
 10
122.171783506517
 20
142.653988125688
 30
0.0
 11
125.4757
 21
137.794888
 31
0.0
  0
LINE
  5
635
330
1E
100
AcDbEntity
  8
0
100
AcDbLine
 10
122.4547
 20
142.521888
 30
0.0
 11
122.844851594427
 21
143.358685398198
 31
0.0
  0
LINE
  5
636
330
1E
100
AcDbEntity
  8
0
100
AcDbLine
 10
122.132
 20
143.775888
 30
0.0
 11
125.4398
 21
142.233888
 31
0.0
  0
LINE
  5
637
330
1E
100
AcDbEntity
  8
0
100
AcDbLine
 10
115.3685
 20
145.274888
 30
0.0
 11
115.703454219225
 21
145.993383030118
 31
0.0
  0
LINE
  5
638
330
1E
100
AcDbEntity
  8
0
100
AcDbLine
 10
118.1018
 20
144.551888
 30
0.0
 11
118.524474081655
 21
145.457939621861
 31
0.0
  0
LINE
  5
639
330
1E
100
AcDbEntity
  8
0
100
AcDbLine
 10
117.0818
 20
144.475888
 30
0.0
 11
117.215113053828
 21
144.413757461735
 31
0.0
  0
LINE
  5
63A
330
1E
100
AcDbEntity
  8
0
100
AcDbLine
 10
116.7787
 20
145.168888
 30
0.0
 11
118.1018
 21
144.551888
 31
0.0
  0
LINE
  5
63B
330
1E
100
AcDbEntity
  8
0
100
AcDbLine
 10
116.7787
 20
145.168888
 30
0.0
 11
117.201335576974
 21
146.074964272453
 31
0.0
  0
LINE
  5
63C
330
1E
100
AcDbEntity
  8
0
100
AcDbLine
 10
116.7787
 20
145.168888
 30
0.0
 11
117.089142978708
 21
145.834437783978
 31
0.0
  0
LINE
  5
63D
330
1E
100
AcDbEntity
  8
0
100
AcDbLine
 10
116.4202
 20
144.784888
 30
0.0
 11
117.5661
 21
144.249888
 31
0.0
  0
LINE
  5
63E
330
1E
100
AcDbEntity
  8
0
100
AcDbLine
 10
116.4202
 20
144.784888
 30
0.0
 11
116.638631423329
 21
145.253435291169
 31
0.0
  0
LINE
  5
63F
330
1E
100
AcDbEntity
  8
0
100
AcDbLine
 10
116.4202
 20
144.784888
 30
0.0
 11
117.0818
 21
144.475888
 31
0.0
  0
LINE
  5
640
330
1E
100
AcDbEntity
  8
0
100
AcDbLine
 10
116.7294
 20
144.640888
 30
0.0
 11
117.8752
 21
144.105888
 31
0.0
  0
LINE
  5
641
330
1E
100
AcDbEntity
  8
0
100
AcDbLine
 10
116.7294
 20
144.640888
 30
0.0
 11
117.3909
 21
144.331888
 31
0.0
  0
LINE
  5
642
330
1E
100
AcDbEntity
  8
0
100
AcDbLine
 10
116.4172
 20
145.337888
 30
0.0
 11
116.79102579922
 21
145.195312926866
 31
0.0
  0
LINE
  5
643
330
1E
100
AcDbEntity
  8
0
100
AcDbLine
 10
114.573586946205
 20
145.64601853825
 30
0.0
 11
115.3685
 21
145.274888
 31
0.0
  0
LINE
  5
644
330
1E
100
AcDbEntity
  8
0
100
AcDbLine
 10
114.573586946205
 20
145.64601853825
 30
0.0
 11
115.3685
 21
145.274888
 31
0.0
  0
LINE
  5
645
330
1E
100
AcDbEntity
  8
0
100
AcDbLine
 10
114.7069
 20
145.583888
 30
0.0
 11
115.3685
 21
145.274888
 31
0.0
  0
LINE
  5
646
330
1E
100
AcDbEntity
  8
0
100
AcDbLine
 10
115.560785853599
 20
145.687351621125
 30
0.0
 11
116.4172
 21
145.337888
 31
0.0
  0
LINE
  5
647
330
1E
100
AcDbEntity
  8
0
100
AcDbLine
 10
118.2951
 20
145.564888
 30
0.0
 11
122.132
 21
143.775888
 31
0.0
  0
LINE
  5
648
330
1E
100
AcDbEntity
  8
0
100
AcDbLine
 10
119.1809
 20
146.254888
 30
0.0
 11
123.0839
 21
144.435888
 31
0.0
  0
LINE
  5
649
330
1E
100
AcDbEntity
  8
0
100
AcDbLine
 10
123.0839
 20
144.435888
 30
0.0
 11
126.3916
 21
142.892888
 31
0.0
  0
LINE
  5
64A
330
1E
100
AcDbEntity
  8
0
100
AcDbLine
 10
113.8628
 20
147.631888
 30
0.0
 11
118.2951
 21
145.564888
 31
0.0
  0
LINE
  5
64B
330
1E
100
AcDbEntity
  8
0
100
AcDbLine
 10
113.8628
 20
147.631888
 30
0.0
 11
114.194804539288
 21
147.477057915685
 31
0.0
  0
LINE
  5
64C
330
1E
100
AcDbEntity
  8
0
100
AcDbLine
 10
114.6825
 20
148.352888
 30
0.0
 11
119.1809
 21
146.254888
 31
0.0
  0
LINE
  5
64D
330
1E
100
AcDbEntity
  8
0
100
AcDbLine
 10
129.687
 20
135.803888
 30
0.0
 11
129.9284
 21
136.794888
 31
0.0
  0
LINE
  5
64E
330
1E
100
AcDbEntity
  8
0
100
AcDbLine
 10
129.1254
 20
135.072888
 30
0.0
 11
129.687
 21
135.803888
 31
0.0
  0
LINE
  5
64F
330
1E
100
AcDbEntity
  8
0
100
AcDbLine
 10
128.4609
 20
134.830888
 30
0.0
 11
129.1254
 21
135.072888
 31
0.0
  0
LINE
  5
650
330
1E
100
AcDbEntity
  8
0
100
AcDbLine
 10
127.5123
 20
135.162888
 30
0.0
 11
128.4609
 21
134.830888
 31
0.0
  0
LINE
  5
651
330
1E
100
AcDbEntity
  8
0
100
AcDbLine
 10
126.8235
 20
135.814888
 30
0.0
 11
127.5123
 21
135.162888
 31
0.0
  0
LINE
  5
652
330
1E
100
AcDbEntity
  8
0
100
AcDbLine
 10
125.4757
 20
137.794888
 30
0.0
 11
126.8235
 21
135.814888
 31
0.0
  0
LINE
  5
653
330
1E
100
AcDbEntity
  8
0
100
AcDbLine
 10
129.664023190457
 20
140.264004486516
 30
0.0
 11
129.9284
 21
136.794888
 31
0.0
  0
LINE
  5
654
330
1E
100
AcDbEntity
  8
0
100
AcDbLine
 10
127.5914
 20
140.126888
 30
0.0
 11
127.980226312405
 21
140.960941601977
 31
0.0
  0
LINE
  5
655
330
1E
100
AcDbEntity
  8
0
100
AcDbLine
 10
129.8059
 20
140.197888
 30
0.0
 11
130.9305
 21
139.673888
 31
0.0
  0
LINE
  5
656
330
1E
100
AcDbEntity
  8
0
100
AcDbLine
 10
130.9305
 20
139.673888
 30
0.0
 11
131.3936
 21
139.457888
 31
0.0
  0
LINE
  5
657
330
1E
100
AcDbEntity
  8
0
100
AcDbLine
 10
131.3936
 20
139.457888
 30
0.0
 11
132.4778
 21
140.054888
 31
0.0
  0
LINE
  5
658
330
1E
100
AcDbEntity
  8
0
100
AcDbLine
 10
125.82395642782
 20
140.951223546188
 30
0.0
 11
126.4455
 21
140.660888
 31
0.0
  0
LINE
  5
659
330
1E
100
AcDbEntity
  8
0
100
AcDbLine
 10
126.4455
 20
140.660888
 30
0.0
 11
127.5914
 21
140.126888
 31
0.0
  0
LINE
  5
65A
330
1E
100
AcDbEntity
  8
0
100
AcDbLine
 10
126.9299
 20
140.435888
 30
0.0
 11
127.5914
 21
140.126888
 31
0.0
  0
LINE
  5
65B
330
1E
100
AcDbEntity
  8
0
100
AcDbLine
 10
125.012599999981
 20
141.32965567325
 30
0.0
 11
125.8238
 21
140.950888
 31
0.0
  0
LINE
  5
65C
330
1E
100
AcDbEntity
  8
0
100
AcDbLine
 10
125.012599999981
 20
141.32965567325
 30
0.0
 11
125.8238
 21
140.950888
 31
0.0
  0
LINE
  5
65D
330
1E
100
AcDbEntity
  8
0
100
AcDbLine
 10
125.1623
 20
141.259888
 30
0.0
 11
125.8238
 21
140.950888
 31
0.0
  0
LINE
  5
65E
330
1E
100
AcDbEntity
  8
0
100
AcDbLine
 10
127.8875
 20
141.091888
 30
0.0
 11
129.8059
 21
140.197888
 31
0.0
  0
LINE
  5
65F
330
1E
100
AcDbEntity
  8
0
100
AcDbLine
 10
124.0165
 20
141.793888
 30
0.0
 11
125.1623
 21
141.259888
 31
0.0
  0
LINE
  5
660
330
1E
100
AcDbEntity
  8
0
100
AcDbLine
 10
124.0165
 20
141.793888
 30
0.0
 11
124.378267112133
 21
142.569898144696
 31
0.0
  0
LINE
  5
661
330
1E
100
AcDbEntity
  8
0
100
AcDbLine
 10
126.1013
 20
141.924888
 30
0.0
 11
127.8875
 21
141.091888
 31
0.0
  0
LINE
  5
662
330
1E
100
AcDbEntity
  8
0
100
AcDbLine
 10
124.26423382344
 20
142.781902705924
 30
0.0
 11
126.1013
 21
141.924888
 31
0.0
  0
LINE
  5
663
330
1E
100
AcDbEntity
  8
0
100
AcDbLine
 10
124.264233823441
 20
142.781902705924
 30
0.0
 11
126.1013
 21
141.924888
 31
0.0
  0
LINE
  5
664
330
1E
100
AcDbEntity
  8
0
100
AcDbLine
 10
128.43639294193
 20
141.93944384917
 30
0.0
 11
128.9716
 21
141.689888
 31
0.0
  0
LINE
  5
665
330
1E
100
AcDbEntity
  8
0
100
AcDbLine
 10
126.3916
 20
142.892888
 30
0.0
 11
128.9716
 21
141.689888
 31
0.0
  0
LINE
  5
666
330
1E
100
AcDbEntity
  8
0
100
AcDbLine
 10
128.9716
 20
141.689888
 30
0.0
 11
130.8239
 21
140.826888
 31
0.0
  0
LINE
  5
667
330
1E
100
AcDbEntity
  8
0
100
AcDbLine
 10
130.8239
 20
140.826888
 30
0.0
 11
132.0147
 21
140.270888
 31
0.0
  0
LINE
  5
668
330
1E
100
AcDbEntity
  8
0
100
AcDbLine
 10
132.0147
 20
140.270888
 30
0.0
 11
132.4778
 21
140.054888
 31
0.0
  0
LINE
  5
669
330
1E
100
AcDbEntity
  8
0
100
AcDbLine
 10
132.684559564881
 20
140.498296991366
 30
0.0
 11
146.0881
 21
124.359888
 31
0.0
  0
LINE
  5
66A
330
1E
100
AcDbEntity
  8
0
100
AcDbLine
 10
140.715060048768
 20
157.802792245797
 30
0.0
 11
153.936408615507
 21
141.92311786486
 31
0.0
  0
LINE
  5
66B
330
1E
100
AcDbEntity
  8
0
100
AcDbLine
 10
140.739742418702
 20
157.773147161144
 30
0.0
 11
141.3528
 21
159.087888
 31
0.0
  0
LINE
  5
66C
330
1E
100
AcDbEntity
  8
0
100
AcDbLine
 10
132.4778
 20
140.054888
 30
0.0
 11
132.687844603247
 21
140.50534196435
 31
0.0
  0
LINE
  5
66D
330
1E
100
AcDbEntity
  8
0
100
AcDbLine
 10
144.55
 20
120.917888
 30
0.0
 11
144.7472
 21
121.358888
 31
0.0
  0
LINE
  5
66E
330
1E
100
AcDbEntity
  8
0
100
AcDbLine
 10
144.55
 20
120.917888
 30
0.0
 11
201.3336
 21
53.255788
 31
0.0
  0
LINE
  5
66F
330
1E
100
AcDbEntity
  8
0
100
AcDbLine
 10
144.7472
 20
121.358888
 30
0.0
 11
145.2993
 21
122.594888
 31
0.0
  0
LINE
  5
670
330
1E
100
AcDbEntity
  8
0
100
AcDbLine
 10
145.2993
 20
122.594888
 30
0.0
 11
146.538408904114
 21
125.367303525124
 31
0.0
  0
LINE
  5
671
330
1E
100
AcDbEntity
  8
0
100
AcDbLine
 10
153.936408615507
 20
141.92311786486
 30
0.0
 11
154.7256
 21
143.687888
 31
0.0
  0
LINE
  5
672
330
1E
100
AcDbEntity
  8
0
100
AcDbLine
 10
153.936408615507
 20
141.92311786486
 30
0.0
 11
154.7256
 21
143.687888
 31
0.0
  0
LINE
  5
673
330
1E
100
AcDbEntity
  8
0
100
AcDbLine
 10
154.7256
 20
143.687888
 30
0.0
 11
155.2376
 21
144.835888
 31
0.0
  0
LINE
  5
674
330
1E
100
AcDbEntity
  8
0
100
AcDbLine
 10
155.2376
 20
144.835888
 30
0.0
 11
155.4346
 21
145.276888
 31
0.0
  0
LINE
  5
675
330
1E
100
AcDbEntity
  8
0
100
AcDbLine
 10
141.1138
 20
160.301888
 30
0.0
 11
141.3528
 21
159.087888
 31
0.0
  0
LINE
  5
676
330
1E
100
AcDbEntity
  8
0
100
AcDbLine
 10
128.0154
 20
166.409888
 30
0.0
 11
131.8522
 21
164.621888
 31
0.0
  0
LINE
  5
677
330
1E
100
AcDbEntity
  8
0
100
AcDbLine
 10
131.8522
 20
164.621888
 30
0.0
 11
135.16
 21
163.078888
 31
0.0
  0
LINE
  5
678
330
1E
100
AcDbEntity
  8
0
100
AcDbLine
 10
135.16
 20
163.078888
 30
0.0
 11
137.6077
 21
161.936888
 31
0.0
  0
LINE
  5
679
330
1E
100
AcDbEntity
  8
0
100
AcDbLine
 10
137.6077
 20
161.936888
 30
0.0
 11
139.5262
 21
161.042888
 31
0.0
  0
LINE
  5
67A
330
1E
100
AcDbEntity
  8
0
100
AcDbLine
 10
139.5262
 20
161.042888
 30
0.0
 11
140.6507
 21
160.518888
 31
0.0
  0
LINE
  5
67B
330
1E
100
AcDbEntity
  8
0
100
AcDbLine
 10
140.6507
 20
160.518888
 30
0.0
 11
141.1138
 21
160.301888
 31
0.0
  0
LINE
  5
67C
330
1E
100
AcDbEntity
  8
0
100
AcDbLine
 10
123.583
 20
168.477888
 30
0.0
 11
128.0154
 21
166.409888
 31
0.0
  0
LINE
  5
67D
330
1E
100
AcDbEntity
  8
0
100
AcDbLine
 10
118.6877
 20
170.759888
 30
0.0
 11
123.583
 21
168.477888
 31
0.0
  0
LINE
  5
67E
330
1E
100
AcDbEntity
  8
0
100
AcDbLine
 10
113.5277
 20
173.165888
 30
0.0
 11
118.6877
 21
170.759888
 31
0.0
  0
LINE
  5
67F
330
1E
100
AcDbEntity
  8
0
100
AcDbLine
 10
107.7061
 20
175.880888
 30
0.0
 11
113.5277
 21
173.165888
 31
0.0
  0
LINE
  5
680
330
1E
100
AcDbEntity
  8
0
100
AcDbLine
 10
102.2154
 20
178.440888
 30
0.0
 11
107.7061
 21
175.880888
 31
0.0
  0
LINE
  5
681
330
1E
100
AcDbEntity
  8
0
100
AcDbLine
 10
97.3054
 20
182.936888
 30
0.0
 11
141.1138
 21
160.301888
 31
0.0
  0
LINE
  5
682
330
1E
100
AcDbEntity
  8
0
100
AcDbLine
 10
96.4601
 20
181.124888
 30
0.0
 11
102.2154
 21
178.440888
 31
0.0
  0
LINE
  5
683
330
1E
100
AcDbEntity
  8
0
100
AcDbLine
 10
64.9046
 20
195.839888
 30
0.0
 11
69.3365
 21
193.772888
 31
0.0
  0
LINE
  5
684
330
1E
100
AcDbEntity
  8
0
100
AcDbLine
 10
69.3365
 20
193.772888
 30
0.0
 11
74.2321
 21
191.489888
 31
0.0
  0
LINE
  5
685
330
1E
100
AcDbEntity
  8
0
100
AcDbLine
 10
74.2321
 20
191.489888
 30
0.0
 11
79.3925
 21
189.083888
 31
0.0
  0
LINE
  5
686
330
1E
100
AcDbEntity
  8
0
100
AcDbLine
 10
79.3925
 20
189.083888
 30
0.0
 11
85.2142
 21
186.369888
 31
0.0
  0
LINE
  5
687
330
1E
100
AcDbEntity
  8
0
100
AcDbLine
 10
85.2142
 20
186.369888
 30
0.0
 11
90.7043
 21
183.807888
 31
0.0
  0
LINE
  5
688
330
1E
100
AcDbEntity
  8
0
100
AcDbLine
 10
90.7043
 20
183.807888
 30
0.0
 11
96.4601
 21
181.124888
 31
0.0
  0
LINE
  5
689
330
1E
100
AcDbEntity
  8
0
100
AcDbLine
 10
61.068
 20
197.628888
 30
0.0
 11
64.9046
 21
195.839888
 31
0.0
  0
LINE
  5
68A
330
1E
100
AcDbEntity
  8
0
100
AcDbLine
 10
57.76
 20
199.171888
 30
0.0
 11
61.068
 21
197.628888
 31
0.0
  0
LINE
  5
68B
330
1E
100
AcDbEntity
  8
0
100
AcDbLine
 10
55.31221
 20
200.312888
 30
0.0
 11
57.76
 21
199.171888
 31
0.0
  0
LINE
  5
68C
330
1E
100
AcDbEntity
  8
0
100
AcDbLine
 10
53.39398
 20
201.206888
 30
0.0
 11
55.31221
 21
200.312888
 31
0.0
  0
LINE
  5
68D
330
1E
100
AcDbEntity
  8
0
100
AcDbLine
 10
52.26894
 20
201.731888
 30
0.0
 11
53.39398
 21
201.206888
 31
0.0
  0
LINE
  5
68E
330
1E
100
AcDbEntity
  8
0
100
AcDbLine
 10
51.8064
 20
201.946888
 30
0.0
 11
52.26894
 21
201.731888
 31
0.0
  0
LINE
  5
68F
330
1E
100
AcDbEntity
  8
0
100
AcDbLine
 10
51.8064
 20
201.946888
 30
0.0
 11
97.3054
 21
182.936888
 31
0.0
  0
LINE
  5
690
330
1E
100
AcDbEntity
  8
0
100
AcDbLine
 10
51.8064
 20
201.946888
 30
0.0
 11
97.3054
 21
182.936888
 31
0.0
  0
LINE
  5
691
330
1E
100
AcDbEntity
  8
0
100
AcDbLine
 10
155.4346
 20
145.276888
 30
0.0
 11
219.6646
 21
68.737388
 31
0.0
  0
LINE
  5
692
330
1E
100
AcDbEntity
  8
0
100
AcDbLine
 10
221.5576
 20
0.0165
 30
0.0
 11
221.8386
 21
6.961668
 31
0.0
  0
LINE
  5
693
330
1E
100
AcDbEntity
  8
0
100
AcDbLine
 10
221.5576
 20
0.0165
 30
0.0
 11
221.8386
 21
6.961668
 31
0.0
  0
LINE
  5
694
330
1E
100
AcDbEntity
  8
0
100
AcDbLine
 10
221.8386
 20
6.961668
 30
0.0
 11
221.9696
 21
7.670748
 31
0.0
  0
LINE
  5
695
330
1E
100
AcDbEntity
  8
0
100
AcDbLine
 10
222.6446
 20
8.530218
 30
0.0
 11
223.7226
 21
8.854258
 31
0.0
  0
LINE
  5
696
330
1E
100
AcDbEntity
  8
0
100
AcDbLine
 10
223.8506
 20
8.854258
 30
0.0
 11
228.0076
 21
9.078888
 31
0.0
  0
LINE
  5
697
330
1E
100
AcDbEntity
  8
0
100
AcDbLine
 10
223.7226
 20
8.854258
 30
0.0
 11
223.8516
 21
8.854258
 31
0.0
  0
LINE
  5
698
330
1E
100
AcDbEntity
  8
0
100
AcDbLine
 10
223.7226
 20
8.854258
 30
0.0
 11
223.8506
 21
8.854258
 31
0.0
  0
LINE
  5
699
330
1E
100
AcDbEntity
  8
0
100
AcDbLine
 10
221.9696
 20
7.670748
 30
0.0
 11
222.6446
 21
8.530218
 31
0.0
  0
LINE
  5
69A
330
1E
100
AcDbEntity
  8
0
100
AcDbLine
 10
228.0076
 20
9.078888
 30
0.0
 11
228.1496
 21
9.078888
 31
0.0
  0
LINE
  5
69B
330
1E
100
AcDbEntity
  8
0
100
AcDbLine
 10
228.1616
 20
9.078888
 30
0.0
 11
228.3106
 21
9.078888
 31
0.0
  0
LINE
  5
69C
330
1E
100
AcDbEntity
  8
0
100
AcDbLine
 10
228.3106
 20
9.078888
 30
0.0
 11
228.8706
 21
9.078888
 31
0.0
  0
LINE
  5
69D
330
1E
100
AcDbEntity
  8
0
100
AcDbLine
 10
229.44463157751
 20
9.078888
 30
0.0
 11
230.189256785869
 21
9.257384777647
 31
0.0
  0
LINE
  5
69E
330
1E
100
AcDbEntity
  8
0
100
AcDbLine
 10
228.5736
 20
9.078888
 30
0.0
 11
229.2786
 21
9.078888
 31
0.0
  0
LINE
  5
69F
330
1E
100
AcDbEntity
  8
0
100
AcDbLine
 10
230.189256785869
 20
9.257384777647
 30
0.0
 11
230.8396
 21
9.951188
 31
0.0
  0
LINE
  5
6A0
330
1E
100
AcDbEntity
  8
0
100
AcDbLine
 10
228.1496
 20
9.078888
 30
0.0
 11
228.5736
 21
9.078888
 31
0.0
  0
LINE
  5
6A1
330
1E
100
AcDbEntity
  8
0
100
AcDbLine
 10
230.8396
 20
9.951188
 30
0.0
 11
231.309224425727
 21
10.848385990046
 31
0.0
  0
LINE
  5
6A2
330
1E
100
AcDbEntity
  8
0
100
AcDbLine
 10
279.2306
 20
9.459248
 30
0.0
 11
281.445379621111
 21
9.078888
 31
0.0
  0
LINE
  5
6A3
330
1E
100
AcDbEntity
  8
0
100
AcDbLine
 10
231.309224425727
 20
10.848385990046
 30
0.0
 11
231.4476
 21
12.129988
 31
0.0
  0
LINE
  5
6A4
330
1E
100
AcDbEntity
  8
0
100
AcDbLine
 10
231.0526
 20
13.392388
 30
0.0
 11
231.4476
 21
12.129988
 31
0.0
  0
LINE
  5
6A5
330
1E
100
AcDbEntity
  8
0
100
AcDbLine
 10
276.89827058259
 20
10.358176717557
 30
0.0
 11
279.2306
 21
9.459248
 31
0.0
  0
LINE
  5
6A6
330
1E
100
AcDbEntity
  8
0
100
AcDbLine
 10
274.2416
 20
12.064088
 30
0.0
 11
274.8636
 21
11.596788
 31
0.0
  0
LINE
  5
6A7
330
1E
100
AcDbEntity
  8
0
100
AcDbLine
 10
274.8636
 20
11.596788
 30
0.0
 11
276.89827058259
 21
10.358176717557
 31
0.0
  0
LINE
  5
6A8
330
1E
100
AcDbEntity
  8
0
100
AcDbLine
 10
231.309224425727
 20
10.848385990046
 30
0.0
 11
231.4476
 21
12.129988
 31
0.0
  0
LINE
  5
6A9
330
1E
100
AcDbEntity
  8
0
100
AcDbLine
 10
230.5616
 20
14.078388
 30
0.0
 11
231.0526
 21
13.392388
 31
0.0
  0
LINE
  5
6AA
330
1E
100
AcDbEntity
  8
0
100
AcDbLine
 10
272.3036
 20
14.078888
 30
0.0
 11
272.722827285216
 21
13.535907420048
 31
0.0
  0
LINE
  5
6AB
330
1E
100
AcDbEntity
  8
0
100
AcDbLine
 10
237.8596
 20
55.133188
 30
0.0
 11
272.3036
 21
14.078888
 31
0.0
  0
LINE
  5
6AC
330
1E
100
AcDbEntity
  8
0
100
AcDbLine
 10
224.4326
 20
70.732588
 30
0.0
 11
225.2976
 21
70.049288
 31
0.0
  0
LINE
  5
6AD
330
1E
100
AcDbEntity
  8
0
100
AcDbLine
 10
223.1666
 20
70.713888
 30
0.0
 11
224.4326
 21
70.732588
 31
0.0
  0
LINE
  5
6AE
330
1E
100
AcDbEntity
  8
0
100
AcDbLine
 10
222.8876
 20
70.457088
 30
0.0
 11
223.1666
 21
70.713888
 31
0.0
  0
LINE
  5
6AF
330
1E
100
AcDbEntity
  8
0
100
AcDbLine
 10
225.298481746159
 20
70.048591471503
 30
0.0
 11
237.3506
 21
55.750588
 31
0.0
  0
LINE
  5
6B0
330
1E
100
AcDbEntity
  8
0
100
AcDbLine
 10
289.0256
 20
8.941258
 30
0.0
 11
290.4536
 21
8.271788
 31
0.0
  0
LINE
  5
6B1
330
1E
100
AcDbEntity
  8
0
100
AcDbLine
 10
291.0756
 20
6.961668
 30
0.0
 11
291.4176
 21
0.076234
 31
0.0
  0
LINE
  5
6B2
330
1E
100
AcDbEntity
  8
0
100
AcDbLine
 10
291.0756
 20
6.961668
 30
0.0
 11
291.4176
 21
0.076234
 31
0.0
  0
LINE
  5
6B3
330
1E
100
AcDbEntity
  8
0
100
AcDbLine
 10
290.4536
 20
8.271788
 30
0.0
 11
290.8656
 21
7.672768
 31
0.0
  0
LINE
  5
6B4
330
1E
100
AcDbEntity
  8
0
100
AcDbLine
 10
290.8656
 20
7.672768
 30
0.0
 11
291.0756
 21
6.961668
 31
0.0
  0
LINE
  5
6B5
330
1E
100
AcDbEntity
  8
0
100
AcDbLine
 10
272.722827285216
 20
13.535907420048
 30
0.0
 11
274.2416
 21
12.064088
 31
0.0
  0
LINE
  5
6B6
330
1E
100
AcDbEntity
  8
0
100
AcDbLine
 10
221.5576
 20
0.0165
 30
0.0
 11
291.4176
 21
0.076234
 31
0.0
  0
LINE
  5
6B7
330
1E
100
AcDbEntity
  8
0
100
AcDbLine
 10
281.445379621111
 20
9.078888
 30
0.0
 11
289.0256
 21
8.941258
 31
0.0
  0
LINE
  5
6B8
330
1E
100
AcDbEntity
  8
0
100
AcDbLine
 10
281.445379621111
 20
9.078888
 30
0.0
 11
229.2786
 21
9.078888
 31
0.0
  0
LINE
  5
6B9
330
1E
100
AcDbEntity
  8
0
100
AcDbLine
 10
201.8086
 20
52.781388
 30
0.0
 11
217.101188653744
 21
65.52965144926
 31
0.0
  0
LINE
  5
6BA
330
1E
100
AcDbEntity
  8
0
100
AcDbLine
 10
217.4076
 20
65.782588
 30
0.0
 11
219.612913101317
 21
67.684981027107
 31
0.0
  0
LINE
  5
6BB
330
1E
100
AcDbEntity
  8
0
100
AcDbLine
 10
219.612913101317
 20
67.684981027107
 30
0.0
 11
222.8876
 21
70.457088
 31
0.0
  0
LINE
  5
6BC
330
1E
100
AcDbEntity
  8
0
100
AcDbLine
 10
212.8426
 20
35.185288
 30
0.0
 11
237.3506
 21
55.750588
 31
0.0
  0
LINE
  5
6BD
330
1E
100
AcDbEntity
  8
0
100
AcDbLine
 10
237.3506
 20
55.750588
 30
0.0
 11
237.8596
 21
55.133188
 31
0.0
  0
LINE
  5
6BE
330
1E
100
AcDbEntity
  8
0
100
AcDbLine
 10
237.8596
 20
55.133188
 30
0.0
 11
213.3466
 21
34.564588
 31
0.0
  0
LINE
  5
6BF
330
1E
100
AcDbEntity
  8
0
100
AcDbLine
 10
213.3466
 20
34.564588
 30
0.0
 11
212.8426
 21
35.185288
 31
0.0
  0
LINE
  5
6C0
330
1E
100
AcDbEntity
  8
0
100
AcDbLine
 10
153.936408615507
 20
141.92311786486
 30
0.0
 11
146.538408904114
 21
125.367303525124
 31
0.0
  0
LINE
  5
6C1
330
1E
100
AcDbEntity
  8
0
100
AcDbLine
 10
140.739742418702
 20
157.773147161144
 30
0.0
 11
132.687844603247
 21
140.50534196435
 31
0.0
  0
LINE
  5
6C2
330
1E
100
AcDbEntity
  8
0
100
AcDbLine
 10
170.900907733049
 20
150.273179271197
 30
0.0
 11
155.123629201699
 21
154.69929306932
 31
0.0
  0
LINE
  5
6C3
330
1E
100
AcDbEntity
  8
0
100
AcDbLine
 10
155.123629201699
 20
154.69929306932
 30
0.0
 11
140.739742418702
 21
157.773147161144
 31
0.0
  0
ENDSEC
  0
SECTION
  2
OBJECTS
  0
DICTIONARY
  5
C
330
0
100
AcDbDictionary
281
     1
  3
ACAD_GROUP
350
D
  3
ACAD_LAYOUT
350
19
  3
ACAD_MLEADERSTYLE
350
6C6
  3
ACAD_MLINESTYLE
350
16
  3
ACAD_PLOTSETTINGS
350
18
  3
ACAD_PLOTSTYLENAME
350
E
  3
ACAD_SCALELIST
350
24B
  3
ACDBVARIABLEDICTIONARY
350
222
  3
DWGPROPS
350
6C9
  0
DICTIONARY
  5
D
102
{ACAD_REACTORS
330
C
102
}
330
C
100
AcDbDictionary
281
     1
  0
DICTIONARY
  5
19
102
{ACAD_REACTORS
330
C
102
}
330
C
100
AcDbDictionary
281
     1
  3
Layout1
350
24A
  3
Model
350
249
  0
DICTIONARY
  5
6C6
102
{ACAD_REACTORS
330
C
102
}
330
C
100
AcDbDictionary
281
     1
  0
DICTIONARY
  5
16
102
{ACAD_REACTORS
330
C
102
}
330
C
100
AcDbDictionary
281
     1
  3
STANDARD
350
17
  0
DICTIONARY
  5
18
102
{ACAD_REACTORS
330
C
102
}
330
C
100
AcDbDictionary
281
     1
  0
ACDBDICTIONARYWDFLT
  5
E
102
{ACAD_REACTORS
330
C
102
}
330
C
100
AcDbDictionary
281
     1
  3
Normal
350
F
100
AcDbDictionaryWithDefault
340
F
  0
DICTIONARY
  5
24B
102
{ACAD_REACTORS
330
C
102
}
330
C
100
AcDbDictionary
281
     1
  3
A0
350
24C
  3
A1
350
24D
  3
A2
350
24E
  3
A3
350
24F
  3
A4
350
250
  3
A5
350
251
  3
A6
350
252
  3
A7
350
253
  3
A8
350
254
  3
A9
350
255
  3
B0
350
256
  3
B1
350
257
  3
B2
350
258
  3
B3
350
259
  3
B4
350
25A
  3
B5
350
25B
  3
B6
350
25C
  3
B7
350
25D
  3
B8
350
25E
  3
B9
350
25F
  3
C0
350
260
  3
C1
350
261
  3
C2
350
262
  3
C3
350
263
  3
C4
350
264
  3
C5
350
265
  3
C6
350
266
  3
C7
350
267
  3
C8
350
268
  3
C9
350
269
  3
D0
350
26A
  3
D1
350
26B
  3
D2
350
26C
  0
DICTIONARY
  5
222
102
{ACAD_REACTORS
330
C
102
}
330
C
100
AcDbDictionary
281
     1
  3
CANNOSCALE
350
6C7
  3
DIMASSOC
350
223
  0
XRECORD
  5
6C9
102
{ACAD_REACTORS
330
C
102
}
330
C
100
AcDbXrecord
280
     1
  1
DWGPROPS COOKIE
  2

  3

  4

  6

  7

  8
MARTIN
  9

300
=
301
=
302
=
303
=
304
=
305
=
306
=
307
=
308
=
309
=
 40
0.0
 41
2454690.747011528
 42
2456209.650495694
  1

 90
        0
  0
LAYOUT
  5
24A
102
{ACAD_REACTORS
330
19
102
}
330
19
100
AcDbPlotSettings
  1

  2
none_device
  4

  6

 40
0.0
 41
0.0
 42
0.0
 43
0.0
 44
0.0
 45
0.0
 46
0.0
 47
0.0
 48
0.0
 49
0.0
140
0.0
141
0.0
142
1.0
143
1.0
 70
   688
 72
     0
 73
     0
 74
     5
  7

 75
    16
147
1.0
148
0.0
149
0.0
100
AcDbLayout
  1
Layout1
 70
     1
 71
     1
 10
0.0
 20
0.0
 11
0.0
 21
0.0
 12
0.0
 22
0.0
 32
0.0
 14
0.0
 24
0.0
 34
0.0
 15
0.0
 25
0.0
 35
0.0
146
0.0
 13
0.0
 23
0.0
 33
0.0
 16
1.0
 26
0.0
 36
0.0
 17
0.0
 27
1.0
 37
0.0
 76
     0
330
1A
  0
LAYOUT
  5
249
102
{ACAD_REACTORS
330
19
102
}
330
19
100
AcDbPlotSettings
  1

  2
none_device
  4

  6

 40
0.0
 41
0.0
 42
0.0
 43
0.0
 44
0.0
 45
0.0
 46
0.0
 47
0.0
 48
0.0
 49
0.0
140
0.0
141
0.0
142
1.0
143
1.0
 70
   688
 72
     0
 73
     0
 74
     5
  7

 75
    16
147
1.0
148
0.0
149
0.0
100
AcDbLayout
  1
Model
 70
     1
 71
     0
 10
0.0
 20
0.0
 11
0.0
 21
0.0
 12
0.0
 22
0.0
 32
0.0
 14
0.0434
 24
0.0165
 34
0.0
 15
291.4176
 25
201.946888
 35
0.0
146
0.0
 13
0.0
 23
0.0
 33
0.0
 16
1.0
 26
0.0
 36
0.0
 17
0.0
 27
1.0
 37
0.0
 76
     0
330
1E
331
224
  0
MLINESTYLE
  5
17
102
{ACAD_REACTORS
330
16
102
}
330
16
100
AcDbMlineStyle
  2
STANDARD
 70
     0
  3

 62
   256
 51
90.0
 52
90.0
 71
     2
 49
0.5
 62
   256
  6
BYLAYER
 49
-0.5
 62
   256
  6
BYLAYER
  0
ACDBPLACEHOLDER
  5
F
102
{ACAD_REACTORS
330
E
102
}
330
E
  0
SCALE
  5
24C
102
{ACAD_REACTORS
330
24B
102
}
330
24B
100
AcDbScale
 70
     0
300
1:1
140
1.0
141
1.0
290
     1
  0
SCALE
  5
24D
102
{ACAD_REACTORS
330
24B
102
}
330
24B
100
AcDbScale
 70
     0
300
1:2
140
1.0
141
2.0
290
     0
  0
SCALE
  5
24E
102
{ACAD_REACTORS
330
24B
102
}
330
24B
100
AcDbScale
 70
     0
300
1:4
140
1.0
141
4.0
290
     0
  0
SCALE
  5
24F
102
{ACAD_REACTORS
330
24B
102
}
330
24B
100
AcDbScale
 70
     0
300
1:5
140
1.0
141
5.0
290
     0
  0
SCALE
  5
250
102
{ACAD_REACTORS
330
24B
102
}
330
24B
100
AcDbScale
 70
     0
300
1:8
140
1.0
141
8.0
290
     0
  0
SCALE
  5
251
102
{ACAD_REACTORS
330
24B
102
}
330
24B
100
AcDbScale
 70
     0
300
1:10
140
1.0
141
10.0
290
     0
  0
SCALE
  5
252
102
{ACAD_REACTORS
330
24B
102
}
330
24B
100
AcDbScale
 70
     0
300
1:16
140
1.0
141
16.0
290
     0
  0
SCALE
  5
253
102
{ACAD_REACTORS
330
24B
102
}
330
24B
100
AcDbScale
 70
     0
300
1:20
140
1.0
141
20.0
290
     0
  0
SCALE
  5
254
102
{ACAD_REACTORS
330
24B
102
}
330
24B
100
AcDbScale
 70
     0
300
1:30
140
1.0
141
30.0
290
     0
  0
SCALE
  5
255
102
{ACAD_REACTORS
330
24B
102
}
330
24B
100
AcDbScale
 70
     0
300
1:40
140
1.0
141
40.0
290
     0
  0
SCALE
  5
256
102
{ACAD_REACTORS
330
24B
102
}
330
24B
100
AcDbScale
 70
     0
300
1:50
140
1.0
141
50.0
290
     0
  0
SCALE
  5
257
102
{ACAD_REACTORS
330
24B
102
}
330
24B
100
AcDbScale
 70
     0
300
1:100
140
1.0
141
100.0
290
     0
  0
SCALE
  5
258
102
{ACAD_REACTORS
330
24B
102
}
330
24B
100
AcDbScale
 70
     0
300
2:1
140
2.0
141
1.0
290
     0
  0
SCALE
  5
259
102
{ACAD_REACTORS
330
24B
102
}
330
24B
100
AcDbScale
 70
     0
300
4:1
140
4.0
141
1.0
290
     0
  0
SCALE
  5
25A
102
{ACAD_REACTORS
330
24B
102
}
330
24B
100
AcDbScale
 70
     0
300
8:1
140
8.0
141
1.0
290
     0
  0
SCALE
  5
25B
102
{ACAD_REACTORS
330
24B
102
}
330
24B
100
AcDbScale
 70
     0
300
10:1
140
10.0
141
1.0
290
     0
  0
SCALE
  5
25C
102
{ACAD_REACTORS
330
24B
102
}
330
24B
100
AcDbScale
 70
     0
300
100:1
140
100.0
141
1.0
290
     0
  0
SCALE
  5
25D
102
{ACAD_REACTORS
330
24B
102
}
330
24B
100
AcDbScale
 70
     0
300
1/128" = 1'-0"
140
0.0078125
141
12.0
290
     0
  0
SCALE
  5
25E
102
{ACAD_REACTORS
330
24B
102
}
330
24B
100
AcDbScale
 70
     0
300
1/64" = 1'-0"
140
0.015625
141
12.0
290
     0
  0
SCALE
  5
25F
102
{ACAD_REACTORS
330
24B
102
}
330
24B
100
AcDbScale
 70
     0
300
1/32" = 1'-0"
140
0.03125
141
12.0
290
     0
  0
SCALE
  5
260
102
{ACAD_REACTORS
330
24B
102
}
330
24B
100
AcDbScale
 70
     0
300
1/16" = 1'-0"
140
0.0625
141
12.0
290
     0
  0
SCALE
  5
261
102
{ACAD_REACTORS
330
24B
102
}
330
24B
100
AcDbScale
 70
     0
300
3/32" = 1'-0"
140
0.09375
141
12.0
290
     0
  0
SCALE
  5
262
102
{ACAD_REACTORS
330
24B
102
}
330
24B
100
AcDbScale
 70
     0
300
1/8" = 1'-0"
140
0.125
141
12.0
290
     0
  0
SCALE
  5
263
102
{ACAD_REACTORS
330
24B
102
}
330
24B
100
AcDbScale
 70
     0
300
3/16" = 1'-0"
140
0.1875
141
12.0
290
     0
  0
SCALE
  5
264
102
{ACAD_REACTORS
330
24B
102
}
330
24B
100
AcDbScale
 70
     0
300
1/4" = 1'-0"
140
0.25
141
12.0
290
     0
  0
SCALE
  5
265
102
{ACAD_REACTORS
330
24B
102
}
330
24B
100
AcDbScale
 70
     0
300
3/8" = 1'-0"
140
0.375
141
12.0
290
     0
  0
SCALE
  5
266
102
{ACAD_REACTORS
330
24B
102
}
330
24B
100
AcDbScale
 70
     0
300
1/2" = 1'-0"
140
0.5
141
12.0
290
     0
  0
SCALE
  5
267
102
{ACAD_REACTORS
330
24B
102
}
330
24B
100
AcDbScale
 70
     0
300
3/4" = 1'-0"
140
0.75
141
12.0
290
     0
  0
SCALE
  5
268
102
{ACAD_REACTORS
330
24B
102
}
330
24B
100
AcDbScale
 70
     0
300
1" = 1'-0"
140
1.0
141
12.0
290
     0
  0
SCALE
  5
269
102
{ACAD_REACTORS
330
24B
102
}
330
24B
100
AcDbScale
 70
     0
300
1-1/2" = 1'-0"
140
1.5
141
12.0
290
     0
  0
SCALE
  5
26A
102
{ACAD_REACTORS
330
24B
102
}
330
24B
100
AcDbScale
 70
     0
300
3" = 1'-0"
140
3.0
141
12.0
290
     0
  0
SCALE
  5
26B
102
{ACAD_REACTORS
330
24B
102
}
330
24B
100
AcDbScale
 70
     0
300
6" = 1'-0"
140
6.0
141
12.0
290
     0
  0
SCALE
  5
26C
102
{ACAD_REACTORS
330
24B
102
}
330
24B
100
AcDbScale
 70
     0
300
1'-0" = 1'-0"
140
12.0
141
12.0
290
     0
  0
DICTIONARYVAR
  5
6C7
102
{ACAD_REACTORS
330
222
102
}
330
222
100
DictionaryVariables
280
     0
  1
1:1
  0
DICTIONARYVAR
  5
223
102
{ACAD_REACTORS
330
222
102
}
330
222
100
DictionaryVariables
280
     0
  1
1
  0
ENDSEC
  0
SECTION
  2
THUMBNAILIMAGE
 90
    16364
310
28000000B40000005500000001000800000000000000000000000000000000000000000000000000FFFFFF000000FF0000FFFF0000FF0000FFFF0000FF000000FF00FF000000000080808000C0C0C0000000FF007F7FFF000000A5005252A50000007F003F3F7F0000004C0026264C000000260013132600003FFF007F9FFF
310
000029A5005267A500001F7F003F4F7F0000134C00262F4C000009260013172600007FFF007FBFFF000052A500527CA500003F7F003F5F7F0000264C0026394C0000132600131C260000BFFF007FDFFF00007CA5005291A500005F7F003F6F7F0000394C0026424C00001C26001321260000FFFF007FFFFF0000A5A50052A5
310
A500007F7F003F7F7F00004C4C00264C4C00002626001326260000FFBF007FFFDF0000A57C0052A59100007F5F003F7F6F00004C3900264C420000261C001326210000FF7F007FFFBF0000A5520052A57C00007F3F003F7F5F00004C2600264C39000026130013261C0000FF3F007FFF9F0000A5290052A56700007F1F003F
310
7F4F00004C1300264C2F00002609001326170000FF00007FFF7F0000A5000052A55200007F00003F7F3F00004C0000264C260000260000132613003FFF00009FFF7F0029A5000067A552001F7F00004F7F3F00134C00002F4C260009260000172613007FFF0000BFFF7F0052A500007CA552003F7F00005F7F3F00264C0000
310
394C2600132600001C261300BFFF0000DFFF7F007CA5000091A552005F7F00006F7F3F00394C0000424C26001C26000021261300FFFF0000FFFF7F00A5A50000A5A552007F7F00007F7F3F004C4C00004C4C26002626000026261300FFBF0000FFDF7F00A57C0000A59152007F5F00007F6F3F004C3900004C422600261C00
310
0026211300FF7F0000FFBF7F00A5520000A57C52007F3F00007F5F3F004C2600004C39260026130000261C1300FF3F0000FF9F7F00A5290000A56752007F1F00007F4F3F004C1300004C2F26002609000026171300FF000000FF7F7F00A5000000A55252007F0000007F3F3F004C0000004C2626002600000026131300FF00
310
3F00FF7F9F00A5002900A55267007F001F007F3F4F004C0013004C262F002600090026131700FF007F00FF7FBF00A5005200A5527C007F003F007F3F5F004C0026004C2639002600130026131C00FF00BF00FF7FDF00A5007C00A55291007F005F007F3F6F004C0039004C26420026001C0026132100FF00FF00FF7FFF00A5
310
00A500A552A5007F007F007F3F7F004C004C004C264C002600260026132600BF00FF00DF7FFF007C00A5009152A5005F007F006F3F7F0039004C0042264C001C002600211326007F00FF00BF7FFF005200A5007C52A5003F007F005F3F7F0026004C0039264C00130026001C1326003F00FF009F7FFF002900A5006752A500
310
1F007F004F3F7F0013004C002F264C000900260017132600000000002D2D2D005B5B5B0089898900B7B7B700B3B3B30000000000000000000000000000000000000000000000000000000000000000000000000000000000000000000000000000000000000000000000000000000000000000000000000000000000000000
310
00000000000000000000000000000000000000000000000000000000000000000000000000000000000000000000000000000000000000000000000000000000000000000000000000000000000000000000000000000000000000000000000000000000000000000000000000000000000000000000000000000000000000
310
00000000000000000000000000000000000000000000000000000000000000000000000000000000000000000000000000000000000000000000000000000000000000000000000000000000000000000000000000000000000000000000000000000000000000000000000000000000000000000000000000000000000000
310
00000000000000000000000000000000000000000000000000000000000000000000000000000000000000000000000000000000000000000000000000000000000000000000000000000000000000000000000000000000000000000000000000000000000000000000000000000000000000000000000000000000000000
310
00000000000000000000000000000000000000000000000000000000000000000000000000000000000000000000000000000000000000000000000000000000000000000000000000000000000000000000000000000000000000000000000000000000000000000000000000000000000000000000000000000000000000
310
00000000000000000000000000000000000000000000000000000000000000000000000000000000000000000000000000000000000000000000000000000000000000000000000007070707070707070707070707070707070707070707070707070700000000000000000000000000000000000000000000000000000000
310
00000000000000000000000000000000000000000000000000000000000000000000000000000000000000000000000000000000000000000000000000000000000000000000000000000000000000000000000000000000000000000000000000000000000000000000000000000000000000000000000000000000000700
310
00000000000000000000000000000000000000000000000000070000000000000000000000000000000000000000000000000000000000000000000000000000000000000000000000000000000000000000000000000000000000000000000000000000000000000000000000000000000000000000000000000000000000
310
00000000000000000000000000000000000000000000000000000000000000000000000000000000000000000000000000000007000000000000000000000000000000000000000000000000000007000000000000000000000000000000000000000000000000000000000000000000000000000000000000000000000000
310
00000000000000000000000000000000000000000000000000000000000000000000000000000000000000000000000000000000000000000000000000000000000000000000000000000000000000000000000000000000000000000000000000000000000000000707070707070707070707070707070707070707070707
310
07070707070000000000000000000000000000000000000000000000000000000000000000000000000000000000000000000000000000000000000000000000000000000000000000000000000000000000000000000000000000000000000000000000000000000000000000000000000000000000000000000000000000
310
00000000000000000000000000000000000000000000000000000000000000000000070000000000000000000000000000000707070000070000000000000000000000000000000000000000000000000000000000000000000000000000000000000000000000000000000000000000000000000000000000000000000000
310
00000000000000000000000000000000000000000000000000000000000000000000000000000000000000000000000000000000000000000000000000000000000000000000000000000000000000000000000000000007000000000000000000000000000000070007000007000000000000000000000000000000000000
310
00000000000000000000000000000000000000000000000000000000000000000000000000000000000000000000000000000000000000000000000000000000000000000000000000000000000000000000000000000000000000000000000000000000000000000000000000000000000000000000000000000000000000
310
00000000000000000000000007000000000000000000000000000000070000070000070000000000000000000000000000000000000000000000000000000000000000000000000000000000000000000000000000000000000000000000000000000000000000000000000000000000000000000000000000000000000000
310
00000000000000000000000000000000000000000000000000000000000000000000000000000000000000000000000000000000000000000000000000000000070000000000000000000000000000000700000007000007000000000000000000000000000000000000000000000000000000000000000000000000000000
310
00000000000000000000000000000000000000000000000000000000000000000000000000000000000000000000000000000000000000000000000000000000000000000000000000000000000000000000000000000000000000000000000000000000000000000000000000000000000000000700000000000000000000
310
00000000000700000000070000070000000000000000000000000000000000000000000000000000000000000000000000000000000000000000000000000000000000000000000000000000000000000000000000000000000000000000000000000000000000000000000000000000000000000000000000000000000000
310
00000000000000000000000000000000000000000000000000000000000000000000000000000000000700000000000000000000000000000007000000000007000007000000000000000000000000000000000000000000000000000000000000000000000000000000000000000000000000000000000000000000000000
310
00000000000000000000000000000000000000000000000000000000000000000000000000000000000000000000000000000000000000000000000000000000000000000000000000000000000000000000000000000000000000000000070000000000000000000000000000000700000000000700070000000000000000
310
00000000000000000000000000000000000000000000000000000000000000000000000000000000000000000000000000000000000000000000000000000000000000000000000000000000000000000000000000000000000000000000000000000000000000000000000000000000000000000000000000000000000000
310
00000000000000000000000000000000000000070000000000000000000000000000000700000000000007000700000000000000000000000000000000000000000000000000000000000000000000000000000000000000000000000000000000000000000000000000000000000000000000000000000000000000000000
310
00000000000000000000000000000000000000000000000000000000000000000000000000000000000000000000000000000000000000000000000000000000000000000000000700000000000000000000000000000007000000000000000700070000000000000000000000000000000000000000000000000000000000
310
00000000000000000000000000000000000000000000000000000000000000000000000000000000000000000000000000000000000000000000000000000000000000000000000000000000000000000000000000000000000000000000000000000000000000000000000000000000000000000000000000000007000000
310
00000000000000000000000007000000000000000007000700000000000000000000000000000000000000000000000000000000000000000000000000000000000000000000000000000000000000000000000000000000000000000000000000000000000000000000000000000000000000000000000000000000000000
310
00000000000000000000000000000000000000000000000000000000000000000000000000000000000000000000000007000700000000000000000000000000070000000000000000000707000000000000000000000000000000000000000000000000000000000000000000000000000000000000000000000000000000
310
00000000000000000000000000000000000000000000000000000000000000000000000000000000000000000000000000000000000000000000000000000000000000000000000000000000000000000000000000000000000000000000000000000000070000000700000000000000000000000700000000000000000000
310
07070000000000000000000000000000000000000000000000000000000000000000000000000000000000000000000000000000000000000000000000000000000000000000000000000000000000000000000000000000000000000000000000000000000000000000000000000000000000000000000000000000000000
310
00000000000000000000000000000000000000000000000000070000000000070000000000000000000700070700000000000000000707000000000000000000000000000000000000000000000000000000000000000000000000000000000000000000000000000000000000000000000000000000000000000000000000
310
00000000000000000000000000000000000000000000000000000000000000000000000000000000000000000000000000000000000000000000000000000000000000000000000000000000000007000000000000070700000000000007000007070000000000000000070700000000000000000000000000000000000000
310
00000000000000000000000000000000000000000000000000000000000000000000000000000000000000000000000000000000000000000000000000000000000000000000000000000000000000000000000000000000000000000000000000000000000000000000000000000000000000000000000000000000000000
310
00000007000000000000000000070000000000070000000000000000000000000700000000000000000000000000000000000000000000000000000000000000000000000000000000000000000000000000000000000000000000000000000000000000000000000000000000000000000000000000000000000000000000
310
00000000000000000000000000000000000000000000000000000000000000000000000000000000000000000000000000000000000000070000000000000000000000070000000707070707070707070707070707070000000000000000000000000000000000000000000000000000000000000000000000000000000000
310
00000000000000000000000000000000000000000000000000000000000000000000000000000000000000000000000000000000000000000000000000000000000000000000000000000000000000000000000000000000000000000000000000000000000000000000000007070000000000000000000000070007000000
310
00000000000000000000070000000000000000000000000000000000000000000000000000000000000000000000000000000000000000000000000000000000000000000000000000000000000000000000000000000000000000000000000000000000000000000000000000000000000000000000000000000000000000
310
00000000000000000000000000000000000000000000000000000000000000000007000707000000000000000000000007000000000000000000000000000007000000000000000000000000000000000000000000000000000000000000000000000000000000000000000000000000000000000000000000000000000000
310
00000000000000000000000000000000000000000000000000000000000000000000000000000000000000000000000000000000000000000000000000000000000000000000000000000000000000000000000000070000000707000000000000000000070000000000000000000000000000070000000000000000000000
310
00000000000000000000000000000000000000000000000000000000000000000000000000000000000000000000000000000000000000000000000000000000000000000000000000000000000000000000000000000000000000000000000000000000000000000000000000000000000000000000000000000000000000
310
00000000000000000000000700000000000700000000000000000700000000000000000000000000000700000000000000000000000000000000000000000000000000000000000000000000000000000000000000000000000000000000000000000000000000000000000000000000000000000000000000000000000000
310
00000000000000000000000000000000000000000000000000000000000000000000000000000000000000000000000000000000000000000000000000000007000000000000000700000000000007000000000000000000000000000007000000000000000000000000000000000000000000000000000000000000000000
310
00000000000000000000000000000000000000000000000000000000000000000000000000000000000000000000000000000000000000000000000000000000000000000000000000000000000000000000000000000000000000000000000000000000000000000000000000000000000000070000000000000000000707
310
00000007000000000000000000000000000000070000000000000000000000000000000000000000000000000000000000000000000000000000000000000000000000000000000000000000000000000000000000000000000000000000000000000000000000000000000000000000000000000000000000000000000000
310
00000000000000000000000000000000000000000000000000000000000000000000000000000000070000000000000000000000070000000700000000000000000000000000000700000000000000000000000000000000000000000000000000000000000000000000000000000000000000000000000000000000000000
310
00000000000000000000000000000000000000000000000000000000000000000000000000000000000000000000000000000000000000000000000000000000000000000000000000000000000000000000000000000000000000000700000000000000000000000700070707000000000000000000000000000000070000
310
00000000000000000000000000000000000000000000000000000000000000000000000000000000000000000000000000000000000000000000000000000000000000000000000000000000000000000000000000000000000000000000000000000000000000000000000000000000000000000000000000000000000000
310
00000000000000000000000000000000000007000000000000000000000700000000000000000000000000000000000000070000000000000000000000000000000000000000000000000000000000000000000000000000000000000000000000000000000000000000000000000000000000000000000000000000000000
310
00000000000000000000000000000000000000000000000000000000000000000000000000000000000000000000000000000000000000000000000000000000000000000000070000000000000000000000070000000000000000000000000000000000000700000000000000000000000000000000000000000000000000
310
00000000000000000000000000000000000000000000000000000000000000000000000000000000000000000000000000000000000000000000000000000000000000000000000000000000000000000000000000000000000000000000000000000000000000000000000000000000000000000000000000000700000000
310
00000000000000070000000000000000000000000000000000000007000000000000000000000000000000000000000000000000000000000000000000000000000000000000000000000000000000000000000000000000000000000000000000000000000000000000000000000000000000000000000000000000000000
310
00000000000000000000000000000000000000000000000000000000000000000000000000000000000000000000000700000000000000000000000700000000000000000000000000000000000000070000000000000000000000000000000000000000000000000000000000000000000000000000000000000000000000
310
00000000000000000000000000000000000000000000000000000000000000000000000000000000000000000000000000000000000000000000000000000000000000000000000000000000000000000000000000000000000000000000000000000007000000000000000000000007000000000000000000000000000000
310
00000000000700000000000000000000000000000000000000000000000000000000000000000000000000000000000000000000000000000000000000000000000000000000000000000000000000000000000000000000000000000000000000000000000000000000000000000000000000000000000000000000000000
310
00000000000000000000000000000000000000000000000007000000000000000000000007000000000000000000000000000000000000000007000000000000000000000000000000000000000000000000000000000000000000000000000000000000000000000000000000000000000000000000000000000000000000
310
00000000000000000000000000000000000000000000000000000000000000000000000000000000000000000000000000000000000000000000000000000000000000000000000000000000000700000000000000000000000700000000000000000000000000000000000000070000000000000000000000000000000000
310
00000000000000000000000000000000000000000000000000000000000000000000000000000000000000000000000000000000000000000000000000000000000000000000000000000000000000000000000000000000000000000000000000000000000000000000000000000000000000000000000000000000000000
310
00000700000000000000000000000700000000000000000000000000000000000000070000000000000000000000000000000000000000000000000000000000000000000000000000000000000000000000000000000000000000000000000000000000000000000000000000000000000000000000000000000000000000
310
00000000000000000000000000000000000000000000000000000000000000000000000000000000000000000000000000000000000007000000000000000000000007000000000000000000000000000000000000000700000000000000000000000000000000000000000000000000000000000000000000000000000000
310
00000000000000000000000000000000000000000000000000000000000000000000000000000000000000000000000000000000000000000000000000000000000000000000000000000000000000000000000000000000000000000000000000000000000000000000070000000000000000000000070000000000000000
310
00000000000000000000000700000000000000000000000000000000000000000000000000000000000000000000000000000000000000000000000000000000000000000000000000000000000000000000000000000000000000000000000000000000000000000000000000000000000000000000000000000000000000
310
00000000000000000000000000000000000000000000000000000000000000070000000000000000000000070000000000000000000000000000000000000000070000000000000000000000000000000000000000000000000000000000000000000000000000000000000000000000000000000000000000000000000000
310
00000000000000000000000000000000000000000000000000000000000000000000000000000000000000000000000000000000000000000000000000000000000000000000000000000000000000000000000007000000000000000000000007000000000000000000000000000000000000000700000000000000000000
310
00000000000000000000000000000000000000000000000000000000000000000000000000000000000000000000000000000000000000000000000000000000000000000000000000000000000000000000070700000000000000000000000000000000000000000000000000000000000000000000000000000000000000
310
00000000000000000007000000000000000000000007000000000000000000000000000000000000000700000000000000000000000000000000000000000000000000000000000000000000000000000000000000000000000000000000000000000000000000000000000000000000000000000000000000000000000000
310
00000000000000070000070000000000000000000000000000000000000000000000000000000000000000000000000000000000000000000000000000070000000000000000000000070000000000000000000000000000000000000007000000000000000000000000000000000000000000000000000000000000000000
310
00000000000000000000000000000000000000000000000000000000000000000000000000000000000000000000000000000000000000000000000700000007000000000000000000000000000000000000000000000000000000000000000000000000000000000000000000000000000700000000000000000000000700
310
00000000000000000000000000000000000007000000000000000000000000000000000000000000000000000000000000000000000000000000000000000000000000000000000000000000000000000000000000000000000000000000000000000000000000000000000000000000070000000007070000000000000000
310
00000000000000000000000000000000000000000000000000000000000000000000000000000700000000000000000000000700000000000000000000000000000000000000070000000000000000000000000000000000000000000000000000000000000000000000000000000000000000000000000000000000000000
310
00000000000000000000000000000000000000000000000000000000000000000000000000070000000007000007070000000000000000000000000000000000000000000000000000000000000000000000000000000000000000070000000000000000000000070000000000000000000000000000000000000700000000
310
00000000000000000000000000000000000000000000000000000000000000000000000000000000000000000000000000000000000000000000000000000000000000000000000000000000000000000000000000000000070700000000070000000000070700000000000000000000000000000000000000000000000000
310
00000000000000000000000000000000070000000000000000000000070000000000000000000000000000000000070700000000000000000000000000000000000000000000000000000000000000000000000000000000000000000000000000000000000000000000000000000000000000000000000000000000000000
310
00000000000000000000000000070000000000070000000000000000070707000000000000000000000000000000000000000000000000000000000000000000000000000700000000000000000000000700000000000000000000000000000000000700000000000000000000000000000000000000000000000000000000
310
00000000000000000000000000000000000000000000000000000000000000000000000000000000000000000000000000000000000000000000000000000000000707000000000707000000000000000000000007070707000000000000000000000000000000000000000000000000000000000000000000070000000000
310
00000000000700000000000000000000000000000000000700000000000000000000000000000000000000000000000000000000000000000000000000000000000000000000000000000000000000000000000000000000000000000000000000000000000000000000000000000000000000000000070000000007070000
310
00000000000000000000000000000707070707000000000000000000000000000000000000000000000000000007070000000000000000000007000000000000000000000000000000000007000000000000000000000000000000000000000000000000000000000000000000000000000000000000000000000000000000
310
00000000000000000000000000000000000000000000000000000000000000000000000000000000000000000007070007070000000000000000000000000000000000000000000007070707000000000000000000000000000000000000070707070007070000000000000000000700000000000000000000000000000000
310
07000000000000000000000000000000000000000000000000000000000000000000000000000000000000000000000000000000000000000000000000000000000000000000000000000000000000000000000000000000000000000000000000000000070000000000000000000000000000000000000000000000000000
310
00000707070707070000000000000007070707070000000007000007000000000000000700000000000000000000000000000007070000000000000000000000000000000000000000000000000000000000000000000000000000000000000000000000000000000000000000000000000000000000000000000000000000
310
00000000000000000000000000000000000000000000000000000700000000000000000000000000000000000000000000000000000000000000000000070707070707070000000000000000070000000700000000000007000000000000000000000000000000070000000000000000000000000000000000000000000000
310
00000000000000000000000000000000000000000000000000000000000000000000000000000000000000000000000000000000000000000000000000000000000000000000000000000000000000000707000000000000000000000000000000000000000000000000000000000000000000000000000000000000000707
310
00070000000000070000000007000000000000000000000000000007070000000000000000000000000000000000000000000000000000000000000000000000000000000000000000000000000000000000000000000000000000000000000000000000000000000000000000000000000000000000000000000000000000
310
00000000000000000707000000000000000000000000000000000000000000000000000000000000000000000000000000000700070007000000000007000000070000000000000000000000000007070000000000000000000000000000000000000000000000000000000000000000000000000000000000000000000000
310
00000000000000000000000000000000000000000000000000000000000000000000000000000000000000000000000000000000000000000000000000000007070000000000000000000000000000000000000000000000000000000000000000000000000007070707070000000000000007000007000000000000000000
310
00000707000000000000000000000000000000000000000000000000000000000000000000000000000000000000000000000000000000000000000000000000000000000000000000000000000000000000000000000000000000000000000000000000000000000000000000000000000000000000070700000000000000
310
00000000000000000000000000000000000000000000000000000707070707000700000000000007070707000000000000000000000707000000000000000000000000000000000000000000000000000000000000000000000000000000000000000000000000000000000000000000000000000000000000000000000000
310
00000000000000000000000000000000000000000000000000000000000000000000000000000000000000000000070700000000000000000000000000000000000000000000000000000000070707070700000000000700000000070000070000000000000000070707000000000000000000000000000000000000000000
310
00000000000000000000000000000000000000000000000000000000000000000000000000000000000000000000000000000000000000000000000000000000000000000000000000000000000000000000000000000000000000000000000000000000000707070000000000000000000000000000000000000000000007
310
07070707070700000000000007000000070000000000000000070707070000000000000000000000000000000000000000000000000000000000000000000000000000000000000000000000000000000000000000000000000000000000000000000000000000000000000000000000000000000000000000000000000000
310
00000000000000000000000000000000000000000000000000000000000007070707000000000000000000000000000000000007070707070700000000000000000007000007000000000007070700000000000000000000000000000000000000000000000000000000000000000000000000000000000000000000000000
310
00000000000000000000000000000000000000000000000000000000000000000000000000000000000000000000000000000000000000000000000000000000000000000000000000000000000000000000000000000007070707000000000000000000000707070707070700000000000000000000000700070000070707
310
07000000000000000000000000000000000000000000000000000000000000000000000000000000000000000000000000000000000000000000000000000000000000000000000000000000000000000000000000000000000000000000000000000000000000000000000000000000000000000000000000000000000000
310
00000000000000000000000000000000000707070707000000070707070707070000000000000000000000000000070707070000000000000000000000000000000000000000000000000000000000000000000000000000000000000000000000000000000000000000000000000000000000000000000000000000000000
310
00000000000000000000000000000000000000000000000000000000000000000000000000000000000000000000000000000000000000000000000000000000000000000000000000000007070707070707070000000000000000000000000000000007000000000000000000000000000000000000000000000000000000
310
00000000000000000000000000000000000000000000000000000000000000000000000000000000000000000000000000000000000000000000000000000000000000000000000000000000000000000000000000000000000000000000000000000000000000000000000000000000000000000000000000000000000007
310
07070707070700000000000000000000000000000000000707070000000000000000000000000000000000000000000000000000000000000000000000000000000000000000000000000000000000000000000000000000000000000000000000000000000000000000000000000000000000000000000000000000000000
310
00000000000000000000000000000000000000000000000000000000000000000000000000000000000000000000000000000707070707070700000000000000000000000000000000000707000000000000000000000000000000000000000000000000000000000000000000000000000000000000000000000000000000
310
00000000000000000000000000000000000000000000000000000000000000000000000000000000000000000000000000000000000000000000000000000000000000000000000000000000000000000000000000000000000000000000000000000000000007070707070700000000000000000000000000000000070707
310
07000000000000000000000000000000000000000000000000000000000000000000000000000000000000000000000000000000000000000000000000000000000000000000000000000000000000000000000000000000000000000000000000000000000000000000000000000000000000000000000000000000000000
310
00000000000000000000000000000000000000000000000000000707070707070000000000000000000000000000000000070700000000000000000000000000000000000000000000000000000000000000000000000000000000000000000000000000000000000000000000000000000000000000000000000000000000
310
00000000000000000000000000000000000000000000000000000000000000000000000000000000000000000000000000000000000000000000000000000000000000000000000000000000000707070707070000000000000000000000000000000007070700000000000000000000000000000000000000000000000000
310
00000000000000000000000000000000000000000000000000000000000000000000000000000000000000000000000000000000000000000000000000000000000000000000000000000000000000000000000000000000000000000000000000000000000000000000000000000000000000000000000000000000000000
310
00070707070707000000000000000000000000000000000707070000000000000000000000000000000000000000000000000000000000000000000000000000000000000000000000000000000000000000000000000000000000000000000000000000000000000000000000000000000000000000000000000000000000
310
00000000000000000000000000000000000000000000000000000000000000000000000000000000000000000000000000000000070707070000000000000000000000000000000000000707070000000000000000000000000000000000000000000000000000000000000000000000000000000000000000000000000000
310
00000000000000000000000000000000000000000000000000000000000000000000000000000000000000000000000000000000000000000000000000000000000000000000000000000000000000000000000000000000000000000000000000000000000000000707070700000000000000000000000000000000000707
310
07000000000000000000000000000000000000000000000000000000000000000000000000000000000000000000000000000000000000000000000000000000000000000000000000000000000000000000000000000000000000000000000000000000000000000000000000000000000000000000000000000000000000
310
00000000000000000000000000000000000000000000000000000000000007000000000000000000000000000000000000070707000000000000000000000000000000000000000000000000000000000000000000000000000000000000000000000000000000000000000000000000000000000000000000000000000000
310
00000000000000000000000000000000000000000000000000000000000000000000000000000000000000000000000000000000000000000000000000000000000000000000000000000000000000000000000700000000000000000000000000000007070707000000000000000000000000000000000000000000000000
310
00000000000000000000000000000000000000000000000000000000000000000000000000000000000000000000000000000000000000000000000000000000000000000000000000000000000000000000000000000000000000000000000000000000000000000000000000000000000000000000000000000000000000
310
00000000000000000000070000000000000000000000000707070700000000000000000000000000000000000000000000000000000000000000000000000000000000000000000000000000000000000000000000000000000000000000000000000000000000000000000000000000000000000000000000000000000000
310
00000000000000000000000000000000000000000000000000000000000000000000000000000000000000000000000000000000000000000000000000000007000000000000000000000007070000000000000000000000000000000000000000000000000000000000000000000000000000000000000000000000000000
310
00000000000000000000000000000000000000000000000000000000000000000000000000000000000000000000000000000000000000000000000000000000000000000000000000000000000000000000000000000000000000000000000000000000000000000000000000000000000000000007000000000000000007
310
07000000000000000000000000000000000000000000000000000000000000000000000000000000000000000000000000000000000000000000000000000000000000000000000000000000000000000000000000000000000000000000000000000000000000000000000000000000000000000000000000000000000000
310
00000000000000000000000000000000000000000000000000000000000000000000000000000000000000070000000000070707000000000000000000000000000000000000000000000000000000000000000000000000000000000000000000000000000000000000000000000000000000000000000000000000000000
310
00000000000000000000000000000000000000000000000000000000000000000000000000000000000000000000000000000000000000000000000000000000000000000000000000000000000000000000000000000000000000000000000000070000070707000000000000000000000000000000000000000000000000
310
00000000000000000000000000000000000000000000000000000000000000000000000000000000000000000000000000000000000000000000000000000000000000000000000000000000000000000000000000000000000000000000000000000000000000000000000000000000000000000000000000000000000000
310
00000000000000000000000000000000000000000000000707070000000000000000000000000000000000000000000000000000000000000000000000000000000000000000000000000000000000000000000000000000000000000000000000000000000000000000000000000000000000000000000000000000000000
310
00000000000000000000000000000000000000000000000000000000000000000000000000000000000000000000000000000000000000000000000000000000000000000000000000000000000000000000000000000000000000000000000000000000000000000000000000000000000000000000000000000000000000
310
00000000000000000000000000000000000000000000000000000000000000000000000000000000000000000000000000000000000000000000000000000000000000000000000000000000000000000000000000000000000000000000000000000000000000000000000000000000000000000000000000000000000000
310
00000000000000000000000000000000000000000000000000000000000000000000000000000000000000000000000000000000000000000000000000000000000000000000000000000000000000000000000000000000000000000000000000000000000000000000000000000000000000000000000000000000000000
310
00000000000000000000000000000000000000000000000000000000000000000000000000000000000000000000000000000000000000000000000000000000000000000000000000000000000000000000000000000000000000000000000000000000000000000000000000000000000000000000000000000000000000
310
00000000000000000000000000000000000000000000000000000000000000000000000000000000000000000000000000000000000000000000000000000000000000000000000000000000000000000000000000000000000000000000000000000000000000000000000000000000000000000000000000000000000000
310
000000000000000000000000000000000000000000000000000000000000000000000000000000000000000000000000000000000000000000000000000000000000000000000000000000000000000000000000000000000000000000000000000000000000000000000000
  0
ENDSEC
  0
EOF
