  0
SECTION
  2
HEADER
  9
$ACADVER
  1
AC1015
  9
$ACADMAINTVER
 70
     6
  9
$DWGCODEPAGE
  3
ANSI_1252
  9
$INSBASE
 10
0.0
 20
0.0
 30
0.0
  9
$EXTMIN
 10
0.0105
 20
0.0
 30
0.0
  9
$EXTMAX
 10
407.0
 20
202.0909155
 30
0.0
  9
$LIMMIN
 10
0.0
 20
0.0
  9
$LIMMAX
 10
12.0
 20
9.0
  9
$ORTHOMODE
 70
     0
  9
$REGENMODE
 70
     1
  9
$FILLMODE
 70
     1
  9
$QTEXTMODE
 70
     0
  9
$MIRRTEXT
 70
     1
  9
$LTSCALE
 40
1.0
  9
$ATTMODE
 70
     1
  9
$TEXTSIZE
 40
0.2
  9
$TRACEWID
 40
0.05
  9
$TEXTSTYLE
  7
STANDARD
  9
$CLAYER
  8
0
  9
$CELTYPE
  6
CONTINUOUS
  9
$CECOLOR
 62
   256
  9
$CELTSCALE
 40
1.0
  9
$DISPSILH
 70
     0
  9
$DIMSCALE
 40
1.0
  9
$DIMASZ
 40
0.18
  9
$DIMEXO
 40
0.0625
  9
$DIMDLI
 40
0.38
  9
$DIMRND
 40
0.0
  9
$DIMDLE
 40
0.0
  9
$DIMEXE
 40
0.18
  9
$DIMTP
 40
0.0
  9
$DIMTM
 40
0.0
  9
$DIMTXT
 40
0.18
  9
$DIMCEN
 40
0.09
  9
$DIMTSZ
 40
0.0
  9
$DIMTOL
 70
     0
  9
$DIMLIM
 70
     0
  9
$DIMTIH
 70
     1
  9
$DIMTOH
 70
     1
  9
$DIMSE1
 70
     0
  9
$DIMSE2
 70
     0
  9
$DIMTAD
 70
     0
  9
$DIMZIN
 70
     0
  9
$DIMBLK
  1

  9
$DIMASO
 70
     1
  9
$DIMSHO
 70
     1
  9
$DIMPOST
  1

  9
$DIMAPOST
  1

  9
$DIMALT
 70
     0
  9
$DIMALTD
 70
     2
  9
$DIMALTF
 40
25.4
  9
$DIMLFAC
 40
1.0
  9
$DIMTOFL
 70
     0
  9
$DIMTVP
 40
0.0
  9
$DIMTIX
 70
     0
  9
$DIMSOXD
 70
     0
  9
$DIMSAH
 70
     0
  9
$DIMBLK1
  1

  9
$DIMBLK2
  1

  9
$DIMSTYLE
  2
STANDARD
  9
$DIMCLRD
 70
     0
  9
$DIMCLRE
 70
     0
  9
$DIMCLRT
 70
     0
  9
$DIMTFAC
 40
1.0
  9
$DIMGAP
 40
0.09
  9
$DIMJUST
 70
     0
  9
$DIMSD1
 70
     0
  9
$DIMSD2
 70
     0
  9
$DIMTOLJ
 70
     1
  9
$DIMTZIN
 70
     0
  9
$DIMALTZ
 70
     0
  9
$DIMALTTZ
 70
     0
  9
$DIMUPT
 70
     0
  9
$DIMDEC
 70
     4
  9
$DIMTDEC
 70
     4
  9
$DIMALTU
 70
     2
  9
$DIMALTTD
 70
     2
  9
$DIMTXSTY
  7
STANDARD
  9
$DIMAUNIT
 70
     0
  9
$DIMADEC
 70
     0
  9
$DIMALTRND
 40
0.0
  9
$DIMAZIN
 70
     0
  9
$DIMDSEP
 70
    46
  9
$DIMATFIT
 70
     3
  9
$DIMFRAC
 70
     0
  9
$DIMLDRBLK
  1

  9
$DIMLUNIT
 70
     2
  9
$DIMLWD
 70
    -2
  9
$DIMLWE
 70
    -2
  9
$DIMTMOVE
 70
     2
  9
$LUNITS
 70
     2
  9
$LUPREC
 70
     4
  9
$SKETCHINC
 40
0.1
  9
$FILLETRAD
 40
0.0
  9
$AUNITS
 70
     0
  9
$AUPREC
 70
     0
  9
$MENU
  1
.
  9
$ELEVATION
 40
0.0
  9
$PELEVATION
 40
0.0
  9
$THICKNESS
 40
0.0
  9
$LIMCHECK
 70
     0
  9
$CHAMFERA
 40
0.0
  9
$CHAMFERB
 40
0.0
  9
$CHAMFERC
 40
0.0
  9
$CHAMFERD
 40
0.0
  9
$SKPOLY
 70
     0
  9
$TDCREATE
 40
2454690.830342512
  9
$TDUCREATE
 40
2454690.747009178
  9
$TDUPDATE
 40
2456209.722425301
  9
$TDUUPDATE
 40
2456209.639091968
  9
$TDINDWG
 40
0.0098847917
  9
$TDUSRTIMER
 40
0.0098847917
  9
$USRTIMER
 70
     1
  9
$ANGBASE
 50
0.0
  9
$ANGDIR
 70
     0
  9
$PDMODE
 70
     0
  9
$PDSIZE
 40
0.0
  9
$PLINEWID
 40
0.0
  9
$SPLFRAME
 70
     0
  9
$SPLINETYPE
 70
     6
  9
$SPLINESEGS
 70
     8
  9
$HANDSEED
  5
D2B
  9
$SURFTAB1
 70
     6
  9
$SURFTAB2
 70
     6
  9
$SURFTYPE
 70
     6
  9
$SURFU
 70
     6
  9
$SURFV
 70
     6
  9
$UCSBASE
  2

  9
$UCSNAME
  2

  9
$UCSORG
 10
0.0
 20
0.0
 30
0.0
  9
$UCSXDIR
 10
1.0
 20
0.0
 30
0.0
  9
$UCSYDIR
 10
0.0
 20
1.0
 30
0.0
  9
$UCSORTHOREF
  2

  9
$UCSORTHOVIEW
 70
     0
  9
$UCSORGTOP
 10
0.0
 20
0.0
 30
0.0
  9
$UCSORGBOTTOM
 10
0.0
 20
0.0
 30
0.0
  9
$UCSORGLEFT
 10
0.0
 20
0.0
 30
0.0
  9
$UCSORGRIGHT
 10
0.0
 20
0.0
 30
0.0
  9
$UCSORGFRONT
 10
0.0
 20
0.0
 30
0.0
  9
$UCSORGBACK
 10
0.0
 20
0.0
 30
0.0
  9
$PUCSBASE
  2

  9
$PUCSNAME
  2

  9
$PUCSORG
 10
0.0
 20
0.0
 30
0.0
  9
$PUCSXDIR
 10
1.0
 20
0.0
 30
0.0
  9
$PUCSYDIR
 10
0.0
 20
1.0
 30
0.0
  9
$PUCSORTHOREF
  2

  9
$PUCSORTHOVIEW
 70
     0
  9
$PUCSORGTOP
 10
0.0
 20
0.0
 30
0.0
  9
$PUCSORGBOTTOM
 10
0.0
 20
0.0
 30
0.0
  9
$PUCSORGLEFT
 10
0.0
 20
0.0
 30
0.0
  9
$PUCSORGRIGHT
 10
0.0
 20
0.0
 30
0.0
  9
$PUCSORGFRONT
 10
0.0
 20
0.0
 30
0.0
  9
$PUCSORGBACK
 10
0.0
 20
0.0
 30
0.0
  9
$USERI1
 70
     0
  9
$USERI2
 70
     0
  9
$USERI3
 70
     0
  9
$USERI4
 70
     0
  9
$USERI5
 70
     0
  9
$USERR1
 40
0.0
  9
$USERR2
 40
0.0
  9
$USERR3
 40
0.0
  9
$USERR4
 40
0.0
  9
$USERR5
 40
0.0
  9
$WORLDVIEW
 70
     1
  9
$SHADEDGE
 70
     3
  9
$SHADEDIF
 70
    70
  9
$TILEMODE
 70
     1
  9
$MAXACTVP
 70
    64
  9
$PINSBASE
 10
0.0
 20
0.0
 30
0.0
  9
$PLIMCHECK
 70
     0
  9
$PEXTMIN
 10
1.000000000000E+20
 20
1.000000000000E+20
 30
1.000000000000E+20
  9
$PEXTMAX
 10
-1.000000000000E+20
 20
-1.000000000000E+20
 30
-1.000000000000E+20
  9
$PLIMMIN
 10
0.0
 20
0.0
  9
$PLIMMAX
 10
12.0
 20
9.0
  9
$UNITMODE
 70
     0
  9
$VISRETAIN
 70
     1
  9
$PLINEGEN
 70
     0
  9
$PSLTSCALE
 70
     1
  9
$TREEDEPTH
 70
  3020
  9
$CMLSTYLE
  2
STANDARD
  9
$CMLJUST
 70
     0
  9
$CMLSCALE
 40
1.0
  9
$PROXYGRAPHICS
 70
     1
  9
$MEASUREMENT
 70
     0
  9
$CELWEIGHT
370
    -1
  9
$ENDCAPS
280
     0
  9
$JOINSTYLE
280
     0
  9
$LWDISPLAY
290
     0
  9
$INSUNITS
 70
     0
  9
$HYPERLINKBASE
  1

  9
$STYLESHEET
  1

  9
$XEDIT
290
     1
  9
$CEPSNTYPE
380
     0
  9
$PSTYLEMODE
290
     1
  9
$FINGERPRINTGUID
  2
{4631BDC1-419C-40F0-B43F-7F93E4A566DE}
  9
$VERSIONGUID
  2
{43EDE113-EABB-42FA-8548-0504FCB6A30E}
  9
$EXTNAMES
290
     1
  9
$PSVPSCALE
 40
0.0
  9
$OLESTARTUP
290
     0
  0
ENDSEC
  0
SECTION
  2
CLASSES
  0
CLASS
  1
ACDBDICTIONARYWDFLT
  2
AcDbDictionaryWithDefault
  3
ObjectDBX Classes
 90
        0
280
     0
281
     0
  0
CLASS
  1
ACDBPLACEHOLDER
  2
AcDbPlaceHolder
  3
ObjectDBX Classes
 90
        0
280
     0
281
     0
  0
CLASS
  1
LAYOUT
  2
AcDbLayout
  3
ObjectDBX Classes
 90
        0
280
     0
281
     0
  0
CLASS
  1
DICTIONARYVAR
  2
AcDbDictionaryVar
  3
ObjectDBX Classes
 90
        0
280
     0
281
     0
  0
CLASS
  1
DUMMY
  2
AcDbLongTransaction
  3
DUMMY
 90
        0
280
     0
281
     0
  0
CLASS
  1
LWPOLYLINE
  2
AcDbPolyline
  3
AutoCAD 2000
 90
        0
280
     0
281
     1
  0
CLASS
  1
HATCH
  2
AcDbHatch
  3
AutoCAD 2000
 90
        0
280
     0
281
     1
  0
CLASS
  1
XRECORD
  2
AcDbXrecord
  3
AutoCAD 2000
 90
        0
280
     0
281
     0
  0
CLASS
  1
SCALE
  2
AcDbScale
  3
ObjectDBX Classes
 90
     1153
280
     0
281
     0
  0
ENDSEC
  0
SECTION
  2
TABLES
  0
TABLE
  2
VPORT
  5
8
330
0
100
AcDbSymbolTable
 70
     1
  0
VPORT
  5
2E9
330
8
100
AcDbSymbolTableRecord
100
AcDbViewportTableRecord
  2
*ACTIVE
 70
     0
 10
0.0
 20
0.0
 11
1.0
 21
1.0
 12
203.5
 22
101.04545775
 13
0.0
 23
0.0
 14
1.0
 24
1.0
 15
0.0
 25
0.0
 16
0.0
 26
0.0
 36
1.0
 17
0.0
 27
0.0
 37
0.0
 40
206.13273381
 41
2.271724137931
 42
50.0
 43
0.0
 44
0.0
 50
0.0
 51
0.0
 71
    16
 72
   100
 73
     1
 74
     3
 75
     0
 76
     0
 77
     0
 78
     0
281
     0
 65
     1
110
0.0
120
0.0
130
0.0
111
1.0
121
0.0
131
0.0
112
0.0
122
1.0
132
0.0
 79
     0
146
0.0
  0
ENDTAB
  0
TABLE
  2
LTYPE
  5
5
330
0
100
AcDbSymbolTable
 70
     1
  0
LTYPE
  5
13
330
5
100
AcDbSymbolTableRecord
100
AcDbLinetypeTableRecord
  2
BYBLOCK
 70
     0
  3

 72
    65
 73
     0
 40
0.0
  0
LTYPE
  5
14
330
5
100
AcDbSymbolTableRecord
100
AcDbLinetypeTableRecord
  2
BYLAYER
 70
     0
  3

 72
    65
 73
     0
 40
0.0
  0
LTYPE
  5
15
330
5
100
AcDbSymbolTableRecord
100
AcDbLinetypeTableRecord
  2
CONTINUOUS
 70
     0
  3
Solid line
 72
    65
 73
     0
 40
0.0
  0
ENDTAB
  0
TABLE
  2
LAYER
  5
2
330
0
100
AcDbSymbolTable
 70
     1
  0
LAYER
  5
10
330
2
100
AcDbSymbolTableRecord
100
AcDbLayerTableRecord
  2
0
 70
     0
 62
     7
  6
CONTINUOUS
370
    -3
390
F
  0
ENDTAB
  0
TABLE
  2
STYLE
  5
3
330
0
100
AcDbSymbolTable
 70
     1
  0
STYLE
  5
11
330
3
100
AcDbSymbolTableRecord
100
AcDbTextStyleTableRecord
  2
STANDARD
 70
     0
 40
0.0
 41
1.0
 50
0.0
 71
     0
 42
0.2
  3
txt
  4

  0
ENDTAB
  0
TABLE
  2
VIEW
  5
6
330
0
100
AcDbSymbolTable
 70
     0
  0
ENDTAB
  0
TABLE
  2
UCS
  5
7
330
0
100
AcDbSymbolTable
 70
     0
  0
ENDTAB
  0
TABLE
  2
APPID
  5
9
330
0
100
AcDbSymbolTable
 70
     1
  0
APPID
  5
12
330
9
100
AcDbSymbolTableRecord
100
AcDbRegAppTableRecord
  2
ACAD
 70
     0
  0
ENDTAB
  0
TABLE
  2
DIMSTYLE
  5
A
330
0
100
AcDbSymbolTable
 70
     1
100
AcDbDimStyleTable
  0
DIMSTYLE
105
2E3
330
A
100
AcDbSymbolTableRecord
100
AcDbDimStyleTableRecord
  2
STANDARD
 70
     0
340
11
  0
ENDTAB
  0
TABLE
  2
BLOCK_RECORD
  5
1
330
0
100
AcDbSymbolTable
 70
     1
  0
BLOCK_RECORD
  5
1E
330
1
100
AcDbSymbolTableRecord
100
AcDbBlockTableRecord
  2
*MODEL_SPACE
340
30E
  0
BLOCK_RECORD
  5
1A
330
1
100
AcDbSymbolTableRecord
100
AcDbBlockTableRecord
  2
*PAPER_SPACE
340
30F
  0
ENDTAB
  0
ENDSEC
  0
SECTION
  2
BLOCKS
  0
BLOCK
  5
1F
330
1E
100
AcDbEntity
  8
0
100
AcDbBlockBegin
  2
*MODEL_SPACE
 70
     0
 10
0.0
 20
0.0
 30
0.0
  3
*MODEL_SPACE
  1
*MODEL_SPACE
  0
ENDBLK
  5
20
330
1E
100
AcDbEntity
  8
0
100
AcDbBlockEnd
  0
BLOCK
  5
1B
330
1A
100
AcDbEntity
 67
     1
  8
0
100
AcDbBlockBegin
  2
*PAPER_SPACE
 70
     0
 10
0.0
 20
0.0
 30
0.0
  3
*PAPER_SPACE
  1
*PAPER_SPACE
  0
ENDBLK
  5
1C
330
1A
100
AcDbEntity
 67
     1
  8
0
100
AcDbBlockEnd
  0
ENDSEC
  0
SECTION
  2
ENTITIES
  0
LINE
  5
22
330
1E
100
AcDbEntity
  8
0
100
AcDbLine
 10
120.8155
 20
0.0165
 30
0.0
 11
128.6155
 21
0.0165
 31
0.0
  0
LINE
  5
23
330
1E
100
AcDbEntity
  8
0
100
AcDbLine
 10
3.9151
 20
0.016541
 30
0.0
 11
9.3344
 21
0.01652
 31
0.0
  0
LINE
  5
24
330
1E
100
AcDbEntity
  8
0
100
AcDbLine
 10
2.0121
 20
0.016567
 30
0.0
 11
3.9151
 21
0.016592
 31
0.0
  0
LINE
  5
25
330
1E
100
AcDbEntity
  8
0
100
AcDbLine
 10
2.0121
 20
0.016567
 30
0.0
 11
3.9151
 21
0.016541
 31
0.0
  0
LINE
  5
26
330
1E
100
AcDbEntity
  8
0
100
AcDbLine
 10
2.0121
 20
0.016567
 30
0.0
 11
2.0121
 21
46.036508681482
 31
0.0
  0
LINE
  5
27
330
1E
100
AcDbEntity
  8
0
100
AcDbLine
 10
17.445
 20
0.016505
 30
0.0
 11
27.0121
 21
0.0165
 31
0.0
  0
LINE
  5
28
330
1E
100
AcDbEntity
  8
0
100
AcDbLine
 10
9.3344
 20
0.01652
 30
0.0
 11
17.445
 21
0.016505
 31
0.0
  0
LINE
  5
29
330
1E
100
AcDbEntity
  8
0
100
AcDbLine
 10
3.9151
 20
0.016592
 30
0.0
 11
9.3344
 21
0.016614
 31
0.0
  0
LINE
  5
2A
330
1E
100
AcDbEntity
  8
0
100
AcDbLine
 10
9.3344
 20
0.016614
 30
0.0
 11
17.445
 21
0.016628
 31
0.0
  0
LINE
  5
2B
330
1E
100
AcDbEntity
  8
0
100
AcDbLine
 10
17.445
 20
0.016628
 30
0.0
 11
27.0121
 21
0.016633
 31
0.0
  0
LINE
  5
2C
330
1E
100
AcDbEntity
  8
0
100
AcDbLine
 10
0.0105
 20
42.0381
 30
0.0
 11
2.0121
 21
42.036506133333
 31
0.0
  0
LINE
  5
2D
330
1E
100
AcDbEntity
  8
0
100
AcDbLine
 10
0.0105
 20
42.0381
 30
0.0
 11
0.0106
 21
42.1903
 31
0.0
  0
LINE
  5
2E
330
1E
100
AcDbEntity
  8
0
100
AcDbLine
 10
0.0105
 20
42.0381
 30
0.0
 11
2.0121
 21
42.036506133333
 31
0.0
  0
LINE
  5
2F
330
1E
100
AcDbEntity
  8
0
100
AcDbLine
 10
0.0105
 20
42.0381
 30
0.0
 11
0.0106
 21
42.1903
 31
0.0
  0
LINE
  5
30
330
1E
100
AcDbEntity
  8
0
100
AcDbLine
 10
0.0106
 20
42.1903
 30
0.0
 11
0.011
 21
42.6239
 31
0.0
  0
LINE
  5
31
330
1E
100
AcDbEntity
  8
0
100
AcDbLine
 10
0.011
 20
42.6239
 30
0.0
 11
0.0115
 21
43.2727
 31
0.0
  0
LINE
  5
32
330
1E
100
AcDbEntity
  8
0
100
AcDbLine
 10
0.0115
 20
43.2727
 30
0.0
 11
0.0121
 21
44.0381
 31
0.0
  0
LINE
  5
33
330
1E
100
AcDbEntity
  8
0
100
AcDbLine
 10
0.0137
 20
46.0381
 30
0.0
 11
2.0121
 21
46.036508681482
 31
0.0
  0
LINE
  5
34
330
1E
100
AcDbEntity
  8
0
100
AcDbLine
 10
0.0136
 20
45.8859
 30
0.0
 11
0.0137
 21
46.0381
 31
0.0
  0
LINE
  5
35
330
1E
100
AcDbEntity
  8
0
100
AcDbLine
 10
0.0137
 20
46.0381
 30
0.0
 11
2.0121
 21
46.036508681482
 31
0.0
  0
LINE
  5
36
330
1E
100
AcDbEntity
  8
0
100
AcDbLine
 10
0.0132
 20
45.4523
 30
0.0
 11
0.0136
 21
45.8859
 31
0.0
  0
LINE
  5
37
330
1E
100
AcDbEntity
  8
0
100
AcDbLine
 10
0.0127
 20
44.8035
 30
0.0
 11
0.0132
 21
45.4523
 31
0.0
  0
LINE
  5
38
330
1E
100
AcDbEntity
  8
0
100
AcDbLine
 10
0.0121
 20
44.0381
 30
0.0
 11
0.0127
 21
44.8035
 31
0.0
  0
LINE
  5
39
330
1E
100
AcDbEntity
  8
0
100
AcDbLine
 10
2.0121
 20
46.036508681482
 30
0.0
 11
2.0121
 21
50.0166
 31
0.0
  0
LINE
  5
3A
330
1E
100
AcDbEntity
  8
0
100
AcDbLine
 10
2.0121
 20
46.036508681482
 30
0.0
 11
2.0121
 21
0.016567
 31
0.0
  0
LINE
  5
3B
330
1E
100
AcDbEntity
  8
0
100
AcDbLine
 10
2.0121
 20
50.0166
 30
0.0
 11
2.0121
 21
46.036508681482
 31
0.0
  0
LINE
  5
3C
330
1E
100
AcDbEntity
  8
0
100
AcDbLine
 10
2.0121
 20
50.0166
 30
0.0
 11
3.9151
 21
50.0166
 31
0.0
  0
LINE
  5
3D
330
1E
100
AcDbEntity
  8
0
100
AcDbLine
 10
3.9151
 20
50.0166
 30
0.0
 11
9.3344
 21
50.0166
 31
0.0
  0
LINE
  5
3E
330
1E
100
AcDbEntity
  8
0
100
AcDbLine
 10
25.5979
 20
45.4523
 30
0.0
 11
26.2467
 21
45.8859
 31
0.0
  0
LINE
  5
3F
330
1E
100
AcDbEntity
  8
0
100
AcDbLine
 10
25.1643
 20
44.8035
 30
0.0
 11
25.5979
 21
45.4523
 31
0.0
  0
LINE
  5
40
330
1E
100
AcDbEntity
  8
0
100
AcDbLine
 10
25.0121
 20
44.0381
 30
0.0
 11
25.1643
 21
43.2727
 31
0.0
  0
LINE
  5
41
330
1E
100
AcDbEntity
  8
0
100
AcDbLine
 10
25.0121
 20
44.0381
 30
0.0
 11
25.1643
 21
44.8035
 31
0.0
  0
LINE
  5
42
330
1E
100
AcDbEntity
  8
0
100
AcDbLine
 10
25.1643
 20
43.2727
 30
0.0
 11
25.5979
 21
42.6239
 31
0.0
  0
LINE
  5
43
330
1E
100
AcDbEntity
  8
0
100
AcDbLine
 10
26.2467
 20
45.8859
 30
0.0
 11
27.0121
 21
46.0381
 31
0.0
  0
LINE
  5
44
330
1E
100
AcDbEntity
  8
0
100
AcDbLine
 10
25.5979
 20
42.6239
 30
0.0
 11
26.2467
 21
42.1903
 31
0.0
  0
LINE
  5
45
330
1E
100
AcDbEntity
  8
0
100
AcDbLine
 10
26.2467
 20
42.1903
 30
0.0
 11
27.0121
 21
42.0381
 31
0.0
  0
LINE
  5
46
330
1E
100
AcDbEntity
  8
0
100
AcDbLine
 10
27.0121
 20
42.0381
 30
0.0
 11
27.7775
 21
42.1903
 31
0.0
  0
LINE
  5
47
330
1E
100
AcDbEntity
  8
0
100
AcDbLine
 10
27.0121
 20
46.0381
 30
0.0
 11
27.7775
 21
45.8859
 31
0.0
  0
LINE
  5
48
330
1E
100
AcDbEntity
  8
0
100
AcDbLine
 10
9.3344
 20
50.0166
 30
0.0
 11
17.445
 21
50.0166
 31
0.0
  0
LINE
  5
49
330
1E
100
AcDbEntity
  8
0
100
AcDbLine
 10
17.445
 20
50.0166
 30
0.0
 11
27.0121
 21
50.0166
 31
0.0
  0
LINE
  5
4A
330
1E
100
AcDbEntity
  8
0
100
AcDbLine
 10
27.7775
 20
42.1903
 30
0.0
 11
28.4263
 21
42.6239
 31
0.0
  0
LINE
  5
4B
330
1E
100
AcDbEntity
  8
0
100
AcDbLine
 10
28.4263
 20
42.6239
 30
0.0
 11
28.8599
 21
43.2727
 31
0.0
  0
LINE
  5
4C
330
1E
100
AcDbEntity
  8
0
100
AcDbLine
 10
28.8599
 20
43.2727
 30
0.0
 11
29.0121
 21
44.0381
 31
0.0
  0
LINE
  5
4D
330
1E
100
AcDbEntity
  8
0
100
AcDbLine
 10
28.8599
 20
44.8035
 30
0.0
 11
29.0121
 21
44.0381
 31
0.0
  0
LINE
  5
4E
330
1E
100
AcDbEntity
  8
0
100
AcDbLine
 10
28.4263
 20
45.4523
 30
0.0
 11
28.8599
 21
44.8035
 31
0.0
  0
LINE
  5
4F
330
1E
100
AcDbEntity
  8
0
100
AcDbLine
 10
27.7775
 20
45.8859
 30
0.0
 11
28.4263
 21
45.4523
 31
0.0
  0
LINE
  5
50
330
1E
100
AcDbEntity
  8
0
100
AcDbLine
 10
27.0121
 20
50.0166
 30
0.0
 11
36.5792
 21
50.0166
 31
0.0
  0
LINE
  5
51
330
1E
100
AcDbEntity
  8
0
100
AcDbLine
 10
27.0121
 20
0.016633
 30
0.0
 11
36.5792
 21
0.016628
 31
0.0
  0
LINE
  5
52
330
1E
100
AcDbEntity
  8
0
100
AcDbLine
 10
36.5792
 20
50.0166
 30
0.0
 11
44.6898
 21
50.0166
 31
0.0
  0
LINE
  5
53
330
1E
100
AcDbEntity
  8
0
100
AcDbLine
 10
36.5792
 20
0.016628
 30
0.0
 11
44.6898
 21
0.016614
 31
0.0
  0
LINE
  5
54
330
1E
100
AcDbEntity
  8
0
100
AcDbLine
 10
105.6157
 20
0.0165
 30
0.0
 11
108.8157
 21
0.0165
 31
0.0
  0
LINE
  5
55
330
1E
100
AcDbEntity
  8
0
100
AcDbLine
 10
104.5157
 20
0.0165
 30
0.0
 11
105.6157
 21
0.0165
 31
0.0
  0
LINE
  5
56
330
1E
100
AcDbEntity
  8
0
100
AcDbLine
 10
104.5157
 20
0.0165
 30
0.0
 11
104.5157
 21
15.2165
 31
0.0
  0
LINE
  5
57
330
1E
100
AcDbEntity
  8
0
100
AcDbLine
 10
104.5157
 20
0.0165
 30
0.0
 11
105.6157
 21
0.0165
 31
0.0
  0
LINE
  5
58
330
1E
100
AcDbEntity
  8
0
100
AcDbLine
 10
114.0155
 20
0.0165
 30
0.0
 11
120.8155
 21
0.0165
 31
0.0
  0
LINE
  5
59
330
1E
100
AcDbEntity
  8
0
100
AcDbLine
 10
108.8157
 20
0.0165
 30
0.0
 11
114.0155
 21
0.0165
 31
0.0
  0
LINE
  5
5A
330
1E
100
AcDbEntity
  8
0
100
AcDbLine
 10
105.6157
 20
0.0165
 30
0.0
 11
108.8157
 21
0.0165
 31
0.0
  0
LINE
  5
5B
330
1E
100
AcDbEntity
  8
0
100
AcDbLine
 10
108.8157
 20
0.0165
 30
0.0
 11
114.0155
 21
0.0165
 31
0.0
  0
LINE
  5
5C
330
1E
100
AcDbEntity
  8
0
100
AcDbLine
 10
120.8155
 20
0.0165
 30
0.0
 11
128.6155
 21
0.0165
 31
0.0
  0
LINE
  5
5D
330
1E
100
AcDbEntity
  8
0
100
AcDbLine
 10
114.0155
 20
0.0165
 30
0.0
 11
120.8155
 21
0.0165
 31
0.0
  0
LINE
  5
5E
330
1E
100
AcDbEntity
  8
0
100
AcDbLine
 10
44.6898
 20
50.0166
 30
0.0
 11
50.1091
 21
50.0166
 31
0.0
  0
LINE
  5
5F
330
1E
100
AcDbEntity
  8
0
100
AcDbLine
 10
44.6898
 20
0.016614
 30
0.0
 11
50.1091
 21
0.016592
 31
0.0
  0
LINE
  5
60
330
1E
100
AcDbEntity
  8
0
100
AcDbLine
 10
50.1091
 20
50.0166
 30
0.0
 11
52.0121
 21
50.0166
 31
0.0
  0
LINE
  5
61
330
1E
100
AcDbEntity
  8
0
100
AcDbLine
 10
50.1091
 20
0.016592
 30
0.0
 11
52.0121
 21
0.016567
 31
0.0
  0
LINE
  5
62
330
1E
100
AcDbEntity
  8
0
100
AcDbLine
 10
52.0121
 20
45.996693866667
 30
0.0
 11
54.0137
 21
45.9951
 31
0.0
  0
LINE
  5
63
330
1E
100
AcDbEntity
  8
0
100
AcDbLine
 10
52.0121
 20
45.991052327496
 30
0.0
 11
52.0121
 21
50.0166
 31
0.0
  0
LINE
  5
64
330
1E
100
AcDbEntity
  8
0
100
AcDbLine
 10
52.0121
 20
0.016567
 30
0.0
 11
52.0121
 21
45.991052327496
 31
0.0
  0
LINE
  5
65
330
1E
100
AcDbEntity
  8
0
100
AcDbLine
 10
54.0105
 20
41.9951
 30
0.0
 11
54.0106
 21
42.1473
 31
0.0
  0
LINE
  5
66
330
1E
100
AcDbEntity
  8
0
100
AcDbLine
 10
54.0106
 20
42.1473
 30
0.0
 11
54.011
 21
42.5809
 31
0.0
  0
LINE
  5
67
330
1E
100
AcDbEntity
  8
0
100
AcDbLine
 10
54.011
 20
42.5809
 30
0.0
 11
54.0115
 21
43.2297
 31
0.0
  0
LINE
  5
68
330
1E
100
AcDbEntity
  8
0
100
AcDbLine
 10
54.0115
 20
43.2297
 30
0.0
 11
54.0121
 21
43.9951
 31
0.0
  0
LINE
  5
69
330
1E
100
AcDbEntity
  8
0
100
AcDbLine
 10
54.0121
 20
43.9951
 30
0.0
 11
54.0127
 21
44.7605
 31
0.0
  0
LINE
  5
6A
330
1E
100
AcDbEntity
  8
0
100
AcDbLine
 10
54.0127
 20
44.7605
 30
0.0
 11
54.0132
 21
45.4093
 31
0.0
  0
LINE
  5
6B
330
1E
100
AcDbEntity
  8
0
100
AcDbLine
 10
104.7157
 20
32.9165
 30
0.0
 11
105.1157
 21
53.0165
 31
0.0
  0
LINE
  5
6C
330
1E
100
AcDbEntity
  8
0
100
AcDbLine
 10
104.5157
 20
15.2165
 30
0.0
 11
104.5157
 21
0.0165
 31
0.0
  0
LINE
  5
6D
330
1E
100
AcDbEntity
  8
0
100
AcDbLine
 10
104.5157
 20
15.2165
 30
0.0
 11
104.7157
 21
32.9165
 31
0.0
  0
LINE
  5
6E
330
1E
100
AcDbEntity
  8
0
100
AcDbLine
 10
54.0132
 20
45.4093
 30
0.0
 11
54.0136
 21
45.8429
 31
0.0
  0
LINE
  5
6F
330
1E
100
AcDbEntity
  8
0
100
AcDbLine
 10
54.0136
 20
45.8429
 30
0.0
 11
54.0137
 21
45.9951
 31
0.0
  0
LINE
  5
70
330
1E
100
AcDbEntity
  8
0
100
AcDbLine
 10
52.0121
 20
45.991052327496
 30
0.0
 11
52.0121
 21
0.016567
 31
0.0
  0
LINE
  5
71
330
1E
100
AcDbEntity
  8
0
100
AcDbLine
 10
52.0121
 20
41.996691318519
 30
0.0
 11
54.0105
 21
41.9951
 31
0.0
  0
LINE
  5
72
330
1E
100
AcDbEntity
  8
0
100
AcDbLine
 10
108.5157
 20
111.6165
 30
0.0
 11
110.3155
 21
125.2165
 31
0.0
  0
LINE
  5
73
330
1E
100
AcDbEntity
  8
0
100
AcDbLine
 10
107.1157
 20
93.3165
 30
0.0
 11
108.5157
 21
111.6165
 31
0.0
  0
LINE
  5
74
330
1E
100
AcDbEntity
  8
0
100
AcDbLine
 10
105.9157
 20
73.6165
 30
0.0
 11
107.1157
 21
93.3165
 31
0.0
  0
LINE
  5
75
330
1E
100
AcDbEntity
  8
0
100
AcDbLine
 10
105.1157
 20
53.0165
 30
0.0
 11
105.9157
 21
73.6165
 31
0.0
  0
LINE
  5
76
330
1E
100
AcDbEntity
  8
0
100
AcDbLine
 10
52.0121
 20
50.0166
 30
0.0
 11
52.0121
 21
45.991052327496
 31
0.0
  0
LINE
  5
77
330
1E
100
AcDbEntity
  8
0
100
AcDbLine
 10
50.1091
 20
0.016541
 30
0.0
 11
52.0121
 21
0.016567
 31
0.0
  0
LINE
  5
78
330
1E
100
AcDbEntity
  8
0
100
AcDbLine
 10
44.6898
 20
0.01652
 30
0.0
 11
50.1091
 21
0.016541
 31
0.0
  0
LINE
  5
79
330
1E
100
AcDbEntity
  8
0
100
AcDbLine
 10
36.5792
 20
0.016505
 30
0.0
 11
44.6898
 21
0.01652
 31
0.0
  0
LINE
  5
7A
330
1E
100
AcDbEntity
  8
0
100
AcDbLine
 10
27.0121
 20
0.0165
 30
0.0
 11
36.5792
 21
0.016505
 31
0.0
  0
LINE
  5
7B
330
1E
100
AcDbEntity
  8
0
100
AcDbLine
 10
124.0705
 20
111.4225
 30
0.0
 11
127.1055
 21
108.2145
 31
0.0
  0
LINE
  5
7C
330
1E
100
AcDbEntity
  8
0
100
AcDbLine
 10
123.0045
 20
115.2035
 30
0.0
 11
123.0125
 21
121.8165
 31
0.0
  0
LINE
  5
7D
330
1E
100
AcDbEntity
  8
0
100
AcDbLine
 10
123.0045
 20
115.2035
 30
0.0
 11
124.0705
 21
118.9845
 31
0.0
  0
LINE
  5
7E
330
1E
100
AcDbEntity
  8
0
100
AcDbLine
 10
123.0045
 20
115.2035
 30
0.0
 11
124.0705
 21
111.4225
 31
0.0
  0
LINE
  5
7F
330
1E
100
AcDbEntity
  8
0
100
AcDbLine
 10
123.0155
 20
122.3165
 30
0.0
 11
123.5155
 21
124.8165
 31
0.0
  0
LINE
  5
80
330
1E
100
AcDbEntity
  8
0
100
AcDbLine
 10
123.0155
 20
122.3165
 30
0.0
 11
123.072732264441
 21
122.030338677795
 31
0.0
  0
LINE
  5
81
330
1E
100
AcDbEntity
  8
0
100
AcDbLine
 10
123.5155
 20
124.8165
 30
0.0
 11
124.9155
 21
127.2165
 31
0.0
  0
LINE
  5
82
330
1E
100
AcDbEntity
  8
0
100
AcDbLine
 10
110.3155
 20
125.2165
 30
0.0
 11
111.4155
 21
134.0165
 31
0.0
  0
LINE
  5
83
330
1E
100
AcDbEntity
  8
0
100
AcDbLine
 10
123.0125
 20
121.8165
 30
0.0
 11
124.0775
 21
125.5975
 31
0.0
  0
LINE
  5
84
330
1E
100
AcDbEntity
  8
0
100
AcDbLine
 10
127.1055
 20
108.2145
 30
0.0
 11
131.6425
 21
106.0725
 31
0.0
  0
LINE
  5
85
330
1E
100
AcDbEntity
  8
0
100
AcDbLine
 10
124.0705
 20
118.9845
 30
0.0
 11
127.1055
 21
122.1885
 31
0.0
  0
LINE
  5
86
330
1E
100
AcDbEntity
  8
0
100
AcDbLine
 10
124.9155
 20
127.2165
 30
0.0
 11
127.1155
 21
129.3165
 31
0.0
  0
LINE
  5
87
330
1E
100
AcDbEntity
  8
0
100
AcDbLine
 10
124.0775
 20
125.5975
 30
0.0
 11
127.1125
 21
128.8005
 31
0.0
  0
LINE
  5
88
330
1E
100
AcDbEntity
  8
0
100
AcDbLine
 10
128.3855
 20
115.9865
 30
0.0
 11
130.4085
 21
113.8485
 31
0.0
  0
LINE
  5
89
330
1E
100
AcDbEntity
  8
0
100
AcDbLine
 10
127.6745
 20
118.5085
 30
0.0
 11
128.3855
 21
121.0285
 31
0.0
  0
LINE
  5
8A
330
1E
100
AcDbEntity
  8
0
100
AcDbLine
 10
127.6745
 20
118.5085
 30
0.0
 11
128.3855
 21
115.9865
 31
0.0
  0
LINE
  5
8B
330
1E
100
AcDbEntity
  8
0
100
AcDbLine
 10
128.6155
 20
0.0165
 30
0.0
 11
137.0155
 21
0.0165
 31
0.0
  0
LINE
  5
8C
330
1E
100
AcDbEntity
  8
0
100
AcDbLine
 10
128.6155
 20
0.0165
 30
0.0
 11
137.0155
 21
0.0165
 31
0.0
  0
LINE
  5
8D
330
1E
100
AcDbEntity
  8
0
100
AcDbLine
 10
131.6425
 20
106.0725
 30
0.0
 11
137.0045
 21
105.3155
 31
0.0
  0
LINE
  5
8E
330
1E
100
AcDbEntity
  8
0
100
AcDbLine
 10
130.4085
 20
113.8485
 30
0.0
 11
133.4335
 21
112.4195
 31
0.0
  0
LINE
  5
8F
330
1E
100
AcDbEntity
  8
0
100
AcDbLine
 10
128.3855
 20
121.0285
 30
0.0
 11
130.4085
 21
123.1645
 31
0.0
  0
LINE
  5
90
330
1E
100
AcDbEntity
  8
0
100
AcDbLine
 10
130.4085
 20
123.1645
 30
0.0
 11
133.394906316318
 21
124.57091195742
 31
0.0
  0
LINE
  5
91
330
1E
100
AcDbEntity
  8
0
100
AcDbLine
 10
127.1055
 20
122.1885
 30
0.0
 11
131.6465
 21
124.3275
 31
0.0
  0
LINE
  5
92
330
1E
100
AcDbEntity
  8
0
100
AcDbLine
 10
127.1155
 20
129.3165
 30
0.0
 11
130.0155
 21
130.9165
 31
0.0
  0
LINE
  5
93
330
1E
100
AcDbEntity
  8
0
100
AcDbLine
 10
130.0155
 20
130.9165
 30
0.0
 11
133.4155
 21
131.8165
 31
0.0
  0
LINE
  5
94
330
1E
100
AcDbEntity
  8
0
100
AcDbLine
 10
127.1125
 20
128.8005
 30
0.0
 11
131.6545
 21
130.9405
 31
0.0
  0
LINE
  5
95
330
1E
100
AcDbEntity
  8
0
100
AcDbLine
 10
133.4335
 20
112.4195
 30
0.0
 11
137.0085
 21
111.9155
 31
0.0
  0
LINE
  5
96
330
1E
100
AcDbEntity
  8
0
100
AcDbLine
 10
131.6465
 20
124.3275
 30
0.0
 11
137.0265
 21
125.0765
 31
0.0
  0
LINE
  5
97
330
1E
100
AcDbEntity
  8
0
100
AcDbLine
 10
121.9515
 20
130.3725
 30
0.0
 11
123.0155
 21
122.3165
 31
0.0
  0
LINE
  5
98
330
1E
100
AcDbEntity
  8
0
100
AcDbLine
 10
133.4155
 20
131.8165
 30
0.0
 11
137.0155
 21
132.2165
 31
0.0
  0
LINE
  5
99
330
1E
100
AcDbEntity
  8
0
100
AcDbLine
 10
120.3155
 20
136.9165
 30
0.0
 11
121.9515
 21
130.3725
 31
0.0
  0
LINE
  5
9B
330
1E
100
AcDbEntity
  8
0
100
AcDbLine
 10
118.4155
 20
141.8165
 30
0.0
 11
120.3155
 21
136.9165
 31
0.0
  0
LINE
  5
9C
330
1E
100
AcDbEntity
  8
0
100
AcDbLine
 10
118.9155
 20
154.0165
 30
0.0
 11
122.2155
 21
156.9165
 31
0.0
  0
LINE
  5
9D
330
1E
100
AcDbEntity
  8
0
100
AcDbLine
 10
117.6155
 20
152.7165
 30
0.0
 11
118.9155
 21
154.0165
 31
0.0
  0
LINE
  5
9E
330
1E
100
AcDbEntity
  8
0
100
AcDbLine
 10
122.2155
 20
156.9165
 30
0.0
 11
126.6155
 21
159.1165
 31
0.0
  0
LINE
  5
9F
330
1E
100
AcDbEntity
  8
0
100
AcDbLine
 10
126.6155
 20
159.1165
 30
0.0
 11
131.6155
 21
160.5165
 31
0.0
  0
LINE
  5
A0
330
1E
100
AcDbEntity
  8
0
100
AcDbLine
 10
131.6155
 20
160.5165
 30
0.0
 11
137.0155
 21
161.0165
 31
0.0
  0
LINE
  5
A1
330
1E
100
AcDbEntity
  8
0
100
AcDbLine
 10
115.4155
 20
149.3165
 30
0.0
 11
117.6155
 21
152.7165
 31
0.0
  0
LINE
  5
A2
330
1E
100
AcDbEntity
  8
0
100
AcDbLine
 10
113.4155
 20
144.4165
 30
0.0
 11
115.4155
 21
149.3165
 31
0.0
  0
LINE
  5
A3
330
1E
100
AcDbEntity
  8
0
100
AcDbLine
 10
112.6155
 20
140.7165
 30
0.0
 11
113.4155
 21
144.4165
 31
0.0
  0
LINE
  5
A4
330
1E
100
AcDbEntity
  8
0
100
AcDbLine
 10
111.4155
 20
134.0165
 30
0.0
 11
112.6155
 21
140.7165
 31
0.0
  0
LINE
  5
A5
330
1E
100
AcDbEntity
  8
0
100
AcDbLine
 10
131.6545
 20
130.9405
 30
0.0
 11
137.0345
 21
131.6895
 31
0.0
  0
LINE
  5
A6
330
1E
100
AcDbEntity
  8
0
100
AcDbLine
 10
137.0155
 20
0.0165
 30
0.0
 11
145.4155
 21
0.0165
 31
0.0
  0
LINE
  5
A7
330
1E
100
AcDbEntity
  8
0
100
AcDbLine
 10
137.0155
 20
0.0165
 30
0.0
 11
145.4155
 21
0.0165
 31
0.0
  0
LINE
  5
A8
330
1E
100
AcDbEntity
  8
0
100
AcDbLine
 10
153.2155
 20
0.0165
 30
0.0
 11
160.0155
 21
0.0165
 31
0.0
  0
LINE
  5
A9
330
1E
100
AcDbEntity
  8
0
100
AcDbLine
 10
145.4155
 20
0.0165
 30
0.0
 11
153.2155
 21
0.0165
 31
0.0
  0
LINE
  5
AA
330
1E
100
AcDbEntity
  8
0
100
AcDbLine
 10
145.4155
 20
0.0165
 30
0.0
 11
153.2155
 21
0.0165
 31
0.0
  0
LINE
  5
AB
330
1E
100
AcDbEntity
  8
0
100
AcDbLine
 10
153.2155
 20
0.0165
 30
0.0
 11
160.0155
 21
0.0165
 31
0.0
  0
LINE
  5
AC
330
1E
100
AcDbEntity
  8
0
100
AcDbLine
 10
160.0155
 20
0.0165
 30
0.0
 11
165.2155
 21
0.0165
 31
0.0
  0
LINE
  5
AD
330
1E
100
AcDbEntity
  8
0
100
AcDbLine
 10
165.2155
 20
0.0165
 30
0.0
 11
168.4155
 21
0.0165
 31
0.0
  0
LINE
  5
AE
330
1E
100
AcDbEntity
  8
0
100
AcDbLine
 10
168.4155
 20
0.0165
 30
0.0
 11
169.5155
 21
0.0165
 31
0.0
  0
LINE
  5
AF
330
1E
100
AcDbEntity
  8
0
100
AcDbLine
 10
169.5155
 20
0.0165
 30
0.0
 11
169.5155
 21
15.2165
 31
0.0
  0
LINE
  5
B0
330
1E
100
AcDbEntity
  8
0
100
AcDbLine
 10
168.4155
 20
0.0165
 30
0.0
 11
169.5155
 21
0.0165
 31
0.0
  0
LINE
  5
B1
330
1E
100
AcDbEntity
  8
0
100
AcDbLine
 10
165.2155
 20
0.0165
 30
0.0
 11
168.4155
 21
0.0165
 31
0.0
  0
LINE
  5
B2
330
1E
100
AcDbEntity
  8
0
100
AcDbLine
 10
160.0155
 20
0.0165
 30
0.0
 11
165.2155
 21
0.0165
 31
0.0
  0
LINE
  5
B3
330
1E
100
AcDbEntity
  8
0
100
AcDbLine
 10
223.9155
 20
0.016541
 30
0.0
 11
229.3345
 21
0.01652
 31
0.0
  0
LINE
  5
B4
330
1E
100
AcDbEntity
  8
0
100
AcDbLine
 10
222.0125
 20
0.016567
 30
0.0
 11
223.9155
 21
0.016592
 31
0.0
  0
LINE
  5
B5
330
1E
100
AcDbEntity
  8
0
100
AcDbLine
 10
222.0125
 20
0.016567
 30
0.0
 11
223.9155
 21
0.016541
 31
0.0
  0
LINE
  5
B6
330
1E
100
AcDbEntity
  8
0
100
AcDbLine
 10
222.0125
 20
0.016567
 30
0.0
 11
222.0125
 21
42.042148488889
 31
0.0
  0
LINE
  5
B7
330
1E
100
AcDbEntity
  8
0
100
AcDbLine
 10
237.4455
 20
0.016505
 30
0.0
 11
247.0125
 21
0.0165
 31
0.0
  0
LINE
  5
B8
330
1E
100
AcDbEntity
  8
0
100
AcDbLine
 10
229.3345
 20
0.01652
 30
0.0
 11
237.4455
 21
0.016505
 31
0.0
  0
LINE
  5
B9
330
1E
100
AcDbEntity
  8
0
100
AcDbLine
 10
223.9155
 20
0.016592
 30
0.0
 11
229.3345
 21
0.016614
 31
0.0
  0
LINE
  5
BA
330
1E
100
AcDbEntity
  8
0
100
AcDbLine
 10
229.3345
 20
0.016614
 30
0.0
 11
237.4455
 21
0.016628
 31
0.0
  0
LINE
  5
BB
330
1E
100
AcDbEntity
  8
0
100
AcDbLine
 10
237.4455
 20
0.016628
 30
0.0
 11
247.0125
 21
0.016633
 31
0.0
  0
LINE
  5
BC
330
1E
100
AcDbEntity
  8
0
100
AcDbLine
 10
247.0125
 20
0.016633
 30
0.0
 11
256.5795
 21
0.016628
 31
0.0
  0
LINE
  5
BD
330
1E
100
AcDbEntity
  8
0
100
AcDbLine
 10
256.5795
 20
0.016628
 30
0.0
 11
264.6895
 21
0.016614
 31
0.0
  0
LINE
  5
BE
330
1E
100
AcDbEntity
  8
0
100
AcDbLine
 10
264.6895
 20
0.016614
 30
0.0
 11
270.1095
 21
0.016592
 31
0.0
  0
LINE
  5
BF
330
1E
100
AcDbEntity
  8
0
100
AcDbLine
 10
270.1095
 20
0.016592
 30
0.0
 11
272.0125
 21
0.016567
 31
0.0
  0
LINE
  5
C0
330
1E
100
AcDbEntity
  8
0
100
AcDbLine
 10
272.0125
 20
0.016567
 30
0.0
 11
272.0125
 21
45.991053533333
 31
0.0
  0
LINE
  5
C1
330
1E
100
AcDbEntity
  8
0
100
AcDbLine
 10
270.1095
 20
0.016541
 30
0.0
 11
272.0125
 21
0.016567
 31
0.0
  0
LINE
  5
C2
330
1E
100
AcDbEntity
  8
0
100
AcDbLine
 10
264.6895
 20
0.01652
 30
0.0
 11
270.1095
 21
0.016541
 31
0.0
  0
LINE
  5
C3
330
1E
100
AcDbEntity
  8
0
100
AcDbLine
 10
256.5795
 20
0.016505
 30
0.0
 11
264.6895
 21
0.01652
 31
0.0
  0
LINE
  5
C4
330
1E
100
AcDbEntity
  8
0
100
AcDbLine
 10
247.0125
 20
0.0165
 30
0.0
 11
256.5795
 21
0.016505
 31
0.0
  0
LINE
  5
E8
330
1E
100
AcDbEntity
  8
0
100
AcDbLine
 10
169.5155
 20
15.2165
 30
0.0
 11
169.5155
 21
0.0165
 31
0.0
  0
LINE
  5
FE
330
1E
100
AcDbEntity
  8
0
100
AcDbLine
 10
169.3155
 20
32.9165
 30
0.0
 11
169.5155
 21
15.2165
 31
0.0
  0
LINE
  5
FF
330
1E
100
AcDbEntity
  8
0
100
AcDbLine
 10
220.0105
 20
42.0381
 30
0.0
 11
222.0125
 21
42.036505814815
 31
0.0
  0
LINE
  5
100
330
1E
100
AcDbEntity
  8
0
100
AcDbLine
 10
220.0105
 20
42.0381
 30
0.0
 11
220.0105
 21
42.1903
 31
0.0
  0
LINE
  5
101
330
1E
100
AcDbEntity
  8
0
100
AcDbLine
 10
220.0105
 20
42.0381
 30
0.0
 11
220.0105
 21
42.1903
 31
0.0
  0
LINE
  5
102
330
1E
100
AcDbEntity
  8
0
100
AcDbLine
 10
220.0105
 20
42.1903
 30
0.0
 11
220.0105
 21
42.0381
 31
0.0
  0
LINE
  5
103
330
1E
100
AcDbEntity
  8
0
100
AcDbLine
 10
220.0115
 20
42.6239
 30
0.0
 11
220.0115
 21
43.2727
 31
0.0
  0
LINE
  5
104
330
1E
100
AcDbEntity
  8
0
100
AcDbLine
 10
220.0105
 20
42.1903
 30
0.0
 11
220.0115
 21
42.6239
 31
0.0
  0
LINE
  5
105
330
1E
100
AcDbEntity
  8
0
100
AcDbLine
 10
220.0105
 20
42.1903
 30
0.0
 11
220.0105
 21
42.0381
 31
0.0
  0
LINE
  5
106
330
1E
100
AcDbEntity
  8
0
100
AcDbLine
 10
220.0115
 20
43.2727
 30
0.0
 11
220.0125
 21
44.0381
 31
0.0
  0
LINE
  5
107
330
1E
100
AcDbEntity
  8
0
100
AcDbLine
 10
220.0115
 20
43.2727
 30
0.0
 11
220.0115
 21
42.6239
 31
0.0
  0
LINE
  5
108
330
1E
100
AcDbEntity
  8
0
100
AcDbLine
 10
220.0135
 20
45.8859
 30
0.0
 11
220.0135
 21
46.0381
 31
0.0
  0
LINE
  5
109
330
1E
100
AcDbEntity
  8
0
100
AcDbLine
 10
220.0135
 20
45.8859
 30
0.0
 11
220.0135
 21
45.4523
 31
0.0
  0
LINE
  5
10A
330
1E
100
AcDbEntity
  8
0
100
AcDbLine
 10
220.0135
 20
46.0381
 30
0.0
 11
222.0125
 21
46.036508203704
 31
0.0
  0
LINE
  5
10B
330
1E
100
AcDbEntity
  8
0
100
AcDbLine
 10
220.0135
 20
46.0381
 30
0.0
 11
220.0135
 21
45.8859
 31
0.0
  0
LINE
  5
10C
330
1E
100
AcDbEntity
  8
0
100
AcDbLine
 10
220.0135
 20
45.4523
 30
0.0
 11
220.0135
 21
45.8859
 31
0.0
  0
LINE
  5
10D
330
1E
100
AcDbEntity
  8
0
100
AcDbLine
 10
220.0125
 20
44.8035
 30
0.0
 11
220.0135
 21
45.4523
 31
0.0
  0
LINE
  5
10E
330
1E
100
AcDbEntity
  8
0
100
AcDbLine
 10
220.0125
 20
44.8035
 30
0.0
 11
220.0125
 21
44.0381
 31
0.0
  0
LINE
  5
10F
330
1E
100
AcDbEntity
  8
0
100
AcDbLine
 10
220.0125
 20
44.0381
 30
0.0
 11
220.0125
 21
44.8035
 31
0.0
  0
LINE
  5
110
330
1E
100
AcDbEntity
  8
0
100
AcDbLine
 10
222.0125
 20
46.036508203704
 30
0.0
 11
222.0125
 21
50.0166
 31
0.0
  0
LINE
  5
111
330
1E
100
AcDbEntity
  8
0
100
AcDbLine
 10
222.0125
 20
46.036508203704
 30
0.0
 11
222.0125
 21
0.016567
 31
0.0
  0
LINE
  5
112
330
1E
100
AcDbEntity
  8
0
100
AcDbLine
 10
222.0125
 20
50.0166
 30
0.0
 11
222.0125
 21
46.036508203704
 31
0.0
  0
LINE
  5
113
330
1E
100
AcDbEntity
  8
0
100
AcDbLine
 10
222.0125
 20
50.0166
 30
0.0
 11
223.9155
 21
50.0166
 31
0.0
  0
LINE
  5
114
330
1E
100
AcDbEntity
  8
0
100
AcDbLine
 10
223.9155
 20
50.0166
 30
0.0
 11
229.3345
 21
50.0166
 31
0.0
  0
LINE
  5
115
330
1E
100
AcDbEntity
  8
0
100
AcDbLine
 10
245.5975
 20
45.4523
 30
0.0
 11
246.2465
 21
45.8859
 31
0.0
  0
LINE
  5
116
330
1E
100
AcDbEntity
  8
0
100
AcDbLine
 10
245.1645
 20
44.8035
 30
0.0
 11
245.5975
 21
45.4523
 31
0.0
  0
LINE
  5
117
330
1E
100
AcDbEntity
  8
0
100
AcDbLine
 10
245.0125
 20
44.0381
 30
0.0
 11
245.1645
 21
43.2727
 31
0.0
  0
LINE
  5
118
330
1E
100
AcDbEntity
  8
0
100
AcDbLine
 10
245.0125
 20
44.0381
 30
0.0
 11
245.1645
 21
44.8035
 31
0.0
  0
LINE
  5
119
330
1E
100
AcDbEntity
  8
0
100
AcDbLine
 10
245.1645
 20
43.2727
 30
0.0
 11
245.5975
 21
42.6239
 31
0.0
  0
LINE
  5
11A
330
1E
100
AcDbEntity
  8
0
100
AcDbLine
 10
246.2465
 20
45.8859
 30
0.0
 11
247.0125
 21
46.0381
 31
0.0
  0
LINE
  5
11B
330
1E
100
AcDbEntity
  8
0
100
AcDbLine
 10
245.5975
 20
42.6239
 30
0.0
 11
246.2465
 21
42.1903
 31
0.0
  0
LINE
  5
11C
330
1E
100
AcDbEntity
  8
0
100
AcDbLine
 10
246.2465
 20
42.1903
 30
0.0
 11
247.0125
 21
42.0381
 31
0.0
  0
LINE
  5
11D
330
1E
100
AcDbEntity
  8
0
100
AcDbLine
 10
247.0125
 20
42.0381
 30
0.0
 11
247.7775
 21
42.1903
 31
0.0
  0
LINE
  5
11E
330
1E
100
AcDbEntity
  8
0
100
AcDbLine
 10
247.0125
 20
46.0381
 30
0.0
 11
247.7775
 21
45.8859
 31
0.0
  0
LINE
  5
11F
330
1E
100
AcDbEntity
  8
0
100
AcDbLine
 10
229.3345
 20
50.0166
 30
0.0
 11
237.4455
 21
50.0166
 31
0.0
  0
LINE
  5
120
330
1E
100
AcDbEntity
  8
0
100
AcDbLine
 10
237.4455
 20
50.0166
 30
0.0
 11
247.0125
 21
50.0166
 31
0.0
  0
LINE
  5
121
330
1E
100
AcDbEntity
  8
0
100
AcDbLine
 10
247.7775
 20
42.1903
 30
0.0
 11
248.4265
 21
42.6239
 31
0.0
  0
LINE
  5
122
330
1E
100
AcDbEntity
  8
0
100
AcDbLine
 10
248.4265
 20
42.6239
 30
0.0
 11
248.8595
 21
43.2727
 31
0.0
  0
LINE
  5
123
330
1E
100
AcDbEntity
  8
0
100
AcDbLine
 10
248.8595
 20
43.2727
 30
0.0
 11
249.0125
 21
44.0381
 31
0.0
  0
LINE
  5
124
330
1E
100
AcDbEntity
  8
0
100
AcDbLine
 10
248.8595
 20
44.8035
 30
0.0
 11
249.0125
 21
44.0381
 31
0.0
  0
LINE
  5
125
330
1E
100
AcDbEntity
  8
0
100
AcDbLine
 10
248.4265
 20
45.4523
 30
0.0
 11
248.8595
 21
44.8035
 31
0.0
  0
LINE
  5
126
330
1E
100
AcDbEntity
  8
0
100
AcDbLine
 10
247.7775
 20
45.8859
 30
0.0
 11
248.4265
 21
45.4523
 31
0.0
  0
LINE
  5
127
330
1E
100
AcDbEntity
  8
0
100
AcDbLine
 10
247.0125
 20
50.0166
 30
0.0
 11
256.5795
 21
50.0166
 31
0.0
  0
LINE
  5
128
330
1E
100
AcDbEntity
  8
0
100
AcDbLine
 10
256.5795
 20
50.0166
 30
0.0
 11
264.6895
 21
50.0166
 31
0.0
  0
LINE
  5
129
330
1E
100
AcDbEntity
  8
0
100
AcDbLine
 10
272.0125
 20
41.996691
 30
0.0
 11
274.0105
 21
41.9951
 31
0.0
  0
LINE
  5
12A
330
1E
100
AcDbEntity
  8
0
100
AcDbLine
 10
272.0125
 20
45.996693388889
 30
0.0
 11
274.0135
 21
45.9951
 31
0.0
  0
LINE
  5
12B
330
1E
100
AcDbEntity
  8
0
100
AcDbLine
 10
264.6895
 20
50.0166
 30
0.0
 11
270.1095
 21
50.0166
 31
0.0
  0
LINE
  5
12C
330
1E
100
AcDbEntity
  8
0
100
AcDbLine
 10
168.9155
 20
53.0165
 30
0.0
 11
169.3155
 21
32.9165
 31
0.0
  0
LINE
  5
12D
330
1E
100
AcDbEntity
  8
0
100
AcDbLine
 10
270.1095
 20
50.0166
 30
0.0
 11
272.0125
 21
50.0166
 31
0.0
  0
LINE
  5
12E
330
1E
100
AcDbEntity
  8
0
100
AcDbLine
 10
272.0125
 20
45.991053533333
 30
0.0
 11
272.0125
 21
50.0166
 31
0.0
  0
LINE
  5
12F
330
1E
100
AcDbEntity
  8
0
100
AcDbLine
 10
272.0125
 20
45.991053533333
 30
0.0
 11
272.0125
 21
0.016567
 31
0.0
  0
LINE
  5
130
330
1E
100
AcDbEntity
  8
0
100
AcDbLine
 10
274.0105
 20
41.9951
 30
0.0
 11
274.0105
 21
42.1473
 31
0.0
  0
LINE
  5
131
330
1E
100
AcDbEntity
  8
0
100
AcDbLine
 10
274.0105
 20
42.1473
 30
0.0
 11
274.0115
 21
42.5809
 31
0.0
  0
LINE
  5
132
330
1E
100
AcDbEntity
  8
0
100
AcDbLine
 10
274.0105
 20
42.1473
 30
0.0
 11
274.0105
 21
41.9951
 31
0.0
  0
LINE
  5
133
330
1E
100
AcDbEntity
  8
0
100
AcDbLine
 10
274.0115
 20
42.5809
 30
0.0
 11
274.0115
 21
43.2297
 31
0.0
  0
LINE
  5
134
330
1E
100
AcDbEntity
  8
0
100
AcDbLine
 10
274.0115
 20
43.2297
 30
0.0
 11
274.0125
 21
43.9951
 31
0.0
  0
LINE
  5
135
330
1E
100
AcDbEntity
  8
0
100
AcDbLine
 10
274.0115
 20
43.2297
 30
0.0
 11
274.0115
 21
42.5809
 31
0.0
  0
LINE
  5
136
330
1E
100
AcDbEntity
  8
0
100
AcDbLine
 10
274.0125
 20
43.9951
 30
0.0
 11
274.0125
 21
44.7605
 31
0.0
  0
LINE
  5
137
330
1E
100
AcDbEntity
  8
0
100
AcDbLine
 10
274.0135
 20
45.9951
 30
0.0
 11
274.0135
 21
45.8429
 31
0.0
  0
LINE
  5
138
330
1E
100
AcDbEntity
  8
0
100
AcDbLine
 10
274.0135
 20
45.4093
 30
0.0
 11
274.0135
 21
45.8429
 31
0.0
  0
LINE
  5
139
330
1E
100
AcDbEntity
  8
0
100
AcDbLine
 10
274.0135
 20
45.8429
 30
0.0
 11
274.0135
 21
45.9951
 31
0.0
  0
LINE
  5
13A
330
1E
100
AcDbEntity
  8
0
100
AcDbLine
 10
274.0135
 20
45.8429
 30
0.0
 11
274.0135
 21
45.4093
 31
0.0
  0
LINE
  5
13B
330
1E
100
AcDbEntity
  8
0
100
AcDbLine
 10
274.0125
 20
44.7605
 30
0.0
 11
274.0135
 21
45.4093
 31
0.0
  0
LINE
  5
13C
330
1E
100
AcDbEntity
  8
0
100
AcDbLine
 10
274.0125
 20
44.7605
 30
0.0
 11
274.0125
 21
43.9951
 31
0.0
  0
LINE
  5
13D
330
1E
100
AcDbEntity
  8
0
100
AcDbLine
 10
272.0125
 20
50.0166
 30
0.0
 11
272.0125
 21
45.991053533333
 31
0.0
  0
LINE
  5
157
330
1E
100
AcDbEntity
  8
0
100
AcDbLine
 10
166.9155
 20
93.3165
 30
0.0
 11
168.1155
 21
73.6165
 31
0.0
  0
LINE
  5
158
330
1E
100
AcDbEntity
  8
0
100
AcDbLine
 10
168.1155
 20
73.6165
 30
0.0
 11
168.9155
 21
53.0165
 31
0.0
  0
LINE
  5
1B8
330
1E
100
AcDbEntity
  8
0
100
AcDbLine
 10
165.5155
 20
111.6165
 30
0.0
 11
166.9155
 21
93.3165
 31
0.0
  0
LINE
  5
1B9
330
1E
100
AcDbEntity
  8
0
100
AcDbLine
 10
149.9385
 20
111.4075
 30
0.0
 11
151.0045
 21
115.1805
 31
0.0
  0
LINE
  5
1BA
330
1E
100
AcDbEntity
  8
0
100
AcDbLine
 10
146.9045
 20
108.2035
 30
0.0
 11
149.9385
 21
111.4075
 31
0.0
  0
LINE
  5
1BB
330
1E
100
AcDbEntity
  8
0
100
AcDbLine
 10
142.4135
 20
106.0795
 30
0.0
 11
146.9045
 21
108.2035
 31
0.0
  0
LINE
  5
1BC
330
1E
100
AcDbEntity
  8
0
100
AcDbLine
 10
137.0265
 20
125.0765
 30
0.0
 11
142.3625
 21
124.3215
 31
0.0
  0
LINE
  5
1BD
330
1E
100
AcDbEntity
  8
0
100
AcDbLine
 10
137.0155
 20
132.2165
 30
0.0
 11
140.6155
 21
131.8165
 31
0.0
  0
LINE
  5
1BE
330
1E
100
AcDbEntity
  8
0
100
AcDbLine
 10
137.0155
 20
161.0165
 30
0.0
 11
142.4155
 21
160.5165
 31
0.0
  0
LINE
  5
1BF
330
1E
100
AcDbEntity
  8
0
100
AcDbLine
 10
137.0345
 20
131.6895
 30
0.0
 11
142.3695
 21
130.9345
 31
0.0
  0
LINE
  5
1C0
330
1E
100
AcDbEntity
  8
0
100
AcDbLine
 10
140.6155
 20
131.8165
 30
0.0
 11
144.0155
 21
130.9165
 31
0.0
  0
LINE
  5
1C1
330
1E
100
AcDbEntity
  8
0
100
AcDbLine
 10
140.619423297304
 20
124.568130980235
 30
0.0
 11
143.6085
 21
123.1575
 31
0.0
  0
LINE
  5
1C2
330
1E
100
AcDbEntity
  8
0
100
AcDbLine
 10
142.3625
 20
124.3215
 30
0.0
 11
146.9045
 21
122.1775
 31
0.0
  0
LINE
  5
1C3
330
1E
100
AcDbEntity
  8
0
100
AcDbLine
 10
144.0155
 20
130.9165
 30
0.0
 11
146.9155
 21
129.3165
 31
0.0
  0
LINE
  5
1C4
330
1E
100
AcDbEntity
  8
0
100
AcDbLine
 10
142.4155
 20
160.5165
 30
0.0
 11
147.4155
 21
159.1165
 31
0.0
  0
LINE
  5
1C5
330
1E
100
AcDbEntity
  8
0
100
AcDbLine
 10
142.3695
 20
130.9345
 30
0.0
 11
146.9115
 21
128.7895
 31
0.0
  0
LINE
  5
1C6
330
1E
100
AcDbEntity
  8
0
100
AcDbLine
 10
143.6085
 20
123.1575
 30
0.0
 11
145.6315
 21
121.0195
 31
0.0
  0
LINE
  5
1C7
330
1E
100
AcDbEntity
  8
0
100
AcDbLine
 10
149.1155
 20
127.2165
 30
0.0
 11
150.5155
 21
124.8165
 31
0.0
  0
LINE
  5
1C8
330
1E
100
AcDbEntity
  8
0
100
AcDbLine
 10
146.9045
 20
122.1775
 30
0.0
 11
149.9385
 21
118.9705
 31
0.0
  0
LINE
  5
1C9
330
1E
100
AcDbEntity
  8
0
100
AcDbLine
 10
146.9155
 20
129.3165
 30
0.0
 11
149.1155
 21
127.2165
 31
0.0
  0
LINE
  5
1CA
330
1E
100
AcDbEntity
  8
0
100
AcDbLine
 10
147.4155
 20
159.1165
 30
0.0
 11
151.8155
 21
156.9165
 31
0.0
  0
LINE
  5
1CB
330
1E
100
AcDbEntity
  8
0
100
AcDbLine
 10
146.9115
 20
128.7895
 30
0.0
 11
149.9465
 21
125.5825
 31
0.0
  0
LINE
  5
1CC
330
1E
100
AcDbEntity
  8
0
100
AcDbLine
 10
145.6315
 20
121.0195
 30
0.0
 11
146.3425
 21
118.4925
 31
0.0
  0
LINE
  5
1CD
330
1E
100
AcDbEntity
  8
0
100
AcDbLine
 10
149.9385
 20
118.9705
 30
0.0
 11
151.0045
 21
115.1805
 31
0.0
  0
LINE
  5
1CE
330
1E
100
AcDbEntity
  8
0
100
AcDbLine
 10
150.95300504386
 20
122.004025219298
 30
0.0
 11
151.0155
 21
122.3165
 31
0.0
  0
LINE
  5
1CF
330
1E
100
AcDbEntity
  8
0
100
AcDbLine
 10
150.5155
 20
124.8165
 30
0.0
 11
151.0155
 21
122.3165
 31
0.0
  0
LINE
  5
1D0
330
1E
100
AcDbEntity
  8
0
100
AcDbLine
 10
149.9465
 20
125.5825
 30
0.0
 11
151.0125
 21
121.7925
 31
0.0
  0
LINE
  5
1D1
330
1E
100
AcDbEntity
  8
0
100
AcDbLine
 10
145.6315
 20
115.9775
 30
0.0
 11
146.3425
 21
118.4925
 31
0.0
  0
LINE
  5
1D2
330
1E
100
AcDbEntity
  8
0
100
AcDbLine
 10
151.0155
 20
122.3165
 30
0.0
 11
152.0795
 21
130.3725
 31
0.0
  0
LINE
  5
1D3
330
1E
100
AcDbEntity
  8
0
100
AcDbLine
 10
152.0795
 20
130.3725
 30
0.0
 11
153.7155
 21
136.9165
 31
0.0
  0
LINE
  5
1D4
330
1E
100
AcDbEntity
  8
0
100
AcDbLine
 10
153.7155
 20
136.9165
 30
0.0
 11
155.6155
 21
141.8165
 31
0.0
  0
LINE
  5
1D6
330
1E
100
AcDbEntity
  8
0
100
AcDbLine
 10
151.8155
 20
156.9165
 30
0.0
 11
155.1155
 21
154.0165
 31
0.0
  0
LINE
  5
1D7
330
1E
100
AcDbEntity
  8
0
100
AcDbLine
 10
155.1155
 20
154.0165
 30
0.0
 11
156.4155
 21
152.7165
 31
0.0
  0
LINE
  5
1D8
330
1E
100
AcDbEntity
  8
0
100
AcDbLine
 10
156.4155
 20
152.7165
 30
0.0
 11
158.6155
 21
149.3165
 31
0.0
  0
LINE
  5
1D9
330
1E
100
AcDbEntity
  8
0
100
AcDbLine
 10
158.6155
 20
149.3165
 30
0.0
 11
160.6155
 21
144.4165
 31
0.0
  0
LINE
  5
1DA
330
1E
100
AcDbEntity
  8
0
100
AcDbLine
 10
160.6155
 20
144.4165
 30
0.0
 11
161.4155
 21
140.7165
 31
0.0
  0
LINE
  5
1DB
330
1E
100
AcDbEntity
  8
0
100
AcDbLine
 10
161.4155
 20
140.7165
 30
0.0
 11
162.6155
 21
134.0165
 31
0.0
  0
LINE
  5
1DC
330
1E
100
AcDbEntity
  8
0
100
AcDbLine
 10
162.6155
 20
134.0165
 30
0.0
 11
163.7155
 21
125.2165
 31
0.0
  0
LINE
  5
1DD
330
1E
100
AcDbEntity
  8
0
100
AcDbLine
 10
163.7155
 20
125.2165
 30
0.0
 11
165.5155
 21
111.6165
 31
0.0
  0
LINE
  5
2DE
330
1E
100
AcDbEntity
  8
0
100
AcDbLine
 10
151.0045
 20
115.1805
 30
0.0
 11
151.0125
 21
121.7925
 31
0.0
  0
LINE
  5
2DF
330
1E
100
AcDbEntity
  8
0
100
AcDbLine
 10
143.6085
 20
113.8415
 30
0.0
 11
145.6315
 21
115.9775
 31
0.0
  0
LINE
  5
2E0
330
1E
100
AcDbEntity
  8
0
100
AcDbLine
 10
140.6145
 20
112.4255
 30
0.0
 11
143.6085
 21
113.8415
 31
0.0
  0
LINE
  5
2E1
330
1E
100
AcDbEntity
  8
0
100
AcDbLine
 10
137.0085
 20
111.9155
 30
0.0
 11
140.6145
 21
112.4255
 31
0.0
  0
LINE
  5
2E2
330
1E
100
AcDbEntity
  8
0
100
AcDbLine
 10
137.0045
 20
105.3155
 30
0.0
 11
142.4135
 21
106.0795
 31
0.0
  0
LINE
  5
82D
330
1E
100
AcDbEntity
  8
0
100
AcDbLine
 10
375.832
 20
200.4569155
 30
0.0
 11
381.526
 21
199.3159155
 31
0.0
  0
LINE
  5
82E
330
1E
100
AcDbEntity
  8
0
100
AcDbLine
 10
376.124
 20
199.8589155
 30
0.0
 11
381.891
 21
198.6559155
 31
0.0
  0
LINE
  5
82F
330
1E
100
AcDbEntity
  8
0
100
AcDbLine
 10
376.124
 20
180.8259155
 30
0.0
 11
381.891
 21
179.6229155
 31
0.0
  0
LINE
  5
830
330
1E
100
AcDbEntity
  8
0
100
AcDbLine
 10
375.832
 20
179.6109155
 30
0.0
 11
381.526
 21
178.4699155
 31
0.0
  0
LINE
  5
831
330
1E
100
AcDbEntity
  8
0
100
AcDbLine
 10
376.18
 20
165.8849155
 30
0.0
 11
377.64
 21
165.8849155
 31
0.0
  0
LINE
  5
832
330
1E
100
AcDbEntity
  8
0
100
AcDbLine
 10
376.18
 20
166.5019155
 30
0.0
 11
377.64
 21
166.5019155
 31
0.0
  0
LINE
  5
833
330
1E
100
AcDbEntity
  8
0
100
AcDbLine
 10
376.18
 20
151.3379155
 30
0.0
 11
377.64
 21
151.3379155
 31
0.0
  0
LINE
  5
834
330
1E
100
AcDbEntity
  8
0
100
AcDbLine
 10
376.18
 20
150.7209155
 30
0.0
 11
377.64
 21
150.7209155
 31
0.0
  0
LINE
  5
835
330
1E
100
AcDbEntity
  8
0
100
AcDbLine
 10
374.956
 20
178.7789155
 30
0.0
 11
380.431
 21
177.6679155
 31
0.0
  0
LINE
  5
836
330
1E
100
AcDbEntity
  8
0
100
AcDbLine
 10
375.832
 20
141.2359155
 30
0.0
 11
381.526
 21
142.3779155
 31
0.0
  0
LINE
  5
837
330
1E
100
AcDbEntity
  8
0
100
AcDbLine
 10
374.956
 20
142.0689155
 30
0.0
 11
378.900442275788
 21
142.869331092402
 31
0.0
  0
LINE
  5
838
330
1E
100
AcDbEntity
  8
0
100
AcDbLine
 10
375.021
 20
10.3132155
 30
0.0
 11
377.143
 21
9.3498355
 31
0.0
  0
LINE
  5
839
330
1E
100
AcDbEntity
  8
0
100
AcDbLine
 10
334.548
 20
9.2229155
 30
0.0
 11
377.5
 21
9.2229155
 31
0.0
  0
LINE
  5
83A
330
1E
100
AcDbEntity
  8
0
100
AcDbLine
 10
322.0
 20
0.0
 30
0.0
 11
391.913
 21
0.1442015
 31
0.0
  0
LINE
  5
83B
330
1E
100
AcDbEntity
  8
0
100
AcDbLine
 10
322.0
 20
0.0
 30
0.0
 11
391.913
 21
0.1442015
 31
0.0
  0
LINE
  5
83C
330
1E
100
AcDbEntity
  8
0
100
AcDbLine
 10
322.0
 20
0.0
 30
0.0
 11
322.354996551922
 21
7.1056855
 31
0.0
  0
LINE
  5
83D
330
1E
100
AcDbEntity
  8
0
100
AcDbLine
 10
372.974
 20
14.2229155
 30
0.0
 11
372.961
 21
44.6898155
 31
0.0
  0
LINE
  5
83E
330
1E
100
AcDbEntity
  8
0
100
AcDbLine
 10
345.727
 20
38.2445155
 30
0.0
 11
347.125
 21
37.5169155
 31
0.0
  0
LINE
  5
83F
330
1E
100
AcDbEntity
  8
0
100
AcDbLine
 10
340.983343998511
 20
45.568894294785
 30
0.0
 11
340.967
 21
60.3424155
 31
0.0
  0
LINE
  5
840
330
1E
100
AcDbEntity
  8
0
100
AcDbLine
 10
373.353186137138
 20
12.481567434747
 30
0.0
 11
372.991351854483
 21
13.933646738196
 31
0.0
  0
LINE
  5
841
330
1E
100
AcDbEntity
  8
0
100
AcDbLine
 10
357.0
 20
202.0909155
 30
0.0
 11
363.35
 21
201.8759155
 31
0.0
  0
LINE
  5
842
330
1E
100
AcDbEntity
  8
0
100
AcDbLine
 10
363.35
 20
201.8759155
 30
0.0
 11
369.409
 21
201.3509155
 31
0.0
  0
LINE
  5
843
330
1E
100
AcDbEntity
  8
0
100
AcDbLine
 10
369.409
 20
201.3509155
 30
0.0
 11
375.832
 21
200.4569155
 31
0.0
  0
LINE
  5
844
330
1E
100
AcDbEntity
  8
0
100
AcDbLine
 10
369.92
 20
200.7229155
 30
0.0
 11
376.124
 21
199.8589155
 31
0.0
  0
LINE
  5
845
330
1E
100
AcDbEntity
  8
0
100
AcDbLine
 10
369.92
 20
181.6899155
 30
0.0
 11
376.124
 21
180.8259155
 31
0.0
  0
LINE
  5
846
330
1E
100
AcDbEntity
  8
0
100
AcDbLine
 10
376.063
 20
146.803401385088
 30
0.0
 11
376.063
 21
145.7279155
 31
0.0
  0
LINE
  5
847
330
1E
100
AcDbEntity
  8
0
100
AcDbLine
 10
376.343
 20
158.4659155
 30
0.0
 11
376.343
 21
159.385181677614
 31
0.0
  0
LINE
  5
848
330
1E
100
AcDbEntity
  8
0
100
AcDbLine
 10
376.343
 20
158.4659155
 30
0.0
 11
376.343
 21
157.8499155
 31
0.0
  0
LINE
  5
849
330
1E
100
AcDbEntity
  8
0
100
AcDbLine
 10
376.343
 20
159.385181677614
 30
0.0
 11
376.343
 21
158.4659155
 31
0.0
  0
LINE
  5
84A
330
1E
100
AcDbEntity
  8
0
100
AcDbLine
 10
376.063
 20
172.606854888907
 30
0.0
 11
376.063
 21
172.4019155
 31
0.0
  0
LINE
  5
84B
330
1E
100
AcDbEntity
  8
0
100
AcDbLine
 10
376.18
 20
165.8849155
 30
0.0
 11
376.18
 21
166.5019155
 31
0.0
  0
LINE
  5
84C
330
1E
100
AcDbEntity
  8
0
100
AcDbLine
 10
376.18
 20
166.5019155
 30
0.0
 11
376.18
 21
167.355312996523
 31
0.0
  0
LINE
  5
84D
330
1E
100
AcDbEntity
  8
0
100
AcDbLine
 10
376.18
 20
166.5019155
 30
0.0
 11
376.18
 21
165.8849155
 31
0.0
  0
LINE
  5
84E
330
1E
100
AcDbEntity
  8
0
100
AcDbLine
 10
376.18
 20
167.355312996523
 30
0.0
 11
376.18
 21
166.5019155
 31
0.0
  0
LINE
  5
84F
330
1E
100
AcDbEntity
  8
0
100
AcDbLine
 10
376.063
 20
172.4019155
 30
0.0
 11
376.063
 21
172.606854888907
 31
0.0
  0
LINE
  5
850
330
1E
100
AcDbEntity
  8
0
100
AcDbLine
 10
376.343
 20
157.8499155
 30
0.0
 11
376.343
 21
158.4659155
 31
0.0
  0
LINE
  5
851
330
1E
100
AcDbEntity
  8
0
100
AcDbLine
 10
376.18
 20
151.3379155
 30
0.0
 11
376.18
 21
150.7209155
 31
0.0
  0
LINE
  5
852
330
1E
100
AcDbEntity
  8
0
100
AcDbLine
 10
376.18
 20
150.7209155
 30
0.0
 11
376.18
 21
151.143560910292
 31
0.0
  0
LINE
  5
853
330
1E
100
AcDbEntity
  8
0
100
AcDbLine
 10
376.18
 20
150.7209155
 30
0.0
 11
376.18
 21
151.3379155
 31
0.0
  0
LINE
  5
854
330
1E
100
AcDbEntity
  8
0
100
AcDbLine
 10
376.18
 20
151.143560910292
 30
0.0
 11
376.18
 21
150.7209155
 31
0.0
  0
LINE
  5
855
330
1E
100
AcDbEntity
  8
0
100
AcDbLine
 10
376.063
 20
145.7279155
 30
0.0
 11
376.063
 21
146.803401385088
 31
0.0
  0
LINE
  5
856
330
1E
100
AcDbEntity
  8
0
100
AcDbLine
 10
371.246
 20
179.248807416578
 30
0.0
 11
371.246
 21
177.6309155
 31
0.0
  0
LINE
  5
857
330
1E
100
AcDbEntity
  8
0
100
AcDbLine
 10
369.982
 20
179.408899972523
 30
0.0
 11
369.982
 21
177.9399155
 31
0.0
  0
LINE
  5
858
330
1E
100
AcDbEntity
  8
0
100
AcDbLine
 10
375.333
 20
146.2619155
 30
0.0
 11
375.333
 21
146.967172557456
 31
0.0
  0
LINE
  5
859
330
1E
100
AcDbEntity
  8
0
100
AcDbLine
 10
375.333
 20
146.2619155
 30
0.0
 11
376.063
 21
145.7279155
 31
0.0
  0
LINE
  5
85A
330
1E
100
AcDbEntity
  8
0
100
AcDbLine
 10
375.333
 20
146.967172557456
 30
0.0
 11
375.333
 21
146.2619155
 31
0.0
  0
LINE
  5
85B
330
1E
100
AcDbEntity
  8
0
100
AcDbLine
 10
375.333
 20
171.8669155
 30
0.0
 11
376.063
 21
172.4019155
 31
0.0
  0
LINE
  5
85C
330
1E
100
AcDbEntity
  8
0
100
AcDbLine
 10
374.798
 20
145.4189155
 30
0.0
 11
376.063
 21
145.7279155
 31
0.0
  0
LINE
  5
85D
330
1E
100
AcDbEntity
  8
0
100
AcDbLine
 10
374.069
 20
145.9539155
 30
0.0
 11
374.069
 21
147.058120979452
 31
0.0
  0
LINE
  5
85E
330
1E
100
AcDbEntity
  8
0
100
AcDbLine
 10
374.069
 20
145.9539155
 30
0.0
 11
374.798
 21
145.4189155
 31
0.0
  0
LINE
  5
85F
330
1E
100
AcDbEntity
  8
0
100
AcDbLine
 10
374.069
 20
145.9539155
 30
0.0
 11
375.333
 21
146.2619155
 31
0.0
  0
LINE
  5
860
330
1E
100
AcDbEntity
  8
0
100
AcDbLine
 10
374.883
 20
158.4659155
 30
0.0
 11
374.883
 21
157.8499155
 31
0.0
  0
LINE
  5
861
330
1E
100
AcDbEntity
  8
0
100
AcDbLine
 10
374.883
 20
158.4659155
 30
0.0
 11
374.883
 21
159.371208688885
 31
0.0
  0
LINE
  5
862
330
1E
100
AcDbEntity
  8
0
100
AcDbLine
 10
374.883
 20
158.4659155
 30
0.0
 11
376.343
 21
158.4659155
 31
0.0
  0
LINE
  5
863
330
1E
100
AcDbEntity
  8
0
100
AcDbLine
 10
374.883
 20
159.371208688885
 30
0.0
 11
374.883
 21
158.4659155
 31
0.0
  0
LINE
  5
864
330
1E
100
AcDbEntity
  8
0
100
AcDbLine
 10
374.798
 20
172.7089155
 30
0.0
 11
376.063
 21
172.4019155
 31
0.0
  0
LINE
  5
865
330
1E
100
AcDbEntity
  8
0
100
AcDbLine
 10
374.883
 20
157.8499155
 30
0.0
 11
374.883
 21
158.314472826079
 31
0.0
  0
LINE
  5
866
330
1E
100
AcDbEntity
  8
0
100
AcDbLine
 10
374.883
 20
157.8499155
 30
0.0
 11
376.343
 21
157.8499155
 31
0.0
  0
LINE
  5
867
330
1E
100
AcDbEntity
  8
0
100
AcDbLine
 10
374.883
 20
157.8499155
 30
0.0
 11
374.883
 21
158.4659155
 31
0.0
  0
LINE
  5
868
330
1E
100
AcDbEntity
  8
0
100
AcDbLine
 10
374.883
 20
158.314472826079
 30
0.0
 11
374.883
 21
157.8499155
 31
0.0
  0
LINE
  5
869
330
1E
100
AcDbEntity
  8
0
100
AcDbLine
 10
374.069
 20
147.058120979452
 30
0.0
 11
374.069
 21
145.9539155
 31
0.0
  0
LINE
  5
86A
330
1E
100
AcDbEntity
  8
0
100
AcDbLine
 10
374.069
 20
172.1749155
 30
0.0
 11
374.798
 21
172.7089155
 31
0.0
  0
LINE
  5
86B
330
1E
100
AcDbEntity
  8
0
100
AcDbLine
 10
374.069
 20
172.1749155
 30
0.0
 11
375.333
 21
171.8669155
 31
0.0
  0
LINE
  5
86C
330
1E
100
AcDbEntity
  8
0
100
AcDbLine
 10
371.246
 20
141.598458809484
 30
0.0
 11
371.246
 21
141.4039155
 31
0.0
  0
LINE
  5
86D
330
1E
100
AcDbEntity
  8
0
100
AcDbLine
 10
371.246
 20
141.598458809484
 30
0.0
 11
374.956
 21
142.0689155
 31
0.0
  0
LINE
  5
86E
330
1E
100
AcDbEntity
  8
0
100
AcDbLine
 10
370.419
 20
148.1709155
 30
0.0
 11
371.683
 21
148.4799155
 31
0.0
  0
LINE
  5
86F
330
1E
100
AcDbEntity
  8
0
100
AcDbLine
 10
371.683
 20
148.573432576035
 30
0.0
 11
371.683
 21
148.4799155
 31
0.0
  0
LINE
  5
870
330
1E
100
AcDbEntity
  8
0
100
AcDbLine
 10
370.953
 20
149.0149155
 30
0.0
 11
371.683
 21
148.4799155
 31
0.0
  0
LINE
  5
871
330
1E
100
AcDbEntity
  8
0
100
AcDbLine
 10
371.683
 20
170.126794450974
 30
0.0
 11
371.683
 21
168.7429155
 31
0.0
  0
LINE
  5
872
330
1E
100
AcDbEntity
  8
0
100
AcDbLine
 10
371.246
 20
177.6309155
 30
0.0
 11
371.246
 21
179.248807416578
 31
0.0
  0
LINE
  5
873
330
1E
100
AcDbEntity
  8
0
100
AcDbLine
 10
371.683
 20
168.7429155
 30
0.0
 11
371.683
 21
170.126794450974
 31
0.0
  0
LINE
  5
874
330
1E
100
AcDbEntity
  8
0
100
AcDbLine
 10
373.18
 20
161.8639155
 30
0.0
 11
373.18
 21
162.4809155
 31
0.0
  0
LINE
  5
875
330
1E
100
AcDbEntity
  8
0
100
AcDbLine
 10
373.18
 20
162.4809155
 30
0.0
 11
373.18
 21
161.8639155
 31
0.0
  0
LINE
  5
876
330
1E
100
AcDbEntity
  8
0
100
AcDbLine
 10
373.18
 20
162.4809155
 30
0.0
 11
373.18
 21
163.384795906168
 31
0.0
  0
LINE
  5
877
330
1E
100
AcDbEntity
  8
0
100
AcDbLine
 10
371.72
 20
162.36718820154
 30
0.0
 11
371.72
 21
161.8639155
 31
0.0
  0
LINE
  5
878
330
1E
100
AcDbEntity
  8
0
100
AcDbLine
 10
373.18
 20
163.384795906168
 30
0.0
 11
373.18
 21
162.4809155
 31
0.0
  0
LINE
  5
879
330
1E
100
AcDbEntity
  8
0
100
AcDbLine
 10
371.72
 20
162.4809155
 30
0.0
 11
371.72
 21
163.02091367332
 31
0.0
  0
LINE
  5
87A
330
1E
100
AcDbEntity
  8
0
100
AcDbLine
 10
371.72
 20
162.4809155
 30
0.0
 11
373.18
 21
162.4809155
 31
0.0
  0
LINE
  5
87B
330
1E
100
AcDbEntity
  8
0
100
AcDbLine
 10
371.72
 20
162.4809155
 30
0.0
 11
371.72
 21
161.8639155
 31
0.0
  0
LINE
  5
87C
330
1E
100
AcDbEntity
  8
0
100
AcDbLine
 10
371.72
 20
163.02091367332
 30
0.0
 11
371.72
 21
162.4809155
 31
0.0
  0
LINE
  5
87D
330
1E
100
AcDbEntity
  8
0
100
AcDbLine
 10
371.72
 20
161.8639155
 30
0.0
 11
371.72
 21
162.4809155
 31
0.0
  0
LINE
  5
87E
330
1E
100
AcDbEntity
  8
0
100
AcDbLine
 10
371.72
 20
161.8639155
 30
0.0
 11
371.72
 21
162.36718820154
 31
0.0
  0
LINE
  5
87F
330
1E
100
AcDbEntity
  8
0
100
AcDbLine
 10
371.72
 20
161.8639155
 30
0.0
 11
373.18
 21
161.8639155
 31
0.0
  0
LINE
  5
880
330
1E
100
AcDbEntity
  8
0
100
AcDbLine
 10
373.18
 20
154.4519155
 30
0.0
 11
373.18
 21
154.94469063587
 31
0.0
  0
LINE
  5
881
330
1E
100
AcDbEntity
  8
0
100
AcDbLine
 10
373.18
 20
154.4519155
 30
0.0
 11
373.18
 21
153.8349155
 31
0.0
  0
LINE
  5
882
330
1E
100
AcDbEntity
  8
0
100
AcDbLine
 10
373.18
 20
154.94469063587
 30
0.0
 11
373.18
 21
154.4519155
 31
0.0
  0
LINE
  5
883
330
1E
100
AcDbEntity
  8
0
100
AcDbLine
 10
373.18
 20
153.8349155
 30
0.0
 11
373.18
 21
154.4519155
 31
0.0
  0
LINE
  5
884
330
1E
100
AcDbEntity
  8
0
100
AcDbLine
 10
371.72
 20
154.4519155
 30
0.0
 11
371.72
 21
153.8349155
 31
0.0
  0
LINE
  5
885
330
1E
100
AcDbEntity
  8
0
100
AcDbLine
 10
371.72
 20
154.4519155
 30
0.0
 11
371.72
 21
155.22670603442
 31
0.0
  0
LINE
  5
886
330
1E
100
AcDbEntity
  8
0
100
AcDbLine
 10
371.72
 20
154.4519155
 30
0.0
 11
373.18
 21
154.4519155
 31
0.0
  0
LINE
  5
887
330
1E
100
AcDbEntity
  8
0
100
AcDbLine
 10
371.72
 20
155.22670603442
 30
0.0
 11
371.72
 21
154.4519155
 31
0.0
  0
LINE
  5
888
330
1E
100
AcDbEntity
  8
0
100
AcDbLine
 10
371.72
 20
154.646447977301
 30
0.0
 11
371.72
 21
153.8349155
 31
0.0
  0
LINE
  5
889
330
1E
100
AcDbEntity
  8
0
100
AcDbLine
 10
371.72
 20
153.8349155
 30
0.0
 11
371.72
 21
154.646447977301
 31
0.0
  0
LINE
  5
88A
330
1E
100
AcDbEntity
  8
0
100
AcDbLine
 10
371.72
 20
153.8349155
 30
0.0
 11
373.18
 21
153.8349155
 31
0.0
  0
LINE
  5
88B
330
1E
100
AcDbEntity
  8
0
100
AcDbLine
 10
371.72
 20
153.8349155
 30
0.0
 11
371.72
 21
154.4519155
 31
0.0
  0
LINE
  5
88C
330
1E
100
AcDbEntity
  8
0
100
AcDbLine
 10
370.953
 20
168.2089155
 30
0.0
 11
371.683
 21
168.7429155
 31
0.0
  0
LINE
  5
88D
330
1E
100
AcDbEntity
  8
0
100
AcDbLine
 10
370.516
 20
177.0969155
 30
0.0
 11
371.246
 21
177.6309155
 31
0.0
  0
LINE
  5
88E
330
1E
100
AcDbEntity
  8
0
100
AcDbLine
 10
371.683
 20
148.4799155
 30
0.0
 11
371.683
 21
148.573432576035
 31
0.0
  0
LINE
  5
88F
330
1E
100
AcDbEntity
  8
0
100
AcDbLine
 10
370.516
 20
141.9379155
 30
0.0
 11
371.246
 21
141.4039155
 31
0.0
  0
LINE
  5
890
330
1E
100
AcDbEntity
  8
0
100
AcDbLine
 10
370.419
 20
169.0509155
 30
0.0
 11
370.419
 21
169.488386642319
 31
0.0
  0
LINE
  5
891
330
1E
100
AcDbEntity
  8
0
100
AcDbLine
 10
370.419
 20
169.0509155
 30
0.0
 11
371.683
 21
168.7429155
 31
0.0
  0
LINE
  5
892
330
1E
100
AcDbEntity
  8
0
100
AcDbLine
 10
370.419
 20
169.488386642319
 30
0.0
 11
370.419
 21
169.0509155
 31
0.0
  0
LINE
  5
893
330
1E
100
AcDbEntity
  8
0
100
AcDbLine
 10
369.982
 20
177.9399155
 30
0.0
 11
369.982
 21
179.408899972523
 31
0.0
  0
LINE
  5
894
330
1E
100
AcDbEntity
  8
0
100
AcDbLine
 10
369.982
 20
177.9399155
 30
0.0
 11
371.246
 21
177.6309155
 31
0.0
  0
LINE
  5
895
330
1E
100
AcDbEntity
  8
0
100
AcDbLine
 10
369.982
 20
141.0949155
 30
0.0
 11
371.246
 21
141.4039155
 31
0.0
  0
LINE
  5
896
330
1E
100
AcDbEntity
  8
0
100
AcDbLine
 10
371.246
 20
141.4039155
 30
0.0
 11
371.246
 21
141.598458809484
 31
0.0
  0
LINE
  5
897
330
1E
100
AcDbEntity
  8
0
100
AcDbLine
 10
369.689
 20
148.7059155
 30
0.0
 11
369.689
 21
149.450101662014
 31
0.0
  0
LINE
  5
898
330
1E
100
AcDbEntity
  8
0
100
AcDbLine
 10
369.689
 20
148.7059155
 30
0.0
 11
370.419
 21
148.1709155
 31
0.0
  0
LINE
  5
899
330
1E
100
AcDbEntity
  8
0
100
AcDbLine
 10
369.689
 20
148.7059155
 30
0.0
 11
370.953
 21
149.0149155
 31
0.0
  0
LINE
  5
89A
330
1E
100
AcDbEntity
  8
0
100
AcDbLine
 10
369.689
 20
149.450101662014
 30
0.0
 11
369.689
 21
148.7059155
 31
0.0
  0
LINE
  5
89B
330
1E
100
AcDbEntity
  8
0
100
AcDbLine
 10
369.689
 20
168.5169155
 30
0.0
 11
369.689
 21
168.982362494348
 31
0.0
  0
LINE
  5
89C
330
1E
100
AcDbEntity
  8
0
100
AcDbLine
 10
369.689
 20
168.5169155
 30
0.0
 11
370.419
 21
169.0509155
 31
0.0
  0
LINE
  5
89D
330
1E
100
AcDbEntity
  8
0
100
AcDbLine
 10
369.689
 20
168.5169155
 30
0.0
 11
370.953
 21
168.2089155
 31
0.0
  0
LINE
  5
89E
330
1E
100
AcDbEntity
  8
0
100
AcDbLine
 10
369.689
 20
168.982362494348
 30
0.0
 11
369.689
 21
168.5169155
 31
0.0
  0
LINE
  5
89F
330
1E
100
AcDbEntity
  8
0
100
AcDbLine
 10
363.423
 20
201.2779155
 30
0.0
 11
369.92
 21
200.7229155
 31
0.0
  0
LINE
  5
8A0
330
1E
100
AcDbEntity
  8
0
100
AcDbLine
 10
363.423
 20
182.2449155
 30
0.0
 11
369.92
 21
181.6899155
 31
0.0
  0
LINE
  5
8A1
330
1E
100
AcDbEntity
  8
0
100
AcDbLine
 10
369.409
 20
180.5059155
 30
0.0
 11
375.832
 21
179.6109155
 31
0.0
  0
LINE
  5
8A2
330
1E
100
AcDbEntity
  8
0
100
AcDbLine
 10
368.387
 20
179.6109155
 30
0.0
 11
374.956
 21
178.7789155
 31
0.0
  0
LINE
  5
8A3
330
1E
100
AcDbEntity
  8
0
100
AcDbLine
 10
369.409
 20
140.3419155
 30
0.0
 11
375.832
 21
141.2359155
 31
0.0
  0
LINE
  5
8A4
330
1E
100
AcDbEntity
  8
0
100
AcDbLine
 10
369.251
 20
141.6299155
 30
0.0
 11
369.982
 21
141.0949155
 31
0.0
  0
LINE
  5
8A5
330
1E
100
AcDbEntity
  8
0
100
AcDbLine
 10
369.251
 20
141.6299155
 30
0.0
 11
370.516
 21
141.9379155
 31
0.0
  0
LINE
  5
8A6
330
1E
100
AcDbEntity
  8
0
100
AcDbLine
 10
369.251
 20
177.4059155
 30
0.0
 11
369.982
 21
177.9399155
 31
0.0
  0
LINE
  5
8A7
330
1E
100
AcDbEntity
  8
0
100
AcDbLine
 10
369.251
 20
177.4059155
 30
0.0
 11
370.516
 21
177.0969155
 31
0.0
  0
LINE
  5
8A8
330
1E
100
AcDbEntity
  8
0
100
AcDbLine
 10
368.616
 20
136.4189155
 30
0.0
 11
369.0
 21
133.2409155
 31
0.0
  0
LINE
  5
8A9
330
1E
100
AcDbEntity
  8
0
100
AcDbLine
 10
369.0
 20
133.2409155
 30
0.0
 11
369.0
 21
61.2064155
 31
0.0
  0
LINE
  5
8AA
330
1E
100
AcDbEntity
  8
0
100
AcDbLine
 10
368.616
 20
130.1519155
 30
0.0
 11
369.0
 21
133.2409155
 31
0.0
  0
LINE
  5
8AB
330
1E
100
AcDbEntity
  8
0
100
AcDbLine
 10
366.039
 20
165.3919155
 30
0.0
 11
366.039
 21
166.452241754496
 31
0.0
  0
LINE
  5
8AC
330
1E
100
AcDbEntity
  8
0
100
AcDbLine
 10
366.039
 20
165.3919155
 30
0.0
 11
367.304
 21
165.0839155
 31
0.0
  0
LINE
  5
8AD
330
1E
100
AcDbEntity
  8
0
100
AcDbLine
 10
366.196
 20
173.3439155
 30
0.0
 11
366.926
 21
173.8779155
 31
0.0
  0
LINE
  5
8AE
330
1E
100
AcDbEntity
  8
0
100
AcDbLine
 10
367.304
 20
165.387675396171
 30
0.0
 11
367.304
 21
165.0839155
 31
0.0
  0
LINE
  5
8AF
330
1E
100
AcDbEntity
  8
0
100
AcDbLine
 10
366.574
 20
164.5489155
 30
0.0
 11
367.304
 21
165.0839155
 31
0.0
  0
LINE
  5
8B0
330
1E
100
AcDbEntity
  8
0
100
AcDbLine
 10
367.304
 20
165.0839155
 30
0.0
 11
367.304
 21
165.387675396171
 31
0.0
  0
LINE
  5
8B1
330
1E
100
AcDbEntity
  8
0
100
AcDbLine
 10
365.31
 20
164.8579155
 30
0.0
 11
365.31
 21
165.946910790289
 31
0.0
  0
LINE
  5
8B2
330
1E
100
AcDbEntity
  8
0
100
AcDbLine
 10
365.31
 20
164.8579155
 30
0.0
 11
366.039
 21
165.3919155
 31
0.0
  0
LINE
  5
8B3
330
1E
100
AcDbEntity
  8
0
100
AcDbLine
 10
365.31
 20
164.8579155
 30
0.0
 11
366.574
 21
164.5489155
 31
0.0
  0
LINE
  5
8B4
330
1E
100
AcDbEntity
  8
0
100
AcDbLine
 10
365.31
 20
165.946910790289
 30
0.0
 11
365.31
 21
164.8579155
 31
0.0
  0
LINE
  5
8B5
330
1E
100
AcDbEntity
  8
0
100
AcDbLine
 10
366.039
 20
166.452241754496
 30
0.0
 11
366.039
 21
165.3919155
 31
0.0
  0
LINE
  5
8B6
330
1E
100
AcDbEntity
  8
0
100
AcDbLine
 10
365.661
 20
174.1869155
 30
0.0
 11
366.926
 21
173.8779155
 31
0.0
  0
LINE
  5
8B7
330
1E
100
AcDbEntity
  8
0
100
AcDbLine
 10
364.931
 20
173.6529155
 30
0.0
 11
365.661
 21
174.1869155
 31
0.0
  0
LINE
  5
8B8
330
1E
100
AcDbEntity
  8
0
100
AcDbLine
 10
364.931
 20
173.6529155
 30
0.0
 11
366.196
 21
173.3439155
 31
0.0
  0
LINE
  5
8B9
330
1E
100
AcDbEntity
  8
0
100
AcDbLine
 10
368.387
 20
141.2359155
 30
0.0
 11
369.582249704487
 21
141.387482405745
 31
0.0
  0
LINE
  5
8BA
330
1E
100
AcDbEntity
  8
0
100
AcDbLine
 10
365.64
 20
140.015961382159
 30
0.0
 11
365.64
 21
133.2409155
 31
0.0
  0
LINE
  5
8BB
330
1E
100
AcDbEntity
  8
0
100
AcDbLine
 10
366.780256083385
 20
140.114574055487
 30
0.0
 11
367.368
 21
139.3309155
 31
0.0
  0
LINE
  5
8BC
330
1E
100
AcDbEntity
  8
0
100
AcDbLine
 10
367.304
 20
152.351035119295
 30
0.0
 11
367.304
 21
151.2329155
 31
0.0
  0
LINE
  5
8BD
330
1E
100
AcDbEntity
  8
0
100
AcDbLine
 10
367.999
 20
154.9179155
 30
0.0
 11
368.262
 21
155.1849155
 31
0.0
  0
LINE
  5
8BE
330
1E
100
AcDbEntity
  8
0
100
AcDbLine
 10
368.262
 20
155.1849155
 30
0.0
 11
368.341
 21
155.4589155
 31
0.0
  0
LINE
  5
8BF
330
1E
100
AcDbEntity
  8
0
100
AcDbLine
 10
368.262
 20
155.1849155
 30
0.0
 11
368.63136868048
 21
155.878192100286
 31
0.0
  0
LINE
  5
8C0
330
1E
100
AcDbEntity
  8
0
100
AcDbLine
 10
368.229
 20
155.7369155
 30
0.0
 11
368.341
 21
155.4589155
 31
0.0
  0
LINE
  5
8C1
330
1E
100
AcDbEntity
  8
0
100
AcDbLine
 10
367.998
 20
155.9989155
 30
0.0
 11
368.229
 21
155.7369155
 31
0.0
  0
LINE
  5
8C2
330
1E
100
AcDbEntity
  8
0
100
AcDbLine
 10
367.606
 20
156.2199155
 30
0.0
 11
367.998
 21
155.9989155
 31
0.0
  0
LINE
  5
8C3
330
1E
100
AcDbEntity
  8
0
100
AcDbLine
 10
367.061
 20
156.3959155
 30
0.0
 11
367.606
 21
156.2199155
 31
0.0
  0
LINE
  5
8C4
330
1E
100
AcDbEntity
  8
0
100
AcDbLine
 10
367.582
 20
154.6869155
 30
0.0
 11
367.999
 21
154.9179155
 31
0.0
  0
LINE
  5
8C5
330
1E
100
AcDbEntity
  8
0
100
AcDbLine
 10
367.061
 20
154.5229155
 30
0.0
 11
367.582
 21
154.6869155
 31
0.0
  0
LINE
  5
8C6
330
1E
100
AcDbEntity
  8
0
100
AcDbLine
 10
367.304
 20
151.2329155
 30
0.0
 11
367.304
 21
152.351035119295
 31
0.0
  0
LINE
  5
8C7
330
1E
100
AcDbEntity
  8
0
100
AcDbLine
 10
366.926
 20
145.400819705608
 30
0.0
 11
366.926
 21
144.2499155
 31
0.0
  0
LINE
  5
8C8
330
1E
100
AcDbEntity
  8
0
100
AcDbLine
 10
366.926
 20
144.2499155
 30
0.0
 11
366.926
 21
145.400819705608
 31
0.0
  0
LINE
  5
8C9
330
1E
100
AcDbEntity
  8
0
100
AcDbLine
 10
366.039
 20
150.9239155
 30
0.0
 11
367.304
 21
151.2329155
 31
0.0
  0
LINE
  5
8CA
330
1E
100
AcDbEntity
  8
0
100
AcDbLine
 10
366.574
 20
151.7669155
 30
0.0
 11
366.574
 21
152.641056029238
 31
0.0
  0
LINE
  5
8CB
330
1E
100
AcDbEntity
  8
0
100
AcDbLine
 10
366.574
 20
151.7669155
 30
0.0
 11
367.304
 21
151.2329155
 31
0.0
  0
LINE
  5
8CC
330
1E
100
AcDbEntity
  8
0
100
AcDbLine
 10
366.574
 20
152.641056029238
 30
0.0
 11
366.574
 21
151.7669155
 31
0.0
  0
LINE
  5
8CD
330
1E
100
AcDbEntity
  8
0
100
AcDbLine
 10
365.781
 20
156.5399155
 30
0.0
 11
366.428
 21
156.5069155
 31
0.0
  0
LINE
  5
8CE
330
1E
100
AcDbEntity
  8
0
100
AcDbLine
 10
366.428
 20
156.5069155
 30
0.0
 11
367.061
 21
156.3959155
 31
0.0
  0
LINE
  5
8CF
330
1E
100
AcDbEntity
  8
0
100
AcDbLine
 10
366.437
 20
154.4249155
 30
0.0
 11
367.061
 21
154.5229155
 31
0.0
  0
LINE
  5
8D0
330
1E
100
AcDbEntity
  8
0
100
AcDbLine
 10
365.782
 20
154.3769155
 30
0.0
 11
366.437
 21
154.4249155
 31
0.0
  0
LINE
  5
8D1
330
1E
100
AcDbEntity
  8
0
100
AcDbLine
 10
363.564
 20
155.9999155
 30
0.0
 11
363.981
 21
156.2299155
 31
0.0
  0
LINE
  5
8D2
330
1E
100
AcDbEntity
  8
0
100
AcDbLine
 10
363.981
 20
156.2299155
 30
0.0
 11
364.502
 21
156.3959155
 31
0.0
  0
LINE
  5
8D3
330
1E
100
AcDbEntity
  8
0
100
AcDbLine
 10
364.502
 20
156.3959155
 30
0.0
 11
365.126
 21
156.4939155
 31
0.0
  0
LINE
  5
8D4
330
1E
100
AcDbEntity
  8
0
100
AcDbLine
 10
365.126
 20
156.4939155
 30
0.0
 11
365.781
 21
156.5399155
 31
0.0
  0
LINE
  5
8D5
330
1E
100
AcDbEntity
  8
0
100
AcDbLine
 10
365.134
 20
154.4109155
 30
0.0
 11
365.782
 21
154.3769155
 31
0.0
  0
LINE
  5
8D6
330
1E
100
AcDbEntity
  8
0
100
AcDbLine
 10
364.501
 20
154.5219155
 30
0.0
 11
365.134
 21
154.4109155
 31
0.0
  0
LINE
  5
8D7
330
1E
100
AcDbEntity
  8
0
100
AcDbLine
 10
363.565
 20
154.9179155
 30
0.0
 11
363.956
 21
154.6989155
 31
0.0
  0
LINE
  5
8D8
330
1E
100
AcDbEntity
  8
0
100
AcDbLine
 10
363.956
 20
154.6989155
 30
0.0
 11
364.501
 21
154.5219155
 31
0.0
  0
LINE
  5
8D9
330
1E
100
AcDbEntity
  8
0
100
AcDbLine
 10
365.31
 20
151.4579155
 30
0.0
 11
365.31
 21
151.80571717837
 31
0.0
  0
LINE
  5
8DA
330
1E
100
AcDbEntity
  8
0
100
AcDbLine
 10
365.31
 20
151.4579155
 30
0.0
 11
366.039
 21
150.9239155
 31
0.0
  0
LINE
  5
8DB
330
1E
100
AcDbEntity
  8
0
100
AcDbLine
 10
365.31
 20
151.4579155
 30
0.0
 11
366.574
 21
151.7669155
 31
0.0
  0
LINE
  5
8DC
330
1E
100
AcDbEntity
  8
0
100
AcDbLine
 10
365.31
 20
151.80571717837
 30
0.0
 11
365.31
 21
151.4579155
 31
0.0
  0
LINE
  5
8DD
330
1E
100
AcDbEntity
  8
0
100
AcDbLine
 10
365.661
 20
143.9419155
 30
0.0
 11
366.926
 21
144.2499155
 31
0.0
  0
LINE
  5
8DE
330
1E
100
AcDbEntity
  8
0
100
AcDbLine
 10
366.196
 20
144.7849155
 30
0.0
 11
366.196
 21
145.703720087935
 31
0.0
  0
LINE
  5
8DF
330
1E
100
AcDbEntity
  8
0
100
AcDbLine
 10
366.196
 20
144.7849155
 30
0.0
 11
366.926
 21
144.2499155
 31
0.0
  0
LINE
  5
8E0
330
1E
100
AcDbEntity
  8
0
100
AcDbLine
 10
366.196
 20
145.703720087935
 30
0.0
 11
366.196
 21
144.7849155
 31
0.0
  0
LINE
  5
8E1
330
1E
100
AcDbEntity
  8
0
100
AcDbLine
 10
364.931
 20
144.4759155
 30
0.0
 11
365.661
 21
143.9419155
 31
0.0
  0
LINE
  5
8E2
330
1E
100
AcDbEntity
  8
0
100
AcDbLine
 10
364.931
 20
144.4759155
 30
0.0
 11
366.196
 21
144.7849155
 31
0.0
  0
LINE
  5
8E3
330
1E
100
AcDbEntity
  8
0
100
AcDbLine
 10
365.352
 20
131.0349155
 30
0.0
 11
365.64
 21
133.2409155
 31
0.0
  0
LINE
  5
8E4
330
1E
100
AcDbEntity
  8
0
100
AcDbLine
 10
365.64
 20
133.2409155
 30
0.0
 11
365.64
 21
140.015961382159
 31
0.0
  0
LINE
  5
8E5
330
1E
100
AcDbEntity
  8
0
100
AcDbLine
 10
367.368
 20
139.3309155
 30
0.0
 11
368.616
 21
136.4189155
 31
0.0
  0
LINE
  5
8E6
330
1E
100
AcDbEntity
  8
0
100
AcDbLine
 10
367.368
 20
127.2399155
 30
0.0
 11
368.616
 21
130.1519155
 31
0.0
  0
LINE
  5
8E7
330
1E
100
AcDbEntity
  8
0
100
AcDbLine
 10
365.448
 20
124.6799155
 30
0.0
 11
367.368
 21
127.2399155
 31
0.0
  0
LINE
  5
8E8
330
1E
100
AcDbEntity
  8
0
100
AcDbLine
 10
364.488
 20
128.9169155
 30
0.0
 11
365.352
 21
131.0349155
 31
0.0
  0
LINE
  5
8E9
330
1E
100
AcDbEntity
  8
0
100
AcDbLine
 10
363.35
 20
181.0299155
 30
0.0
 11
369.409
 21
180.5059155
 31
0.0
  0
LINE
  5
8EA
330
1E
100
AcDbEntity
  8
0
100
AcDbLine
 10
363.204
 20
180.1359155
 30
0.0
 11
368.387
 21
179.6109155
 31
0.0
  0
LINE
  5
8EB
330
1E
100
AcDbEntity
  8
0
100
AcDbLine
 10
363.35
 20
139.8179155
 30
0.0
 11
369.409
 21
140.3419155
 31
0.0
  0
LINE
  5
8EC
330
1E
100
AcDbEntity
  8
0
100
AcDbLine
 10
363.301
 20
155.7319155
 30
0.0
 11
363.564
 21
155.9999155
 31
0.0
  0
LINE
  5
8ED
330
1E
100
AcDbEntity
  8
0
100
AcDbLine
 10
363.334
 20
155.1819155
 30
0.0
 11
363.565
 21
154.9179155
 31
0.0
  0
LINE
  5
8EE
330
1E
100
AcDbEntity
  8
0
100
AcDbLine
 10
363.222
 20
155.4589155
 30
0.0
 11
363.334
 21
155.1819155
 31
0.0
  0
LINE
  5
8EF
330
1E
100
AcDbEntity
  8
0
100
AcDbLine
 10
363.222
 20
155.4589155
 30
0.0
 11
363.301
 21
155.7319155
 31
0.0
  0
LINE
  5
8F0
330
1E
100
AcDbEntity
  8
0
100
AcDbLine
 10
358.0
 20
139.635931248032
 30
0.0
 11
363.35
 21
139.8179155
 31
0.0
  0
LINE
  5
8F1
330
1E
100
AcDbEntity
  8
0
100
AcDbLine
 10
361.216
 20
140.652634391038
 30
0.0
 11
361.216
 21
140.5799155
 31
0.0
  0
LINE
  5
8F2
330
1E
100
AcDbEntity
  8
0
100
AcDbLine
 10
361.216
 20
140.652634391038
 30
0.0
 11
363.204
 21
140.7119155
 31
0.0
  0
LINE
  5
8F3
330
1E
100
AcDbEntity
  8
0
100
AcDbLine
 10
363.204
 20
140.7119155
 30
0.0
 11
368.387
 21
141.2359155
 31
0.0
  0
LINE
  5
8F4
330
1E
100
AcDbEntity
  8
0
100
AcDbLine
 10
361.59
 20
147.0859155
 30
0.0
 11
362.854
 21
147.3949155
 31
0.0
  0
LINE
  5
8F5
330
1E
100
AcDbEntity
  8
0
100
AcDbLine
 10
362.125
 20
147.9289155
 30
0.0
 11
362.854
 21
147.3949155
 31
0.0
  0
LINE
  5
8F6
330
1E
100
AcDbEntity
  8
0
100
AcDbLine
 10
362.125
 20
169.2939155
 30
0.0
 11
362.854
 21
169.8279155
 31
0.0
  0
LINE
  5
8F7
330
1E
100
AcDbEntity
  8
0
100
AcDbLine
 10
362.784
 20
158.7019155
 30
0.0
 11
363.0
 21
158.0529155
 31
0.0
  0
LINE
  5
8F8
330
1E
100
AcDbEntity
  8
0
100
AcDbLine
 10
362.208
 20
159.3099155
 30
0.0
 11
362.784
 21
158.7019155
 31
0.0
  0
LINE
  5
8F9
330
1E
100
AcDbEntity
  8
0
100
AcDbLine
 10
363.0
 20
158.0529155
 30
0.0
 11
363.0
 21
158.6119155
 31
0.0
  0
LINE
  5
8FA
330
1E
100
AcDbEntity
  8
0
100
AcDbLine
 10
362.784
 20
157.4029155
 30
0.0
 11
363.0
 21
158.0529155
 31
0.0
  0
LINE
  5
8FB
330
1E
100
AcDbEntity
  8
0
100
AcDbLine
 10
363.0
 20
158.6119155
 30
0.0
 11
363.0
 21
158.0529155
 31
0.0
  0
LINE
  5
8FC
330
1E
100
AcDbEntity
  8
0
100
AcDbLine
 10
362.208
 20
156.7949155
 30
0.0
 11
362.784
 21
157.4029155
 31
0.0
  0
LINE
  5
8FD
330
1E
100
AcDbEntity
  8
0
100
AcDbLine
 10
362.810636480609
 20
156.155668104706
 30
0.0
 11
363.334
 21
155.1819155
 31
0.0
  0
LINE
  5
8FE
330
1E
100
AcDbEntity
  8
0
100
AcDbLine
 10
361.59
 20
170.1369155
 30
0.0
 11
362.854
 21
169.8279155
 31
0.0
  0
LINE
  5
8FF
330
1E
100
AcDbEntity
  8
0
100
AcDbLine
 10
361.248
 20
159.8479155
 30
0.0
 11
362.208
 21
159.3099155
 31
0.0
  0
LINE
  5
900
330
1E
100
AcDbEntity
  8
0
100
AcDbLine
 10
361.248
 20
156.2569155
 30
0.0
 11
362.208
 21
156.7949155
 31
0.0
  0
LINE
  5
901
330
1E
100
AcDbEntity
  8
0
100
AcDbLine
 10
358.0
 20
140.556734971309
 30
0.0
 11
359.500121390284
 21
140.601467798066
 31
0.0
  0
LINE
  5
902
330
1E
100
AcDbEntity
  8
0
100
AcDbLine
 10
361.216
 20
140.5799155
 30
0.0
 11
361.216
 21
140.652634391038
 31
0.0
  0
LINE
  5
903
330
1E
100
AcDbEntity
  8
0
100
AcDbLine
 10
360.486
 20
141.1139155
 30
0.0
 11
361.216
 21
140.5799155
 31
0.0
  0
LINE
  5
904
330
1E
100
AcDbEntity
  8
0
100
AcDbLine
 10
360.86
 20
147.6199155
 30
0.0
 11
361.59
 21
147.0859155
 31
0.0
  0
LINE
  5
905
330
1E
100
AcDbEntity
  8
0
100
AcDbLine
 10
360.86
 20
147.6199155
 30
0.0
 11
362.125
 21
147.9289155
 31
0.0
  0
LINE
  5
906
330
1E
100
AcDbEntity
  8
0
100
AcDbLine
 10
359.952
 20
178.7639155
 30
0.0
 11
359.952
 21
180.232888420696
 31
0.0
  0
LINE
  5
907
330
1E
100
AcDbEntity
  8
0
100
AcDbLine
 10
359.952
 20
178.7639155
 30
0.0
 11
361.216
 21
178.4549155
 31
0.0
  0
LINE
  5
908
330
1E
100
AcDbEntity
  8
0
100
AcDbLine
 10
359.952
 20
180.232888420696
 30
0.0
 11
359.952
 21
178.7639155
 31
0.0
  0
LINE
  5
909
330
1E
100
AcDbEntity
  8
0
100
AcDbLine
 10
360.486
 20
177.9209155
 30
0.0
 11
361.216
 21
178.4549155
 31
0.0
  0
LINE
  5
90A
330
1E
100
AcDbEntity
  8
0
100
AcDbLine
 10
360.86
 20
169.6019155
 30
0.0
 11
361.59
 21
170.1369155
 31
0.0
  0
LINE
  5
90B
330
1E
100
AcDbEntity
  8
0
100
AcDbLine
 10
360.86
 20
169.6019155
 30
0.0
 11
362.125
 21
169.2939155
 31
0.0
  0
LINE
  5
90C
330
1E
100
AcDbEntity
  8
0
100
AcDbLine
 10
359.222
 20
178.2299155
 30
0.0
 11
359.952
 21
178.7639155
 31
0.0
  0
LINE
  5
90D
330
1E
100
AcDbEntity
  8
0
100
AcDbLine
 10
359.222
 20
178.2299155
 30
0.0
 11
360.486
 21
177.9209155
 31
0.0
  0
LINE
  5
90E
330
1E
100
AcDbEntity
  8
0
100
AcDbLine
 10
358.0
 20
144.0219155
 30
0.0
 11
358.0
 21
137.9389155
 31
0.0
  0
LINE
  5
90F
330
1E
100
AcDbEntity
  8
0
100
AcDbLine
 10
359.976
 20
160.2539155
 30
0.0
 11
361.248
 21
159.8479155
 31
0.0
  0
LINE
  5
910
330
1E
100
AcDbEntity
  8
0
100
AcDbLine
 10
358.536
 20
160.4969155
 30
0.0
 11
359.976
 21
160.2539155
 31
0.0
  0
LINE
  5
911
330
1E
100
AcDbEntity
  8
0
100
AcDbLine
 10
358.787
 20
162.6399155
 30
0.0
 11
359.211
 21
162.4239155
 31
0.0
  0
LINE
  5
912
330
1E
100
AcDbEntity
  8
0
100
AcDbLine
 10
359.211
 20
162.4239155
 30
0.0
 11
359.467
 21
162.1699155
 31
0.0
  0
LINE
  5
913
330
1E
100
AcDbEntity
  8
0
100
AcDbLine
 10
359.467
 20
162.1699155
 30
0.0
 11
359.555
 21
161.8829155
 31
0.0
  0
LINE
  5
914
330
1E
100
AcDbEntity
  8
0
100
AcDbLine
 10
359.467
 20
161.5959155
 30
0.0
 11
359.555
 21
161.8829155
 31
0.0
  0
LINE
  5
915
330
1E
100
AcDbEntity
  8
0
100
AcDbLine
 10
358.787
 20
161.1259155
 30
0.0
 11
359.211
 21
161.3419155
 31
0.0
  0
LINE
  5
916
330
1E
100
AcDbEntity
  8
0
100
AcDbLine
 10
359.211
 20
161.3419155
 30
0.0
 11
359.467
 21
161.5959155
 31
0.0
  0
LINE
  5
917
330
1E
100
AcDbEntity
  8
0
100
AcDbLine
 10
358.275
 20
162.8189155
 30
0.0
 11
358.787
 21
162.6399155
 31
0.0
  0
LINE
  5
918
330
1E
100
AcDbEntity
  8
0
100
AcDbLine
 10
358.275
 20
160.9459155
 30
0.0
 11
358.787
 21
161.1259155
 31
0.0
  0
LINE
  5
919
330
1E
100
AcDbEntity
  8
0
100
AcDbLine
 10
359.976
 20
155.8519155
 30
0.0
 11
361.248
 21
156.2569155
 31
0.0
  0
LINE
  5
91A
330
1E
100
AcDbEntity
  8
0
100
AcDbLine
 10
358.536
 20
155.6079155
 30
0.0
 11
359.976
 21
155.8519155
 31
0.0
  0
LINE
  5
91B
330
1E
100
AcDbEntity
  8
0
100
AcDbLine
 10
357.675
 20
162.9279155
 30
0.0
 11
358.275
 21
162.8189155
 31
0.0
  0
LINE
  5
91C
330
1E
100
AcDbEntity
  8
0
100
AcDbLine
 10
357.675
 20
160.8379155
 30
0.0
 11
358.275
 21
160.9459155
 31
0.0
  0
LINE
  5
91D
330
1E
100
AcDbEntity
  8
0
100
AcDbLine
 10
359.222
 20
140.8049155
 30
0.0
 11
359.952
 21
140.2709155
 31
0.0
  0
LINE
  5
91E
330
1E
100
AcDbEntity
  8
0
100
AcDbLine
 10
359.222
 20
140.8049155
 30
0.0
 11
360.486
 21
141.1139155
 31
0.0
  0
LINE
  5
91F
330
1E
100
AcDbEntity
  8
0
100
AcDbLine
 10
359.952
 20
140.2709155
 30
0.0
 11
361.216
 21
140.5799155
 31
0.0
  0
LINE
  5
920
330
1E
100
AcDbEntity
  8
0
100
AcDbLine
 10
363.144
 20
127.0629155
 30
0.0
 11
364.488
 21
128.9169155
 31
0.0
  0
LINE
  5
921
330
1E
100
AcDbEntity
  8
0
100
AcDbLine
 10
361.32
 20
125.6509155
 30
0.0
 11
363.144
 21
127.0629155
 31
0.0
  0
LINE
  5
922
330
1E
100
AcDbEntity
  8
0
100
AcDbLine
 10
358.0
 20
137.9389155
 30
0.0
 11
358.0
 21
144.0219155
 31
0.0
  0
LINE
  5
923
330
1E
100
AcDbEntity
  8
0
100
AcDbLine
 10
358.0
 20
137.9389155
 30
0.0
 11
358.0
 21
135.9589155
 31
0.0
  0
LINE
  5
924
330
1E
100
AcDbEntity
  8
0
100
AcDbLine
 10
358.0
 20
135.9589155
 30
0.0
 11
358.0
 21
137.9389155
 31
0.0
  0
LINE
  5
925
330
1E
100
AcDbEntity
  8
0
100
AcDbLine
 10
358.0
 20
135.9589155
 30
0.0
 11
358.0
 21
135.3069155
 31
0.0
  0
LINE
  5
926
330
1E
100
AcDbEntity
  8
0
100
AcDbLine
 10
358.0
 20
135.3069155
 30
0.0
 11
358.0
 21
135.9589155
 31
0.0
  0
LINE
  5
927
330
1E
100
AcDbEntity
  8
0
100
AcDbLine
 10
358.0
 20
135.3069155
 30
0.0
 11
358.0
 21
134.9749155
 31
0.0
  0
LINE
  5
928
330
1E
100
AcDbEntity
  8
0
100
AcDbLine
 10
358.0
 20
134.9749155
 30
0.0
 11
358.0
 21
135.3069155
 31
0.0
  0
LINE
  5
929
330
1E
100
AcDbEntity
  8
0
100
AcDbLine
 10
359.208
 20
124.8569155
 30
0.0
 11
361.32
 21
125.6509155
 31
0.0
  0
LINE
  5
92A
330
1E
100
AcDbEntity
  8
0
100
AcDbLine
 10
362.952
 20
122.7389155
 30
0.0
 11
365.448
 21
124.6799155
 31
0.0
  0
LINE
  5
92B
330
1E
100
AcDbEntity
  8
0
100
AcDbLine
 10
360.072
 20
121.5029155
 30
0.0
 11
362.952
 21
122.7389155
 31
0.0
  0
LINE
  5
92C
330
1E
100
AcDbEntity
  8
0
100
AcDbLine
 10
357.0
 20
201.4939155
 30
0.0
 11
363.423
 21
201.2779155
 31
0.0
  0
LINE
  5
92D
330
1E
100
AcDbEntity
  8
0
100
AcDbLine
 10
350.65
 20
201.8759155
 30
0.0
 11
357.0
 21
202.0909155
 31
0.0
  0
LINE
  5
92E
330
1E
100
AcDbEntity
  8
0
100
AcDbLine
 10
357.0
 20
182.4619155
 30
0.0
 11
363.423
 21
182.2449155
 31
0.0
  0
LINE
  5
92F
330
1E
100
AcDbEntity
  8
0
100
AcDbLine
 10
357.0
 20
181.2469155
 30
0.0
 11
363.35
 21
181.0299155
 31
0.0
  0
LINE
  5
930
330
1E
100
AcDbEntity
  8
0
100
AcDbLine
 10
311.599
 20
189.2279155
 30
0.0
 11
314.299
 21
191.6339155
 31
0.0
  0
LINE
  5
931
330
1E
100
AcDbEntity
  8
0
100
AcDbLine
 10
314.299
 20
191.6339155
 30
0.0
 11
317.949
 21
193.9169155
 31
0.0
  0
LINE
  5
932
330
1E
100
AcDbEntity
  8
0
100
AcDbLine
 10
317.949
 20
193.9169155
 30
0.0
 11
322.182
 21
195.9839155
 31
0.0
  0
LINE
  5
933
330
1E
100
AcDbEntity
  8
0
100
AcDbLine
 10
344.591
 20
201.3509155
 30
0.0
 11
350.65
 21
201.8759155
 31
0.0
  0
LINE
  5
934
330
1E
100
AcDbEntity
  8
0
100
AcDbLine
 10
338.168
 20
200.4569155
 30
0.0
 11
344.591
 21
201.3509155
 31
0.0
  0
LINE
  5
935
330
1E
100
AcDbEntity
  8
0
100
AcDbLine
 10
350.577
 20
201.2779155
 30
0.0
 11
357.0
 21
201.4939155
 31
0.0
  0
LINE
  5
936
330
1E
100
AcDbEntity
  8
0
100
AcDbLine
 10
344.08
 20
200.7229155
 30
0.0
 11
350.577
 21
201.2779155
 31
0.0
  0
LINE
  5
937
330
1E
100
AcDbEntity
  8
0
100
AcDbLine
 10
332.474
 20
199.3159155
 30
0.0
 11
338.168
 21
200.4569155
 31
0.0
  0
LINE
  5
938
330
1E
100
AcDbEntity
  8
0
100
AcDbLine
 10
337.876
 20
199.8589155
 30
0.0
 11
344.08
 21
200.7229155
 31
0.0
  0
LINE
  5
939
330
1E
100
AcDbEntity
  8
0
100
AcDbLine
 10
327.073
 20
197.7729155
 30
0.0
 11
332.474
 21
199.3159155
 31
0.0
  0
LINE
  5
93A
330
1E
100
AcDbEntity
  8
0
100
AcDbLine
 10
332.109
 20
198.6559155
 30
0.0
 11
337.876
 21
199.8589155
 31
0.0
  0
LINE
  5
93B
330
1E
100
AcDbEntity
  8
0
100
AcDbLine
 10
322.182
 20
195.9839155
 30
0.0
 11
327.073
 21
197.7729155
 31
0.0
  0
LINE
  5
93C
330
1E
100
AcDbEntity
  8
0
100
AcDbLine
 10
326.635
 20
197.1139155
 30
0.0
 11
332.109
 21
198.6559155
 31
0.0
  0
LINE
  5
93D
330
1E
100
AcDbEntity
  8
0
100
AcDbLine
 10
321.672
 20
195.2929155
 30
0.0
 11
326.635
 21
197.1139155
 31
0.0
  0
LINE
  5
93E
330
1E
100
AcDbEntity
  8
0
100
AcDbLine
 10
317.365
 20
193.1959155
 30
0.0
 11
321.672
 21
195.2929155
 31
0.0
  0
LINE
  5
93F
330
1E
100
AcDbEntity
  8
0
100
AcDbLine
 10
313.715
 20
190.8809155
 30
0.0
 11
317.365
 21
193.1959155
 31
0.0
  0
LINE
  5
940
330
1E
100
AcDbEntity
  8
0
100
AcDbLine
 10
350.577
 20
182.2449155
 30
0.0
 11
357.0
 21
182.4619155
 31
0.0
  0
LINE
  5
941
330
1E
100
AcDbEntity
  8
0
100
AcDbLine
 10
344.08
 20
181.6899155
 30
0.0
 11
350.577
 21
182.2449155
 31
0.0
  0
LINE
  5
942
330
1E
100
AcDbEntity
  8
0
100
AcDbLine
 10
307.511
 20
183.0779155
 30
0.0
 11
308.825
 21
185.8229155
 31
0.0
  0
LINE
  5
943
330
1E
100
AcDbEntity
  8
0
100
AcDbLine
 10
308.825
 20
185.8229155
 30
0.0
 11
310.869
 21
188.4449155
 31
0.0
  0
LINE
  5
944
330
1E
100
AcDbEntity
  8
0
100
AcDbLine
 10
310.869
 20
188.4449155
 30
0.0
 11
313.715
 21
190.8809155
 31
0.0
  0
LINE
  5
945
330
1E
100
AcDbEntity
  8
0
100
AcDbLine
 10
310.869
 20
188.4449155
 30
0.0
 11
311.599
 21
189.2279155
 31
0.0
  0
LINE
  5
946
330
1E
100
AcDbEntity
  8
0
100
AcDbLine
 10
357.0
 20
180.3209155
 30
0.0
 11
363.204
 21
180.1359155
 31
0.0
  0
LINE
  5
947
330
1E
100
AcDbEntity
  8
0
100
AcDbLine
 10
307.0
 20
180.3629155
 30
0.0
 11
307.0
 21
161.3309155
 31
0.0
  0
LINE
  5
948
330
1E
100
AcDbEntity
  8
0
100
AcDbLine
 10
307.0
 20
180.3629155
 30
0.0
 11
307.511
 21
183.0779155
 31
0.0
  0
LINE
  5
949
330
1E
100
AcDbEntity
  8
0
100
AcDbLine
 10
308.825
 20
166.7899155
 30
0.0
 11
310.869
 21
169.4129155
 31
0.0
  0
LINE
  5
94A
330
1E
100
AcDbEntity
  8
0
100
AcDbLine
 10
310.869
 20
169.4129155
 30
0.0
 11
313.715
 21
171.8499155
 31
0.0
  0
LINE
  5
94B
330
1E
100
AcDbEntity
  8
0
100
AcDbLine
 10
313.715
 20
171.8499155
 30
0.0
 11
317.365
 21
174.1629155
 31
0.0
  0
LINE
  5
94C
330
1E
100
AcDbEntity
  8
0
100
AcDbLine
 10
317.365
 20
174.1629155
 30
0.0
 11
321.672
 21
176.2609155
 31
0.0
  0
LINE
  5
94D
330
1E
100
AcDbEntity
  8
0
100
AcDbLine
 10
317.949
 20
173.0719155
 30
0.0
 11
322.182
 21
175.1379155
 31
0.0
  0
LINE
  5
94E
330
1E
100
AcDbEntity
  8
0
100
AcDbLine
 10
337.876
 20
180.8259155
 30
0.0
 11
344.08
 21
181.6899155
 31
0.0
  0
LINE
  5
94F
330
1E
100
AcDbEntity
  8
0
100
AcDbLine
 10
350.65
 20
181.0299155
 30
0.0
 11
357.0
 21
181.2469155
 31
0.0
  0
LINE
  5
950
330
1E
100
AcDbEntity
  8
0
100
AcDbLine
 10
344.591
 20
180.5059155
 30
0.0
 11
350.65
 21
181.0299155
 31
0.0
  0
LINE
  5
951
330
1E
100
AcDbEntity
  8
0
100
AcDbLine
 10
350.796
 20
180.1359155
 30
0.0
 11
357.0
 21
180.3209155
 31
0.0
  0
LINE
  5
952
330
1E
100
AcDbEntity
  8
0
100
AcDbLine
 10
345.613
 20
179.6109155
 30
0.0
 11
350.796
 21
180.1359155
 31
0.0
  0
LINE
  5
953
330
1E
100
AcDbEntity
  8
0
100
AcDbLine
 10
355.064
 20
174.5959155
 30
0.0
 11
355.064
 21
175.607185003546
 31
0.0
  0
LINE
  5
954
330
1E
100
AcDbEntity
  8
0
100
AcDbLine
 10
355.064
 20
174.5959155
 30
0.0
 11
356.328
 21
174.2879155
 31
0.0
  0
LINE
  5
955
330
1E
100
AcDbEntity
  8
0
100
AcDbLine
 10
355.064
 20
175.607185003546
 30
0.0
 11
355.064
 21
174.5959155
 31
0.0
  0
LINE
  5
956
330
1E
100
AcDbEntity
  8
0
100
AcDbLine
 10
350.529
 20
178.7279155
 30
0.0
 11
350.529
 21
180.108870352402
 31
0.0
  0
LINE
  5
957
330
1E
100
AcDbEntity
  8
0
100
AcDbLine
 10
350.529
 20
178.7279155
 30
0.0
 11
351.793
 21
178.4189155
 31
0.0
  0
LINE
  5
958
330
1E
100
AcDbEntity
  8
0
100
AcDbLine
 10
351.793
 20
179.078009149258
 30
0.0
 11
351.793
 21
178.4189155
 31
0.0
  0
LINE
  5
959
330
1E
100
AcDbEntity
  8
0
100
AcDbLine
 10
350.529
 20
180.108870352402
 30
0.0
 11
350.529
 21
178.7279155
 31
0.0
  0
LINE
  5
95A
330
1E
100
AcDbEntity
  8
0
100
AcDbLine
 10
351.063
 20
177.8849155
 30
0.0
 11
351.793
 21
178.4189155
 31
0.0
  0
LINE
  5
95B
330
1E
100
AcDbEntity
  8
0
100
AcDbLine
 10
351.793
 20
178.4189155
 30
0.0
 11
351.793
 21
179.078009149258
 31
0.0
  0
LINE
  5
95C
330
1E
100
AcDbEntity
  8
0
100
AcDbLine
 10
349.799
 20
178.1929155
 30
0.0
 11
350.529
 21
178.7279155
 31
0.0
  0
LINE
  5
95D
330
1E
100
AcDbEntity
  8
0
100
AcDbLine
 10
349.799
 20
178.1929155
 30
0.0
 11
351.063
 21
177.8849155
 31
0.0
  0
LINE
  5
95E
330
1E
100
AcDbEntity
  8
0
100
AcDbLine
 10
345.892
 20
174.6189155
 30
0.0
 11
345.892
 21
173.5089155
 31
0.0
  0
LINE
  5
95F
330
1E
100
AcDbEntity
  8
0
100
AcDbLine
 10
355.599
 20
173.7529155
 30
0.0
 11
356.328
 21
174.2879155
 31
0.0
  0
LINE
  5
960
330
1E
100
AcDbEntity
  8
0
100
AcDbLine
 10
354.334
 20
174.0619155
 30
0.0
 11
355.064
 21
174.5959155
 31
0.0
  0
LINE
  5
961
330
1E
100
AcDbEntity
  8
0
100
AcDbLine
 10
354.334
 20
174.0619155
 30
0.0
 11
355.599
 21
173.7529155
 31
0.0
  0
LINE
  5
962
330
1E
100
AcDbEntity
  8
0
100
AcDbLine
 10
347.887
 20
174.377600431507
 30
0.0
 11
347.887
 21
173.7349155
 31
0.0
  0
LINE
  5
963
330
1E
100
AcDbEntity
  8
0
100
AcDbLine
 10
346.622
 20
174.175457556075
 30
0.0
 11
346.622
 21
174.0429155
 31
0.0
  0
LINE
  5
964
330
1E
100
AcDbEntity
  8
0
100
AcDbLine
 10
346.622
 20
174.0429155
 30
0.0
 11
346.622
 21
174.175457556075
 31
0.0
  0
LINE
  5
965
330
1E
100
AcDbEntity
  8
0
100
AcDbLine
 10
346.622
 20
174.0429155
 30
0.0
 11
347.887
 21
173.7349155
 31
0.0
  0
LINE
  5
966
330
1E
100
AcDbEntity
  8
0
100
AcDbLine
 10
347.157
 20
173.2009155
 30
0.0
 11
347.887
 21
173.7349155
 31
0.0
  0
LINE
  5
967
330
1E
100
AcDbEntity
  8
0
100
AcDbLine
 10
347.887
 20
173.7349155
 30
0.0
 11
347.887
 21
174.377600431507
 31
0.0
  0
LINE
  5
968
330
1E
100
AcDbEntity
  8
0
100
AcDbLine
 10
345.892
 20
173.5089155
 30
0.0
 11
345.892
 21
174.6189155
 31
0.0
  0
LINE
  5
969
330
1E
100
AcDbEntity
  8
0
100
AcDbLine
 10
345.892
 20
173.5089155
 30
0.0
 11
346.622
 21
174.0429155
 31
0.0
  0
LINE
  5
96A
330
1E
100
AcDbEntity
  8
0
100
AcDbLine
 10
345.892
 20
173.5089155
 30
0.0
 11
347.157
 21
173.2009155
 31
0.0
  0
LINE
  5
96B
330
1E
100
AcDbEntity
  8
0
100
AcDbLine
 10
338.168
 20
179.6109155
 30
0.0
 11
344.591
 21
180.5059155
 31
0.0
  0
LINE
  5
96C
330
1E
100
AcDbEntity
  8
0
100
AcDbLine
 10
339.044
 20
178.7789155
 30
0.0
 11
345.613
 21
179.6109155
 31
0.0
  0
LINE
  5
96D
330
1E
100
AcDbEntity
  8
0
100
AcDbLine
 10
341.489
 20
177.8059155
 30
0.0
 11
341.489
 21
179.08858820513
 31
0.0
  0
LINE
  5
96E
330
1E
100
AcDbEntity
  8
0
100
AcDbLine
 10
341.489
 20
177.8059155
 30
0.0
 11
342.753
 21
177.4979155
 31
0.0
  0
LINE
  5
96F
330
1E
100
AcDbEntity
  8
0
100
AcDbLine
 10
341.489
 20
179.08858820513
 30
0.0
 11
341.489
 21
177.8059155
 31
0.0
  0
LINE
  5
970
330
1E
100
AcDbEntity
  8
0
100
AcDbLine
 10
342.023
 20
176.9639155
 30
0.0
 11
342.753
 21
177.4979155
 31
0.0
  0
LINE
  5
971
330
1E
100
AcDbEntity
  8
0
100
AcDbLine
 10
340.759
 20
177.2719155
 30
0.0
 11
340.759
 21
177.737093070094
 31
0.0
  0
LINE
  5
972
330
1E
100
AcDbEntity
  8
0
100
AcDbLine
 10
340.759
 20
177.2719155
 30
0.0
 11
341.489
 21
177.8059155
 31
0.0
  0
LINE
  5
973
330
1E
100
AcDbEntity
  8
0
100
AcDbLine
 10
340.759
 20
177.2719155
 30
0.0
 11
342.023
 21
176.9639155
 31
0.0
  0
LINE
  5
974
330
1E
100
AcDbEntity
  8
0
100
AcDbLine
 10
340.759
 20
177.737093070094
 30
0.0
 11
340.759
 21
177.2719155
 31
0.0
  0
LINE
  5
975
330
1E
100
AcDbEntity
  8
0
100
AcDbLine
 10
332.109
 20
179.6229155
 30
0.0
 11
337.876
 21
180.8259155
 31
0.0
  0
LINE
  5
976
330
1E
100
AcDbEntity
  8
0
100
AcDbLine
 10
326.635
 20
178.0809155
 30
0.0
 11
332.109
 21
179.6229155
 31
0.0
  0
LINE
  5
977
330
1E
100
AcDbEntity
  8
0
100
AcDbLine
 10
332.474
 20
178.4699155
 30
0.0
 11
338.168
 21
179.6109155
 31
0.0
  0
LINE
  5
978
330
1E
100
AcDbEntity
  8
0
100
AcDbLine
 10
327.073
 20
176.9279155
 30
0.0
 11
332.474
 21
178.4699155
 31
0.0
  0
LINE
  5
979
330
1E
100
AcDbEntity
  8
0
100
AcDbLine
 10
333.569
 20
177.6679155
 30
0.0
 11
339.044
 21
178.7789155
 31
0.0
  0
LINE
  5
97A
330
1E
100
AcDbEntity
  8
0
100
AcDbLine
 10
328.387
 20
176.1869155
 30
0.0
 11
333.569
 21
177.6679155
 31
0.0
  0
LINE
  5
97B
330
1E
100
AcDbEntity
  8
0
100
AcDbLine
 10
333.558
 20
176.0599155
 30
0.0
 11
333.558
 21
177.664771733115
 31
0.0
  0
LINE
  5
97C
330
1E
100
AcDbEntity
  8
0
100
AcDbLine
 10
333.558
 20
176.0599155
 30
0.0
 11
334.288
 21
175.5259155
 31
0.0
  0
LINE
  5
97D
330
1E
100
AcDbEntity
  8
0
100
AcDbLine
 10
333.558
 20
176.0599155
 30
0.0
 11
334.822
 21
176.3689155
 31
0.0
  0
LINE
  5
97E
330
1E
100
AcDbEntity
  8
0
100
AcDbLine
 10
333.558
 20
177.664771733115
 30
0.0
 11
333.558
 21
176.0599155
 31
0.0
  0
LINE
  5
97F
330
1E
100
AcDbEntity
  8
0
100
AcDbLine
 10
334.822
 20
176.3689155
 30
0.0
 11
335.552
 21
175.8339155
 31
0.0
  0
LINE
  5
980
330
1E
100
AcDbEntity
  8
0
100
AcDbLine
 10
334.822
 20
176.3689155
 30
0.0
 11
334.822
 21
177.061384092731
 31
0.0
  0
LINE
  5
981
330
1E
100
AcDbEntity
  8
0
100
AcDbLine
 10
335.552
 20
176.708017829916
 30
0.0
 11
335.552
 21
175.8339155
 31
0.0
  0
LINE
  5
982
330
1E
100
AcDbEntity
  8
0
100
AcDbLine
 10
334.822
 20
177.061384092731
 30
0.0
 11
334.822
 21
176.3689155
 31
0.0
  0
LINE
  5
983
330
1E
100
AcDbEntity
  8
0
100
AcDbLine
 10
334.288
 20
175.5259155
 30
0.0
 11
335.552
 21
175.8339155
 31
0.0
  0
LINE
  5
984
330
1E
100
AcDbEntity
  8
0
100
AcDbLine
 10
335.552
 20
175.8339155
 30
0.0
 11
335.552
 21
176.708017829916
 31
0.0
  0
LINE
  5
985
330
1E
100
AcDbEntity
  8
0
100
AcDbLine
 10
328.738
 20
174.3389155
 30
0.0
 11
328.738
 21
173.7219155
 31
0.0
  0
LINE
  5
986
330
1E
100
AcDbEntity
  8
0
100
AcDbLine
 10
328.738
 20
173.7219155
 30
0.0
 11
328.738
 21
174.3389155
 31
0.0
  0
LINE
  5
987
330
1E
100
AcDbEntity
  8
0
100
AcDbLine
 10
327.278
 20
173.7219155
 30
0.0
 11
328.738
 21
173.7219155
 31
0.0
  0
LINE
  5
988
330
1E
100
AcDbEntity
  8
0
100
AcDbLine
 10
327.278
 20
173.7219155
 30
0.0
 11
327.278
 21
174.3389155
 31
0.0
  0
LINE
  5
989
330
1E
100
AcDbEntity
  8
0
100
AcDbLine
 10
327.278
 20
174.3389155
 30
0.0
 11
328.738
 21
174.3389155
 31
0.0
  0
LINE
  5
98A
330
1E
100
AcDbEntity
  8
0
100
AcDbLine
 10
327.278
 20
174.3389155
 30
0.0
 11
327.278
 21
173.7219155
 31
0.0
  0
LINE
  5
98B
330
1E
100
AcDbEntity
  8
0
100
AcDbLine
 10
327.278
 20
174.3389155
 30
0.0
 11
327.278
 21
175.770226654599
 31
0.0
  0
LINE
  5
98C
330
1E
100
AcDbEntity
  8
0
100
AcDbLine
 10
327.278
 20
175.770226654599
 30
0.0
 11
327.278
 21
174.3389155
 31
0.0
  0
LINE
  5
98D
330
1E
100
AcDbEntity
  8
0
100
AcDbLine
 10
321.672
 20
176.2609155
 30
0.0
 11
326.635
 21
178.0809155
 31
0.0
  0
LINE
  5
98E
330
1E
100
AcDbEntity
  8
0
100
AcDbLine
 10
322.182
 20
175.1379155
 30
0.0
 11
327.073
 21
176.9279155
 31
0.0
  0
LINE
  5
98F
330
1E
100
AcDbEntity
  8
0
100
AcDbLine
 10
323.788
 20
174.4589155
 30
0.0
 11
328.387
 21
176.1869155
 31
0.0
  0
LINE
  5
990
330
1E
100
AcDbEntity
  8
0
100
AcDbLine
 10
319.701
 20
172.5159155
 30
0.0
 11
323.788
 21
174.4589155
 31
0.0
  0
LINE
  5
991
330
1E
100
AcDbEntity
  8
0
100
AcDbLine
 10
320.87
 20
172.043627621212
 30
0.0
 11
320.87
 21
170.8749155
 31
0.0
  0
LINE
  5
992
330
1E
100
AcDbEntity
  8
0
100
AcDbLine
 10
320.87
 20
172.254938863138
 30
0.0
 11
320.87
 21
171.4919155
 31
0.0
  0
LINE
  5
993
330
1E
100
AcDbEntity
  8
0
100
AcDbLine
 10
337.937
 20
172.4019155
 30
0.0
 11
337.937
 21
172.606854888907
 31
0.0
  0
LINE
  5
994
330
1E
100
AcDbEntity
  8
0
100
AcDbLine
 10
337.937
 20
172.4019155
 30
0.0
 11
338.667
 21
171.8669155
 31
0.0
  0
LINE
  5
995
330
1E
100
AcDbEntity
  8
0
100
AcDbLine
 10
337.937
 20
172.4019155
 30
0.0
 11
339.202
 21
172.7089155
 31
0.0
  0
LINE
  5
996
330
1E
100
AcDbEntity
  8
0
100
AcDbLine
 10
339.202
 20
172.7089155
 30
0.0
 11
339.931
 21
172.1749155
 31
0.0
  0
LINE
  5
997
330
1E
100
AcDbEntity
  8
0
100
AcDbLine
 10
337.937
 20
172.606854888907
 30
0.0
 11
337.937
 21
172.4019155
 31
0.0
  0
LINE
  5
998
330
1E
100
AcDbEntity
  8
0
100
AcDbLine
 10
322.33
 20
171.928997126767
 30
0.0
 11
322.33
 21
171.4919155
 31
0.0
  0
LINE
  5
999
330
1E
100
AcDbEntity
  8
0
100
AcDbLine
 10
338.667
 20
171.8669155
 30
0.0
 11
339.931
 21
172.1749155
 31
0.0
  0
LINE
  5
99A
330
1E
100
AcDbEntity
  8
0
100
AcDbLine
 10
311.599
 20
168.3829155
 30
0.0
 11
314.299
 21
170.7889155
 31
0.0
  0
LINE
  5
99B
330
1E
100
AcDbEntity
  8
0
100
AcDbLine
 10
314.299
 20
170.7889155
 30
0.0
 11
317.949
 21
173.0719155
 31
0.0
  0
LINE
  5
99C
330
1E
100
AcDbEntity
  8
0
100
AcDbLine
 10
320.87
 20
170.8749155
 30
0.0
 11
322.33
 21
170.8749155
 31
0.0
  0
LINE
  5
99D
330
1E
100
AcDbEntity
  8
0
100
AcDbLine
 10
320.87
 20
170.8749155
 30
0.0
 11
320.87
 21
172.043627621212
 31
0.0
  0
LINE
  5
99E
330
1E
100
AcDbEntity
  8
0
100
AcDbLine
 10
320.87
 20
170.8749155
 30
0.0
 11
320.87
 21
171.4919155
 31
0.0
  0
LINE
  5
99F
330
1E
100
AcDbEntity
  8
0
100
AcDbLine
 10
322.33
 20
171.4919155
 30
0.0
 11
322.33
 21
171.928997126767
 31
0.0
  0
LINE
  5
9A0
330
1E
100
AcDbEntity
  8
0
100
AcDbLine
 10
322.33
 20
171.4919155
 30
0.0
 11
322.33
 21
170.8749155
 31
0.0
  0
LINE
  5
9A1
330
1E
100
AcDbEntity
  8
0
100
AcDbLine
 10
322.33
 20
170.8749155
 30
0.0
 11
322.33
 21
171.4919155
 31
0.0
  0
LINE
  5
9A2
330
1E
100
AcDbEntity
  8
0
100
AcDbLine
 10
320.87
 20
171.4919155
 30
0.0
 11
322.33
 21
171.4919155
 31
0.0
  0
LINE
  5
9A3
330
1E
100
AcDbEntity
  8
0
100
AcDbLine
 10
320.87
 20
171.4919155
 30
0.0
 11
320.87
 21
170.8749155
 31
0.0
  0
LINE
  5
9A4
330
1E
100
AcDbEntity
  8
0
100
AcDbLine
 10
320.87
 20
171.4919155
 30
0.0
 11
320.87
 21
172.254938863138
 31
0.0
  0
LINE
  5
9A5
330
1E
100
AcDbEntity
  8
0
100
AcDbLine
 10
313.569
 20
168.0129155
 30
0.0
 11
316.197
 21
170.3259155
 31
0.0
  0
LINE
  5
9A6
330
1E
100
AcDbEntity
  8
0
100
AcDbLine
 10
316.197
 20
170.3259155
 30
0.0
 11
319.701
 21
172.5159155
 31
0.0
  0
LINE
  5
9A7
330
1E
100
AcDbEntity
  8
0
100
AcDbLine
 10
331.495
 20
170.488403998109
 30
0.0
 11
331.495
 21
170.3519155
 31
0.0
  0
LINE
  5
9A8
330
1E
100
AcDbEntity
  8
0
100
AcDbLine
 10
331.495
 20
170.488403998109
 30
0.0
 11
331.495
 21
169.7349155
 31
0.0
  0
LINE
  5
9A9
330
1E
100
AcDbEntity
  8
0
100
AcDbLine
 10
332.955
 20
170.3519155
 30
0.0
 11
332.955
 21
169.7349155
 31
0.0
  0
LINE
  5
9AA
330
1E
100
AcDbEntity
  8
0
100
AcDbLine
 10
350.42
 20
170.456152054438
 30
0.0
 11
350.42
 21
169.5769155
 31
0.0
  0
LINE
  5
9AB
330
1E
100
AcDbEntity
  8
0
100
AcDbLine
 10
331.495
 20
170.3519155
 30
0.0
 11
332.955
 21
170.3519155
 31
0.0
  0
LINE
  5
9AC
330
1E
100
AcDbEntity
  8
0
100
AcDbLine
 10
331.495
 20
170.3519155
 30
0.0
 11
331.495
 21
169.7349155
 31
0.0
  0
LINE
  5
9AD
330
1E
100
AcDbEntity
  8
0
100
AcDbLine
 10
331.495
 20
170.3519155
 30
0.0
 11
331.495
 21
170.488403998109
 31
0.0
  0
LINE
  5
9AE
330
1E
100
AcDbEntity
  8
0
100
AcDbLine
 10
316.084
 20
167.4439155
 30
0.0
 11
317.544
 21
167.4439155
 31
0.0
  0
LINE
  5
9AF
330
1E
100
AcDbEntity
  8
0
100
AcDbLine
 10
316.084
 20
167.4439155
 30
0.0
 11
316.084
 21
167.756992994547
 31
0.0
  0
LINE
  5
9B0
330
1E
100
AcDbEntity
  8
0
100
AcDbLine
 10
316.084
 20
167.4439155
 30
0.0
 11
316.084
 21
168.0609155
 31
0.0
  0
LINE
  5
9B1
330
1E
100
AcDbEntity
  8
0
100
AcDbLine
 10
317.544
 20
168.0609155
 30
0.0
 11
317.544
 21
167.4439155
 31
0.0
  0
LINE
  5
9B2
330
1E
100
AcDbEntity
  8
0
100
AcDbLine
 10
331.495
 20
169.7349155
 30
0.0
 11
332.955
 21
169.7349155
 31
0.0
  0
LINE
  5
9B3
330
1E
100
AcDbEntity
  8
0
100
AcDbLine
 10
331.495
 20
169.7349155
 30
0.0
 11
331.495
 21
170.488403998109
 31
0.0
  0
LINE
  5
9B4
330
1E
100
AcDbEntity
  8
0
100
AcDbLine
 10
331.495
 20
169.7349155
 30
0.0
 11
331.495
 21
170.3519155
 31
0.0
  0
LINE
  5
9B5
330
1E
100
AcDbEntity
  8
0
100
AcDbLine
 10
332.955
 20
169.7349155
 30
0.0
 11
332.955
 21
170.3519155
 31
0.0
  0
LINE
  5
9B6
330
1E
100
AcDbEntity
  8
0
100
AcDbLine
 10
342.317
 20
170.126794450974
 30
0.0
 11
342.317
 21
168.7429155
 31
0.0
  0
LINE
  5
9B7
330
1E
100
AcDbEntity
  8
0
100
AcDbLine
 10
351.15
 20
170.1109155
 30
0.0
 11
352.414
 21
169.8029155
 31
0.0
  0
LINE
  5
9B8
330
1E
100
AcDbEntity
  8
0
100
AcDbLine
 10
342.317
 20
168.7429155
 30
0.0
 11
342.317
 21
170.126794450974
 31
0.0
  0
LINE
  5
9B9
330
1E
100
AcDbEntity
  8
0
100
AcDbLine
 10
342.317
 20
168.7429155
 30
0.0
 11
343.047
 21
168.2089155
 31
0.0
  0
LINE
  5
9BA
330
1E
100
AcDbEntity
  8
0
100
AcDbLine
 10
342.317
 20
168.7429155
 30
0.0
 11
343.581
 21
169.0509155
 31
0.0
  0
LINE
  5
9BB
330
1E
100
AcDbEntity
  8
0
100
AcDbLine
 10
343.581
 20
169.0509155
 30
0.0
 11
344.311
 21
168.5169155
 31
0.0
  0
LINE
  5
9BC
330
1E
100
AcDbEntity
  8
0
100
AcDbLine
 10
343.581
 20
169.0509155
 30
0.0
 11
343.581
 21
169.488386642319
 31
0.0
  0
LINE
  5
9BD
330
1E
100
AcDbEntity
  8
0
100
AcDbLine
 10
344.311
 20
168.982362494348
 30
0.0
 11
344.311
 21
168.5169155
 31
0.0
  0
LINE
  5
9BE
330
1E
100
AcDbEntity
  8
0
100
AcDbLine
 10
351.684
 20
169.2689155
 30
0.0
 11
352.414
 21
169.8029155
 31
0.0
  0
LINE
  5
9BF
330
1E
100
AcDbEntity
  8
0
100
AcDbLine
 10
350.42
 20
169.5769155
 30
0.0
 11
350.42
 21
170.456152054438
 31
0.0
  0
LINE
  5
9C0
330
1E
100
AcDbEntity
  8
0
100
AcDbLine
 10
350.42
 20
169.5769155
 30
0.0
 11
351.15
 21
170.1109155
 31
0.0
  0
LINE
  5
9C1
330
1E
100
AcDbEntity
  8
0
100
AcDbLine
 10
350.42
 20
169.5769155
 30
0.0
 11
351.684
 21
169.2689155
 31
0.0
  0
LINE
  5
9C2
330
1E
100
AcDbEntity
  8
0
100
AcDbLine
 10
343.581
 20
169.488386642319
 30
0.0
 11
343.581
 21
169.0509155
 31
0.0
  0
LINE
  5
9C3
330
1E
100
AcDbEntity
  8
0
100
AcDbLine
 10
343.047
 20
168.2089155
 30
0.0
 11
344.311
 21
168.5169155
 31
0.0
  0
LINE
  5
9C4
330
1E
100
AcDbEntity
  8
0
100
AcDbLine
 10
344.311
 20
168.5169155
 30
0.0
 11
344.311
 21
168.982362494348
 31
0.0
  0
LINE
  5
9C5
330
1E
100
AcDbEntity
  8
0
100
AcDbLine
 10
327.601
 20
168.549290689316
 30
0.0
 11
327.601
 21
167.5379155
 31
0.0
  0
LINE
  5
9C6
330
1E
100
AcDbEntity
  8
0
100
AcDbLine
 10
326.141
 20
168.776743532493
 30
0.0
 11
326.141
 21
167.5379155
 31
0.0
  0
LINE
  5
9C7
330
1E
100
AcDbEntity
  8
0
100
AcDbLine
 10
317.544
 20
167.4439155
 30
0.0
 11
317.544
 21
168.0609155
 31
0.0
  0
LINE
  5
9C8
330
1E
100
AcDbEntity
  8
0
100
AcDbLine
 10
326.141
 20
166.9209155
 30
0.0
 11
327.601
 21
166.9209155
 31
0.0
  0
LINE
  5
9C9
330
1E
100
AcDbEntity
  8
0
100
AcDbLine
 10
326.141
 20
166.9209155
 30
0.0
 11
326.141
 21
167.183532238625
 31
0.0
  0
LINE
  5
9CA
330
1E
100
AcDbEntity
  8
0
100
AcDbLine
 10
326.141
 20
166.9209155
 30
0.0
 11
326.141
 21
167.5379155
 31
0.0
  0
LINE
  5
9CB
330
1E
100
AcDbEntity
  8
0
100
AcDbLine
 10
326.141
 20
167.183532238625
 30
0.0
 11
326.141
 21
166.9209155
 31
0.0
  0
LINE
  5
9CC
330
1E
100
AcDbEntity
  8
0
100
AcDbLine
 10
327.601
 20
167.5379155
 30
0.0
 11
327.601
 21
168.549290689316
 31
0.0
  0
LINE
  5
9CD
330
1E
100
AcDbEntity
  8
0
100
AcDbLine
 10
327.601
 20
167.5379155
 30
0.0
 11
327.601
 21
166.9209155
 31
0.0
  0
LINE
  5
9CE
330
1E
100
AcDbEntity
  8
0
100
AcDbLine
 10
337.82
 20
167.355312996523
 30
0.0
 11
337.82
 21
166.5019155
 31
0.0
  0
LINE
  5
9CF
330
1E
100
AcDbEntity
  8
0
100
AcDbLine
 10
326.141
 20
167.5379155
 30
0.0
 11
327.601
 21
167.5379155
 31
0.0
  0
LINE
  5
9D0
330
1E
100
AcDbEntity
  8
0
100
AcDbLine
 10
326.141
 20
167.5379155
 30
0.0
 11
326.141
 21
166.9209155
 31
0.0
  0
LINE
  5
9D1
330
1E
100
AcDbEntity
  8
0
100
AcDbLine
 10
326.141
 20
167.5379155
 30
0.0
 11
326.141
 21
168.776743532493
 31
0.0
  0
LINE
  5
9D2
330
1E
100
AcDbEntity
  8
0
100
AcDbLine
 10
327.601
 20
166.9209155
 30
0.0
 11
327.601
 21
167.5379155
 31
0.0
  0
LINE
  5
9D3
330
1E
100
AcDbEntity
  8
0
100
AcDbLine
 10
316.084
 20
167.756992994547
 30
0.0
 11
316.084
 21
167.4439155
 31
0.0
  0
LINE
  5
9D4
330
1E
100
AcDbEntity
  8
0
100
AcDbLine
 10
316.084
 20
168.0609155
 30
0.0
 11
317.544
 21
168.0609155
 31
0.0
  0
LINE
  5
9D5
330
1E
100
AcDbEntity
  8
0
100
AcDbLine
 10
316.084
 20
168.0609155
 30
0.0
 11
316.084
 21
167.4439155
 31
0.0
  0
LINE
  5
9D6
330
1E
100
AcDbEntity
  8
0
100
AcDbLine
 10
309.482
 20
165.6679155
 30
0.0
 11
311.599
 21
168.3829155
 31
0.0
  0
LINE
  5
9D7
330
1E
100
AcDbEntity
  8
0
100
AcDbLine
 10
311.599
 20
165.2359155
 30
0.0
 11
313.569
 21
168.0129155
 31
0.0
  0
LINE
  5
9D8
330
1E
100
AcDbEntity
  8
0
100
AcDbLine
 10
336.36
 20
165.8849155
 30
0.0
 11
337.82
 21
165.8849155
 31
0.0
  0
LINE
  5
9D9
330
1E
100
AcDbEntity
  8
0
100
AcDbLine
 10
336.36
 20
165.8849155
 30
0.0
 11
336.36
 21
166.221547858063
 31
0.0
  0
LINE
  5
9DA
330
1E
100
AcDbEntity
  8
0
100
AcDbLine
 10
336.36
 20
165.8849155
 30
0.0
 11
336.36
 21
166.5019155
 31
0.0
  0
LINE
  5
9DB
330
1E
100
AcDbEntity
  8
0
100
AcDbLine
 10
337.82
 20
166.5019155
 30
0.0
 11
337.82
 21
167.355312996523
 31
0.0
  0
LINE
  5
9DC
330
1E
100
AcDbEntity
  8
0
100
AcDbLine
 10
337.82
 20
166.5019155
 30
0.0
 11
337.82
 21
165.8849155
 31
0.0
  0
LINE
  5
9DD
330
1E
100
AcDbEntity
  8
0
100
AcDbLine
 10
337.82
 20
165.8849155
 30
0.0
 11
337.82
 21
166.5019155
 31
0.0
  0
LINE
  5
9DE
330
1E
100
AcDbEntity
  8
0
100
AcDbLine
 10
346.696
 20
165.387675396171
 30
0.0
 11
346.696
 21
165.0839155
 31
0.0
  0
LINE
  5
9DF
330
1E
100
AcDbEntity
  8
0
100
AcDbLine
 10
347.961
 20
165.3919155
 30
0.0
 11
348.69
 21
164.8579155
 31
0.0
  0
LINE
  5
9E0
330
1E
100
AcDbEntity
  8
0
100
AcDbLine
 10
347.961
 20
165.3919155
 30
0.0
 11
347.961
 21
166.452241754496
 31
0.0
  0
LINE
  5
9E1
330
1E
100
AcDbEntity
  8
0
100
AcDbLine
 10
348.69
 20
165.946910790289
 30
0.0
 11
348.69
 21
164.8579155
 31
0.0
  0
LINE
  5
9E2
330
1E
100
AcDbEntity
  8
0
100
AcDbLine
 10
356.232
 20
166.2419155
 30
0.0
 11
357.496
 21
165.9329155
 31
0.0
  0
LINE
  5
9E3
330
1E
100
AcDbEntity
  8
0
100
AcDbLine
 10
356.766
 20
165.3979155
 30
0.0
 11
357.496
 21
165.9329155
 31
0.0
  0
LINE
  5
9E4
330
1E
100
AcDbEntity
  8
0
100
AcDbLine
 10
355.502
 20
165.7059155
 30
0.0
 11
356.232
 21
166.2419155
 31
0.0
  0
LINE
  5
9E5
330
1E
100
AcDbEntity
  8
0
100
AcDbLine
 10
355.502
 20
165.7059155
 30
0.0
 11
356.766
 21
165.3979155
 31
0.0
  0
LINE
  5
9E6
330
1E
100
AcDbEntity
  8
0
100
AcDbLine
 10
347.961
 20
166.452241754496
 30
0.0
 11
347.961
 21
165.3919155
 31
0.0
  0
LINE
  5
9E7
330
1E
100
AcDbEntity
  8
0
100
AcDbLine
 10
336.36
 20
166.221547858063
 30
0.0
 11
336.36
 21
165.8849155
 31
0.0
  0
LINE
  5
9E8
330
1E
100
AcDbEntity
  8
0
100
AcDbLine
 10
336.36
 20
166.5019155
 30
0.0
 11
337.82
 21
166.5019155
 31
0.0
  0
LINE
  5
9E9
330
1E
100
AcDbEntity
  8
0
100
AcDbLine
 10
336.36
 20
166.5019155
 30
0.0
 11
336.36
 21
165.8849155
 31
0.0
  0
LINE
  5
9EA
330
1E
100
AcDbEntity
  8
0
100
AcDbLine
 10
314.218
 20
164.822389184211
 30
0.0
 11
314.218
 21
163.9769155
 31
0.0
  0
LINE
  5
9EB
330
1E
100
AcDbEntity
  8
0
100
AcDbLine
 10
346.696
 20
165.0839155
 30
0.0
 11
346.696
 21
165.387675396171
 31
0.0
  0
LINE
  5
9EC
330
1E
100
AcDbEntity
  8
0
100
AcDbLine
 10
346.696
 20
165.0839155
 30
0.0
 11
347.426
 21
164.5489155
 31
0.0
  0
LINE
  5
9ED
330
1E
100
AcDbEntity
  8
0
100
AcDbLine
 10
346.696
 20
165.0839155
 30
0.0
 11
347.961
 21
165.3919155
 31
0.0
  0
LINE
  5
9EE
330
1E
100
AcDbEntity
  8
0
100
AcDbLine
 10
348.69
 20
164.8579155
 30
0.0
 11
348.69
 21
165.946910790289
 31
0.0
  0
LINE
  5
9EF
330
1E
100
AcDbEntity
  8
0
100
AcDbLine
 10
312.759
 20
165.052757605263
 30
0.0
 11
312.759
 21
163.9769155
 31
0.0
  0
LINE
  5
9F0
330
1E
100
AcDbEntity
  8
0
100
AcDbLine
 10
350.65
 20
139.8179155
 30
0.0
 11
356.0
 21
139.635931248032
 31
0.0
  0
LINE
  5
9F1
330
1E
100
AcDbEntity
  8
0
100
AcDbLine
 10
351.793
 20
140.682185487105
 30
0.0
 11
356.0
 21
140.556734971309
 31
0.0
  0
LINE
  5
9F2
330
1E
100
AcDbEntity
  8
0
100
AcDbLine
 10
355.064
 20
143.5329155
 30
0.0
 11
356.328
 21
143.8419155
 31
0.0
  0
LINE
  5
9F3
330
1E
100
AcDbEntity
  8
0
100
AcDbLine
 10
356.328
 20
144.96524238588
 30
0.0
 11
356.328
 21
143.8419155
 31
0.0
  0
LINE
  5
9F4
330
1E
100
AcDbEntity
  8
0
100
AcDbLine
 10
356.766
 20
150.9179155
 30
0.0
 11
357.496
 21
150.3829155
 31
0.0
  0
LINE
  5
9F5
330
1E
100
AcDbEntity
  8
0
100
AcDbLine
 10
357.0
 20
160.5879155
 30
0.0
 11
358.536
 21
160.4969155
 31
0.0
  0
LINE
  5
9F6
330
1E
100
AcDbEntity
  8
0
100
AcDbLine
 10
357.0
 20
155.5169155
 30
0.0
 11
358.536
 21
155.6079155
 31
0.0
  0
LINE
  5
9F7
330
1E
100
AcDbEntity
  8
0
100
AcDbLine
 10
356.995
 20
162.9649155
 30
0.0
 11
357.675
 21
162.9279155
 31
0.0
  0
LINE
  5
9F8
330
1E
100
AcDbEntity
  8
0
100
AcDbLine
 10
356.995
 20
160.8009155
 30
0.0
 11
357.675
 21
160.8379155
 31
0.0
  0
LINE
  5
9F9
330
1E
100
AcDbEntity
  8
0
100
AcDbLine
 10
356.328
 20
143.8419155
 30
0.0
 11
356.328
 21
144.96524238588
 31
0.0
  0
LINE
  5
9FA
330
1E
100
AcDbEntity
  8
0
100
AcDbLine
 10
355.599
 20
144.3759155
 30
0.0
 11
356.328
 21
143.8419155
 31
0.0
  0
LINE
  5
9FB
330
1E
100
AcDbEntity
  8
0
100
AcDbLine
 10
356.232
 20
150.0749155
 30
0.0
 11
357.496
 21
150.3829155
 31
0.0
  0
LINE
  5
9FC
330
1E
100
AcDbEntity
  8
0
100
AcDbLine
 10
356.315
 20
160.8379155
 30
0.0
 11
356.995
 21
160.8009155
 31
0.0
  0
LINE
  5
9FD
330
1E
100
AcDbEntity
  8
0
100
AcDbLine
 10
355.715
 20
160.9459155
 30
0.0
 11
356.315
 21
160.8379155
 31
0.0
  0
LINE
  5
9FE
330
1E
100
AcDbEntity
  8
0
100
AcDbLine
 10
356.315
 20
162.9279155
 30
0.0
 11
356.995
 21
162.9649155
 31
0.0
  0
LINE
  5
9FF
330
1E
100
AcDbEntity
  8
0
100
AcDbLine
 10
355.715
 20
162.8189155
 30
0.0
 11
356.315
 21
162.9279155
 31
0.0
  0
LINE
  5
A00
330
1E
100
AcDbEntity
  8
0
100
AcDbLine
 10
355.502
 20
150.6099155
 30
0.0
 11
356.232
 21
150.0749155
 31
0.0
  0
LINE
  5
A01
330
1E
100
AcDbEntity
  8
0
100
AcDbLine
 10
355.502
 20
150.6099155
 30
0.0
 11
356.766
 21
150.9179155
 31
0.0
  0
LINE
  5
A02
330
1E
100
AcDbEntity
  8
0
100
AcDbLine
 10
352.752
 20
159.8479155
 30
0.0
 11
354.024
 21
160.2539155
 31
0.0
  0
LINE
  5
A03
330
1E
100
AcDbEntity
  8
0
100
AcDbLine
 10
354.024
 20
160.2539155
 30
0.0
 11
355.464
 21
160.4969155
 31
0.0
  0
LINE
  5
A04
330
1E
100
AcDbEntity
  8
0
100
AcDbLine
 10
355.464
 20
160.4969155
 30
0.0
 11
357.0
 21
160.5879155
 31
0.0
  0
LINE
  5
A05
330
1E
100
AcDbEntity
  8
0
100
AcDbLine
 10
355.203
 20
161.1259155
 30
0.0
 11
355.715
 21
160.9459155
 31
0.0
  0
LINE
  5
A06
330
1E
100
AcDbEntity
  8
0
100
AcDbLine
 10
354.779
 20
161.3419155
 30
0.0
 11
355.203
 21
161.1259155
 31
0.0
  0
LINE
  5
A07
330
1E
100
AcDbEntity
  8
0
100
AcDbLine
 10
355.203
 20
162.6399155
 30
0.0
 11
355.715
 21
162.8189155
 31
0.0
  0
LINE
  5
A08
330
1E
100
AcDbEntity
  8
0
100
AcDbLine
 10
354.523
 20
161.5959155
 30
0.0
 11
354.779
 21
161.3419155
 31
0.0
  0
LINE
  5
A09
330
1E
100
AcDbEntity
  8
0
100
AcDbLine
 10
354.435
 20
161.8829155
 30
0.0
 11
354.523
 21
162.1699155
 31
0.0
  0
LINE
  5
A0A
330
1E
100
AcDbEntity
  8
0
100
AcDbLine
 10
354.435
 20
161.8829155
 30
0.0
 11
354.523
 21
161.5959155
 31
0.0
  0
LINE
  5
A0B
330
1E
100
AcDbEntity
  8
0
100
AcDbLine
 10
354.779
 20
162.4239155
 30
0.0
 11
355.203
 21
162.6399155
 31
0.0
  0
LINE
  5
A0C
330
1E
100
AcDbEntity
  8
0
100
AcDbLine
 10
354.523
 20
162.1699155
 30
0.0
 11
354.779
 21
162.4239155
 31
0.0
  0
LINE
  5
A0D
330
1E
100
AcDbEntity
  8
0
100
AcDbLine
 10
354.024
 20
155.8519155
 30
0.0
 11
355.464
 21
155.6079155
 31
0.0
  0
LINE
  5
A0E
330
1E
100
AcDbEntity
  8
0
100
AcDbLine
 10
355.464
 20
155.6079155
 30
0.0
 11
357.0
 21
155.5169155
 31
0.0
  0
LINE
  5
A0F
330
1E
100
AcDbEntity
  8
0
100
AcDbLine
 10
352.752
 20
156.2569155
 30
0.0
 11
354.024
 21
155.8519155
 31
0.0
  0
LINE
  5
A10
330
1E
100
AcDbEntity
  8
0
100
AcDbLine
 10
354.334
 20
144.0669155
 30
0.0
 11
355.064
 21
143.5329155
 31
0.0
  0
LINE
  5
A11
330
1E
100
AcDbEntity
  8
0
100
AcDbLine
 10
354.334
 20
144.0669155
 30
0.0
 11
355.599
 21
144.3759155
 31
0.0
  0
LINE
  5
A12
330
1E
100
AcDbEntity
  8
0
100
AcDbLine
 10
356.0
 20
143.761731955696
 30
0.0
 11
356.0
 21
137.8849155
 31
0.0
  0
LINE
  5
A13
330
1E
100
AcDbEntity
  8
0
100
AcDbLine
 10
356.0
 20
140.415261956693
 30
0.0
 11
356.0
 21
136.9389155
 31
0.0
  0
LINE
  5
A14
330
1E
100
AcDbEntity
  8
0
100
AcDbLine
 10
351.793
 20
141.478467724371
 30
0.0
 11
351.793
 21
140.6159155
 31
0.0
  0
LINE
  5
A15
330
1E
100
AcDbEntity
  8
0
100
AcDbLine
 10
351.15
 20
147.1119155
 30
0.0
 11
352.414
 21
147.4199155
 31
0.0
  0
LINE
  5
A16
330
1E
100
AcDbEntity
  8
0
100
AcDbLine
 10
351.684
 20
147.9549155
 30
0.0
 11
352.414
 21
147.4199155
 31
0.0
  0
LINE
  5
A17
330
1E
100
AcDbEntity
  8
0
100
AcDbLine
 10
351.216
 20
158.7019155
 30
0.0
 11
351.792
 21
159.3099155
 31
0.0
  0
LINE
  5
A18
330
1E
100
AcDbEntity
  8
0
100
AcDbLine
 10
351.792
 20
159.3099155
 30
0.0
 11
352.752
 21
159.8479155
 31
0.0
  0
LINE
  5
A19
330
1E
100
AcDbEntity
  8
0
100
AcDbLine
 10
351.792
 20
156.7949155
 30
0.0
 11
352.752
 21
156.2569155
 31
0.0
  0
LINE
  5
A1A
330
1E
100
AcDbEntity
  8
0
100
AcDbLine
 10
351.216
 20
157.4029155
 30
0.0
 11
351.792
 21
156.7949155
 31
0.0
  0
LINE
  5
A1B
330
1E
100
AcDbEntity
  8
0
100
AcDbLine
 10
351.0
 20
158.0529155
 30
0.0
 11
351.0
 21
158.6119155
 31
0.0
  0
LINE
  5
A1C
330
1E
100
AcDbEntity
  8
0
100
AcDbLine
 10
351.0
 20
158.0529155
 30
0.0
 11
351.216
 21
157.4029155
 31
0.0
  0
LINE
  5
A1D
330
1E
100
AcDbEntity
  8
0
100
AcDbLine
 10
351.0
 20
158.0529155
 30
0.0
 11
351.216
 21
158.7019155
 31
0.0
  0
LINE
  5
A1E
330
1E
100
AcDbEntity
  8
0
100
AcDbLine
 10
351.0
 20
158.6119155
 30
0.0
 11
351.0
 21
158.0529155
 31
0.0
  0
LINE
  5
A1F
330
1E
100
AcDbEntity
  8
0
100
AcDbLine
 10
350.704
 20
155.7289155
 30
0.0
 11
350.783
 21
155.4549155
 31
0.0
  0
LINE
  5
A20
330
1E
100
AcDbEntity
  8
0
100
AcDbLine
 10
350.672
 20
155.1779155
 30
0.0
 11
350.783
 21
155.4549155
 31
0.0
  0
LINE
  5
A21
330
1E
100
AcDbEntity
  8
0
100
AcDbLine
 10
350.672
 20
155.1779155
 30
0.0
 11
351.199147227839
 21
156.159803832086
 31
0.0
  0
LINE
  5
A22
330
1E
100
AcDbEntity
  8
0
100
AcDbLine
 10
351.793
 20
140.6159155
 30
0.0
 11
351.793
 21
141.478467724371
 31
0.0
  0
LINE
  5
A23
330
1E
100
AcDbEntity
  8
0
100
AcDbLine
 10
351.063
 20
141.1499155
 30
0.0
 11
351.063
 21
141.404961361887
 31
0.0
  0
LINE
  5
A24
330
1E
100
AcDbEntity
  8
0
100
AcDbLine
 10
351.063
 20
141.1499155
 30
0.0
 11
351.793
 21
140.6159155
 31
0.0
  0
LINE
  5
A25
330
1E
100
AcDbEntity
  8
0
100
AcDbLine
 10
351.063
 20
141.404961361887
 30
0.0
 11
351.063
 21
141.1499155
 31
0.0
  0
LINE
  5
A26
330
1E
100
AcDbEntity
  8
0
100
AcDbLine
 10
357.0
 20
124.5039155
 30
0.0
 11
359.208
 21
124.8569155
 31
0.0
  0
LINE
  5
A27
330
1E
100
AcDbEntity
  8
0
100
AcDbLine
 10
357.0
 20
121.0619155
 30
0.0
 11
360.072
 21
121.5029155
 31
0.0
  0
LINE
  5
A28
330
1E
100
AcDbEntity
  8
0
100
AcDbLine
 10
350.856
 20
127.0629155
 30
0.0
 11
352.68
 21
125.6509155
 31
0.0
  0
LINE
  5
A29
330
1E
100
AcDbEntity
  8
0
100
AcDbLine
 10
352.68
 20
125.6509155
 30
0.0
 11
354.792
 21
124.8569155
 31
0.0
  0
LINE
  5
A2A
330
1E
100
AcDbEntity
  8
0
100
AcDbLine
 10
356.0
 20
137.8849155
 30
0.0
 11
356.0
 21
135.9589155
 31
0.0
  0
LINE
  5
A2B
330
1E
100
AcDbEntity
  8
0
100
AcDbLine
 10
356.0
 20
137.8849155
 30
0.0
 11
356.0
 21
143.761731955696
 31
0.0
  0
LINE
  5
A2C
330
1E
100
AcDbEntity
  8
0
100
AcDbLine
 10
356.0
 20
135.9589155
 30
0.0
 11
356.0
 21
135.3069155
 31
0.0
  0
LINE
  5
A2D
330
1E
100
AcDbEntity
  8
0
100
AcDbLine
 10
356.0
 20
135.9589155
 30
0.0
 11
356.0
 21
137.8849155
 31
0.0
  0
LINE
  5
A2E
330
1E
100
AcDbEntity
  8
0
100
AcDbLine
 10
356.0
 20
136.9389155
 30
0.0
 11
356.0
 21
135.9479155
 31
0.0
  0
LINE
  5
A2F
330
1E
100
AcDbEntity
  8
0
100
AcDbLine
 10
356.0
 20
135.3069155
 30
0.0
 11
356.0
 21
134.9749155
 31
0.0
  0
LINE
  5
A30
330
1E
100
AcDbEntity
  8
0
100
AcDbLine
 10
356.0
 20
135.3069155
 30
0.0
 11
356.0
 21
135.9589155
 31
0.0
  0
LINE
  5
A31
330
1E
100
AcDbEntity
  8
0
100
AcDbLine
 10
356.0
 20
134.9749155
 30
0.0
 11
358.0
 21
134.9749155
 31
0.0
  0
LINE
  5
A32
330
1E
100
AcDbEntity
  8
0
100
AcDbLine
 10
356.0
 20
134.9749155
 30
0.0
 11
356.0
 21
135.2169155
 31
0.0
  0
LINE
  5
A33
330
1E
100
AcDbEntity
  8
0
100
AcDbLine
 10
356.0
 20
134.9749155
 30
0.0
 11
356.0
 21
135.3069155
 31
0.0
  0
LINE
  5
A34
330
1E
100
AcDbEntity
  8
0
100
AcDbLine
 10
356.0
 20
135.2169155
 30
0.0
 11
356.0
 21
135.9479155
 31
0.0
  0
LINE
  5
A35
330
1E
100
AcDbEntity
  8
0
100
AcDbLine
 10
356.0
 20
135.2169155
 30
0.0
 11
356.0
 21
134.9749155
 31
0.0
  0
LINE
  5
A36
330
1E
100
AcDbEntity
  8
0
100
AcDbLine
 10
356.0
 20
135.9479155
 30
0.0
 11
356.0
 21
136.9389155
 31
0.0
  0
LINE
  5
A37
330
1E
100
AcDbEntity
  8
0
100
AcDbLine
 10
356.0
 20
135.9479155
 30
0.0
 11
356.0
 21
135.2169155
 31
0.0
  0
LINE
  5
A38
330
1E
100
AcDbEntity
  8
0
100
AcDbLine
 10
354.792
 20
124.8569155
 30
0.0
 11
357.0
 21
124.5039155
 31
0.0
  0
LINE
  5
A39
330
1E
100
AcDbEntity
  8
0
100
AcDbLine
 10
353.928
 20
121.5029155
 30
0.0
 11
357.0
 21
121.0619155
 31
0.0
  0
LINE
  5
A3A
330
1E
100
AcDbEntity
  8
0
100
AcDbLine
 10
351.048
 20
122.7389155
 30
0.0
 11
353.928
 21
121.5029155
 31
0.0
  0
LINE
  5
A3B
330
1E
100
AcDbEntity
  8
0
100
AcDbLine
 10
340.82
 20
161.8639155
 30
0.0
 11
342.28
 21
161.8639155
 31
0.0
  0
LINE
  5
A3C
330
1E
100
AcDbEntity
  8
0
100
AcDbLine
 10
340.82
 20
161.8639155
 30
0.0
 11
340.82
 21
162.799055275815
 31
0.0
  0
LINE
  5
A3D
330
1E
100
AcDbEntity
  8
0
100
AcDbLine
 10
340.82
 20
161.8639155
 30
0.0
 11
340.82
 21
162.4809155
 31
0.0
  0
LINE
  5
A3E
330
1E
100
AcDbEntity
  8
0
100
AcDbLine
 10
340.82
 20
162.799055275815
 30
0.0
 11
340.82
 21
161.8639155
 31
0.0
  0
LINE
  5
A3F
330
1E
100
AcDbEntity
  8
0
100
AcDbLine
 10
342.28
 20
162.4809155
 30
0.0
 11
342.28
 21
163.02091367332
 31
0.0
  0
LINE
  5
A40
330
1E
100
AcDbEntity
  8
0
100
AcDbLine
 10
342.28
 20
162.4809155
 30
0.0
 11
342.28
 21
161.8639155
 31
0.0
  0
LINE
  5
A41
330
1E
100
AcDbEntity
  8
0
100
AcDbLine
 10
342.28
 20
163.02091367332
 30
0.0
 11
342.28
 21
162.4809155
 31
0.0
  0
LINE
  5
A42
330
1E
100
AcDbEntity
  8
0
100
AcDbLine
 10
347.426
 20
164.5489155
 30
0.0
 11
348.69
 21
164.8579155
 31
0.0
  0
LINE
  5
A43
330
1E
100
AcDbEntity
  8
0
100
AcDbLine
 10
340.82
 20
162.4809155
 30
0.0
 11
342.28
 21
162.4809155
 31
0.0
  0
LINE
  5
A44
330
1E
100
AcDbEntity
  8
0
100
AcDbLine
 10
340.82
 20
162.4809155
 30
0.0
 11
340.82
 21
161.8639155
 31
0.0
  0
LINE
  5
A45
330
1E
100
AcDbEntity
  8
0
100
AcDbLine
 10
340.82
 20
162.4809155
 30
0.0
 11
340.82
 21
163.384795906168
 31
0.0
  0
LINE
  5
A46
330
1E
100
AcDbEntity
  8
0
100
AcDbLine
 10
340.82
 20
163.384795906168
 30
0.0
 11
340.82
 21
162.4809155
 31
0.0
  0
LINE
  5
A47
330
1E
100
AcDbEntity
  8
0
100
AcDbLine
 10
331.088
 20
162.6939155
 30
0.0
 11
332.548
 21
162.6939155
 31
0.0
  0
LINE
  5
A48
330
1E
100
AcDbEntity
  8
0
100
AcDbLine
 10
331.088
 20
162.6939155
 30
0.0
 11
331.088
 21
162.0769155
 31
0.0
  0
LINE
  5
A49
330
1E
100
AcDbEntity
  8
0
100
AcDbLine
 10
331.088
 20
162.6939155
 30
0.0
 11
331.088
 21
163.828992992727
 31
0.0
  0
LINE
  5
A4A
330
1E
100
AcDbEntity
  8
0
100
AcDbLine
 10
332.548
 20
162.6939155
 30
0.0
 11
332.548
 21
163.50409375972
 31
0.0
  0
LINE
  5
A4B
330
1E
100
AcDbEntity
  8
0
100
AcDbLine
 10
332.548
 20
162.6939155
 30
0.0
 11
332.548
 21
162.0769155
 31
0.0
  0
LINE
  5
A4C
330
1E
100
AcDbEntity
  8
0
100
AcDbLine
 10
332.548
 20
163.50409375972
 30
0.0
 11
332.548
 21
162.6939155
 31
0.0
  0
LINE
  5
A4D
330
1E
100
AcDbEntity
  8
0
100
AcDbLine
 10
331.088
 20
163.828992992727
 30
0.0
 11
331.088
 21
162.6939155
 31
0.0
  0
LINE
  5
A4E
330
1E
100
AcDbEntity
  8
0
100
AcDbLine
 10
331.088
 20
162.0769155
 30
0.0
 11
332.548
 21
162.0769155
 31
0.0
  0
LINE
  5
A4F
330
1E
100
AcDbEntity
  8
0
100
AcDbLine
 10
331.088
 20
162.0769155
 30
0.0
 11
331.088
 21
162.386856954761
 31
0.0
  0
LINE
  5
A50
330
1E
100
AcDbEntity
  8
0
100
AcDbLine
 10
331.088
 20
162.0769155
 30
0.0
 11
331.088
 21
162.6939155
 31
0.0
  0
LINE
  5
A51
330
1E
100
AcDbEntity
  8
0
100
AcDbLine
 10
332.548
 20
162.0769155
 30
0.0
 11
332.548
 21
162.6939155
 31
0.0
  0
LINE
  5
A52
330
1E
100
AcDbEntity
  8
0
100
AcDbLine
 10
331.088
 20
162.386856954761
 30
0.0
 11
331.088
 21
162.0769155
 31
0.0
  0
LINE
  5
A53
330
1E
100
AcDbEntity
  8
0
100
AcDbLine
 10
342.28
 20
161.8639155
 30
0.0
 11
342.28
 21
162.4809155
 31
0.0
  0
LINE
  5
A54
330
1E
100
AcDbEntity
  8
0
100
AcDbLine
 10
307.511
 20
164.0449155
 30
0.0
 11
308.825
 21
166.7899155
 31
0.0
  0
LINE
  5
A55
330
1E
100
AcDbEntity
  8
0
100
AcDbLine
 10
308.241
 20
163.1079155
 30
0.0
 11
309.482
 21
165.6679155
 31
0.0
  0
LINE
  5
A56
330
1E
100
AcDbEntity
  8
0
100
AcDbLine
 10
310.358
 20
163.0459155
 30
0.0
 11
311.599
 21
165.2359155
 31
0.0
  0
LINE
  5
A57
330
1E
100
AcDbEntity
  8
0
100
AcDbLine
 10
312.759
 20
163.3599155
 30
0.0
 11
314.218
 21
163.3599155
 31
0.0
  0
LINE
  5
A58
330
1E
100
AcDbEntity
  8
0
100
AcDbLine
 10
312.759
 20
163.3599155
 30
0.0
 11
312.759
 21
163.9769155
 31
0.0
  0
LINE
  5
A59
330
1E
100
AcDbEntity
  8
0
100
AcDbLine
 10
314.218
 20
163.9769155
 30
0.0
 11
314.218
 21
164.822389184211
 31
0.0
  0
LINE
  5
A5A
330
1E
100
AcDbEntity
  8
0
100
AcDbLine
 10
314.218
 20
163.9769155
 30
0.0
 11
314.218
 21
163.3599155
 31
0.0
  0
LINE
  5
A5B
330
1E
100
AcDbEntity
  8
0
100
AcDbLine
 10
314.218
 20
163.3599155
 30
0.0
 11
314.218
 21
163.9769155
 31
0.0
  0
LINE
  5
A5C
330
1E
100
AcDbEntity
  8
0
100
AcDbLine
 10
321.68
 20
163.644178657895
 30
0.0
 11
321.68
 21
163.4559155
 31
0.0
  0
LINE
  5
A5D
330
1E
100
AcDbEntity
  8
0
100
AcDbLine
 10
321.68
 20
163.644178657895
 30
0.0
 11
321.68
 21
162.8389155
 31
0.0
  0
LINE
  5
A5E
330
1E
100
AcDbEntity
  8
0
100
AcDbLine
 10
321.68
 20
163.4559155
 30
0.0
 11
323.14
 21
163.4559155
 31
0.0
  0
LINE
  5
A5F
330
1E
100
AcDbEntity
  8
0
100
AcDbLine
 10
321.68
 20
163.4559155
 30
0.0
 11
321.68
 21
162.8389155
 31
0.0
  0
LINE
  5
A60
330
1E
100
AcDbEntity
  8
0
100
AcDbLine
 10
321.68
 20
163.4559155
 30
0.0
 11
321.68
 21
163.644178657895
 31
0.0
  0
LINE
  5
A61
330
1E
100
AcDbEntity
  8
0
100
AcDbLine
 10
323.14
 20
163.4559155
 30
0.0
 11
323.14
 21
162.8389155
 31
0.0
  0
LINE
  5
A62
330
1E
100
AcDbEntity
  8
0
100
AcDbLine
 10
312.759
 20
163.9769155
 30
0.0
 11
314.218
 21
163.9769155
 31
0.0
  0
LINE
  5
A63
330
1E
100
AcDbEntity
  8
0
100
AcDbLine
 10
312.759
 20
163.9769155
 30
0.0
 11
312.759
 21
163.3599155
 31
0.0
  0
LINE
  5
A64
330
1E
100
AcDbEntity
  8
0
100
AcDbLine
 10
312.759
 20
163.9769155
 30
0.0
 11
312.759
 21
165.052757605263
 31
0.0
  0
LINE
  5
A65
330
1E
100
AcDbEntity
  8
0
100
AcDbLine
 10
321.68
 20
162.8389155
 30
0.0
 11
323.14
 21
162.8389155
 31
0.0
  0
LINE
  5
A66
330
1E
100
AcDbEntity
  8
0
100
AcDbLine
 10
321.68
 20
162.8389155
 30
0.0
 11
321.68
 21
163.644178657895
 31
0.0
  0
LINE
  5
A67
330
1E
100
AcDbEntity
  8
0
100
AcDbLine
 10
321.68
 20
162.8389155
 30
0.0
 11
321.68
 21
163.4559155
 31
0.0
  0
LINE
  5
A68
330
1E
100
AcDbEntity
  8
0
100
AcDbLine
 10
323.14
 20
162.8389155
 30
0.0
 11
323.14
 21
163.4559155
 31
0.0
  0
LINE
  5
A69
330
1E
100
AcDbEntity
  8
0
100
AcDbLine
 10
344.591
 20
140.3419155
 30
0.0
 11
350.65
 21
139.8179155
 31
0.0
  0
LINE
  5
A6A
330
1E
100
AcDbEntity
  8
0
100
AcDbLine
 10
338.168
 20
141.2359155
 30
0.0
 11
344.591
 21
140.3419155
 31
0.0
  0
LINE
  5
A6B
330
1E
100
AcDbEntity
  8
0
100
AcDbLine
 10
345.613
 20
141.2359155
 30
0.0
 11
349.84522446175
 21
140.808038668444
 31
0.0
  0
LINE
  5
A6C
330
1E
100
AcDbEntity
  8
0
100
AcDbLine
 10
342.753
 20
141.598585617217
 30
0.0
 11
342.753
 21
141.5369155
 31
0.0
  0
LINE
  5
A6D
330
1E
100
AcDbEntity
  8
0
100
AcDbLine
 10
342.753
 20
141.598585617217
 30
0.0
 11
345.613
 21
141.2359155
 31
0.0
  0
LINE
  5
A6E
330
1E
100
AcDbEntity
  8
0
100
AcDbLine
 10
346.622
 20
144.0859155
 30
0.0
 11
347.887
 21
144.3939155
 31
0.0
  0
LINE
  5
A6F
330
1E
100
AcDbEntity
  8
0
100
AcDbLine
 10
347.887
 20
145.021921822445
 30
0.0
 11
347.887
 21
144.3939155
 31
0.0
  0
LINE
  5
A70
330
1E
100
AcDbEntity
  8
0
100
AcDbLine
 10
350.42
 20
147.6469155
 30
0.0
 11
350.42
 21
148.061040117403
 31
0.0
  0
LINE
  5
A71
330
1E
100
AcDbEntity
  8
0
100
AcDbLine
 10
350.42
 20
147.6469155
 30
0.0
 11
351.15
 21
147.1119155
 31
0.0
  0
LINE
  5
A72
330
1E
100
AcDbEntity
  8
0
100
AcDbLine
 10
350.42
 20
147.6469155
 30
0.0
 11
351.684
 21
147.9549155
 31
0.0
  0
LINE
  5
A73
330
1E
100
AcDbEntity
  8
0
100
AcDbLine
 10
350.42
 20
148.061040117403
 30
0.0
 11
350.42
 21
147.6469155
 31
0.0
  0
LINE
  5
A74
330
1E
100
AcDbEntity
  8
0
100
AcDbLine
 10
350.441
 20
155.9969155
 30
0.0
 11
350.704
 21
155.7289155
 31
0.0
  0
LINE
  5
A75
330
1E
100
AcDbEntity
  8
0
100
AcDbLine
 10
350.44
 20
154.9149155
 30
0.0
 11
350.672
 21
155.1779155
 31
0.0
  0
LINE
  5
A76
330
1E
100
AcDbEntity
  8
0
100
AcDbLine
 10
350.049
 20
154.6939155
 30
0.0
 11
350.44
 21
154.9149155
 31
0.0
  0
LINE
  5
A77
330
1E
100
AcDbEntity
  8
0
100
AcDbLine
 10
349.504
 20
154.5179155
 30
0.0
 11
350.049
 21
154.6939155
 31
0.0
  0
LINE
  5
A78
330
1E
100
AcDbEntity
  8
0
100
AcDbLine
 10
350.024
 20
156.2269155
 30
0.0
 11
350.441
 21
155.9969155
 31
0.0
  0
LINE
  5
A79
330
1E
100
AcDbEntity
  8
0
100
AcDbLine
 10
349.503
 20
156.3919155
 30
0.0
 11
350.024
 21
156.2269155
 31
0.0
  0
LINE
  5
A7A
330
1E
100
AcDbEntity
  8
0
100
AcDbLine
 10
348.879
 20
156.4889155
 30
0.0
 11
349.503
 21
156.3919155
 31
0.0
  0
LINE
  5
A7B
330
1E
100
AcDbEntity
  8
0
100
AcDbLine
 10
348.224
 20
156.5369155
 30
0.0
 11
348.879
 21
156.4889155
 31
0.0
  0
LINE
  5
A7C
330
1E
100
AcDbEntity
  8
0
100
AcDbLine
 10
348.223
 20
154.3739155
 30
0.0
 11
348.871
 21
154.4069155
 31
0.0
  0
LINE
  5
A7D
330
1E
100
AcDbEntity
  8
0
100
AcDbLine
 10
348.871
 20
154.4069155
 30
0.0
 11
349.504
 21
154.5179155
 31
0.0
  0
LINE
  5
A7E
330
1E
100
AcDbEntity
  8
0
100
AcDbLine
 10
348.69
 20
151.80571717837
 30
0.0
 11
348.69
 21
151.4579155
 31
0.0
  0
LINE
  5
A7F
330
1E
100
AcDbEntity
  8
0
100
AcDbLine
 10
347.961
 20
150.9239155
 30
0.0
 11
348.69
 21
151.4579155
 31
0.0
  0
LINE
  5
A80
330
1E
100
AcDbEntity
  8
0
100
AcDbLine
 10
348.69
 20
151.4579155
 30
0.0
 11
348.69
 21
151.80571717837
 31
0.0
  0
LINE
  5
A81
330
1E
100
AcDbEntity
  8
0
100
AcDbLine
 10
347.887
 20
144.3939155
 30
0.0
 11
347.887
 21
145.021921822445
 31
0.0
  0
LINE
  5
A82
330
1E
100
AcDbEntity
  8
0
100
AcDbLine
 10
347.157
 20
144.9289155
 30
0.0
 11
347.157
 21
145.435259064146
 31
0.0
  0
LINE
  5
A83
330
1E
100
AcDbEntity
  8
0
100
AcDbLine
 10
347.157
 20
144.9289155
 30
0.0
 11
347.887
 21
144.3939155
 31
0.0
  0
LINE
  5
A84
330
1E
100
AcDbEntity
  8
0
100
AcDbLine
 10
347.426
 20
152.641056029238
 30
0.0
 11
347.426
 21
151.7669155
 31
0.0
  0
LINE
  5
A85
330
1E
100
AcDbEntity
  8
0
100
AcDbLine
 10
347.568
 20
154.4209155
 30
0.0
 11
348.223
 21
154.3739155
 31
0.0
  0
LINE
  5
A86
330
1E
100
AcDbEntity
  8
0
100
AcDbLine
 10
347.577
 20
156.5039155
 30
0.0
 11
348.224
 21
156.5369155
 31
0.0
  0
LINE
  5
A87
330
1E
100
AcDbEntity
  8
0
100
AcDbLine
 10
347.426
 20
151.7669155
 30
0.0
 11
347.426
 21
152.641056029238
 31
0.0
  0
LINE
  5
A88
330
1E
100
AcDbEntity
  8
0
100
AcDbLine
 10
347.426
 20
151.7669155
 30
0.0
 11
348.69
 21
151.4579155
 31
0.0
  0
LINE
  5
A89
330
1E
100
AcDbEntity
  8
0
100
AcDbLine
 10
347.157
 20
145.435259064146
 30
0.0
 11
347.157
 21
144.9289155
 31
0.0
  0
LINE
  5
A8A
330
1E
100
AcDbEntity
  8
0
100
AcDbLine
 10
346.696
 20
151.2329155
 30
0.0
 11
347.426
 21
151.7669155
 31
0.0
  0
LINE
  5
A8B
330
1E
100
AcDbEntity
  8
0
100
AcDbLine
 10
346.696
 20
151.2329155
 30
0.0
 11
346.696
 21
152.351035119295
 31
0.0
  0
LINE
  5
A8C
330
1E
100
AcDbEntity
  8
0
100
AcDbLine
 10
346.696
 20
151.2329155
 30
0.0
 11
347.961
 21
150.9239155
 31
0.0
  0
LINE
  5
A8D
330
1E
100
AcDbEntity
  8
0
100
AcDbLine
 10
346.944
 20
154.5179155
 30
0.0
 11
347.568
 21
154.4209155
 31
0.0
  0
LINE
  5
A8E
330
1E
100
AcDbEntity
  8
0
100
AcDbLine
 10
346.944
 20
156.3919155
 30
0.0
 11
347.577
 21
156.5039155
 31
0.0
  0
LINE
  5
A8F
330
1E
100
AcDbEntity
  8
0
100
AcDbLine
 10
346.696
 20
152.351035119295
 30
0.0
 11
346.696
 21
151.2329155
 31
0.0
  0
LINE
  5
A90
330
1E
100
AcDbEntity
  8
0
100
AcDbLine
 10
346.007
 20
154.9139155
 30
0.0
 11
346.423
 21
154.6839155
 31
0.0
  0
LINE
  5
A91
330
1E
100
AcDbEntity
  8
0
100
AcDbLine
 10
346.423
 20
154.6839155
 30
0.0
 11
346.944
 21
154.5179155
 31
0.0
  0
LINE
  5
A92
330
1E
100
AcDbEntity
  8
0
100
AcDbLine
 10
346.399
 20
156.2169155
 30
0.0
 11
346.944
 21
156.3919155
 31
0.0
  0
LINE
  5
A93
330
1E
100
AcDbEntity
  8
0
100
AcDbLine
 10
345.743
 20
155.1819155
 30
0.0
 11
346.007
 21
154.9139155
 31
0.0
  0
LINE
  5
A94
330
1E
100
AcDbEntity
  8
0
100
AcDbLine
 10
345.371875926283
 20
155.87848683836
 30
0.0
 11
345.743
 21
155.1819155
 31
0.0
  0
LINE
  5
A95
330
1E
100
AcDbEntity
  8
0
100
AcDbLine
 10
345.664
 20
155.4559155
 30
0.0
 11
345.776
 21
155.7329155
 31
0.0
  0
LINE
  5
A96
330
1E
100
AcDbEntity
  8
0
100
AcDbLine
 10
345.664
 20
155.4559155
 30
0.0
 11
345.743
 21
155.1819155
 31
0.0
  0
LINE
  5
A97
330
1E
100
AcDbEntity
  8
0
100
AcDbLine
 10
345.776
 20
155.7329155
 30
0.0
 11
346.007
 21
155.9959155
 31
0.0
  0
LINE
  5
A98
330
1E
100
AcDbEntity
  8
0
100
AcDbLine
 10
346.007
 20
155.9959155
 30
0.0
 11
346.399
 21
156.2169155
 31
0.0
  0
LINE
  5
A99
330
1E
100
AcDbEntity
  8
0
100
AcDbLine
 10
344.311
 20
149.450101662014
 30
0.0
 11
344.311
 21
148.7059155
 31
0.0
  0
LINE
  5
A9A
330
1E
100
AcDbEntity
  8
0
100
AcDbLine
 10
343.581
 20
148.1709155
 30
0.0
 11
344.311
 21
148.7059155
 31
0.0
  0
LINE
  5
A9B
330
1E
100
AcDbEntity
  8
0
100
AcDbLine
 10
344.311
 20
148.7059155
 30
0.0
 11
344.311
 21
149.450101662014
 31
0.0
  0
LINE
  5
A9C
330
1E
100
AcDbEntity
  8
0
100
AcDbLine
 10
343.047
 20
149.0149155
 30
0.0
 11
344.311
 21
148.7059155
 31
0.0
  0
LINE
  5
A9D
330
1E
100
AcDbEntity
  8
0
100
AcDbLine
 10
345.892
 20
144.6199155
 30
0.0
 11
345.892
 21
144.910370045455
 31
0.0
  0
LINE
  5
A9E
330
1E
100
AcDbEntity
  8
0
100
AcDbLine
 10
345.892
 20
144.6199155
 30
0.0
 11
346.622
 21
144.0859155
 31
0.0
  0
LINE
  5
A9F
330
1E
100
AcDbEntity
  8
0
100
AcDbLine
 10
345.892
 20
144.6199155
 30
0.0
 11
347.157
 21
144.9289155
 31
0.0
  0
LINE
  5
AA0
330
1E
100
AcDbEntity
  8
0
100
AcDbLine
 10
345.892
 20
144.910370045455
 30
0.0
 11
345.892
 21
144.6199155
 31
0.0
  0
LINE
  5
AA1
330
1E
100
AcDbEntity
  8
0
100
AcDbLine
 10
339.044
 20
142.0689155
 30
0.0
 11
340.759
 21
141.851440237403
 31
0.0
  0
LINE
  5
AA2
330
1E
100
AcDbEntity
  8
0
100
AcDbLine
 10
342.023
 20
142.0719155
 30
0.0
 11
342.023
 21
143.304998019116
 31
0.0
  0
LINE
  5
AA3
330
1E
100
AcDbEntity
  8
0
100
AcDbLine
 10
342.023
 20
142.0719155
 30
0.0
 11
342.753
 21
141.5369155
 31
0.0
  0
LINE
  5
AA4
330
1E
100
AcDbEntity
  8
0
100
AcDbLine
 10
342.28
 20
155.22670603442
 30
0.0
 11
342.28
 21
154.4519155
 31
0.0
  0
LINE
  5
AA5
330
1E
100
AcDbEntity
  8
0
100
AcDbLine
 10
342.28
 20
153.8349155
 30
0.0
 11
342.28
 21
154.4519155
 31
0.0
  0
LINE
  5
AA6
330
1E
100
AcDbEntity
  8
0
100
AcDbLine
 10
342.317
 20
148.4799155
 30
0.0
 11
343.047
 21
149.0149155
 31
0.0
  0
LINE
  5
AA7
330
1E
100
AcDbEntity
  8
0
100
AcDbLine
 10
342.317
 20
148.4799155
 30
0.0
 11
342.317
 21
148.573432576035
 31
0.0
  0
LINE
  5
AA8
330
1E
100
AcDbEntity
  8
0
100
AcDbLine
 10
342.317
 20
148.4799155
 30
0.0
 11
343.581
 21
148.1709155
 31
0.0
  0
LINE
  5
AA9
330
1E
100
AcDbEntity
  8
0
100
AcDbLine
 10
342.317
 20
148.573432576035
 30
0.0
 11
342.317
 21
148.4799155
 31
0.0
  0
LINE
  5
AAA
330
1E
100
AcDbEntity
  8
0
100
AcDbLine
 10
342.28
 20
154.4519155
 30
0.0
 11
342.28
 21
153.8349155
 31
0.0
  0
LINE
  5
AAB
330
1E
100
AcDbEntity
  8
0
100
AcDbLine
 10
342.28
 20
154.4519155
 30
0.0
 11
342.28
 21
155.22670603442
 31
0.0
  0
LINE
  5
AAC
330
1E
100
AcDbEntity
  8
0
100
AcDbLine
 10
342.023
 20
143.304998019116
 30
0.0
 11
342.023
 21
142.0719155
 31
0.0
  0
LINE
  5
AAD
330
1E
100
AcDbEntity
  8
0
100
AcDbLine
 10
340.82
 20
153.8349155
 30
0.0
 11
342.28
 21
153.8349155
 31
0.0
  0
LINE
  5
AAE
330
1E
100
AcDbEntity
  8
0
100
AcDbLine
 10
340.82
 20
153.8349155
 30
0.0
 11
340.82
 21
154.4519155
 31
0.0
  0
LINE
  5
AAF
330
1E
100
AcDbEntity
  8
0
100
AcDbLine
 10
340.82
 20
153.8349155
 30
0.0
 11
340.82
 21
154.424777102106
 31
0.0
  0
LINE
  5
AB0
330
1E
100
AcDbEntity
  8
0
100
AcDbLine
 10
340.82
 20
154.4519155
 30
0.0
 11
342.28
 21
154.4519155
 31
0.0
  0
LINE
  5
AB1
330
1E
100
AcDbEntity
  8
0
100
AcDbLine
 10
340.82
 20
154.4519155
 30
0.0
 11
340.82
 21
154.94469063587
 31
0.0
  0
LINE
  5
AB2
330
1E
100
AcDbEntity
  8
0
100
AcDbLine
 10
340.82
 20
154.4519155
 30
0.0
 11
340.82
 21
153.8349155
 31
0.0
  0
LINE
  5
AB3
330
1E
100
AcDbEntity
  8
0
100
AcDbLine
 10
340.82
 20
154.94469063587
 30
0.0
 11
340.82
 21
154.4519155
 31
0.0
  0
LINE
  5
AB4
330
1E
100
AcDbEntity
  8
0
100
AcDbLine
 10
339.117
 20
159.371208688885
 30
0.0
 11
339.117
 21
158.4659155
 31
0.0
  0
LINE
  5
AB5
330
1E
100
AcDbEntity
  8
0
100
AcDbLine
 10
339.117
 20
157.8499155
 30
0.0
 11
339.117
 21
158.4659155
 31
0.0
  0
LINE
  5
AB6
330
1E
100
AcDbEntity
  8
0
100
AcDbLine
 10
339.117
 20
158.4659155
 30
0.0
 11
339.117
 21
157.8499155
 31
0.0
  0
LINE
  5
AB7
330
1E
100
AcDbEntity
  8
0
100
AcDbLine
 10
339.117
 20
158.4659155
 30
0.0
 11
339.117
 21
159.371208688885
 31
0.0
  0
LINE
  5
AB8
330
1E
100
AcDbEntity
  8
0
100
AcDbLine
 10
340.82
 20
154.424777102106
 30
0.0
 11
340.82
 21
153.8349155
 31
0.0
  0
LINE
  5
AB9
330
1E
100
AcDbEntity
  8
0
100
AcDbLine
 10
338.667
 20
146.967172557456
 30
0.0
 11
338.667
 21
146.2619155
 31
0.0
  0
LINE
  5
ABA
330
1E
100
AcDbEntity
  8
0
100
AcDbLine
 10
339.931
 20
147.058120979452
 30
0.0
 11
339.931
 21
145.9539155
 31
0.0
  0
LINE
  5
ABB
330
1E
100
AcDbEntity
  8
0
100
AcDbLine
 10
339.202
 20
145.4189155
 30
0.0
 11
339.931
 21
145.9539155
 31
0.0
  0
LINE
  5
ABC
330
1E
100
AcDbEntity
  8
0
100
AcDbLine
 10
339.931
 20
145.9539155
 30
0.0
 11
339.931
 21
147.058120979452
 31
0.0
  0
LINE
  5
ABD
330
1E
100
AcDbEntity
  8
0
100
AcDbLine
 10
338.667
 20
146.2619155
 30
0.0
 11
338.667
 21
146.967172557456
 31
0.0
  0
LINE
  5
ABE
330
1E
100
AcDbEntity
  8
0
100
AcDbLine
 10
338.667
 20
146.2619155
 30
0.0
 11
339.931
 21
145.9539155
 31
0.0
  0
LINE
  5
ABF
330
1E
100
AcDbEntity
  8
0
100
AcDbLine
 10
340.759
 20
142.780523932455
 30
0.0
 11
340.759
 21
141.7629155
 31
0.0
  0
LINE
  5
AC0
330
1E
100
AcDbEntity
  8
0
100
AcDbLine
 10
342.753
 20
141.5369155
 30
0.0
 11
342.753
 21
141.598585617217
 31
0.0
  0
LINE
  5
AC1
330
1E
100
AcDbEntity
  8
0
100
AcDbLine
 10
340.759
 20
141.7629155
 30
0.0
 11
340.759
 21
142.780523932455
 31
0.0
  0
LINE
  5
AC2
330
1E
100
AcDbEntity
  8
0
100
AcDbLine
 10
340.759
 20
141.7629155
 30
0.0
 11
341.489
 21
141.2289155
 31
0.0
  0
LINE
  5
AC3
330
1E
100
AcDbEntity
  8
0
100
AcDbLine
 10
340.759
 20
141.7629155
 30
0.0
 11
342.023
 21
142.0719155
 31
0.0
  0
LINE
  5
AC4
330
1E
100
AcDbEntity
  8
0
100
AcDbLine
 10
349.799
 20
140.8419155
 30
0.0
 11
350.529
 21
140.3069155
 31
0.0
  0
LINE
  5
AC5
330
1E
100
AcDbEntity
  8
0
100
AcDbLine
 10
349.799
 20
140.8419155
 30
0.0
 11
351.063
 21
141.1499155
 31
0.0
  0
LINE
  5
AC6
330
1E
100
AcDbEntity
  8
0
100
AcDbLine
 10
341.489
 20
141.2289155
 30
0.0
 11
342.753
 21
141.5369155
 31
0.0
  0
LINE
  5
AC7
330
1E
100
AcDbEntity
  8
0
100
AcDbLine
 10
335.099557724212
 20
142.869331092402
 30
0.0
 11
339.044
 21
142.0689155
 31
0.0
  0
LINE
  5
AC8
330
1E
100
AcDbEntity
  8
0
100
AcDbLine
 10
337.657
 20
157.8499155
 30
0.0
 11
339.117
 21
157.8499155
 31
0.0
  0
LINE
  5
AC9
330
1E
100
AcDbEntity
  8
0
100
AcDbLine
 10
337.657
 20
157.8499155
 30
0.0
 11
337.657
 21
158.4659155
 31
0.0
  0
LINE
  5
ACA
330
1E
100
AcDbEntity
  8
0
100
AcDbLine
 10
337.657
 20
157.8499155
 30
0.0
 11
337.657
 21
158.429093890983
 31
0.0
  0
LINE
  5
ACB
330
1E
100
AcDbEntity
  8
0
100
AcDbLine
 10
337.937
 20
145.7279155
 30
0.0
 11
338.667
 21
146.2619155
 31
0.0
  0
LINE
  5
ACC
330
1E
100
AcDbEntity
  8
0
100
AcDbLine
 10
337.937
 20
145.7279155
 30
0.0
 11
337.937
 21
146.803401385088
 31
0.0
  0
LINE
  5
ACD
330
1E
100
AcDbEntity
  8
0
100
AcDbLine
 10
337.937
 20
145.7279155
 30
0.0
 11
339.202
 21
145.4189155
 31
0.0
  0
LINE
  5
ACE
330
1E
100
AcDbEntity
  8
0
100
AcDbLine
 10
337.937
 20
146.803401385088
 30
0.0
 11
337.937
 21
145.7279155
 31
0.0
  0
LINE
  5
ACF
330
1E
100
AcDbEntity
  8
0
100
AcDbLine
 10
337.82
 20
150.7209155
 30
0.0
 11
337.82
 21
151.3379155
 31
0.0
  0
LINE
  5
AD0
330
1E
100
AcDbEntity
  8
0
100
AcDbLine
 10
337.82
 20
151.3379155
 30
0.0
 11
337.82
 21
150.7209155
 31
0.0
  0
LINE
  5
AD1
330
1E
100
AcDbEntity
  8
0
100
AcDbLine
 10
337.657
 20
158.4659155
 30
0.0
 11
339.117
 21
158.4659155
 31
0.0
  0
LINE
  5
AD2
330
1E
100
AcDbEntity
  8
0
100
AcDbLine
 10
337.657
 20
158.4659155
 30
0.0
 11
337.657
 21
159.385181677614
 31
0.0
  0
LINE
  5
AD3
330
1E
100
AcDbEntity
  8
0
100
AcDbLine
 10
337.657
 20
158.4659155
 30
0.0
 11
337.657
 21
157.8499155
 31
0.0
  0
LINE
  5
AD4
330
1E
100
AcDbEntity
  8
0
100
AcDbLine
 10
337.657
 20
159.385181677614
 30
0.0
 11
337.657
 21
158.4659155
 31
0.0
  0
LINE
  5
AD5
330
1E
100
AcDbEntity
  8
0
100
AcDbLine
 10
337.657
 20
158.429093890983
 30
0.0
 11
337.657
 21
157.8499155
 31
0.0
  0
LINE
  5
AD6
330
1E
100
AcDbEntity
  8
0
100
AcDbLine
 10
336.36
 20
151.3379155
 30
0.0
 11
337.82
 21
151.3379155
 31
0.0
  0
LINE
  5
AD7
330
1E
100
AcDbEntity
  8
0
100
AcDbLine
 10
336.36
 20
151.3379155
 30
0.0
 11
336.36
 21
152.220673598224
 31
0.0
  0
LINE
  5
AD8
330
1E
100
AcDbEntity
  8
0
100
AcDbLine
 10
336.36
 20
151.3379155
 30
0.0
 11
336.36
 21
150.7209155
 31
0.0
  0
LINE
  5
AD9
330
1E
100
AcDbEntity
  8
0
100
AcDbLine
 10
336.36
 20
152.220673598224
 30
0.0
 11
336.36
 21
151.3379155
 31
0.0
  0
LINE
  5
ADA
330
1E
100
AcDbEntity
  8
0
100
AcDbLine
 10
336.36
 20
150.7209155
 30
0.0
 11
337.82
 21
150.7209155
 31
0.0
  0
LINE
  5
ADB
330
1E
100
AcDbEntity
  8
0
100
AcDbLine
 10
336.36
 20
150.7209155
 30
0.0
 11
336.36
 21
151.3379155
 31
0.0
  0
LINE
  5
ADC
330
1E
100
AcDbEntity
  8
0
100
AcDbLine
 10
334.288
 20
143.618210020548
 30
0.0
 11
334.288
 21
143.5089155
 31
0.0
  0
LINE
  5
ADD
330
1E
100
AcDbEntity
  8
0
100
AcDbLine
 10
335.552
 20
143.804754549394
 30
0.0
 11
335.552
 21
143.2009155
 31
0.0
  0
LINE
  5
ADE
330
1E
100
AcDbEntity
  8
0
100
AcDbLine
 10
334.288
 20
143.5089155
 30
0.0
 11
334.288
 21
143.618210020548
 31
0.0
  0
LINE
  5
ADF
330
1E
100
AcDbEntity
  8
0
100
AcDbLine
 10
334.288
 20
143.5089155
 30
0.0
 11
335.552
 21
143.2009155
 31
0.0
  0
LINE
  5
AE0
330
1E
100
AcDbEntity
  8
0
100
AcDbLine
 10
335.552
 20
143.2009155
 30
0.0
 11
335.552
 21
143.804754549394
 31
0.0
  0
LINE
  5
AE1
330
1E
100
AcDbEntity
  8
0
100
AcDbLine
 10
334.822
 20
142.6659155
 30
0.0
 11
335.552
 21
143.2009155
 31
0.0
  0
LINE
  5
AE2
330
1E
100
AcDbEntity
  8
0
100
AcDbLine
 10
348.36
 20
133.2409155
 30
0.0
 11
348.36
 21
140.015961382159
 31
0.0
  0
LINE
  5
AE3
330
1E
100
AcDbEntity
  8
0
100
AcDbLine
 10
348.36
 20
133.2409155
 30
0.0
 11
348.648
 21
131.0349155
 31
0.0
  0
LINE
  5
AE4
330
1E
100
AcDbEntity
  8
0
100
AcDbLine
 10
348.648
 20
131.0349155
 30
0.0
 11
349.512
 21
128.9169155
 31
0.0
  0
LINE
  5
AE5
330
1E
100
AcDbEntity
  8
0
100
AcDbLine
 10
350.529
 20
140.3069155
 30
0.0
 11
351.793
 21
140.6159155
 31
0.0
  0
LINE
  5
AE6
330
1E
100
AcDbEntity
  8
0
100
AcDbLine
 10
349.512
 20
128.9169155
 30
0.0
 11
350.856
 21
127.0629155
 31
0.0
  0
LINE
  5
AE7
330
1E
100
AcDbEntity
  8
0
100
AcDbLine
 10
348.552
 20
124.6799155
 30
0.0
 11
351.048
 21
122.7389155
 31
0.0
  0
LINE
  5
AE8
330
1E
100
AcDbEntity
  8
0
100
AcDbLine
 10
348.36
 20
140.015961382159
 30
0.0
 11
348.36
 21
133.2409155
 31
0.0
  0
LINE
  5
AE9
330
1E
100
AcDbEntity
  8
0
100
AcDbLine
 10
346.632
 20
139.3309155
 30
0.0
 11
347.219743916615
 21
140.114574055487
 31
0.0
  0
LINE
  5
AEA
330
1E
100
AcDbEntity
  8
0
100
AcDbLine
 10
345.384
 20
136.4189155
 30
0.0
 11
346.632
 21
139.3309155
 31
0.0
  0
LINE
  5
AEB
330
1E
100
AcDbEntity
  8
0
100
AcDbLine
 10
345.0
 20
133.2409155
 30
0.0
 11
345.384
 21
130.1519155
 31
0.0
  0
LINE
  5
AEC
330
1E
100
AcDbEntity
  8
0
100
AcDbLine
 10
345.0
 20
133.2409155
 30
0.0
 11
345.0
 21
61.2064155
 31
0.0
  0
LINE
  5
AED
330
1E
100
AcDbEntity
  8
0
100
AcDbLine
 10
345.0
 20
133.2409155
 30
0.0
 11
345.384
 21
136.4189155
 31
0.0
  0
LINE
  5
AEE
330
1E
100
AcDbEntity
  8
0
100
AcDbLine
 10
345.384
 20
130.1519155
 30
0.0
 11
346.632
 21
127.2399155
 31
0.0
  0
LINE
  5
AEF
330
1E
100
AcDbEntity
  8
0
100
AcDbLine
 10
346.632
 20
127.2399155
 30
0.0
 11
348.552
 21
124.6799155
 31
0.0
  0
LINE
  5
AF0
330
1E
100
AcDbEntity
  8
0
100
AcDbLine
 10
332.474
 20
142.3779155
 30
0.0
 11
338.168
 21
141.2359155
 31
0.0
  0
LINE
  5
AF1
330
1E
100
AcDbEntity
  8
0
100
AcDbLine
 10
327.073
 20
143.9199155
 30
0.0
 11
332.474
 21
142.3779155
 31
0.0
  0
LINE
  5
AF2
330
1E
100
AcDbEntity
  8
0
100
AcDbLine
 10
328.387
 20
144.6609155
 30
0.0
 11
333.558
 21
143.183059266885
 31
0.0
  0
LINE
  5
AF3
330
1E
100
AcDbEntity
  8
0
100
AcDbLine
 10
328.293795020266
 20
144.6959155
 30
0.0
 11
328.387
 21
144.6609155
 31
0.0
  0
LINE
  5
AF4
330
1E
100
AcDbEntity
  8
0
100
AcDbLine
 10
328.898
 20
158.3029155
 30
0.0
 11
330.358
 21
158.3029155
 31
0.0
  0
LINE
  5
AF5
330
1E
100
AcDbEntity
  8
0
100
AcDbLine
 10
328.898
 20
158.3029155
 30
0.0
 11
328.898
 21
158.9199155
 31
0.0
  0
LINE
  5
AF6
330
1E
100
AcDbEntity
  8
0
100
AcDbLine
 10
328.898
 20
158.3029155
 30
0.0
 11
328.898
 21
159.116741772833
 31
0.0
  0
LINE
  5
AF7
330
1E
100
AcDbEntity
  8
0
100
AcDbLine
 10
328.898
 20
158.9199155
 30
0.0
 11
330.358
 21
158.9199155
 31
0.0
  0
LINE
  5
AF8
330
1E
100
AcDbEntity
  8
0
100
AcDbLine
 10
328.898
 20
158.9199155
 30
0.0
 11
328.898
 21
159.469010039448
 31
0.0
  0
LINE
  5
AF9
330
1E
100
AcDbEntity
  8
0
100
AcDbLine
 10
328.898
 20
158.9199155
 30
0.0
 11
328.898
 21
158.3029155
 31
0.0
  0
LINE
  5
AFA
330
1E
100
AcDbEntity
  8
0
100
AcDbLine
 10
330.358
 20
159.455037050719
 30
0.0
 11
330.358
 21
158.9199155
 31
0.0
  0
LINE
  5
AFB
330
1E
100
AcDbEntity
  8
0
100
AcDbLine
 10
330.358
 20
158.9199155
 30
0.0
 11
330.358
 21
158.3029155
 31
0.0
  0
LINE
  5
AFC
330
1E
100
AcDbEntity
  8
0
100
AcDbLine
 10
330.358
 20
158.9199155
 30
0.0
 11
330.358
 21
159.455037050719
 31
0.0
  0
LINE
  5
AFD
330
1E
100
AcDbEntity
  8
0
100
AcDbLine
 10
328.898
 20
159.469010039448
 30
0.0
 11
328.898
 21
158.9199155
 31
0.0
  0
LINE
  5
AFE
330
1E
100
AcDbEntity
  8
0
100
AcDbLine
 10
328.898
 20
159.116741772833
 30
0.0
 11
328.898
 21
158.3029155
 31
0.0
  0
LINE
  5
AFF
330
1E
100
AcDbEntity
  8
0
100
AcDbLine
 10
330.358
 20
158.3029155
 30
0.0
 11
330.358
 21
158.9199155
 31
0.0
  0
LINE
  5
B00
330
1E
100
AcDbEntity
  8
0
100
AcDbLine
 10
331.088
 20
154.5289155
 30
0.0
 11
332.548
 21
154.5289155
 31
0.0
  0
LINE
  5
B01
330
1E
100
AcDbEntity
  8
0
100
AcDbLine
 10
331.088
 20
154.5289155
 30
0.0
 11
331.088
 21
155.1449155
 31
0.0
  0
LINE
  5
B02
330
1E
100
AcDbEntity
  8
0
100
AcDbLine
 10
331.088
 20
154.5289155
 30
0.0
 11
331.088
 21
154.750789871859
 31
0.0
  0
LINE
  5
B03
330
1E
100
AcDbEntity
  8
0
100
AcDbLine
 10
331.088
 20
155.1449155
 30
0.0
 11
332.548
 21
155.1449155
 31
0.0
  0
LINE
  5
B04
330
1E
100
AcDbEntity
  8
0
100
AcDbLine
 10
331.088
 20
155.1449155
 30
0.0
 11
331.088
 21
156.100804914548
 31
0.0
  0
LINE
  5
B05
330
1E
100
AcDbEntity
  8
0
100
AcDbLine
 10
331.088
 20
155.1449155
 30
0.0
 11
331.088
 21
154.5289155
 31
0.0
  0
LINE
  5
B06
330
1E
100
AcDbEntity
  8
0
100
AcDbLine
 10
332.548
 20
156.146492870392
 30
0.0
 11
332.548
 21
155.1449155
 31
0.0
  0
LINE
  5
B07
330
1E
100
AcDbEntity
  8
0
100
AcDbLine
 10
332.548
 20
155.1449155
 30
0.0
 11
332.548
 21
154.5289155
 31
0.0
  0
LINE
  5
B08
330
1E
100
AcDbEntity
  8
0
100
AcDbLine
 10
332.548
 20
155.1449155
 30
0.0
 11
332.548
 21
156.146492870392
 31
0.0
  0
LINE
  5
B09
330
1E
100
AcDbEntity
  8
0
100
AcDbLine
 10
331.088
 20
156.100804914548
 30
0.0
 11
331.088
 21
155.1449155
 31
0.0
  0
LINE
  5
B0A
330
1E
100
AcDbEntity
  8
0
100
AcDbLine
 10
331.088
 20
154.750789871859
 30
0.0
 11
331.088
 21
154.5289155
 31
0.0
  0
LINE
  5
B0B
330
1E
100
AcDbEntity
  8
0
100
AcDbLine
 10
332.548
 20
154.5289155
 30
0.0
 11
332.548
 21
155.1449155
 31
0.0
  0
LINE
  5
B0C
330
1E
100
AcDbEntity
  8
0
100
AcDbLine
 10
332.955
 20
149.41234132558
 30
0.0
 11
332.955
 21
148.3939155
 31
0.0
  0
LINE
  5
B0D
330
1E
100
AcDbEntity
  8
0
100
AcDbLine
 10
332.955
 20
147.7769155
 30
0.0
 11
332.955
 21
148.3939155
 31
0.0
  0
LINE
  5
B0E
330
1E
100
AcDbEntity
  8
0
100
AcDbLine
 10
332.955
 20
148.3939155
 30
0.0
 11
332.955
 21
147.7769155
 31
0.0
  0
LINE
  5
B0F
330
1E
100
AcDbEntity
  8
0
100
AcDbLine
 10
332.955
 20
148.3939155
 30
0.0
 11
332.955
 21
149.41234132558
 31
0.0
  0
LINE
  5
B10
330
1E
100
AcDbEntity
  8
0
100
AcDbLine
 10
331.495
 20
147.7769155
 30
0.0
 11
332.955
 21
147.7769155
 31
0.0
  0
LINE
  5
B11
330
1E
100
AcDbEntity
  8
0
100
AcDbLine
 10
331.495
 20
147.7769155
 30
0.0
 11
331.495
 21
148.3939155
 31
0.0
  0
LINE
  5
B12
330
1E
100
AcDbEntity
  8
0
100
AcDbLine
 10
331.495
 20
147.7769155
 30
0.0
 11
331.495
 21
148.930650291944
 31
0.0
  0
LINE
  5
B13
330
1E
100
AcDbEntity
  8
0
100
AcDbLine
 10
331.495
 20
148.3939155
 30
0.0
 11
332.955
 21
148.3939155
 31
0.0
  0
LINE
  5
B14
330
1E
100
AcDbEntity
  8
0
100
AcDbLine
 10
331.495
 20
148.3939155
 30
0.0
 11
331.495
 21
148.930650291944
 31
0.0
  0
LINE
  5
B15
330
1E
100
AcDbEntity
  8
0
100
AcDbLine
 10
331.495
 20
148.3939155
 30
0.0
 11
331.495
 21
147.7769155
 31
0.0
  0
LINE
  5
B16
330
1E
100
AcDbEntity
  8
0
100
AcDbLine
 10
331.495
 20
148.930650291944
 30
0.0
 11
331.495
 21
147.7769155
 31
0.0
  0
LINE
  5
B17
330
1E
100
AcDbEntity
  8
0
100
AcDbLine
 10
331.495
 20
148.930650291944
 30
0.0
 11
331.495
 21
148.3939155
 31
0.0
  0
LINE
  5
B18
330
1E
100
AcDbEntity
  8
0
100
AcDbLine
 10
328.738
 20
144.6959155
 30
0.0
 11
328.738
 21
145.3129155
 31
0.0
  0
LINE
  5
B19
330
1E
100
AcDbEntity
  8
0
100
AcDbLine
 10
328.738
 20
145.3129155
 30
0.0
 11
328.738
 21
144.6959155
 31
0.0
  0
LINE
  5
B1A
330
1E
100
AcDbEntity
  8
0
100
AcDbLine
 10
327.601
 20
150.5909155
 30
0.0
 11
327.601
 21
151.2079155
 31
0.0
  0
LINE
  5
B1B
330
1E
100
AcDbEntity
  8
0
100
AcDbLine
 10
327.601
 20
151.2079155
 30
0.0
 11
327.601
 21
150.5909155
 31
0.0
  0
LINE
  5
B1C
330
1E
100
AcDbEntity
  8
0
100
AcDbLine
 10
327.278
 20
144.6959155
 30
0.0
 11
328.738
 21
144.6959155
 31
0.0
  0
LINE
  5
B1D
330
1E
100
AcDbEntity
  8
0
100
AcDbLine
 10
327.278
 20
144.6959155
 30
0.0
 11
327.278
 21
145.3129155
 31
0.0
  0
LINE
  5
B1E
330
1E
100
AcDbEntity
  8
0
100
AcDbLine
 10
327.278
 20
144.6959155
 30
0.0
 11
327.278
 21
145.077363206023
 31
0.0
  0
LINE
  5
B1F
330
1E
100
AcDbEntity
  8
0
100
AcDbLine
 10
327.278
 20
145.3129155
 30
0.0
 11
328.738
 21
145.3129155
 31
0.0
  0
LINE
  5
B20
330
1E
100
AcDbEntity
  8
0
100
AcDbLine
 10
327.278
 20
145.3129155
 30
0.0
 11
327.278
 21
144.6959155
 31
0.0
  0
LINE
  5
B21
330
1E
100
AcDbEntity
  8
0
100
AcDbLine
 10
327.278
 20
145.077363206023
 30
0.0
 11
327.278
 21
144.6959155
 31
0.0
  0
LINE
  5
B22
330
1E
100
AcDbEntity
  8
0
100
AcDbLine
 10
333.558
 20
142.9749155
 30
0.0
 11
334.288
 21
143.5089155
 31
0.0
  0
LINE
  5
B23
330
1E
100
AcDbEntity
  8
0
100
AcDbLine
 10
333.558
 20
142.9749155
 30
0.0
 11
333.558
 21
143.183059266885
 31
0.0
  0
LINE
  5
B24
330
1E
100
AcDbEntity
  8
0
100
AcDbLine
 10
333.558
 20
142.9749155
 30
0.0
 11
334.822
 21
142.6659155
 31
0.0
  0
LINE
  5
B25
330
1E
100
AcDbEntity
  8
0
100
AcDbLine
 10
333.558
 20
143.183059266885
 30
0.0
 11
333.558
 21
142.9749155
 31
0.0
  0
LINE
  5
B26
330
1E
100
AcDbEntity
  8
0
100
AcDbLine
 10
322.182
 20
145.7089155
 30
0.0
 11
327.073
 21
143.9199155
 31
0.0
  0
LINE
  5
B27
330
1E
100
AcDbEntity
  8
0
100
AcDbLine
 10
323.788
 20
146.3879155
 30
0.0
 11
327.278
 21
145.077363206023
 31
0.0
  0
LINE
  5
B28
330
1E
100
AcDbEntity
  8
0
100
AcDbLine
 10
326.141
 20
150.5909155
 30
0.0
 11
327.601
 21
150.5909155
 31
0.0
  0
LINE
  5
B29
330
1E
100
AcDbEntity
  8
0
100
AcDbLine
 10
326.141
 20
150.5909155
 30
0.0
 11
326.141
 21
151.2079155
 31
0.0
  0
LINE
  5
B2A
330
1E
100
AcDbEntity
  8
0
100
AcDbLine
 10
326.141
 20
150.5909155
 30
0.0
 11
326.141
 21
150.830339154137
 31
0.0
  0
LINE
  5
B2B
330
1E
100
AcDbEntity
  8
0
100
AcDbLine
 10
326.141
 20
151.2079155
 30
0.0
 11
327.601
 21
151.2079155
 31
0.0
  0
LINE
  5
B2C
330
1E
100
AcDbEntity
  8
0
100
AcDbLine
 10
326.141
 20
151.2079155
 30
0.0
 11
326.141
 21
152.167240309034
 31
0.0
  0
LINE
  5
B2D
330
1E
100
AcDbEntity
  8
0
100
AcDbLine
 10
326.141
 20
151.2079155
 30
0.0
 11
326.141
 21
150.5909155
 31
0.0
  0
LINE
  5
B2E
330
1E
100
AcDbEntity
  8
0
100
AcDbLine
 10
326.141
 20
152.167240309034
 30
0.0
 11
326.141
 21
151.2079155
 31
0.0
  0
LINE
  5
B2F
330
1E
100
AcDbEntity
  8
0
100
AcDbLine
 10
326.141
 20
150.830339154137
 30
0.0
 11
326.141
 21
150.5909155
 31
0.0
  0
LINE
  5
B30
330
1E
100
AcDbEntity
  8
0
100
AcDbLine
 10
307.0
 20
161.3309155
 30
0.0
 11
307.511
 21
164.0449155
 31
0.0
  0
LINE
  5
B31
330
1E
100
AcDbEntity
  8
0
100
AcDbLine
 10
307.0
 20
161.3309155
 30
0.0
 11
307.0
 21
180.3629155
 31
0.0
  0
LINE
  5
B32
330
1E
100
AcDbEntity
  8
0
100
AcDbLine
 10
307.0
 20
161.3309155
 30
0.0
 11
307.511
 21
158.6159155
 31
0.0
  0
LINE
  5
B33
330
1E
100
AcDbEntity
  8
0
100
AcDbLine
 10
307.511
 20
158.6159155
 30
0.0
 11
308.825
 21
155.8699155
 31
0.0
  0
LINE
  5
B34
330
1E
100
AcDbEntity
  8
0
100
AcDbLine
 10
308.825
 20
155.8699155
 30
0.0
 11
310.869
 21
153.2479155
 31
0.0
  0
LINE
  5
B35
330
1E
100
AcDbEntity
  8
0
100
AcDbLine
 10
307.73
 20
160.4239155
 30
0.0
 11
308.241
 21
163.1079155
 31
0.0
  0
LINE
  5
B36
330
1E
100
AcDbEntity
  8
0
100
AcDbLine
 10
307.73
 20
160.4239155
 30
0.0
 11
308.241
 21
157.7399155
 31
0.0
  0
LINE
  5
B37
330
1E
100
AcDbEntity
  8
0
100
AcDbLine
 10
308.241
 20
157.7399155
 30
0.0
 11
309.482
 21
155.1799155
 31
0.0
  0
LINE
  5
B38
330
1E
100
AcDbEntity
  8
0
100
AcDbLine
 10
309.92
 20
160.4239155
 30
0.0
 11
310.358
 21
163.0459155
 31
0.0
  0
LINE
  5
B39
330
1E
100
AcDbEntity
  8
0
100
AcDbLine
 10
309.92
 20
160.4239155
 30
0.0
 11
310.358
 21
157.8009155
 31
0.0
  0
LINE
  5
B3A
330
1E
100
AcDbEntity
  8
0
100
AcDbLine
 10
310.358
 20
157.8009155
 30
0.0
 11
311.599
 21
155.6109155
 31
0.0
  0
LINE
  5
B3B
330
1E
100
AcDbEntity
  8
0
100
AcDbLine
 10
311.38
 20
159.2099155
 30
0.0
 11
312.839
 21
159.2099155
 31
0.0
  0
LINE
  5
B3C
330
1E
100
AcDbEntity
  8
0
100
AcDbLine
 10
311.38
 20
159.2099155
 30
0.0
 11
311.38
 21
159.8269155
 31
0.0
  0
LINE
  5
B3D
330
1E
100
AcDbEntity
  8
0
100
AcDbLine
 10
311.38
 20
159.2099155
 30
0.0
 11
311.38
 21
160.14418389036
 31
0.0
  0
LINE
  5
B3E
330
1E
100
AcDbEntity
  8
0
100
AcDbLine
 10
312.839
 20
160.611364807946
 30
0.0
 11
312.839
 21
159.8269155
 31
0.0
  0
LINE
  5
B3F
330
1E
100
AcDbEntity
  8
0
100
AcDbLine
 10
312.839
 20
159.2099155
 30
0.0
 11
312.839
 21
159.8269155
 31
0.0
  0
LINE
  5
B40
330
1E
100
AcDbEntity
  8
0
100
AcDbLine
 10
320.139
 20
158.7559155
 30
0.0
 11
321.599
 21
158.7559155
 31
0.0
  0
LINE
  5
B41
330
1E
100
AcDbEntity
  8
0
100
AcDbLine
 10
320.139
 20
158.7559155
 30
0.0
 11
320.139
 21
159.3729155
 31
0.0
  0
LINE
  5
B42
330
1E
100
AcDbEntity
  8
0
100
AcDbLine
 10
320.139
 20
158.7559155
 30
0.0
 11
320.139
 21
159.756305606721
 31
0.0
  0
LINE
  5
B43
330
1E
100
AcDbEntity
  8
0
100
AcDbLine
 10
320.139
 20
159.3729155
 30
0.0
 11
321.599
 21
159.3729155
 31
0.0
  0
LINE
  5
B44
330
1E
100
AcDbEntity
  8
0
100
AcDbLine
 10
320.139
 20
159.3729155
 30
0.0
 11
320.139
 21
159.756305606721
 31
0.0
  0
LINE
  5
B45
330
1E
100
AcDbEntity
  8
0
100
AcDbLine
 10
320.139
 20
159.3729155
 30
0.0
 11
320.139
 21
158.7559155
 31
0.0
  0
LINE
  5
B46
330
1E
100
AcDbEntity
  8
0
100
AcDbLine
 10
321.599
 20
159.66092343193
 30
0.0
 11
321.599
 21
159.3729155
 31
0.0
  0
LINE
  5
B47
330
1E
100
AcDbEntity
  8
0
100
AcDbLine
 10
321.599
 20
159.3729155
 30
0.0
 11
321.599
 21
158.7559155
 31
0.0
  0
LINE
  5
B48
330
1E
100
AcDbEntity
  8
0
100
AcDbLine
 10
321.599
 20
159.3729155
 30
0.0
 11
321.599
 21
159.66092343193
 31
0.0
  0
LINE
  5
B49
330
1E
100
AcDbEntity
  8
0
100
AcDbLine
 10
320.139
 20
159.756305606721
 30
0.0
 11
320.139
 21
158.7559155
 31
0.0
  0
LINE
  5
B4A
330
1E
100
AcDbEntity
  8
0
100
AcDbLine
 10
320.139
 20
159.756305606721
 30
0.0
 11
320.139
 21
159.3729155
 31
0.0
  0
LINE
  5
B4B
330
1E
100
AcDbEntity
  8
0
100
AcDbLine
 10
321.599
 20
158.7559155
 30
0.0
 11
321.599
 21
159.3729155
 31
0.0
  0
LINE
  5
B4C
330
1E
100
AcDbEntity
  8
0
100
AcDbLine
 10
312.839
 20
159.8269155
 30
0.0
 11
312.839
 21
159.2099155
 31
0.0
  0
LINE
  5
B4D
330
1E
100
AcDbEntity
  8
0
100
AcDbLine
 10
312.839
 20
159.8269155
 30
0.0
 11
312.839
 21
160.611364807946
 31
0.0
  0
LINE
  5
B4E
330
1E
100
AcDbEntity
  8
0
100
AcDbLine
 10
311.38
 20
159.8269155
 30
0.0
 11
312.839
 21
159.8269155
 31
0.0
  0
LINE
  5
B4F
330
1E
100
AcDbEntity
  8
0
100
AcDbLine
 10
311.38
 20
159.8269155
 30
0.0
 11
311.38
 21
160.517672262453
 31
0.0
  0
LINE
  5
B50
330
1E
100
AcDbEntity
  8
0
100
AcDbLine
 10
311.38
 20
159.8269155
 30
0.0
 11
311.38
 21
159.2099155
 31
0.0
  0
LINE
  5
B51
330
1E
100
AcDbEntity
  8
0
100
AcDbLine
 10
311.38
 20
160.517672262453
 30
0.0
 11
311.38
 21
159.8269155
 31
0.0
  0
LINE
  5
B52
330
1E
100
AcDbEntity
  8
0
100
AcDbLine
 10
311.38
 20
160.14418389036
 30
0.0
 11
311.38
 21
159.2099155
 31
0.0
  0
LINE
  5
B53
330
1E
100
AcDbEntity
  8
0
100
AcDbLine
 10
309.482
 20
155.1799155
 30
0.0
 11
311.599
 21
152.4659155
 31
0.0
  0
LINE
  5
B54
330
1E
100
AcDbEntity
  8
0
100
AcDbLine
 10
310.869
 20
153.2479155
 30
0.0
 11
311.599
 21
152.4659155
 31
0.0
  0
LINE
  5
B55
330
1E
100
AcDbEntity
  8
0
100
AcDbLine
 10
311.599
 20
155.6109155
 30
0.0
 11
313.569
 21
152.8359155
 31
0.0
  0
LINE
  5
B56
330
1E
100
AcDbEntity
  8
0
100
AcDbLine
 10
312.759
 20
155.0579155
 30
0.0
 11
314.218
 21
155.0579155
 31
0.0
  0
LINE
  5
B57
330
1E
100
AcDbEntity
  8
0
100
AcDbLine
 10
312.759
 20
155.0579155
 30
0.0
 11
312.759
 21
155.6749155
 31
0.0
  0
LINE
  5
B58
330
1E
100
AcDbEntity
  8
0
100
AcDbLine
 10
312.759
 20
155.0579155
 30
0.0
 11
312.759
 21
155.636795562888
 31
0.0
  0
LINE
  5
B59
330
1E
100
AcDbEntity
  8
0
100
AcDbLine
 10
312.759
 20
155.6749155
 30
0.0
 11
314.218
 21
155.6749155
 31
0.0
  0
LINE
  5
B5A
330
1E
100
AcDbEntity
  8
0
100
AcDbLine
 10
312.759
 20
155.6749155
 30
0.0
 11
312.759
 21
155.0579155
 31
0.0
  0
LINE
  5
B5B
330
1E
100
AcDbEntity
  8
0
100
AcDbLine
 10
314.218
 20
155.6749155
 30
0.0
 11
314.218
 21
155.0579155
 31
0.0
  0
LINE
  5
B5C
330
1E
100
AcDbEntity
  8
0
100
AcDbLine
 10
321.68
 20
155.835826632739
 30
0.0
 11
321.68
 21
154.6729155
 31
0.0
  0
LINE
  5
B5D
330
1E
100
AcDbEntity
  8
0
100
AcDbLine
 10
321.68
 20
155.835826632739
 30
0.0
 11
321.68
 21
155.2899155
 31
0.0
  0
LINE
  5
B5E
330
1E
100
AcDbEntity
  8
0
100
AcDbLine
 10
323.14
 20
155.86839981534
 30
0.0
 11
323.14
 21
155.2899155
 31
0.0
  0
LINE
  5
B5F
330
1E
100
AcDbEntity
  8
0
100
AcDbLine
 10
321.68
 20
155.2899155
 30
0.0
 11
323.14
 21
155.2899155
 31
0.0
  0
LINE
  5
B60
330
1E
100
AcDbEntity
  8
0
100
AcDbLine
 10
321.68
 20
155.2899155
 30
0.0
 11
321.68
 21
155.835826632739
 31
0.0
  0
LINE
  5
B61
330
1E
100
AcDbEntity
  8
0
100
AcDbLine
 10
321.68
 20
155.2899155
 30
0.0
 11
321.68
 21
154.6729155
 31
0.0
  0
LINE
  5
B62
330
1E
100
AcDbEntity
  8
0
100
AcDbLine
 10
323.14
 20
155.2899155
 30
0.0
 11
323.14
 21
154.6729155
 31
0.0
  0
LINE
  5
B63
330
1E
100
AcDbEntity
  8
0
100
AcDbLine
 10
323.14
 20
155.2899155
 30
0.0
 11
323.14
 21
155.86839981534
 31
0.0
  0
LINE
  5
B64
330
1E
100
AcDbEntity
  8
0
100
AcDbLine
 10
312.759
 20
155.636795562888
 30
0.0
 11
312.759
 21
155.0579155
 31
0.0
  0
LINE
  5
B65
330
1E
100
AcDbEntity
  8
0
100
AcDbLine
 10
314.218
 20
155.0579155
 30
0.0
 11
314.218
 21
155.6749155
 31
0.0
  0
LINE
  5
B66
330
1E
100
AcDbEntity
  8
0
100
AcDbLine
 10
321.68
 20
154.6729155
 30
0.0
 11
323.14
 21
154.6729155
 31
0.0
  0
LINE
  5
B67
330
1E
100
AcDbEntity
  8
0
100
AcDbLine
 10
321.68
 20
154.6729155
 30
0.0
 11
321.68
 21
155.2899155
 31
0.0
  0
LINE
  5
B68
330
1E
100
AcDbEntity
  8
0
100
AcDbLine
 10
321.68
 20
154.6729155
 30
0.0
 11
321.68
 21
155.835826632739
 31
0.0
  0
LINE
  5
B69
330
1E
100
AcDbEntity
  8
0
100
AcDbLine
 10
323.14
 20
154.6729155
 30
0.0
 11
323.14
 21
155.2899155
 31
0.0
  0
LINE
  5
B6A
330
1E
100
AcDbEntity
  8
0
100
AcDbLine
 10
311.599
 20
152.4659155
 30
0.0
 11
314.299
 21
150.0589155
 31
0.0
  0
LINE
  5
B6B
330
1E
100
AcDbEntity
  8
0
100
AcDbLine
 10
314.299
 20
150.0589155
 30
0.0
 11
317.949
 21
147.7759155
 31
0.0
  0
LINE
  5
B6C
330
1E
100
AcDbEntity
  8
0
100
AcDbLine
 10
313.569
 20
152.8359155
 30
0.0
 11
316.197
 21
150.5209155
 31
0.0
  0
LINE
  5
B6D
330
1E
100
AcDbEntity
  8
0
100
AcDbLine
 10
316.197
 20
150.5209155
 30
0.0
 11
319.701
 21
148.3309155
 31
0.0
  0
LINE
  5
B6E
330
1E
100
AcDbEntity
  8
0
100
AcDbLine
 10
316.084
 20
151.5919155
 30
0.0
 11
317.544
 21
151.5919155
 31
0.0
  0
LINE
  5
B6F
330
1E
100
AcDbEntity
  8
0
100
AcDbLine
 10
316.084
 20
151.5919155
 30
0.0
 11
316.084
 21
152.780891304253
 31
0.0
  0
LINE
  5
B70
330
1E
100
AcDbEntity
  8
0
100
AcDbLine
 10
316.084
 20
151.5919155
 30
0.0
 11
316.084
 21
150.9749155
 31
0.0
  0
LINE
  5
B71
330
1E
100
AcDbEntity
  8
0
100
AcDbLine
 10
317.544
 20
152.74894882879
 30
0.0
 11
317.544
 21
151.5919155
 31
0.0
  0
LINE
  5
B72
330
1E
100
AcDbEntity
  8
0
100
AcDbLine
 10
317.544
 20
150.9749155
 30
0.0
 11
317.544
 21
151.5919155
 31
0.0
  0
LINE
  5
B73
330
1E
100
AcDbEntity
  8
0
100
AcDbLine
 10
317.544
 20
151.5919155
 30
0.0
 11
317.544
 21
150.9749155
 31
0.0
  0
LINE
  5
B74
330
1E
100
AcDbEntity
  8
0
100
AcDbLine
 10
317.544
 20
151.5919155
 30
0.0
 11
317.544
 21
152.74894882879
 31
0.0
  0
LINE
  5
B75
330
1E
100
AcDbEntity
  8
0
100
AcDbLine
 10
316.084
 20
152.780891304253
 30
0.0
 11
316.084
 21
151.5919155
 31
0.0
  0
LINE
  5
B76
330
1E
100
AcDbEntity
  8
0
100
AcDbLine
 10
316.084
 20
150.9749155
 30
0.0
 11
317.544
 21
150.9749155
 31
0.0
  0
LINE
  5
B77
330
1E
100
AcDbEntity
  8
0
100
AcDbLine
 10
316.084
 20
150.9749155
 30
0.0
 11
316.084
 21
151.5919155
 31
0.0
  0
LINE
  5
B78
330
1E
100
AcDbEntity
  8
0
100
AcDbLine
 10
317.949
 20
147.7759155
 30
0.0
 11
322.182
 21
145.7089155
 31
0.0
  0
LINE
  5
B79
330
1E
100
AcDbEntity
  8
0
100
AcDbLine
 10
321.358517241379
 20
147.5429155
 30
0.0
 11
323.788
 21
146.3879155
 31
0.0
  0
LINE
  5
B7A
330
1E
100
AcDbEntity
  8
0
100
AcDbLine
 10
319.701
 20
148.3309155
 30
0.0
 11
320.87
 21
147.775161401639
 31
0.0
  0
LINE
  5
B7B
330
1E
100
AcDbEntity
  8
0
100
AcDbLine
 10
320.87
 20
148.1599155
 30
0.0
 11
322.33
 21
148.1599155
 31
0.0
  0
LINE
  5
B7C
330
1E
100
AcDbEntity
  8
0
100
AcDbLine
 10
320.87
 20
148.1599155
 30
0.0
 11
320.87
 21
148.611127621212
 31
0.0
  0
LINE
  5
B7D
330
1E
100
AcDbEntity
  8
0
100
AcDbLine
 10
320.87
 20
148.1599155
 30
0.0
 11
320.87
 21
147.5429155
 31
0.0
  0
LINE
  5
B7E
330
1E
100
AcDbEntity
  8
0
100
AcDbLine
 10
320.87
 20
148.611127621212
 30
0.0
 11
320.87
 21
148.1599155
 31
0.0
  0
LINE
  5
B7F
330
1E
100
AcDbEntity
  8
0
100
AcDbLine
 10
322.33
 20
148.961093144711
 30
0.0
 11
322.33
 21
148.1599155
 31
0.0
  0
LINE
  5
B80
330
1E
100
AcDbEntity
  8
0
100
AcDbLine
 10
320.87
 20
148.439149996683
 30
0.0
 11
320.87
 21
147.5429155
 31
0.0
  0
LINE
  5
B81
330
1E
100
AcDbEntity
  8
0
100
AcDbLine
 10
322.33
 20
148.1599155
 30
0.0
 11
322.33
 21
147.5429155
 31
0.0
  0
LINE
  5
B82
330
1E
100
AcDbEntity
  8
0
100
AcDbLine
 10
322.33
 20
148.1599155
 30
0.0
 11
322.33
 21
148.961093144711
 31
0.0
  0
LINE
  5
B83
330
1E
100
AcDbEntity
  8
0
100
AcDbLine
 10
320.87
 20
147.5429155
 30
0.0
 11
322.33
 21
147.5429155
 31
0.0
  0
LINE
  5
B84
330
1E
100
AcDbEntity
  8
0
100
AcDbLine
 10
320.87
 20
147.5429155
 30
0.0
 11
320.87
 21
148.1599155
 31
0.0
  0
LINE
  5
B85
330
1E
100
AcDbEntity
  8
0
100
AcDbLine
 10
320.87
 20
147.5429155
 30
0.0
 11
320.87
 21
148.439149996683
 31
0.0
  0
LINE
  5
B86
330
1E
100
AcDbEntity
  8
0
100
AcDbLine
 10
322.33
 20
147.5429155
 30
0.0
 11
322.33
 21
148.1599155
 31
0.0
  0
LINE
  5
B87
330
1E
100
AcDbEntity
  8
0
100
AcDbLine
 10
372.181
 20
63.2659155
 30
0.0
 11
372.758
 21
61.7882155
 31
0.0
  0
LINE
  5
B88
330
1E
100
AcDbEntity
  8
0
100
AcDbLine
 10
371.632
 20
64.3384155
 30
0.0
 11
372.181
 21
63.2659155
 31
0.0
  0
LINE
  5
B89
330
1E
100
AcDbEntity
  8
0
100
AcDbLine
 10
370.822
 20
65.5738155
 30
0.0
 11
371.632
 21
64.3384155
 31
0.0
  0
LINE
  5
B8A
330
1E
100
AcDbEntity
  8
0
100
AcDbLine
 10
342.935
 20
65.3167155
 30
0.0
 11
345.0
 21
67.186931812057
 31
0.0
  0
LINE
  5
B8B
330
1E
100
AcDbEntity
  8
0
100
AcDbLine
 10
343.885
 20
66.0351155
 30
0.0
 11
345.0
 21
67.018954871981
 31
0.0
  0
LINE
  5
B8C
330
1E
100
AcDbEntity
  8
0
100
AcDbLine
 10
369.0
 20
67.199456262463
 30
0.0
 11
370.822
 21
65.5738155
 31
0.0
  0
LINE
  5
B8D
330
1E
100
AcDbEntity
  8
0
100
AcDbLine
 10
342.219
 20
64.1656155
 30
0.0
 11
342.935
 21
65.3167155
 31
0.0
  0
LINE
  5
B8E
330
1E
100
AcDbEntity
  8
0
100
AcDbLine
 10
368.616
 20
59.2106155
 30
0.0
 11
369.0
 21
61.2064155
 31
0.0
  0
LINE
  5
B8F
330
1E
100
AcDbEntity
  8
0
100
AcDbLine
 10
369.0
 20
61.2064155
 30
0.0
 11
369.0
 21
133.2409155
 31
0.0
  0
LINE
  5
B90
330
1E
100
AcDbEntity
  8
0
100
AcDbLine
 10
372.770415338738
 20
61.601205480986
 30
0.0
 11
372.798
 21
61.5330155
 31
0.0
  0
LINE
  5
B91
330
1E
100
AcDbEntity
  8
0
100
AcDbLine
 10
372.758
 20
61.7882155
 30
0.0
 11
372.987
 21
59.2694155
 31
0.0
  0
LINE
  5
B92
330
1E
100
AcDbEntity
  8
0
100
AcDbLine
 10
372.599
 20
57.5209155
 30
0.0
 11
372.987
 21
59.2694155
 31
0.0
  0
LINE
  5
B93
330
1E
100
AcDbEntity
  8
0
100
AcDbLine
 10
367.368
 20
57.3031155
 30
0.0
 11
368.616
 21
59.2106155
 31
0.0
  0
LINE
  5
B94
330
1E
100
AcDbEntity
  8
0
100
AcDbLine
 10
345.0
 20
61.2064155
 30
0.0
 11
345.384
 21
59.2106155
 31
0.0
  0
LINE
  5
B95
330
1E
100
AcDbEntity
  8
0
100
AcDbLine
 10
345.0
 20
61.2064155
 30
0.0
 11
345.0
 21
133.2409155
 31
0.0
  0
LINE
  5
B96
330
1E
100
AcDbEntity
  8
0
100
AcDbLine
 10
345.384
 20
59.2106155
 30
0.0
 11
346.632
 21
57.3031155
 31
0.0
  0
LINE
  5
B97
330
1E
100
AcDbEntity
  8
0
100
AcDbLine
 10
341.204
 20
61.8531155
 30
0.0
 11
341.333594014034
 21
62.105918652255
 31
0.0
  0
LINE
  5
B98
330
1E
100
AcDbEntity
  8
0
100
AcDbLine
 10
341.49
 20
62.5886155
 30
0.0
 11
342.219
 21
64.1656155
 31
0.0
  0
LINE
  5
B99
330
1E
100
AcDbEntity
  8
0
100
AcDbLine
 10
341.49
 20
62.5886155
 30
0.0
 11
341.70731624961
 21
62.93956875368
 31
0.0
  0
LINE
  5
B9A
330
1E
100
AcDbEntity
  8
0
100
AcDbLine
 10
341.400593749471
 20
62.204630184629
 30
0.0
 11
341.49
 21
62.5886155
 31
0.0
  0
LINE
  5
B9B
330
1E
100
AcDbEntity
  8
0
100
AcDbLine
 10
341.181600641377
 20
61.494441325731
 30
0.0
 11
341.204
 21
61.8531155
 31
0.0
  0
LINE
  5
B9C
330
1E
100
AcDbEntity
  8
0
100
AcDbLine
 10
341.244
 20
61.8294155
 30
0.0
 11
341.49
 21
62.5886155
 31
0.0
  0
LINE
  5
B9D
330
1E
100
AcDbEntity
  8
0
100
AcDbLine
 10
341.15
 20
58.3273155
 30
0.0
 11
341.706
 21
56.8557155
 31
0.0
  0
LINE
  5
B9E
330
1E
100
AcDbEntity
  8
0
100
AcDbLine
 10
340.967
 20
60.3424155
 30
0.0
 11
341.15
 21
58.3273155
 31
0.0
  0
LINE
  5
B9F
330
1E
100
AcDbEntity
  8
0
100
AcDbLine
 10
340.967
 20
60.3424155
 30
0.0
 11
341.244
 21
61.8294155
 31
0.0
  0
LINE
  5
BA0
330
1E
100
AcDbEntity
  8
0
100
AcDbLine
 10
346.632
 20
57.3031155
 30
0.0
 11
348.552
 21
55.7501155
 31
0.0
  0
LINE
  5
BA1
330
1E
100
AcDbEntity
  8
0
100
AcDbLine
 10
341.706
 20
56.8557155
 30
0.0
 11
342.896
 21
54.9893155
 31
0.0
  0
LINE
  5
BA2
330
1E
100
AcDbEntity
  8
0
100
AcDbLine
 10
365.448
 20
55.7501155
 30
0.0
 11
367.368
 21
57.3031155
 31
0.0
  0
LINE
  5
BA3
330
1E
100
AcDbEntity
  8
0
100
AcDbLine
 10
371.998
 20
56.3104155
 30
0.0
 11
372.599
 21
57.5209155
 31
0.0
  0
LINE
  5
BA4
330
1E
100
AcDbEntity
  8
0
100
AcDbLine
 10
372.961
 20
44.6898155
 30
0.0
 11
372.979637057189
 21
59.23623481571
 31
0.0
  0
LINE
  5
BA5
330
1E
100
AcDbEntity
  8
0
100
AcDbLine
 10
372.582
 20
42.5901155
 30
0.0
 11
372.896333282945
 21
44.516930412214
 31
0.0
  0
LINE
  5
BA6
330
1E
100
AcDbEntity
  8
0
100
AcDbLine
 10
371.86
 20
41.7463155
 30
0.0
 11
372.961
 21
44.6898155
 31
0.0
  0
LINE
  5
BA7
330
1E
100
AcDbEntity
  8
0
100
AcDbLine
 10
370.617
 20
54.4877155
 30
0.0
 11
371.998
 21
56.3104155
 31
0.0
  0
LINE
  5
BA8
330
1E
100
AcDbEntity
  8
0
100
AcDbLine
 10
367.839
 20
52.3645155
 30
0.0
 11
370.617
 21
54.4877155
 31
0.0
  0
LINE
  5
BA9
330
1E
100
AcDbEntity
  8
0
100
AcDbLine
 10
370.66
 20
39.6050155
 30
0.0
 11
372.582
 21
42.5901155
 31
0.0
  0
LINE
  5
BAA
330
1E
100
AcDbEntity
  8
0
100
AcDbLine
 10
369.475
 20
39.1345155
 30
0.0
 11
371.86
 21
41.7463155
 31
0.0
  0
LINE
  5
BAB
330
1E
100
AcDbEntity
  8
0
100
AcDbLine
 10
368.176
 20
38.3055155
 30
0.0
 11
368.472740610168
 21
38.519718795086
 31
0.0
  0
LINE
  5
BAC
330
1E
100
AcDbEntity
  8
0
100
AcDbLine
 10
368.176
 20
38.3056155
 30
0.0
 11
368.470434782115
 21
38.518304375323
 31
0.0
  0
LINE
  5
BAD
330
1E
100
AcDbEntity
  8
0
100
AcDbLine
 10
366.634
 20
37.3918155
 30
0.0
 11
369.475
 21
39.1345155
 31
0.0
  0
LINE
  5
BAE
330
1E
100
AcDbEntity
  8
0
100
AcDbLine
 10
367.394
 20
37.1470155
 30
0.0
 11
370.66
 21
39.6050155
 31
0.0
  0
LINE
  5
BAF
330
1E
100
AcDbEntity
  8
0
100
AcDbLine
 10
362.952
 20
54.5084155
 30
0.0
 11
365.448
 21
55.7501155
 31
0.0
  0
LINE
  5
BB0
330
1E
100
AcDbEntity
  8
0
100
AcDbLine
 10
364.776
 20
55.4063155
 30
0.0
 11
365.448
 21
55.7501155
 31
0.0
  0
LINE
  5
BB1
330
1E
100
AcDbEntity
  8
0
100
AcDbLine
 10
348.552
 20
55.7501155
 30
0.0
 11
349.224
 21
55.4063155
 31
0.0
  0
LINE
  5
BB2
330
1E
100
AcDbEntity
  8
0
100
AcDbLine
 10
348.552
 20
55.7501155
 30
0.0
 11
351.048
 21
54.5084155
 31
0.0
  0
LINE
  5
BB3
330
1E
100
AcDbEntity
  8
0
100
AcDbLine
 10
342.898
 20
54.9862155
 30
0.0
 11
345.203
 21
52.9463155
 31
0.0
  0
LINE
  5
BB4
330
1E
100
AcDbEntity
  8
0
100
AcDbLine
 10
360.072
 20
53.7543155
 30
0.0
 11
362.952
 21
54.5084155
 31
0.0
  0
LINE
  5
BB5
330
1E
100
AcDbEntity
  8
0
100
AcDbLine
 10
365.351
 20
51.1350155
 30
0.0
 11
367.839
 21
52.3645155
 31
0.0
  0
LINE
  5
BB6
330
1E
100
AcDbEntity
  8
0
100
AcDbLine
 10
362.154
 20
50.1388155
 30
0.0
 11
365.351
 21
51.1350155
 31
0.0
  0
LINE
  5
BB7
330
1E
100
AcDbEntity
  8
0
100
AcDbLine
 10
360.72
 20
34.9618155
 30
0.0
 11
364.238
 21
35.8294155
 31
0.0
  0
LINE
  5
BB8
330
1E
100
AcDbEntity
  8
0
100
AcDbLine
 10
363.253
 20
36.1107155
 30
0.0
 11
366.634
 21
37.3918155
 31
0.0
  0
LINE
  5
BB9
330
1E
100
AcDbEntity
  8
0
100
AcDbLine
 10
364.238
 20
35.8294155
 30
0.0
 11
367.394
 21
37.1470155
 31
0.0
  0
LINE
  5
BBA
330
1E
100
AcDbEntity
  8
0
100
AcDbLine
 10
357.0
 20
53.3998155
 30
0.0
 11
360.072
 21
53.7543155
 31
0.0
  0
LINE
  5
BBB
330
1E
100
AcDbEntity
  8
0
100
AcDbLine
 10
353.928
 20
53.7543155
 30
0.0
 11
357.0
 21
53.3998155
 31
0.0
  0
LINE
  5
BBC
330
1E
100
AcDbEntity
  8
0
100
AcDbLine
 10
351.048
 20
54.5084155
 30
0.0
 11
353.928
 21
53.7543155
 31
0.0
  0
LINE
  5
BBD
330
1E
100
AcDbEntity
  8
0
100
AcDbLine
 10
348.206
 20
51.3278155
 30
0.0
 11
350.257
 21
50.5827155
 31
0.0
  0
LINE
  5
BBE
330
1E
100
AcDbEntity
  8
0
100
AcDbLine
 10
346.937
 20
51.9215155
 30
0.0
 11
348.206
 21
51.3278155
 31
0.0
  0
LINE
  5
BBF
330
1E
100
AcDbEntity
  8
0
100
AcDbLine
 10
358.692
 20
49.6830155
 30
0.0
 11
362.154
 21
50.1388155
 31
0.0
  0
LINE
  5
BC0
330
1E
100
AcDbEntity
  8
0
100
AcDbLine
 10
356.543
 20
49.6227155
 30
0.0
 11
358.692
 21
49.6830155
 31
0.0
  0
LINE
  5
BC1
330
1E
100
AcDbEntity
  8
0
100
AcDbLine
 10
350.257
 20
50.5827155
 30
0.0
 11
353.6
 21
49.8496155
 31
0.0
  0
LINE
  5
BC2
330
1E
100
AcDbEntity
  8
0
100
AcDbLine
 10
353.6
 20
49.8496155
 30
0.0
 11
356.543
 21
49.6227155
 31
0.0
  0
LINE
  5
BC3
330
1E
100
AcDbEntity
  8
0
100
AcDbLine
 10
345.203
 20
52.9463155
 30
0.0
 11
346.937
 21
51.9215155
 31
0.0
  0
LINE
  5
BC4
330
1E
100
AcDbEntity
  8
0
100
AcDbLine
 10
344.029
 20
38.9478155
 30
0.0
 11
345.66
 21
37.7206155
 31
0.0
  0
LINE
  5
BC5
330
1E
100
AcDbEntity
  8
0
100
AcDbLine
 10
359.469
 20
35.4347155
 30
0.0
 11
363.253
 21
36.1107155
 31
0.0
  0
LINE
  5
BC6
330
1E
100
AcDbEntity
  8
0
100
AcDbLine
 10
356.974
 20
34.7086155
 30
0.0
 11
360.72
 21
34.9618155
 31
0.0
  0
LINE
  5
BC7
330
1E
100
AcDbEntity
  8
0
100
AcDbLine
 10
349.71
 20
35.8292155
 30
0.0
 11
352.03
 21
35.2119155
 31
0.0
  0
LINE
  5
BC8
330
1E
100
AcDbEntity
  8
0
100
AcDbLine
 10
347.569
 20
36.6726155
 30
0.0
 11
349.71
 21
35.8292155
 31
0.0
  0
LINE
  5
BC9
330
1E
100
AcDbEntity
  8
0
100
AcDbLine
 10
348.371
 20
36.9343155
 30
0.0
 11
348.651250898714
 21
36.828562433254
 31
0.0
  0
LINE
  5
BCA
330
1E
100
AcDbEntity
  8
0
100
AcDbLine
 10
348.371
 20
36.9342155
 30
0.0
 11
348.651988852678
 21
36.828205108177
 31
0.0
  0
LINE
  5
BCB
330
1E
100
AcDbEntity
  8
0
100
AcDbLine
 10
351.714
 20
35.8798155
 30
0.0
 11
355.546
 21
35.3293155
 31
0.0
  0
LINE
  5
BCC
330
1E
100
AcDbEntity
  8
0
100
AcDbLine
 10
348.651250898714
 20
36.828562433254
 30
0.0
 11
351.714
 21
35.8798155
 31
0.0
  0
LINE
  5
BCD
330
1E
100
AcDbEntity
  8
0
100
AcDbLine
 10
347.125
 20
37.5169155
 30
0.0
 11
348.371
 21
36.9343155
 31
0.0
  0
LINE
  5
BCE
330
1E
100
AcDbEntity
  8
0
100
AcDbLine
 10
355.546
 20
35.3293155
 30
0.0
 11
359.469
 21
35.4347155
 31
0.0
  0
LINE
  5
BCF
330
1E
100
AcDbEntity
  8
0
100
AcDbLine
 10
345.66
 20
37.7206155
 30
0.0
 11
347.569
 21
36.6726155
 31
0.0
  0
LINE
  5
BD0
330
1E
100
AcDbEntity
  8
0
100
AcDbLine
 10
354.471
 20
34.8349155
 30
0.0
 11
356.974
 21
34.7084155
 31
0.0
  0
LINE
  5
BD1
330
1E
100
AcDbEntity
  8
0
100
AcDbLine
 10
352.03
 20
35.2119155
 30
0.0
 11
354.471
 21
34.8349155
 31
0.0
  0
LINE
  5
BD2
330
1E
100
AcDbEntity
  8
0
100
AcDbLine
 10
342.912
 20
40.6634155
 30
0.0
 11
345.727
 21
38.2445155
 31
0.0
  0
LINE
  5
BD3
330
1E
100
AcDbEntity
  8
0
100
AcDbLine
 10
340.974
 20
44.959764106811
 30
0.0
 11
340.974
 21
14.2229155
 31
0.0
  0
LINE
  5
BD4
330
1E
100
AcDbEntity
  8
0
100
AcDbLine
 10
340.983511747885
 20
44.915533006738
 30
0.0
 11
341.171
 21
43.3843155
 31
0.0
  0
LINE
  5
BD5
330
1E
100
AcDbEntity
  8
0
100
AcDbLine
 10
341.171
 20
43.3843155
 30
0.0
 11
341.757
 21
41.8150155
 31
0.0
  0
LINE
  5
BD6
330
1E
100
AcDbEntity
  8
0
100
AcDbLine
 10
341.757
 20
41.8150155
 30
0.0
 11
342.717
 21
40.3238155
 31
0.0
  0
LINE
  5
BD7
330
1E
100
AcDbEntity
  8
0
100
AcDbLine
 10
341.94
 20
42.0484155
 30
0.0
 11
342.912
 21
40.6634155
 31
0.0
  0
LINE
  5
BD8
330
1E
100
AcDbEntity
  8
0
100
AcDbLine
 10
341.288
 20
43.4996155
 30
0.0
 11
341.94
 21
42.0484155
 31
0.0
  0
LINE
  5
BD9
330
1E
100
AcDbEntity
  8
0
100
AcDbLine
 10
340.965
 20
45.0016155
 30
0.0
 11
341.288
 21
43.4996155
 31
0.0
  0
LINE
  5
BDA
330
1E
100
AcDbEntity
  8
0
100
AcDbLine
 10
340.965
 20
45.0016155
 30
0.0
 11
340.983343998511
 21
45.568894294785
 31
0.0
  0
LINE
  5
BDB
330
1E
100
AcDbEntity
  8
0
100
AcDbLine
 10
342.717
 20
40.3238155
 30
0.0
 11
344.029
 21
38.9478155
 31
0.0
  0
LINE
  5
BDC
330
1E
100
AcDbEntity
  8
0
100
AcDbLine
 10
372.974
 20
14.2229155
 30
0.0
 11
372.991351854483
 21
13.933646738196
 31
0.0
  0
LINE
  5
BDD
330
1E
100
AcDbEntity
  8
0
100
AcDbLine
 10
340.974
 20
14.2229155
 30
0.0
 11
340.974
 21
44.959764106811
 31
0.0
  0
LINE
  5
BDE
330
1E
100
AcDbEntity
  8
0
100
AcDbLine
 10
340.918
 20
13.4533155
 30
0.0
 11
340.974
 21
14.2229155
 31
0.0
  0
LINE
  5
BDF
330
1E
100
AcDbEntity
  8
0
100
AcDbLine
 10
340.918
 20
13.4534155
 30
0.0
 11
340.974
 21
14.2229155
 31
0.0
  0
LINE
  5
BE0
330
1E
100
AcDbEntity
  8
0
100
AcDbLine
 10
373.353186137138
 20
12.481567434747
 30
0.0
 11
373.707175682719
 21
11.740491011561
 31
0.0
  0
LINE
  5
BE1
330
1E
100
AcDbEntity
  8
0
100
AcDbLine
 10
340.343
 20
11.9400155
 30
0.0
 11
340.918
 21
13.4534155
 31
0.0
  0
LINE
  5
BE2
330
1E
100
AcDbEntity
  8
0
100
AcDbLine
 10
373.707175682719
 20
11.740491011561
 30
0.0
 11
375.021
 21
10.3132155
 31
0.0
  0
LINE
  5
BE3
330
1E
100
AcDbEntity
  8
0
100
AcDbLine
 10
339.228107834354
 20
10.714307768644
 30
0.0
 11
340.343
 21
11.9400155
 31
0.0
  0
LINE
  5
BE4
330
1E
100
AcDbEntity
  8
0
100
AcDbLine
 10
336.986
 20
9.4411955
 30
0.0
 11
339.228107834354
 21
10.714307768645
 31
0.0
  0
LINE
  5
BE5
330
1E
100
AcDbEntity
  8
0
100
AcDbLine
 10
335.488
 20
9.2229155
 30
0.0
 11
336.986
 21
9.4411955
 31
0.0
  0
LINE
  5
BE6
330
1E
100
AcDbEntity
  8
0
100
AcDbLine
 10
332.883
 20
9.2229155
 30
0.0
 11
334.548
 21
9.2229155
 31
0.0
  0
LINE
  5
BE7
330
1E
100
AcDbEntity
  8
0
100
AcDbLine
 10
331.467
 20
9.2229155
 30
0.0
 11
332.883
 21
9.2229155
 31
0.0
  0
LINE
  5
BE8
330
1E
100
AcDbEntity
  8
0
100
AcDbLine
 10
333.418
 20
9.2229155
 30
0.0
 11
335.481
 21
9.2229155
 31
0.0
  0
LINE
  5
BE9
330
1E
100
AcDbEntity
  8
0
100
AcDbLine
 10
331.699
 20
9.2229155
 30
0.0
 11
333.418
 21
9.2229155
 31
0.0
  0
LINE
  5
BEA
330
1E
100
AcDbEntity
  8
0
100
AcDbLine
 10
330.349
 20
9.2229155
 30
0.0
 11
331.699
 21
9.2229155
 31
0.0
  0
LINE
  5
BEB
330
1E
100
AcDbEntity
  8
0
100
AcDbLine
 10
330.317
 20
9.2229155
 30
0.0
 11
331.467
 21
9.2229155
 31
0.0
  0
LINE
  5
BEC
330
1E
100
AcDbEntity
  8
0
100
AcDbLine
 10
329.443
 20
9.2229155
 30
0.0
 11
330.317
 21
9.2229155
 31
0.0
  0
LINE
  5
BED
330
1E
100
AcDbEntity
  8
0
100
AcDbLine
 10
328.856
 20
9.2229155
 30
0.0
 11
329.443
 21
9.2229155
 31
0.0
  0
LINE
  5
BEE
330
1E
100
AcDbEntity
  8
0
100
AcDbLine
 10
328.56
 20
9.2229155
 30
0.0
 11
328.856
 21
9.2229155
 31
0.0
  0
LINE
  5
BEF
330
1E
100
AcDbEntity
  8
0
100
AcDbLine
 10
329.387
 20
9.2229155
 30
0.0
 11
330.349
 21
9.2229155
 31
0.0
  0
LINE
  5
BF0
330
1E
100
AcDbEntity
  8
0
100
AcDbLine
 10
328.678
 20
9.2229155
 30
0.0
 11
328.827
 21
9.2229155
 31
0.0
  0
LINE
  5
BF1
330
1E
100
AcDbEntity
  8
0
100
AcDbLine
 10
328.827
 20
9.2229155
 30
0.0
 11
329.387
 21
9.2229155
 31
0.0
  0
LINE
  5
BF2
330
1E
100
AcDbEntity
  8
0
100
AcDbLine
 10
323.501
 20
8.8287455
 30
0.0
 11
324.239
 21
8.9982855
 31
0.0
  0
LINE
  5
BF3
330
1E
100
AcDbEntity
  8
0
100
AcDbLine
 10
324.239
 20
8.9982855
 30
0.0
 11
328.56
 21
9.2229155
 31
0.0
  0
LINE
  5
BF4
330
1E
100
AcDbEntity
  8
0
100
AcDbLine
 10
322.715
 20
8.1497555
 30
0.0
 11
323.501
 21
8.8287455
 31
0.0
  0
LINE
  5
BF5
330
1E
100
AcDbEntity
  8
0
100
AcDbLine
 10
322.355
 20
7.1056955
 30
0.0
 11
322.715
 21
8.1497555
 31
0.0
  0
LINE
  5
BF6
330
1E
100
AcDbEntity
  8
0
100
AcDbLine
 10
391.552921649406
 20
7.1056955
 30
0.0
 11
391.913
 21
0.1442015
 31
0.0
  0
LINE
  5
BF7
330
1E
100
AcDbEntity
  8
0
100
AcDbLine
 10
381.526
 20
199.3159155
 30
0.0
 11
386.927
 21
197.7729155
 31
0.0
  0
LINE
  5
BF8
330
1E
100
AcDbEntity
  8
0
100
AcDbLine
 10
386.927
 20
197.7729155
 30
0.0
 11
391.818
 21
195.9839155
 31
0.0
  0
LINE
  5
BF9
330
1E
100
AcDbEntity
  8
0
100
AcDbLine
 10
381.891
 20
198.6559155
 30
0.0
 11
387.365
 21
197.1139155
 31
0.0
  0
LINE
  5
BFA
330
1E
100
AcDbEntity
  8
0
100
AcDbLine
 10
387.365
 20
197.1139155
 30
0.0
 11
392.328
 21
195.2929155
 31
0.0
  0
LINE
  5
BFB
330
1E
100
AcDbEntity
  8
0
100
AcDbLine
 10
399.701
 20
191.6339155
 30
0.0
 11
402.401
 21
189.2279155
 31
0.0
  0
LINE
  5
BFC
330
1E
100
AcDbEntity
  8
0
100
AcDbLine
 10
396.051
 20
193.9169155
 30
0.0
 11
399.701
 21
191.6339155
 31
0.0
  0
LINE
  5
BFD
330
1E
100
AcDbEntity
  8
0
100
AcDbLine
 10
396.635
 20
193.1959155
 30
0.0
 11
400.285
 21
190.8809155
 31
0.0
  0
LINE
  5
BFE
330
1E
100
AcDbEntity
  8
0
100
AcDbLine
 10
391.818
 20
195.9839155
 30
0.0
 11
396.051
 21
193.9169155
 31
0.0
  0
LINE
  5
BFF
330
1E
100
AcDbEntity
  8
0
100
AcDbLine
 10
392.328
 20
195.2929155
 30
0.0
 11
396.635
 21
193.1959155
 31
0.0
  0
LINE
  5
C00
330
1E
100
AcDbEntity
  8
0
100
AcDbLine
 10
406.489
 20
183.0779155
 30
0.0
 11
407.0
 21
180.3629155
 31
0.0
  0
LINE
  5
C01
330
1E
100
AcDbEntity
  8
0
100
AcDbLine
 10
407.0
 20
161.3309155
 30
0.0
 11
407.0
 21
180.3629155
 31
0.0
  0
LINE
  5
C02
330
1E
100
AcDbEntity
  8
0
100
AcDbLine
 10
407.0
 20
180.3629155
 30
0.0
 11
407.0
 21
161.3309155
 31
0.0
  0
LINE
  5
C03
330
1E
100
AcDbEntity
  8
0
100
AcDbLine
 10
405.175
 20
185.8229155
 30
0.0
 11
406.489
 21
183.0779155
 31
0.0
  0
LINE
  5
C04
330
1E
100
AcDbEntity
  8
0
100
AcDbLine
 10
403.131
 20
188.4449155
 30
0.0
 11
405.175
 21
185.8229155
 31
0.0
  0
LINE
  5
C05
330
1E
100
AcDbEntity
  8
0
100
AcDbLine
 10
402.401
 20
189.2279155
 30
0.0
 11
403.131
 21
188.4449155
 31
0.0
  0
LINE
  5
C06
330
1E
100
AcDbEntity
  8
0
100
AcDbLine
 10
400.285
 20
190.8809155
 30
0.0
 11
403.131
 21
188.4449155
 31
0.0
  0
LINE
  5
C07
330
1E
100
AcDbEntity
  8
0
100
AcDbLine
 10
406.489
 20
164.0449155
 30
0.0
 11
407.0
 21
161.3309155
 31
0.0
  0
LINE
  5
C08
330
1E
100
AcDbEntity
  8
0
100
AcDbLine
 10
405.175
 20
166.7899155
 30
0.0
 11
406.489
 21
164.0449155
 31
0.0
  0
LINE
  5
C09
330
1E
100
AcDbEntity
  8
0
100
AcDbLine
 10
403.131
 20
169.4129155
 30
0.0
 11
405.175
 21
166.7899155
 31
0.0
  0
LINE
  5
C0A
330
1E
100
AcDbEntity
  8
0
100
AcDbLine
 10
400.285
 20
171.8499155
 30
0.0
 11
403.131
 21
169.4129155
 31
0.0
  0
LINE
  5
C0B
330
1E
100
AcDbEntity
  8
0
100
AcDbLine
 10
396.635
 20
174.1629155
 30
0.0
 11
400.285
 21
171.8499155
 31
0.0
  0
LINE
  5
C0C
330
1E
100
AcDbEntity
  8
0
100
AcDbLine
 10
392.328
 20
176.2609155
 30
0.0
 11
396.635
 21
174.1629155
 31
0.0
  0
LINE
  5
C0D
330
1E
100
AcDbEntity
  8
0
100
AcDbLine
 10
396.051
 20
173.0719155
 30
0.0
 11
399.701
 21
170.7889155
 31
0.0
  0
LINE
  5
C0E
330
1E
100
AcDbEntity
  8
0
100
AcDbLine
 10
391.818
 20
175.1379155
 30
0.0
 11
396.051
 21
173.0719155
 31
0.0
  0
LINE
  5
C0F
330
1E
100
AcDbEntity
  8
0
100
AcDbLine
 10
394.299
 20
172.5159155
 30
0.0
 11
397.803
 21
170.3259155
 31
0.0
  0
LINE
  5
C10
330
1E
100
AcDbEntity
  8
0
100
AcDbLine
 10
390.212
 20
174.4589155
 30
0.0
 11
394.299
 21
172.5159155
 31
0.0
  0
LINE
  5
C11
330
1E
100
AcDbEntity
  8
0
100
AcDbLine
 10
391.67
 20
171.928997126767
 30
0.0
 11
391.67
 21
171.4919155
 31
0.0
  0
LINE
  5
C12
330
1E
100
AcDbEntity
  8
0
100
AcDbLine
 10
393.13
 20
172.254938863138
 30
0.0
 11
393.13
 21
171.4919155
 31
0.0
  0
LINE
  5
C13
330
1E
100
AcDbEntity
  8
0
100
AcDbLine
 10
402.401
 20
168.3829155
 30
0.0
 11
404.518
 21
165.6679155
 31
0.0
  0
LINE
  5
C14
330
1E
100
AcDbEntity
  8
0
100
AcDbLine
 10
399.701
 20
170.7889155
 30
0.0
 11
402.401
 21
168.3829155
 31
0.0
  0
LINE
  5
C15
330
1E
100
AcDbEntity
  8
0
100
AcDbLine
 10
393.13
 20
170.8749155
 30
0.0
 11
393.13
 21
171.4919155
 31
0.0
  0
LINE
  5
C16
330
1E
100
AcDbEntity
  8
0
100
AcDbLine
 10
393.13
 20
171.4919155
 30
0.0
 11
393.13
 21
170.8749155
 31
0.0
  0
LINE
  5
C17
330
1E
100
AcDbEntity
  8
0
100
AcDbLine
 10
393.13
 20
171.4919155
 30
0.0
 11
393.13
 21
172.254938863138
 31
0.0
  0
LINE
  5
C18
330
1E
100
AcDbEntity
  8
0
100
AcDbLine
 10
391.67
 20
170.8749155
 30
0.0
 11
391.67
 21
171.4919155
 31
0.0
  0
LINE
  5
C19
330
1E
100
AcDbEntity
  8
0
100
AcDbLine
 10
391.67
 20
170.8749155
 30
0.0
 11
391.67
 21
171.453772785429
 31
0.0
  0
LINE
  5
C1A
330
1E
100
AcDbEntity
  8
0
100
AcDbLine
 10
391.67
 20
170.8749155
 30
0.0
 11
393.13
 21
170.8749155
 31
0.0
  0
LINE
  5
C1B
330
1E
100
AcDbEntity
  8
0
100
AcDbLine
 10
391.67
 20
171.453772785429
 30
0.0
 11
391.67
 21
170.8749155
 31
0.0
  0
LINE
  5
C1C
330
1E
100
AcDbEntity
  8
0
100
AcDbLine
 10
391.67
 20
171.4919155
 30
0.0
 11
391.67
 21
171.928997126767
 31
0.0
  0
LINE
  5
C1D
330
1E
100
AcDbEntity
  8
0
100
AcDbLine
 10
391.67
 20
171.4919155
 30
0.0
 11
393.13
 21
171.4919155
 31
0.0
  0
LINE
  5
C1E
330
1E
100
AcDbEntity
  8
0
100
AcDbLine
 10
391.67
 20
171.4919155
 30
0.0
 11
391.67
 21
170.8749155
 31
0.0
  0
LINE
  5
C1F
330
1E
100
AcDbEntity
  8
0
100
AcDbLine
 10
400.431
 20
168.0129155
 30
0.0
 11
402.401
 21
165.2359155
 31
0.0
  0
LINE
  5
C20
330
1E
100
AcDbEntity
  8
0
100
AcDbLine
 10
397.803
 20
170.3259155
 30
0.0
 11
400.431
 21
168.0129155
 31
0.0
  0
LINE
  5
C21
330
1E
100
AcDbEntity
  8
0
100
AcDbLine
 10
397.916
 20
167.4439155
 30
0.0
 11
397.916
 21
168.0609155
 31
0.0
  0
LINE
  5
C22
330
1E
100
AcDbEntity
  8
0
100
AcDbLine
 10
396.456
 20
167.4439155
 30
0.0
 11
396.456
 21
168.0609155
 31
0.0
  0
LINE
  5
C23
330
1E
100
AcDbEntity
  8
0
100
AcDbLine
 10
396.456
 20
167.4439155
 30
0.0
 11
396.456
 21
167.608425655398
 31
0.0
  0
LINE
  5
C24
330
1E
100
AcDbEntity
  8
0
100
AcDbLine
 10
396.456
 20
167.4439155
 30
0.0
 11
397.916
 21
167.4439155
 31
0.0
  0
LINE
  5
C25
330
1E
100
AcDbEntity
  8
0
100
AcDbLine
 10
396.456
 20
167.608425655398
 30
0.0
 11
396.456
 21
167.4439155
 31
0.0
  0
LINE
  5
C26
330
1E
100
AcDbEntity
  8
0
100
AcDbLine
 10
397.916
 20
168.0609155
 30
0.0
 11
397.916
 21
167.4439155
 31
0.0
  0
LINE
  5
C27
330
1E
100
AcDbEntity
  8
0
100
AcDbLine
 10
396.456
 20
168.0609155
 30
0.0
 11
397.916
 21
168.0609155
 31
0.0
  0
LINE
  5
C28
330
1E
100
AcDbEntity
  8
0
100
AcDbLine
 10
396.456
 20
168.0609155
 30
0.0
 11
396.456
 21
167.4439155
 31
0.0
  0
LINE
  5
C29
330
1E
100
AcDbEntity
  8
0
100
AcDbLine
 10
387.859
 20
168.776743532493
 30
0.0
 11
387.859
 21
167.5379155
 31
0.0
  0
LINE
  5
C2A
330
1E
100
AcDbEntity
  8
0
100
AcDbLine
 10
387.859
 20
167.5379155
 30
0.0
 11
387.859
 21
166.9209155
 31
0.0
  0
LINE
  5
C2B
330
1E
100
AcDbEntity
  8
0
100
AcDbLine
 10
387.859
 20
167.5379155
 30
0.0
 11
387.859
 21
168.776743532493
 31
0.0
  0
LINE
  5
C2C
330
1E
100
AcDbEntity
  8
0
100
AcDbLine
 10
387.859
 20
166.9209155
 30
0.0
 11
387.859
 21
167.5379155
 31
0.0
  0
LINE
  5
C2D
330
1E
100
AcDbEntity
  8
0
100
AcDbLine
 10
405.759
 20
163.1079155
 30
0.0
 11
406.27
 21
160.4239155
 31
0.0
  0
LINE
  5
C2E
330
1E
100
AcDbEntity
  8
0
100
AcDbLine
 10
406.489
 20
158.6159155
 30
0.0
 11
407.0
 21
161.3309155
 31
0.0
  0
LINE
  5
C2F
330
1E
100
AcDbEntity
  8
0
100
AcDbLine
 10
404.518
 20
165.6679155
 30
0.0
 11
405.759
 21
163.1079155
 31
0.0
  0
LINE
  5
C30
330
1E
100
AcDbEntity
  8
0
100
AcDbLine
 10
403.642
 20
163.0459155
 30
0.0
 11
404.08
 21
160.4239155
 31
0.0
  0
LINE
  5
C31
330
1E
100
AcDbEntity
  8
0
100
AcDbLine
 10
405.175
 20
155.8699155
 30
0.0
 11
406.489
 21
158.6159155
 31
0.0
  0
LINE
  5
C32
330
1E
100
AcDbEntity
  8
0
100
AcDbLine
 10
405.759
 20
157.7399155
 30
0.0
 11
406.27
 21
160.4239155
 31
0.0
  0
LINE
  5
C33
330
1E
100
AcDbEntity
  8
0
100
AcDbLine
 10
404.518
 20
155.1799155
 30
0.0
 11
405.759
 21
157.7399155
 31
0.0
  0
LINE
  5
C34
330
1E
100
AcDbEntity
  8
0
100
AcDbLine
 10
402.401
 20
165.2359155
 30
0.0
 11
403.642
 21
163.0459155
 31
0.0
  0
LINE
  5
C35
330
1E
100
AcDbEntity
  8
0
100
AcDbLine
 10
403.131
 20
153.2479155
 30
0.0
 11
405.175
 21
155.8699155
 31
0.0
  0
LINE
  5
C36
330
1E
100
AcDbEntity
  8
0
100
AcDbLine
 10
403.642
 20
157.8009155
 30
0.0
 11
404.08
 21
160.4239155
 31
0.0
  0
LINE
  5
C37
330
1E
100
AcDbEntity
  8
0
100
AcDbLine
 10
402.401
 20
152.4659155
 30
0.0
 11
404.518
 21
155.1799155
 31
0.0
  0
LINE
  5
C38
330
1E
100
AcDbEntity
  8
0
100
AcDbLine
 10
402.401
 20
152.4659155
 30
0.0
 11
403.131
 21
153.2479155
 31
0.0
  0
LINE
  5
C39
330
1E
100
AcDbEntity
  8
0
100
AcDbLine
 10
402.401
 20
155.6109155
 30
0.0
 11
403.642
 21
157.8009155
 31
0.0
  0
LINE
  5
C3A
330
1E
100
AcDbEntity
  8
0
100
AcDbLine
 10
402.62
 20
159.8269155
 30
0.0
 11
402.62
 21
160.517672262453
 31
0.0
  0
LINE
  5
C3B
330
1E
100
AcDbEntity
  8
0
100
AcDbLine
 10
402.62
 20
159.8269155
 30
0.0
 11
402.62
 21
159.2099155
 31
0.0
  0
LINE
  5
C3C
330
1E
100
AcDbEntity
  8
0
100
AcDbLine
 10
402.62
 20
160.517672262453
 30
0.0
 11
402.62
 21
159.8269155
 31
0.0
  0
LINE
  5
C3D
330
1E
100
AcDbEntity
  8
0
100
AcDbLine
 10
402.62
 20
159.2099155
 30
0.0
 11
402.62
 21
159.8269155
 31
0.0
  0
LINE
  5
C3E
330
1E
100
AcDbEntity
  8
0
100
AcDbLine
 10
400.431
 20
152.8359155
 30
0.0
 11
402.401
 21
155.6109155
 31
0.0
  0
LINE
  5
C3F
330
1E
100
AcDbEntity
  8
0
100
AcDbLine
 10
401.161
 20
159.8269155
 30
0.0
 11
401.161
 21
159.2099155
 31
0.0
  0
LINE
  5
C40
330
1E
100
AcDbEntity
  8
0
100
AcDbLine
 10
401.161
 20
159.8269155
 30
0.0
 11
401.161
 21
160.611364807946
 31
0.0
  0
LINE
  5
C41
330
1E
100
AcDbEntity
  8
0
100
AcDbLine
 10
401.161
 20
159.8269155
 30
0.0
 11
402.62
 21
159.8269155
 31
0.0
  0
LINE
  5
C42
330
1E
100
AcDbEntity
  8
0
100
AcDbLine
 10
401.241
 20
163.3599155
 30
0.0
 11
401.241
 21
163.9769155
 31
0.0
  0
LINE
  5
C43
330
1E
100
AcDbEntity
  8
0
100
AcDbLine
 10
401.241
 20
163.9769155
 30
0.0
 11
401.241
 21
163.3599155
 31
0.0
  0
LINE
  5
C44
330
1E
100
AcDbEntity
  8
0
100
AcDbLine
 10
401.241
 20
163.9769155
 30
0.0
 11
401.241
 21
165.052757605263
 31
0.0
  0
LINE
  5
C45
330
1E
100
AcDbEntity
  8
0
100
AcDbLine
 10
401.241
 20
165.052757605263
 30
0.0
 11
401.241
 21
163.9769155
 31
0.0
  0
LINE
  5
C46
330
1E
100
AcDbEntity
  8
0
100
AcDbLine
 10
401.241
 20
155.6749155
 30
0.0
 11
401.241
 21
155.0579155
 31
0.0
  0
LINE
  5
C47
330
1E
100
AcDbEntity
  8
0
100
AcDbLine
 10
401.241
 20
155.0579155
 30
0.0
 11
401.241
 21
155.6749155
 31
0.0
  0
LINE
  5
C48
330
1E
100
AcDbEntity
  8
0
100
AcDbLine
 10
401.161
 20
160.611364807946
 30
0.0
 11
401.161
 21
159.8269155
 31
0.0
  0
LINE
  5
C49
330
1E
100
AcDbEntity
  8
0
100
AcDbLine
 10
399.782
 20
163.3599155
 30
0.0
 11
399.782
 21
163.9769155
 31
0.0
  0
LINE
  5
C4A
330
1E
100
AcDbEntity
  8
0
100
AcDbLine
 10
399.782
 20
163.3599155
 30
0.0
 11
401.241
 21
163.3599155
 31
0.0
  0
LINE
  5
C4B
330
1E
100
AcDbEntity
  8
0
100
AcDbLine
 10
399.782
 20
163.9769155
 30
0.0
 11
399.782
 21
164.822389184211
 31
0.0
  0
LINE
  5
C4C
330
1E
100
AcDbEntity
  8
0
100
AcDbLine
 10
399.782
 20
163.9769155
 30
0.0
 11
401.241
 21
163.9769155
 31
0.0
  0
LINE
  5
C4D
330
1E
100
AcDbEntity
  8
0
100
AcDbLine
 10
399.782
 20
163.9769155
 30
0.0
 11
399.782
 21
163.3599155
 31
0.0
  0
LINE
  5
C4E
330
1E
100
AcDbEntity
  8
0
100
AcDbLine
 10
399.782
 20
164.822389184211
 30
0.0
 11
399.782
 21
163.9769155
 31
0.0
  0
LINE
  5
C4F
330
1E
100
AcDbEntity
  8
0
100
AcDbLine
 10
392.32
 20
162.8389155
 30
0.0
 11
392.32
 21
163.4559155
 31
0.0
  0
LINE
  5
C50
330
1E
100
AcDbEntity
  8
0
100
AcDbLine
 10
392.32
 20
163.4559155
 30
0.0
 11
392.32
 21
162.8389155
 31
0.0
  0
LINE
  5
C51
330
1E
100
AcDbEntity
  8
0
100
AcDbLine
 10
392.32
 20
163.4559155
 30
0.0
 11
392.32
 21
163.644178657895
 31
0.0
  0
LINE
  5
C52
330
1E
100
AcDbEntity
  8
0
100
AcDbLine
 10
392.32
 20
163.644178657895
 30
0.0
 11
392.32
 21
163.4559155
 31
0.0
  0
LINE
  5
C53
330
1E
100
AcDbEntity
  8
0
100
AcDbLine
 10
390.86
 20
162.8389155
 30
0.0
 11
390.86
 21
163.4559155
 31
0.0
  0
LINE
  5
C54
330
1E
100
AcDbEntity
  8
0
100
AcDbLine
 10
390.86
 20
162.8389155
 30
0.0
 11
390.86
 21
163.413652342105
 31
0.0
  0
LINE
  5
C55
330
1E
100
AcDbEntity
  8
0
100
AcDbLine
 10
390.86
 20
162.8389155
 30
0.0
 11
392.32
 21
162.8389155
 31
0.0
  0
LINE
  5
C56
330
1E
100
AcDbEntity
  8
0
100
AcDbLine
 10
390.86
 20
163.413652342105
 30
0.0
 11
390.86
 21
162.8389155
 31
0.0
  0
LINE
  5
C57
330
1E
100
AcDbEntity
  8
0
100
AcDbLine
 10
390.86
 20
163.4559155
 30
0.0
 11
392.32
 21
163.4559155
 31
0.0
  0
LINE
  5
C58
330
1E
100
AcDbEntity
  8
0
100
AcDbLine
 10
390.86
 20
163.4559155
 30
0.0
 11
390.86
 21
162.8389155
 31
0.0
  0
LINE
  5
C59
330
1E
100
AcDbEntity
  8
0
100
AcDbLine
 10
401.161
 20
159.2099155
 30
0.0
 11
401.161
 21
159.864643877714
 31
0.0
  0
LINE
  5
C5A
330
1E
100
AcDbEntity
  8
0
100
AcDbLine
 10
401.161
 20
159.2099155
 30
0.0
 11
402.62
 21
159.2099155
 31
0.0
  0
LINE
  5
C5B
330
1E
100
AcDbEntity
  8
0
100
AcDbLine
 10
401.161
 20
159.2099155
 30
0.0
 11
401.161
 21
159.8269155
 31
0.0
  0
LINE
  5
C5C
330
1E
100
AcDbEntity
  8
0
100
AcDbLine
 10
401.161
 20
159.864643877714
 30
0.0
 11
401.161
 21
159.2099155
 31
0.0
  0
LINE
  5
C5D
330
1E
100
AcDbEntity
  8
0
100
AcDbLine
 10
393.861
 20
159.3729155
 30
0.0
 11
393.861
 21
159.756305606721
 31
0.0
  0
LINE
  5
C5E
330
1E
100
AcDbEntity
  8
0
100
AcDbLine
 10
393.861
 20
159.3729155
 30
0.0
 11
393.861
 21
158.7559155
 31
0.0
  0
LINE
  5
C5F
330
1E
100
AcDbEntity
  8
0
100
AcDbLine
 10
399.782
 20
155.6749155
 30
0.0
 11
399.782
 21
155.0579155
 31
0.0
  0
LINE
  5
C60
330
1E
100
AcDbEntity
  8
0
100
AcDbLine
 10
399.782
 20
155.6749155
 30
0.0
 11
401.241
 21
155.6749155
 31
0.0
  0
LINE
  5
C61
330
1E
100
AcDbEntity
  8
0
100
AcDbLine
 10
399.782
 20
155.0579155
 30
0.0
 11
399.782
 21
155.66934643509
 31
0.0
  0
LINE
  5
C62
330
1E
100
AcDbEntity
  8
0
100
AcDbLine
 10
399.782
 20
155.0579155
 30
0.0
 11
401.241
 21
155.0579155
 31
0.0
  0
LINE
  5
C63
330
1E
100
AcDbEntity
  8
0
100
AcDbLine
 10
399.782
 20
155.0579155
 30
0.0
 11
399.782
 21
155.6749155
 31
0.0
  0
LINE
  5
C64
330
1E
100
AcDbEntity
  8
0
100
AcDbLine
 10
399.782
 20
155.66934643509
 30
0.0
 11
399.782
 21
155.0579155
 31
0.0
  0
LINE
  5
C65
330
1E
100
AcDbEntity
  8
0
100
AcDbLine
 10
393.861
 20
159.756305606721
 30
0.0
 11
393.861
 21
159.3729155
 31
0.0
  0
LINE
  5
C66
330
1E
100
AcDbEntity
  8
0
100
AcDbLine
 10
392.401
 20
159.3729155
 30
0.0
 11
392.401
 21
158.7559155
 31
0.0
  0
LINE
  5
C67
330
1E
100
AcDbEntity
  8
0
100
AcDbLine
 10
392.401
 20
159.3729155
 30
0.0
 11
392.401
 21
159.66092343193
 31
0.0
  0
LINE
  5
C68
330
1E
100
AcDbEntity
  8
0
100
AcDbLine
 10
392.401
 20
159.3729155
 30
0.0
 11
393.861
 21
159.3729155
 31
0.0
  0
LINE
  5
C69
330
1E
100
AcDbEntity
  8
0
100
AcDbLine
 10
393.861
 20
158.7559155
 30
0.0
 11
393.861
 21
159.3729155
 31
0.0
  0
LINE
  5
C6A
330
1E
100
AcDbEntity
  8
0
100
AcDbLine
 10
392.401
 20
159.66092343193
 30
0.0
 11
392.401
 21
158.7559155
 31
0.0
  0
LINE
  5
C6B
330
1E
100
AcDbEntity
  8
0
100
AcDbLine
 10
392.401
 20
159.66092343193
 30
0.0
 11
392.401
 21
159.3729155
 31
0.0
  0
LINE
  5
C6C
330
1E
100
AcDbEntity
  8
0
100
AcDbLine
 10
392.401
 20
158.7559155
 30
0.0
 11
392.401
 21
159.66092343193
 31
0.0
  0
LINE
  5
C6D
330
1E
100
AcDbEntity
  8
0
100
AcDbLine
 10
392.401
 20
158.7559155
 30
0.0
 11
393.861
 21
158.7559155
 31
0.0
  0
LINE
  5
C6E
330
1E
100
AcDbEntity
  8
0
100
AcDbLine
 10
392.401
 20
158.7559155
 30
0.0
 11
392.401
 21
159.3729155
 31
0.0
  0
LINE
  5
C6F
330
1E
100
AcDbEntity
  8
0
100
AcDbLine
 10
392.32
 20
155.2899155
 30
0.0
 11
392.32
 21
155.835826632739
 31
0.0
  0
LINE
  5
C70
330
1E
100
AcDbEntity
  8
0
100
AcDbLine
 10
392.32
 20
155.2899155
 30
0.0
 11
392.32
 21
154.6729155
 31
0.0
  0
LINE
  5
C71
330
1E
100
AcDbEntity
  8
0
100
AcDbLine
 10
392.32
 20
155.835826632739
 30
0.0
 11
392.32
 21
155.2899155
 31
0.0
  0
LINE
  5
C72
330
1E
100
AcDbEntity
  8
0
100
AcDbLine
 10
390.86
 20
155.86839981534
 30
0.0
 11
390.86
 21
154.6729155
 31
0.0
  0
LINE
  5
C73
330
1E
100
AcDbEntity
  8
0
100
AcDbLine
 10
390.86
 20
155.86839981534
 30
0.0
 11
390.86
 21
155.2899155
 31
0.0
  0
LINE
  5
C74
330
1E
100
AcDbEntity
  8
0
100
AcDbLine
 10
390.86
 20
155.2899155
 30
0.0
 11
390.86
 21
154.6729155
 31
0.0
  0
LINE
  5
C75
330
1E
100
AcDbEntity
  8
0
100
AcDbLine
 10
390.86
 20
155.2899155
 30
0.0
 11
390.86
 21
155.86839981534
 31
0.0
  0
LINE
  5
C76
330
1E
100
AcDbEntity
  8
0
100
AcDbLine
 10
390.86
 20
155.2899155
 30
0.0
 11
392.32
 21
155.2899155
 31
0.0
  0
LINE
  5
C77
330
1E
100
AcDbEntity
  8
0
100
AcDbLine
 10
392.32
 20
154.6729155
 30
0.0
 11
392.32
 21
155.2899155
 31
0.0
  0
LINE
  5
C78
330
1E
100
AcDbEntity
  8
0
100
AcDbLine
 10
390.86
 20
154.6729155
 30
0.0
 11
390.86
 21
155.86839981534
 31
0.0
  0
LINE
  5
C79
330
1E
100
AcDbEntity
  8
0
100
AcDbLine
 10
390.86
 20
154.6729155
 30
0.0
 11
392.32
 21
154.6729155
 31
0.0
  0
LINE
  5
C7A
330
1E
100
AcDbEntity
  8
0
100
AcDbLine
 10
390.86
 20
154.6729155
 30
0.0
 11
390.86
 21
155.2899155
 31
0.0
  0
LINE
  5
C7B
330
1E
100
AcDbEntity
  8
0
100
AcDbLine
 10
397.916
 20
152.780891304253
 30
0.0
 11
397.916
 21
151.5919155
 31
0.0
  0
LINE
  5
C7C
330
1E
100
AcDbEntity
  8
0
100
AcDbLine
 10
396.456
 20
152.74894882879
 30
0.0
 11
396.456
 21
151.5919155
 31
0.0
  0
LINE
  5
C7D
330
1E
100
AcDbEntity
  8
0
100
AcDbLine
 10
399.701
 20
150.0589155
 30
0.0
 11
402.401
 21
152.4659155
 31
0.0
  0
LINE
  5
C7E
330
1E
100
AcDbEntity
  8
0
100
AcDbLine
 10
396.051
 20
147.7759155
 30
0.0
 11
399.701
 21
150.0589155
 31
0.0
  0
LINE
  5
C7F
330
1E
100
AcDbEntity
  8
0
100
AcDbLine
 10
397.803
 20
150.5209155
 30
0.0
 11
400.431
 21
152.8359155
 31
0.0
  0
LINE
  5
C80
330
1E
100
AcDbEntity
  8
0
100
AcDbLine
 10
397.916
 20
151.5919155
 30
0.0
 11
397.916
 21
152.780891304253
 31
0.0
  0
LINE
  5
C81
330
1E
100
AcDbEntity
  8
0
100
AcDbLine
 10
397.916
 20
151.5919155
 30
0.0
 11
397.916
 21
150.9749155
 31
0.0
  0
LINE
  5
C82
330
1E
100
AcDbEntity
  8
0
100
AcDbLine
 10
397.916
 20
150.9749155
 30
0.0
 11
397.916
 21
151.5919155
 31
0.0
  0
LINE
  5
C83
330
1E
100
AcDbEntity
  8
0
100
AcDbLine
 10
394.299
 20
148.3309155
 30
0.0
 11
397.803
 21
150.5209155
 31
0.0
  0
LINE
  5
C84
330
1E
100
AcDbEntity
  8
0
100
AcDbLine
 10
393.13
 20
148.611127621212
 30
0.0
 11
393.13
 21
148.1599155
 31
0.0
  0
LINE
  5
C85
330
1E
100
AcDbEntity
  8
0
100
AcDbLine
 10
396.456
 20
151.5919155
 30
0.0
 11
396.456
 21
150.9749155
 31
0.0
  0
LINE
  5
C86
330
1E
100
AcDbEntity
  8
0
100
AcDbLine
 10
396.456
 20
151.5919155
 30
0.0
 11
396.456
 21
152.74894882879
 31
0.0
  0
LINE
  5
C87
330
1E
100
AcDbEntity
  8
0
100
AcDbLine
 10
396.456
 20
151.5919155
 30
0.0
 11
397.916
 21
151.5919155
 31
0.0
  0
LINE
  5
C88
330
1E
100
AcDbEntity
  8
0
100
AcDbLine
 10
396.456
 20
150.9749155
 30
0.0
 11
397.916
 21
150.9749155
 31
0.0
  0
LINE
  5
C89
330
1E
100
AcDbEntity
  8
0
100
AcDbLine
 10
396.456
 20
150.9749155
 30
0.0
 11
396.456
 21
151.5919155
 31
0.0
  0
LINE
  5
C8A
330
1E
100
AcDbEntity
  8
0
100
AcDbLine
 10
391.67
 20
148.961093144711
 30
0.0
 11
391.67
 21
148.1599155
 31
0.0
  0
LINE
  5
C8B
330
1E
100
AcDbEntity
  8
0
100
AcDbLine
 10
387.859
 20
151.2079155
 30
0.0
 11
387.859
 21
152.167240309034
 31
0.0
  0
LINE
  5
C8C
330
1E
100
AcDbEntity
  8
0
100
AcDbLine
 10
387.859
 20
151.2079155
 30
0.0
 11
387.859
 21
150.5909155
 31
0.0
  0
LINE
  5
C8D
330
1E
100
AcDbEntity
  8
0
100
AcDbLine
 10
387.859
 20
152.167240309034
 30
0.0
 11
387.859
 21
151.2079155
 31
0.0
  0
LINE
  5
C8E
330
1E
100
AcDbEntity
  8
0
100
AcDbLine
 10
387.859
 20
150.5909155
 30
0.0
 11
387.859
 21
151.2079155
 31
0.0
  0
LINE
  5
C8F
330
1E
100
AcDbEntity
  8
0
100
AcDbLine
 10
391.67
 20
148.574327383473
 30
0.0
 11
391.67
 21
147.5429155
 31
0.0
  0
LINE
  5
C90
330
1E
100
AcDbEntity
  8
0
100
AcDbLine
 10
393.13
 20
148.1599155
 30
0.0
 11
393.13
 21
148.611127621212
 31
0.0
  0
LINE
  5
C91
330
1E
100
AcDbEntity
  8
0
100
AcDbLine
 10
393.13
 20
148.1599155
 30
0.0
 11
393.13
 21
147.5429155
 31
0.0
  0
LINE
  5
C92
330
1E
100
AcDbEntity
  8
0
100
AcDbLine
 10
391.67
 20
148.1599155
 30
0.0
 11
391.67
 21
147.5429155
 31
0.0
  0
LINE
  5
C93
330
1E
100
AcDbEntity
  8
0
100
AcDbLine
 10
391.67
 20
148.1599155
 30
0.0
 11
391.67
 21
148.961093144711
 31
0.0
  0
LINE
  5
C94
330
1E
100
AcDbEntity
  8
0
100
AcDbLine
 10
391.67
 20
148.1599155
 30
0.0
 11
393.13
 21
148.1599155
 31
0.0
  0
LINE
  5
C95
330
1E
100
AcDbEntity
  8
0
100
AcDbLine
 10
391.818
 20
145.7089155
 30
0.0
 11
396.051
 21
147.7759155
 31
0.0
  0
LINE
  5
C96
330
1E
100
AcDbEntity
  8
0
100
AcDbLine
 10
393.13
 20
147.775161401639
 30
0.0
 11
394.299
 21
148.3309155
 31
0.0
  0
LINE
  5
C97
330
1E
100
AcDbEntity
  8
0
100
AcDbLine
 10
393.13
 20
147.5429155
 30
0.0
 11
393.13
 21
148.1599155
 31
0.0
  0
LINE
  5
C98
330
1E
100
AcDbEntity
  8
0
100
AcDbLine
 10
390.212
 20
146.3879155
 30
0.0
 11
392.641482758621
 21
147.5429155
 31
0.0
  0
LINE
  5
C99
330
1E
100
AcDbEntity
  8
0
100
AcDbLine
 10
391.67
 20
147.5429155
 30
0.0
 11
391.67
 21
148.574327383473
 31
0.0
  0
LINE
  5
C9A
330
1E
100
AcDbEntity
  8
0
100
AcDbLine
 10
391.67
 20
147.5429155
 30
0.0
 11
393.13
 21
147.5429155
 31
0.0
  0
LINE
  5
C9B
330
1E
100
AcDbEntity
  8
0
100
AcDbLine
 10
391.67
 20
147.5429155
 30
0.0
 11
391.67
 21
148.1599155
 31
0.0
  0
LINE
  5
C9C
330
1E
100
AcDbEntity
  8
0
100
AcDbLine
 10
381.891
 20
179.6229155
 30
0.0
 11
387.365
 21
178.0809155
 31
0.0
  0
LINE
  5
C9D
330
1E
100
AcDbEntity
  8
0
100
AcDbLine
 10
387.365
 20
178.0809155
 30
0.0
 11
392.328
 21
176.2609155
 31
0.0
  0
LINE
  5
C9E
330
1E
100
AcDbEntity
  8
0
100
AcDbLine
 10
386.927
 20
176.9279155
 30
0.0
 11
391.818
 21
175.1379155
 31
0.0
  0
LINE
  5
C9F
330
1E
100
AcDbEntity
  8
0
100
AcDbLine
 10
385.613
 20
176.1869155
 30
0.0
 11
390.212
 21
174.4589155
 31
0.0
  0
LINE
  5
CA0
330
1E
100
AcDbEntity
  8
0
100
AcDbLine
 10
386.927
 20
143.9199155
 30
0.0
 11
391.818
 21
145.7089155
 31
0.0
  0
LINE
  5
CA1
330
1E
100
AcDbEntity
  8
0
100
AcDbLine
 10
386.722
 20
145.077363206023
 30
0.0
 11
390.212
 21
146.3879155
 31
0.0
  0
LINE
  5
CA2
330
1E
100
AcDbEntity
  8
0
100
AcDbLine
 10
386.399
 20
166.9209155
 30
0.0
 11
386.399
 21
167.5379155
 31
0.0
  0
LINE
  5
CA3
330
1E
100
AcDbEntity
  8
0
100
AcDbLine
 10
386.399
 20
166.9209155
 30
0.0
 11
387.859
 21
166.9209155
 31
0.0
  0
LINE
  5
CA4
330
1E
100
AcDbEntity
  8
0
100
AcDbLine
 10
386.399
 20
167.5379155
 30
0.0
 11
386.399
 21
168.549290689316
 31
0.0
  0
LINE
  5
CA5
330
1E
100
AcDbEntity
  8
0
100
AcDbLine
 10
386.399
 20
167.5379155
 30
0.0
 11
387.859
 21
167.5379155
 31
0.0
  0
LINE
  5
CA6
330
1E
100
AcDbEntity
  8
0
100
AcDbLine
 10
386.399
 20
167.5379155
 30
0.0
 11
386.399
 21
166.9209155
 31
0.0
  0
LINE
  5
CA7
330
1E
100
AcDbEntity
  8
0
100
AcDbLine
 10
386.722
 20
173.7219155
 30
0.0
 11
386.722
 21
174.3389155
 31
0.0
  0
LINE
  5
CA8
330
1E
100
AcDbEntity
  8
0
100
AcDbLine
 10
386.722
 20
174.3389155
 30
0.0
 11
386.722
 21
173.7219155
 31
0.0
  0
LINE
  5
CA9
330
1E
100
AcDbEntity
  8
0
100
AcDbLine
 10
386.722
 20
174.3389155
 30
0.0
 11
386.722
 21
175.770226654599
 31
0.0
  0
LINE
  5
CAA
330
1E
100
AcDbEntity
  8
0
100
AcDbLine
 10
386.722
 20
175.770226654599
 30
0.0
 11
386.722
 21
174.3389155
 31
0.0
  0
LINE
  5
CAB
330
1E
100
AcDbEntity
  8
0
100
AcDbLine
 10
386.399
 20
168.549290689316
 30
0.0
 11
386.399
 21
167.5379155
 31
0.0
  0
LINE
  5
CAC
330
1E
100
AcDbEntity
  8
0
100
AcDbLine
 10
386.722
 20
145.3129155
 30
0.0
 11
386.722
 21
144.6959155
 31
0.0
  0
LINE
  5
CAD
330
1E
100
AcDbEntity
  8
0
100
AcDbLine
 10
386.722
 20
144.6959155
 30
0.0
 11
386.722
 21
145.3129155
 31
0.0
  0
LINE
  5
CAE
330
1E
100
AcDbEntity
  8
0
100
AcDbLine
 10
386.399
 20
151.2079155
 30
0.0
 11
386.399
 21
150.5909155
 31
0.0
  0
LINE
  5
CAF
330
1E
100
AcDbEntity
  8
0
100
AcDbLine
 10
386.399
 20
151.2079155
 30
0.0
 11
387.859
 21
151.2079155
 31
0.0
  0
LINE
  5
CB0
330
1E
100
AcDbEntity
  8
0
100
AcDbLine
 10
386.399
 20
150.5909155
 30
0.0
 11
386.399
 21
150.875769417114
 31
0.0
  0
LINE
  5
CB1
330
1E
100
AcDbEntity
  8
0
100
AcDbLine
 10
386.399
 20
150.5909155
 30
0.0
 11
387.859
 21
150.5909155
 31
0.0
  0
LINE
  5
CB2
330
1E
100
AcDbEntity
  8
0
100
AcDbLine
 10
386.399
 20
150.5909155
 30
0.0
 11
386.399
 21
151.2079155
 31
0.0
  0
LINE
  5
CB3
330
1E
100
AcDbEntity
  8
0
100
AcDbLine
 10
386.399
 20
150.875769417114
 30
0.0
 11
386.399
 21
150.5909155
 31
0.0
  0
LINE
  5
CB4
330
1E
100
AcDbEntity
  8
0
100
AcDbLine
 10
382.912
 20
162.6939155
 30
0.0
 11
382.912
 21
162.0769155
 31
0.0
  0
LINE
  5
CB5
330
1E
100
AcDbEntity
  8
0
100
AcDbLine
 10
382.912
 20
162.6939155
 30
0.0
 11
382.912
 21
163.828992992727
 31
0.0
  0
LINE
  5
CB6
330
1E
100
AcDbEntity
  8
0
100
AcDbLine
 10
385.262
 20
173.7219155
 30
0.0
 11
385.262
 21
174.3389155
 31
0.0
  0
LINE
  5
CB7
330
1E
100
AcDbEntity
  8
0
100
AcDbLine
 10
385.262
 20
173.7219155
 30
0.0
 11
386.722
 21
173.7219155
 31
0.0
  0
LINE
  5
CB8
330
1E
100
AcDbEntity
  8
0
100
AcDbLine
 10
385.262
 20
174.3389155
 30
0.0
 11
386.722
 21
174.3389155
 31
0.0
  0
LINE
  5
CB9
330
1E
100
AcDbEntity
  8
0
100
AcDbLine
 10
385.262
 20
174.3389155
 30
0.0
 11
385.262
 21
173.7219155
 31
0.0
  0
LINE
  5
CBA
330
1E
100
AcDbEntity
  8
0
100
AcDbLine
 10
382.912
 20
163.828992992727
 30
0.0
 11
382.912
 21
162.6939155
 31
0.0
  0
LINE
  5
CBB
330
1E
100
AcDbEntity
  8
0
100
AcDbLine
 10
382.505
 20
169.7349155
 30
0.0
 11
382.505
 21
170.3519155
 31
0.0
  0
LINE
  5
CBC
330
1E
100
AcDbEntity
  8
0
100
AcDbLine
 10
382.505
 20
170.3519155
 30
0.0
 11
382.505
 21
169.7349155
 31
0.0
  0
LINE
  5
CBD
330
1E
100
AcDbEntity
  8
0
100
AcDbLine
 10
382.505
 20
170.3519155
 30
0.0
 11
382.505
 21
170.488403998109
 31
0.0
  0
LINE
  5
CBE
330
1E
100
AcDbEntity
  8
0
100
AcDbLine
 10
382.505
 20
170.488403998109
 30
0.0
 11
382.505
 21
170.3519155
 31
0.0
  0
LINE
  5
CBF
330
1E
100
AcDbEntity
  8
0
100
AcDbLine
 10
385.613
 20
144.6609155
 30
0.0
 11
385.706204979734
 21
144.6959155
 31
0.0
  0
LINE
  5
CC0
330
1E
100
AcDbEntity
  8
0
100
AcDbLine
 10
385.102
 20
158.9199155
 30
0.0
 11
385.102
 21
159.469010039448
 31
0.0
  0
LINE
  5
CC1
330
1E
100
AcDbEntity
  8
0
100
AcDbLine
 10
385.102
 20
158.9199155
 30
0.0
 11
385.102
 21
158.3029155
 31
0.0
  0
LINE
  5
CC2
330
1E
100
AcDbEntity
  8
0
100
AcDbLine
 10
385.102
 20
159.469010039448
 30
0.0
 11
385.102
 21
158.9199155
 31
0.0
  0
LINE
  5
CC3
330
1E
100
AcDbEntity
  8
0
100
AcDbLine
 10
383.642
 20
159.455037050719
 30
0.0
 11
383.642
 21
158.9199155
 31
0.0
  0
LINE
  5
CC4
330
1E
100
AcDbEntity
  8
0
100
AcDbLine
 10
382.912
 20
162.0769155
 30
0.0
 11
382.912
 21
162.6939155
 31
0.0
  0
LINE
  5
CC5
330
1E
100
AcDbEntity
  8
0
100
AcDbLine
 10
383.642
 20
159.002120707928
 30
0.0
 11
383.642
 21
158.3029155
 31
0.0
  0
LINE
  5
CC6
330
1E
100
AcDbEntity
  8
0
100
AcDbLine
 10
383.642
 20
158.9199155
 30
0.0
 11
383.642
 21
158.3029155
 31
0.0
  0
LINE
  5
CC7
330
1E
100
AcDbEntity
  8
0
100
AcDbLine
 10
383.642
 20
158.9199155
 30
0.0
 11
383.642
 21
159.455037050719
 31
0.0
  0
LINE
  5
CC8
330
1E
100
AcDbEntity
  8
0
100
AcDbLine
 10
383.642
 20
158.9199155
 30
0.0
 11
385.102
 21
158.9199155
 31
0.0
  0
LINE
  5
CC9
330
1E
100
AcDbEntity
  8
0
100
AcDbLine
 10
385.102
 20
158.3029155
 30
0.0
 11
385.102
 21
158.9199155
 31
0.0
  0
LINE
  5
CCA
330
1E
100
AcDbEntity
  8
0
100
AcDbLine
 10
385.262
 20
145.3129155
 30
0.0
 11
385.262
 21
144.6959155
 31
0.0
  0
LINE
  5
CCB
330
1E
100
AcDbEntity
  8
0
100
AcDbLine
 10
385.262
 20
145.3129155
 30
0.0
 11
386.722
 21
145.3129155
 31
0.0
  0
LINE
  5
CCC
330
1E
100
AcDbEntity
  8
0
100
AcDbLine
 10
385.262
 20
144.6959155
 30
0.0
 11
385.262
 21
144.817765750179
 31
0.0
  0
LINE
  5
CCD
330
1E
100
AcDbEntity
  8
0
100
AcDbLine
 10
385.262
 20
144.6959155
 30
0.0
 11
386.722
 21
144.6959155
 31
0.0
  0
LINE
  5
CCE
330
1E
100
AcDbEntity
  8
0
100
AcDbLine
 10
385.262
 20
144.6959155
 30
0.0
 11
385.262
 21
145.3129155
 31
0.0
  0
LINE
  5
CCF
330
1E
100
AcDbEntity
  8
0
100
AcDbLine
 10
385.262
 20
144.817765750179
 30
0.0
 11
385.262
 21
144.6959155
 31
0.0
  0
LINE
  5
CD0
330
1E
100
AcDbEntity
  8
0
100
AcDbLine
 10
383.642
 20
158.3029155
 30
0.0
 11
383.642
 21
159.002120707928
 31
0.0
  0
LINE
  5
CD1
330
1E
100
AcDbEntity
  8
0
100
AcDbLine
 10
383.642
 20
158.3029155
 30
0.0
 11
385.102
 21
158.3029155
 31
0.0
  0
LINE
  5
CD2
330
1E
100
AcDbEntity
  8
0
100
AcDbLine
 10
383.642
 20
158.3029155
 30
0.0
 11
383.642
 21
158.9199155
 31
0.0
  0
LINE
  5
CD3
330
1E
100
AcDbEntity
  8
0
100
AcDbLine
 10
382.505
 20
148.3939155
 30
0.0
 11
382.505
 21
148.930650291944
 31
0.0
  0
LINE
  5
CD4
330
1E
100
AcDbEntity
  8
0
100
AcDbLine
 10
382.505
 20
148.3939155
 30
0.0
 11
382.505
 21
147.7769155
 31
0.0
  0
LINE
  5
CD5
330
1E
100
AcDbEntity
  8
0
100
AcDbLine
 10
382.912
 20
155.1449155
 30
0.0
 11
382.912
 21
156.100804914548
 31
0.0
  0
LINE
  5
CD6
330
1E
100
AcDbEntity
  8
0
100
AcDbLine
 10
382.912
 20
155.1449155
 30
0.0
 11
382.912
 21
154.5289155
 31
0.0
  0
LINE
  5
CD7
330
1E
100
AcDbEntity
  8
0
100
AcDbLine
 10
382.912
 20
156.100804914548
 30
0.0
 11
382.912
 21
155.1449155
 31
0.0
  0
LINE
  5
CD8
330
1E
100
AcDbEntity
  8
0
100
AcDbLine
 10
382.912
 20
154.5289155
 30
0.0
 11
382.912
 21
155.1449155
 31
0.0
  0
LINE
  5
CD9
330
1E
100
AcDbEntity
  8
0
100
AcDbLine
 10
382.505
 20
148.930650291944
 30
0.0
 11
382.505
 21
148.3939155
 31
0.0
  0
LINE
  5
CDA
330
1E
100
AcDbEntity
  8
0
100
AcDbLine
 10
382.505
 20
147.7769155
 30
0.0
 11
382.505
 21
148.3939155
 31
0.0
  0
LINE
  5
CDB
330
1E
100
AcDbEntity
  8
0
100
AcDbLine
 10
381.526
 20
178.4699155
 30
0.0
 11
386.927
 21
176.9279155
 31
0.0
  0
LINE
  5
CDC
330
1E
100
AcDbEntity
  8
0
100
AcDbLine
 10
380.431
 20
177.6679155
 30
0.0
 11
385.613
 21
176.1869155
 31
0.0
  0
LINE
  5
CDD
330
1E
100
AcDbEntity
  8
0
100
AcDbLine
 10
381.526
 20
142.3779155
 30
0.0
 11
386.927
 21
143.9199155
 31
0.0
  0
LINE
  5
CDE
330
1E
100
AcDbEntity
  8
0
100
AcDbLine
 10
380.442
 20
143.183059266885
 30
0.0
 11
380.442
 21
142.9749155
 31
0.0
  0
LINE
  5
CDF
330
1E
100
AcDbEntity
  8
0
100
AcDbLine
 10
380.442
 20
143.183059266885
 30
0.0
 11
385.613
 21
144.6609155
 31
0.0
  0
LINE
  5
CE0
330
1E
100
AcDbEntity
  8
0
100
AcDbLine
 10
381.452
 20
162.0769155
 30
0.0
 11
381.452
 21
162.6939155
 31
0.0
  0
LINE
  5
CE1
330
1E
100
AcDbEntity
  8
0
100
AcDbLine
 10
381.452
 20
162.0769155
 30
0.0
 11
381.452
 21
162.210652539227
 31
0.0
  0
LINE
  5
CE2
330
1E
100
AcDbEntity
  8
0
100
AcDbLine
 10
381.452
 20
162.0769155
 30
0.0
 11
382.912
 21
162.0769155
 31
0.0
  0
LINE
  5
CE3
330
1E
100
AcDbEntity
  8
0
100
AcDbLine
 10
381.452
 20
162.210652539227
 30
0.0
 11
381.452
 21
162.0769155
 31
0.0
  0
LINE
  5
CE4
330
1E
100
AcDbEntity
  8
0
100
AcDbLine
 10
381.452
 20
162.6939155
 30
0.0
 11
381.452
 21
163.50409375972
 31
0.0
  0
LINE
  5
CE5
330
1E
100
AcDbEntity
  8
0
100
AcDbLine
 10
381.452
 20
162.6939155
 30
0.0
 11
382.912
 21
162.6939155
 31
0.0
  0
LINE
  5
CE6
330
1E
100
AcDbEntity
  8
0
100
AcDbLine
 10
381.452
 20
162.6939155
 30
0.0
 11
381.452
 21
162.0769155
 31
0.0
  0
LINE
  5
CE7
330
1E
100
AcDbEntity
  8
0
100
AcDbLine
 10
381.452
 20
163.50409375972
 30
0.0
 11
381.452
 21
162.6939155
 31
0.0
  0
LINE
  5
CE8
330
1E
100
AcDbEntity
  8
0
100
AcDbLine
 10
381.045
 20
169.7349155
 30
0.0
 11
381.045
 21
170.3519155
 31
0.0
  0
LINE
  5
CE9
330
1E
100
AcDbEntity
  8
0
100
AcDbLine
 10
381.045
 20
169.7349155
 30
0.0
 11
382.505
 21
169.7349155
 31
0.0
  0
LINE
  5
CEA
330
1E
100
AcDbEntity
  8
0
100
AcDbLine
 10
381.045
 20
170.3519155
 30
0.0
 11
382.505
 21
170.3519155
 31
0.0
  0
LINE
  5
CEB
330
1E
100
AcDbEntity
  8
0
100
AcDbLine
 10
381.045
 20
170.3519155
 30
0.0
 11
381.045
 21
169.7349155
 31
0.0
  0
LINE
  5
CEC
330
1E
100
AcDbEntity
  8
0
100
AcDbLine
 10
381.045
 20
148.3939155
 30
0.0
 11
381.045
 21
147.7769155
 31
0.0
  0
LINE
  5
CED
330
1E
100
AcDbEntity
  8
0
100
AcDbLine
 10
381.045
 20
148.3939155
 30
0.0
 11
381.045
 21
149.41234132558
 31
0.0
  0
LINE
  5
CEE
330
1E
100
AcDbEntity
  8
0
100
AcDbLine
 10
381.045
 20
148.3939155
 30
0.0
 11
382.505
 21
148.3939155
 31
0.0
  0
LINE
  5
CEF
330
1E
100
AcDbEntity
  8
0
100
AcDbLine
 10
381.452
 20
155.1449155
 30
0.0
 11
381.452
 21
154.5289155
 31
0.0
  0
LINE
  5
CF0
330
1E
100
AcDbEntity
  8
0
100
AcDbLine
 10
381.452
 20
155.1449155
 30
0.0
 11
381.452
 21
156.146492870392
 31
0.0
  0
LINE
  5
CF1
330
1E
100
AcDbEntity
  8
0
100
AcDbLine
 10
381.452
 20
155.1449155
 30
0.0
 11
382.912
 21
155.1449155
 31
0.0
  0
LINE
  5
CF2
330
1E
100
AcDbEntity
  8
0
100
AcDbLine
 10
381.452
 20
156.146492870392
 30
0.0
 11
381.452
 21
155.1449155
 31
0.0
  0
LINE
  5
CF3
330
1E
100
AcDbEntity
  8
0
100
AcDbLine
 10
381.452
 20
154.5289155
 30
0.0
 11
381.452
 21
154.93567429397
 31
0.0
  0
LINE
  5
CF4
330
1E
100
AcDbEntity
  8
0
100
AcDbLine
 10
381.452
 20
154.5289155
 30
0.0
 11
382.912
 21
154.5289155
 31
0.0
  0
LINE
  5
CF5
330
1E
100
AcDbEntity
  8
0
100
AcDbLine
 10
381.452
 20
154.5289155
 30
0.0
 11
381.452
 21
155.1449155
 31
0.0
  0
LINE
  5
CF6
330
1E
100
AcDbEntity
  8
0
100
AcDbLine
 10
381.452
 20
154.93567429397
 30
0.0
 11
381.452
 21
154.5289155
 31
0.0
  0
LINE
  5
CF7
330
1E
100
AcDbEntity
  8
0
100
AcDbLine
 10
381.045
 20
149.41234132558
 30
0.0
 11
381.045
 21
148.3939155
 31
0.0
  0
LINE
  5
CF8
330
1E
100
AcDbEntity
  8
0
100
AcDbLine
 10
381.045
 20
147.7769155
 30
0.0
 11
382.505
 21
147.7769155
 31
0.0
  0
LINE
  5
CF9
330
1E
100
AcDbEntity
  8
0
100
AcDbLine
 10
381.045
 20
147.7769155
 30
0.0
 11
381.045
 21
148.3939155
 31
0.0
  0
LINE
  5
CFA
330
1E
100
AcDbEntity
  8
0
100
AcDbLine
 10
380.442
 20
142.9749155
 30
0.0
 11
380.442
 21
143.183059266885
 31
0.0
  0
LINE
  5
CFB
330
1E
100
AcDbEntity
  8
0
100
AcDbLine
 10
380.442
 20
177.664771733115
 30
0.0
 11
380.442
 21
176.0599155
 31
0.0
  0
LINE
  5
CFC
330
1E
100
AcDbEntity
  8
0
100
AcDbLine
 10
380.442
 20
176.0599155
 30
0.0
 11
380.442
 21
177.664771733115
 31
0.0
  0
LINE
  5
CFD
330
1E
100
AcDbEntity
  8
0
100
AcDbLine
 10
379.178
 20
142.6659155
 30
0.0
 11
380.442
 21
142.9749155
 31
0.0
  0
LINE
  5
CFE
330
1E
100
AcDbEntity
  8
0
100
AcDbLine
 10
379.712
 20
143.5089155
 30
0.0
 11
379.712
 21
143.618210020548
 31
0.0
  0
LINE
  5
CFF
330
1E
100
AcDbEntity
  8
0
100
AcDbLine
 10
379.712
 20
143.5089155
 30
0.0
 11
380.442
 21
142.9749155
 31
0.0
  0
LINE
  5
D00
330
1E
100
AcDbEntity
  8
0
100
AcDbLine
 10
379.712
 20
143.618210020548
 30
0.0
 11
379.712
 21
143.5089155
 31
0.0
  0
LINE
  5
D01
330
1E
100
AcDbEntity
  8
0
100
AcDbLine
 10
378.448
 20
143.804754549394
 30
0.0
 11
378.448
 21
143.2009155
 31
0.0
  0
LINE
  5
D02
330
1E
100
AcDbEntity
  8
0
100
AcDbLine
 10
379.178
 20
176.3689155
 30
0.0
 11
379.178
 21
177.061384092731
 31
0.0
  0
LINE
  5
D03
330
1E
100
AcDbEntity
  8
0
100
AcDbLine
 10
379.178
 20
176.3689155
 30
0.0
 11
380.442
 21
176.0599155
 31
0.0
  0
LINE
  5
D04
330
1E
100
AcDbEntity
  8
0
100
AcDbLine
 10
379.178
 20
177.061384092731
 30
0.0
 11
379.178
 21
176.3689155
 31
0.0
  0
LINE
  5
D05
330
1E
100
AcDbEntity
  8
0
100
AcDbLine
 10
379.712
 20
175.5259155
 30
0.0
 11
380.442
 21
176.0599155
 31
0.0
  0
LINE
  5
D06
330
1E
100
AcDbEntity
  8
0
100
AcDbLine
 10
378.448
 20
175.8339155
 30
0.0
 11
378.448
 21
176.708017829916
 31
0.0
  0
LINE
  5
D07
330
1E
100
AcDbEntity
  8
0
100
AcDbLine
 10
378.448
 20
175.8339155
 30
0.0
 11
379.178
 21
176.3689155
 31
0.0
  0
LINE
  5
D08
330
1E
100
AcDbEntity
  8
0
100
AcDbLine
 10
378.448
 20
175.8339155
 30
0.0
 11
379.712
 21
175.5259155
 31
0.0
  0
LINE
  5
D09
330
1E
100
AcDbEntity
  8
0
100
AcDbLine
 10
378.448
 20
176.708017829916
 30
0.0
 11
378.448
 21
175.8339155
 31
0.0
  0
LINE
  5
D0A
330
1E
100
AcDbEntity
  8
0
100
AcDbLine
 10
377.64
 20
165.8849155
 30
0.0
 11
377.64
 21
166.5019155
 31
0.0
  0
LINE
  5
D0B
330
1E
100
AcDbEntity
  8
0
100
AcDbLine
 10
377.64
 20
166.5019155
 30
0.0
 11
377.64
 21
165.8849155
 31
0.0
  0
LINE
  5
D0C
330
1E
100
AcDbEntity
  8
0
100
AcDbLine
 10
377.64
 20
151.3379155
 30
0.0
 11
377.64
 21
152.220673598224
 31
0.0
  0
LINE
  5
D0D
330
1E
100
AcDbEntity
  8
0
100
AcDbLine
 10
377.64
 20
151.3379155
 30
0.0
 11
377.64
 21
150.7209155
 31
0.0
  0
LINE
  5
D0E
330
1E
100
AcDbEntity
  8
0
100
AcDbLine
 10
377.64
 20
152.220673598224
 30
0.0
 11
377.64
 21
151.3379155
 31
0.0
  0
LINE
  5
D0F
330
1E
100
AcDbEntity
  8
0
100
AcDbLine
 10
377.64
 20
150.7209155
 30
0.0
 11
377.64
 21
151.3379155
 31
0.0
  0
LINE
  5
D10
330
1E
100
AcDbEntity
  8
0
100
AcDbLine
 10
378.448
 20
143.2009155
 30
0.0
 11
378.448
 21
143.804754549394
 31
0.0
  0
LINE
  5
D11
330
1E
100
AcDbEntity
  8
0
100
AcDbLine
 10
378.448
 20
143.2009155
 30
0.0
 11
379.178
 21
142.6659155
 31
0.0
  0
LINE
  5
D12
330
1E
100
AcDbEntity
  8
0
100
AcDbLine
 10
378.448
 20
143.2009155
 30
0.0
 11
379.712
 21
143.5089155
 31
0.0
  0
LINE
  5
D13
330
1E
100
AcDbEntity
  8
0
100
AcDbLine
 10
385.091
 20
9.2229155
 30
0.0
 11
385.387
 21
9.2229155
 31
0.0
  0
LINE
  5
D14
330
1E
100
AcDbEntity
  8
0
100
AcDbLine
 10
385.387
 20
9.2229155
 30
0.0
 11
389.708
 21
8.9982855
 31
0.0
  0
LINE
  5
D15
330
1E
100
AcDbEntity
  8
0
100
AcDbLine
 10
384.504
 20
9.2229155
 30
0.0
 11
385.091
 21
9.2229155
 31
0.0
  0
LINE
  5
D16
330
1E
100
AcDbEntity
  8
0
100
AcDbLine
 10
383.63
 20
9.2229155
 30
0.0
 11
384.504
 21
9.2229155
 31
0.0
  0
LINE
  5
D17
330
1E
100
AcDbEntity
  8
0
100
AcDbLine
 10
384.335
 20
9.2229155
 30
0.0
 11
385.006
 21
9.2229155
 31
0.0
  0
LINE
  5
D18
330
1E
100
AcDbEntity
  8
0
100
AcDbLine
 10
385.006
 20
9.2229155
 30
0.0
 11
385.27
 21
9.2229155
 31
0.0
  0
LINE
  5
D19
330
1E
100
AcDbEntity
  8
0
100
AcDbLine
 10
382.48
 20
9.2229155
 30
0.0
 11
383.63
 21
9.2229155
 31
0.0
  0
LINE
  5
D1A
330
1E
100
AcDbEntity
  8
0
100
AcDbLine
 10
381.81
 20
9.2229155
 30
0.0
 11
383.264
 21
9.2229155
 31
0.0
  0
LINE
  5
D1B
330
1E
100
AcDbEntity
  8
0
100
AcDbLine
 10
383.264
 20
9.2229155
 30
0.0
 11
384.335
 21
9.2229155
 31
0.0
  0
LINE
  5
D1C
330
1E
100
AcDbEntity
  8
0
100
AcDbLine
 10
389.708
 20
8.9982855
 30
0.0
 11
390.446
 21
8.8287555
 31
0.0
  0
LINE
  5
D1D
330
1E
100
AcDbEntity
  8
0
100
AcDbLine
 10
391.271
 20
8.1491755
 30
0.0
 11
391.552921649406
 21
7.1056955
 31
0.0
  0
LINE
  5
D1E
330
1E
100
AcDbEntity
  8
0
100
AcDbLine
 10
390.446
 20
8.8287555
 30
0.0
 11
391.271
 21
8.1491755
 31
0.0
  0
LINE
  5
D1F
330
1E
100
AcDbEntity
  8
0
100
AcDbLine
 10
377.143
 20
9.3498355
 30
0.0
 11
378.474
 21
9.2229155
 31
0.0
  0
LINE
  5
D20
330
1E
100
AcDbEntity
  8
0
100
AcDbLine
 10
381.065
 20
9.2229155
 30
0.0
 11
382.48
 21
9.2229155
 31
0.0
  0
LINE
  5
D21
330
1E
100
AcDbEntity
  8
0
100
AcDbLine
 10
379.993
 20
9.2229155
 30
0.0
 11
381.81
 21
9.2229155
 31
0.0
  0
LINE
  5
D22
330
1E
100
AcDbEntity
  8
0
100
AcDbLine
 10
379.399
 20
9.2229155
 30
0.0
 11
381.065
 21
9.2229155
 31
0.0
  0
LINE
  5
D23
330
1E
100
AcDbEntity
  8
0
100
AcDbLine
 10
377.841
 20
9.2229155
 30
0.0
 11
379.993
 21
9.2229155
 31
0.0
  0
LINE
  5
D24
330
1E
100
AcDbEntity
  8
0
100
AcDbLine
 10
377.5
 20
9.2229155
 30
0.0
 11
379.399
 21
9.2229155
 31
0.0
  0
ENDSEC
  0
SECTION
  2
OBJECTS
  0
DICTIONARY
  5
C
330
0
100
AcDbDictionary
281
     1
  3
ACAD_GROUP
350
D
  3
ACAD_LAYOUT
350
19
  3
ACAD_MLEADERSTYLE
350
D27
  3
ACAD_MLINESTYLE
350
16
  3
ACAD_PLOTSETTINGS
350
18
  3
ACAD_PLOTSTYLENAME
350
E
  3
ACAD_SCALELIST
350
310
  3
ACDBVARIABLEDICTIONARY
350
2E7
  3
DWGPROPS
350
D2A
  0
DICTIONARY
  5
D
102
{ACAD_REACTORS
330
C
102
}
330
C
100
AcDbDictionary
281
     1
  0
DICTIONARY
  5
19
102
{ACAD_REACTORS
330
C
102
}
330
C
100
AcDbDictionary
281
     1
  3
Layout1
350
30F
  3
Model
350
30E
  0
DICTIONARY
  5
D27
102
{ACAD_REACTORS
330
C
102
}
330
C
100
AcDbDictionary
281
     1
  0
DICTIONARY
  5
16
102
{ACAD_REACTORS
330
C
102
}
330
C
100
AcDbDictionary
281
     1
  3
STANDARD
350
17
  0
DICTIONARY
  5
18
102
{ACAD_REACTORS
330
C
102
}
330
C
100
AcDbDictionary
281
     1
  0
ACDBDICTIONARYWDFLT
  5
E
102
{ACAD_REACTORS
330
C
102
}
330
C
100
AcDbDictionary
281
     1
  3
Normal
350
F
100
AcDbDictionaryWithDefault
340
F
  0
DICTIONARY
  5
310
102
{ACAD_REACTORS
330
C
102
}
330
C
100
AcDbDictionary
281
     1
  3
A0
350
311
  3
A1
350
312
  3
A2
350
313
  3
A3
350
314
  3
A4
350
315
  3
A5
350
316
  3
A6
350
317
  3
A7
350
318
  3
A8
350
319
  3
A9
350
31A
  3
B0
350
31B
  3
B1
350
31C
  3
B2
350
31D
  3
B3
350
31E
  3
B4
350
31F
  3
B5
350
320
  3
B6
350
321
  3
B7
350
322
  3
B8
350
323
  3
B9
350
324
  3
C0
350
325
  3
C1
350
326
  3
C2
350
327
  3
C3
350
328
  3
C4
350
329
  3
C5
350
32A
  3
C6
350
32B
  3
C7
350
32C
  3
C8
350
32D
  3
C9
350
32E
  3
D0
350
32F
  3
D1
350
330
  3
D2
350
331
  0
DICTIONARY
  5
2E7
102
{ACAD_REACTORS
330
C
102
}
330
C
100
AcDbDictionary
281
     1
  3
CANNOSCALE
350
D28
  3
DIMASSOC
350
2E8
  0
XRECORD
  5
D2A
102
{ACAD_REACTORS
330
C
102
}
330
C
100
AcDbXrecord
280
     1
  1
DWGPROPS COOKIE
  2

  3

  4

  6

  7

  8
MARTIN
  9

300
=
301
=
302
=
303
=
304
=
305
=
306
=
307
=
308
=
309
=
 40
0.0
 41
2454690.747009178
 42
2456209.639091968
  1

 90
        0
  0
LAYOUT
  5
30F
102
{ACAD_REACTORS
330
19
102
}
330
19
100
AcDbPlotSettings
  1

  2
none_device
  4

  6

 40
0.0
 41
0.0
 42
0.0
 43
0.0
 44
0.0
 45
0.0
 46
0.0
 47
0.0
 48
0.0
 49
0.0
140
0.0
141
0.0
142
1.0
143
1.0
 70
   688
 72
     0
 73
     0
 74
     5
  7

 75
    16
147
1.0
148
0.0
149
0.0
100
AcDbLayout
  1
Layout1
 70
     1
 71
     1
 10
0.0
 20
0.0
 11
0.0
 21
0.0
 12
0.0
 22
0.0
 32
0.0
 14
0.0
 24
0.0
 34
0.0
 15
0.0
 25
0.0
 35
0.0
146
0.0
 13
0.0
 23
0.0
 33
0.0
 16
1.0
 26
0.0
 36
0.0
 17
0.0
 27
1.0
 37
0.0
 76
     0
330
1A
  0
LAYOUT
  5
30E
102
{ACAD_REACTORS
330
19
102
}
330
19
100
AcDbPlotSettings
  1

  2
none_device
  4

  6

 40
0.0
 41
0.0
 42
0.0
 43
0.0
 44
0.0
 45
0.0
 46
0.0
 47
0.0
 48
0.0
 49
0.0
140
0.0
141
0.0
142
1.0
143
1.0
 70
   688
 72
     0
 73
     0
 74
     5
  7

 75
    16
147
1.0
148
0.0
149
0.0
100
AcDbLayout
  1
Model
 70
     1
 71
     0
 10
0.0
 20
0.0
 11
0.0
 21
0.0
 12
0.0
 22
0.0
 32
0.0
 14
0.0105
 24
0.0
 34
0.0
 15
407.0
 25
202.0909155
 35
0.0
146
0.0
 13
0.0
 23
0.0
 33
0.0
 16
1.0
 26
0.0
 36
0.0
 17
0.0
 27
1.0
 37
0.0
 76
     0
330
1E
331
2E9
  0
MLINESTYLE
  5
17
102
{ACAD_REACTORS
330
16
102
}
330
16
100
AcDbMlineStyle
  2
STANDARD
 70
     0
  3

 62
   256
 51
90.0
 52
90.0
 71
     2
 49
0.5
 62
   256
  6
BYLAYER
 49
-0.5
 62
   256
  6
BYLAYER
  0
ACDBPLACEHOLDER
  5
F
102
{ACAD_REACTORS
330
E
102
}
330
E
  0
SCALE
  5
311
102
{ACAD_REACTORS
330
310
102
}
330
310
100
AcDbScale
 70
     0
300
1:1
140
1.0
141
1.0
290
     1
  0
SCALE
  5
312
102
{ACAD_REACTORS
330
310
102
}
330
310
100
AcDbScale
 70
     0
300
1:2
140
1.0
141
2.0
290
     0
  0
SCALE
  5
313
102
{ACAD_REACTORS
330
310
102
}
330
310
100
AcDbScale
 70
     0
300
1:4
140
1.0
141
4.0
290
     0
  0
SCALE
  5
314
102
{ACAD_REACTORS
330
310
102
}
330
310
100
AcDbScale
 70
     0
300
1:5
140
1.0
141
5.0
290
     0
  0
SCALE
  5
315
102
{ACAD_REACTORS
330
310
102
}
330
310
100
AcDbScale
 70
     0
300
1:8
140
1.0
141
8.0
290
     0
  0
SCALE
  5
316
102
{ACAD_REACTORS
330
310
102
}
330
310
100
AcDbScale
 70
     0
300
1:10
140
1.0
141
10.0
290
     0
  0
SCALE
  5
317
102
{ACAD_REACTORS
330
310
102
}
330
310
100
AcDbScale
 70
     0
300
1:16
140
1.0
141
16.0
290
     0
  0
SCALE
  5
318
102
{ACAD_REACTORS
330
310
102
}
330
310
100
AcDbScale
 70
     0
300
1:20
140
1.0
141
20.0
290
     0
  0
SCALE
  5
319
102
{ACAD_REACTORS
330
310
102
}
330
310
100
AcDbScale
 70
     0
300
1:30
140
1.0
141
30.0
290
     0
  0
SCALE
  5
31A
102
{ACAD_REACTORS
330
310
102
}
330
310
100
AcDbScale
 70
     0
300
1:40
140
1.0
141
40.0
290
     0
  0
SCALE
  5
31B
102
{ACAD_REACTORS
330
310
102
}
330
310
100
AcDbScale
 70
     0
300
1:50
140
1.0
141
50.0
290
     0
  0
SCALE
  5
31C
102
{ACAD_REACTORS
330
310
102
}
330
310
100
AcDbScale
 70
     0
300
1:100
140
1.0
141
100.0
290
     0
  0
SCALE
  5
31D
102
{ACAD_REACTORS
330
310
102
}
330
310
100
AcDbScale
 70
     0
300
2:1
140
2.0
141
1.0
290
     0
  0
SCALE
  5
31E
102
{ACAD_REACTORS
330
310
102
}
330
310
100
AcDbScale
 70
     0
300
4:1
140
4.0
141
1.0
290
     0
  0
SCALE
  5
31F
102
{ACAD_REACTORS
330
310
102
}
330
310
100
AcDbScale
 70
     0
300
8:1
140
8.0
141
1.0
290
     0
  0
SCALE
  5
320
102
{ACAD_REACTORS
330
310
102
}
330
310
100
AcDbScale
 70
     0
300
10:1
140
10.0
141
1.0
290
     0
  0
SCALE
  5
321
102
{ACAD_REACTORS
330
310
102
}
330
310
100
AcDbScale
 70
     0
300
100:1
140
100.0
141
1.0
290
     0
  0
SCALE
  5
322
102
{ACAD_REACTORS
330
310
102
}
330
310
100
AcDbScale
 70
     0
300
1/128" = 1'-0"
140
0.0078125
141
12.0
290
     0
  0
SCALE
  5
323
102
{ACAD_REACTORS
330
310
102
}
330
310
100
AcDbScale
 70
     0
300
1/64" = 1'-0"
140
0.015625
141
12.0
290
     0
  0
SCALE
  5
324
102
{ACAD_REACTORS
330
310
102
}
330
310
100
AcDbScale
 70
     0
300
1/32" = 1'-0"
140
0.03125
141
12.0
290
     0
  0
SCALE
  5
325
102
{ACAD_REACTORS
330
310
102
}
330
310
100
AcDbScale
 70
     0
300
1/16" = 1'-0"
140
0.0625
141
12.0
290
     0
  0
SCALE
  5
326
102
{ACAD_REACTORS
330
310
102
}
330
310
100
AcDbScale
 70
     0
300
3/32" = 1'-0"
140
0.09375
141
12.0
290
     0
  0
SCALE
  5
327
102
{ACAD_REACTORS
330
310
102
}
330
310
100
AcDbScale
 70
     0
300
1/8" = 1'-0"
140
0.125
141
12.0
290
     0
  0
SCALE
  5
328
102
{ACAD_REACTORS
330
310
102
}
330
310
100
AcDbScale
 70
     0
300
3/16" = 1'-0"
140
0.1875
141
12.0
290
     0
  0
SCALE
  5
329
102
{ACAD_REACTORS
330
310
102
}
330
310
100
AcDbScale
 70
     0
300
1/4" = 1'-0"
140
0.25
141
12.0
290
     0
  0
SCALE
  5
32A
102
{ACAD_REACTORS
330
310
102
}
330
310
100
AcDbScale
 70
     0
300
3/8" = 1'-0"
140
0.375
141
12.0
290
     0
  0
SCALE
  5
32B
102
{ACAD_REACTORS
330
310
102
}
330
310
100
AcDbScale
 70
     0
300
1/2" = 1'-0"
140
0.5
141
12.0
290
     0
  0
SCALE
  5
32C
102
{ACAD_REACTORS
330
310
102
}
330
310
100
AcDbScale
 70
     0
300
3/4" = 1'-0"
140
0.75
141
12.0
290
     0
  0
SCALE
  5
32D
102
{ACAD_REACTORS
330
310
102
}
330
310
100
AcDbScale
 70
     0
300
1" = 1'-0"
140
1.0
141
12.0
290
     0
  0
SCALE
  5
32E
102
{ACAD_REACTORS
330
310
102
}
330
310
100
AcDbScale
 70
     0
300
1-1/2" = 1'-0"
140
1.5
141
12.0
290
     0
  0
SCALE
  5
32F
102
{ACAD_REACTORS
330
310
102
}
330
310
100
AcDbScale
 70
     0
300
3" = 1'-0"
140
3.0
141
12.0
290
     0
  0
SCALE
  5
330
102
{ACAD_REACTORS
330
310
102
}
330
310
100
AcDbScale
 70
     0
300
6" = 1'-0"
140
6.0
141
12.0
290
     0
  0
SCALE
  5
331
102
{ACAD_REACTORS
330
310
102
}
330
310
100
AcDbScale
 70
     0
300
1'-0" = 1'-0"
140
12.0
141
12.0
290
     0
  0
DICTIONARYVAR
  5
D28
102
{ACAD_REACTORS
330
2E7
102
}
330
2E7
100
DictionaryVariables
280
     0
  1
1:1
  0
DICTIONARYVAR
  5
2E8
102
{ACAD_REACTORS
330
2E7
102
}
330
2E7
100
DictionaryVariables
280
     0
  1
1
  0
ENDSEC
  0
SECTION
  2
THUMBNAILIMAGE
 90
    16364
310
28000000B40000005500000001000800000000000000000000000000000000000000000000000000FFFFFF000000FF0000FFFF0000FF0000FFFF0000FF000000FF00FF000000000080808000C0C0C0000000FF007F7FFF000000A5005252A50000007F003F3F7F0000004C0026264C000000260013132600003FFF007F9FFF
310
000029A5005267A500001F7F003F4F7F0000134C00262F4C000009260013172600007FFF007FBFFF000052A500527CA500003F7F003F5F7F0000264C0026394C0000132600131C260000BFFF007FDFFF00007CA5005291A500005F7F003F6F7F0000394C0026424C00001C26001321260000FFFF007FFFFF0000A5A50052A5
310
A500007F7F003F7F7F00004C4C00264C4C00002626001326260000FFBF007FFFDF0000A57C0052A59100007F5F003F7F6F00004C3900264C420000261C001326210000FF7F007FFFBF0000A5520052A57C00007F3F003F7F5F00004C2600264C39000026130013261C0000FF3F007FFF9F0000A5290052A56700007F1F003F
310
7F4F00004C1300264C2F00002609001326170000FF00007FFF7F0000A5000052A55200007F00003F7F3F00004C0000264C260000260000132613003FFF00009FFF7F0029A5000067A552001F7F00004F7F3F00134C00002F4C260009260000172613007FFF0000BFFF7F0052A500007CA552003F7F00005F7F3F00264C0000
310
394C2600132600001C261300BFFF0000DFFF7F007CA5000091A552005F7F00006F7F3F00394C0000424C26001C26000021261300FFFF0000FFFF7F00A5A50000A5A552007F7F00007F7F3F004C4C00004C4C26002626000026261300FFBF0000FFDF7F00A57C0000A59152007F5F00007F6F3F004C3900004C422600261C00
310
0026211300FF7F0000FFBF7F00A5520000A57C52007F3F00007F5F3F004C2600004C39260026130000261C1300FF3F0000FF9F7F00A5290000A56752007F1F00007F4F3F004C1300004C2F26002609000026171300FF000000FF7F7F00A5000000A55252007F0000007F3F3F004C0000004C2626002600000026131300FF00
310
3F00FF7F9F00A5002900A55267007F001F007F3F4F004C0013004C262F002600090026131700FF007F00FF7FBF00A5005200A5527C007F003F007F3F5F004C0026004C2639002600130026131C00FF00BF00FF7FDF00A5007C00A55291007F005F007F3F6F004C0039004C26420026001C0026132100FF00FF00FF7FFF00A5
310
00A500A552A5007F007F007F3F7F004C004C004C264C002600260026132600BF00FF00DF7FFF007C00A5009152A5005F007F006F3F7F0039004C0042264C001C002600211326007F00FF00BF7FFF005200A5007C52A5003F007F005F3F7F0026004C0039264C00130026001C1326003F00FF009F7FFF002900A5006752A500
310
1F007F004F3F7F0013004C002F264C000900260017132600000000002D2D2D005B5B5B0089898900B7B7B700B3B3B30000000000000000000000000000000000000000000000000000000000000000000000000000000000000000000000000000000000000000000000000000000000000000000000000000000000000000
310
00000000000000000000000000000000000000000000000000000000000000000000000000000000000000000000000000000000000000000000000000000000000000000000000000000000000000000000000000000000000000000000000000000000000000000000000000000000000000000000000000000000000000
310
00000000000000000000000000000000000000000000000000000000000000000000000000000000000000000000000000000000000000000000000000000000000000000000000000000000000000000000000000000000000000000000000000000000000000000000000000000000000000000000000000000000000000
310
00000000000000000000000000000000000000000000000000000000000000000000000000000000000000000000000000000000000000000000000000000000000000000000000000000000000000000000000000000000000000000000000000000000000000000000000000000000000000000000000000000000000000
310
00000000000000000000000000000000000000000000000000000000000000000000000000000000000000000000000000000000000000000000000000000000000000000000000000000000000000000000000000000000000000000007070707070707070707070707070707070707070000000000000000000000000000
310
00000000000707070707070707070707070707070707070707070707070707000000000000000000000000000000000000000707070707070707070707070707070707070707000000000000000000000000000000000000000707070707070707070707070707070707070707070707070707000000000000000000000000
310
00000000000000000000000000000000000000070000000000000000000000000000000000000700000000000000000000000000000000000000070000000000000000000000000000000000000000000000000700000000000000000000000000000000000000070000000000000000000000000000000000000700000000
310
00000000000000000000000000000007000000000000000000000000000000000000000000000000000700000000000000000000000000000000000000000000000000000000000007000000000000000000000000000000000000070000000000000000000000000000000000000007000000000000000000000000000000
310
00000000000000000007000000000000000000000000000000000000000700000000000000000000000000000000000007000000000000000000000000000000000000000700000000000000000000000000000000000000000000000000070000000000000000000000000000000000000000000000000000000000000700
310
00000000000000000000000000000000000700000000000000000000000000000000000000070000000000000000000000000000000000000000000000000700000000000000000000000000000000000000070000000000000000000000000000000000000700000000000000000000000000000000000000070707070707
310
07070707070707070707070707070707070707070700000000000000000000000000000000000000000000000000000000000007000000000000000000000000000000000000070000000000000000000000000000000000000007000000000000000000000000000000000000000000000000070000000000000000000000
310
00000000000000000700000000000000000000000000000000000007000000000000000000000000000000000000000000000000000707000000000000000000000007070000000000000000000000000000000000000000000000000000000000000000000000000700000000000000000000000000000000000007000000
310
00000000000000000000000000000000070000000000000000000000000000000000000000000000000700000000000000000000000000000000000000070000000000000000000000000000000000000700000000000000000000000000000000000000000000000000000700000000000000000000000700000000000000
310
00000000000000000000000000000000000000000000000000000000000007000000000000000000000000000000000000070000000000000000000000000000000000000007000000000000000000000000000000000000000000000000070000000000000000000000000000000000000007000000000000000000000000
310
00000000000007000000000000000000000000000000000000000000000000000007000000000000000000000007000000000000000000000000000000000000000000000000000000000000000000000000000700000000000000000000000000000000000007000000000000000000000000000000000000000700000000
310
00000000000000000000000000000000000000000700000000000000000000000000000000000000070000000000000000000000000000000000000700000000000000000000000000000000000000000000000000000700000000000000000000000700000000000000000000000000000000000000000000000000000000
310
00000000000000000007000000000000000000000000000000000000070000000000000000000000000000000000000007000000000000000000000000000000000000000000000000070000000000000000000000000000000000000007000000000000000000000000000000000000070000000000000000000000000000
310
00000000000000000000000007000000000000000000000007000000000000000000000000000000000000000000000000000000000000000000000000000700000000000000000000000000000000000007000000000000000000000000000000000000000700000000000000000000000000000000000000000000000007
310
00000000000000000000000000000000000000070000000000000000000000000000000000000700000000000000000000000000000000000000000000000000000700000000000000000000000700000000000000000000000000000000000000000000000000000000000000000000000000070000000000000000000000
310
00000000000000070000000000000000000000000000000000000007000000000000000000000000000000000000000000000000070000000000000000000000000000000000000007000000000000000000000000000000000000070000000000000000000000000000000000000000000000000000070000000000000000
310
00000007000000000000000000000000000000000000000000000000000000000000000000000000000700000000000000000000000000000000000007000000000000000000000000000000000000000700000000000000000000000000000000000000000000000007000000000000000000000000000000000000000700
310
00000000000000000000000000000000000700000000000000000000000000000000000000000000000000000700000000000000000000000700000000000000000000000000000000000000000000000000000000000000000000000000070000000000000000000000000000000000000700000000000000000000000000
310
00000000000007000000000000000000000000000000000000000000000000070000000000000000000000000000000000000007000000000000000000000000000000000000070000000000000000000000000000000000000000000000000000070000000000000000000000070000000000000000000000000000000000
310
00000000000000000000000000000000000000000700000000000000000000000000000000000007000000000000000000000000000000000000000700000000000000000000000000000000000000000000000007000000000000000000000000000000000000000700000000000000000000000000000000000007000000
310
00000000000000000000000000000000000000000000000700000707070707070700000700000000000000000000000000000000000000000000000000000000000000000000000000070000000000000000000000000000000000000700000000000000000000000000000000000000070000000000000000000000000000
310
00000000000000000000070000000000000000000000000000000000000007000000000000000000000000000000000000070000000000000000000000000000000000000000000000000000070007070000000007070700070000000000000000000000000000000000000000000000000000000000000000000000000007
310
00000000000000000000000000000000000007000000000000000000000000000000000000000700000000000000000000000000000000000000000000000007000000000000000000000000000000000000000700000000000000000000000000000000000007000000000000000000000000000000000000000000000000
310
00000707000000000000000000070700000000000000000000000000000000000000000000000000000000000000000000000007070000000000000007070700000000000000000707000000000000000000000000000000000000070000000000000000000000000000000000000000000000000700000000000000000000
310
00000000000000000707000000000000000007070000000000000000070700000000000000000000000000000000000000000000000000070000000000000000000000070000000000000000000000000000000000000000000000000000000000000000000000000707000000000000000707070000000000000000070700
310
00000000000000000000000000000000000700000000000000000000000000000000000000000000000007000000000000000000000000000000000000070700000000000000000707000000000000000007070000000000000000000000000000000000000000000000000007000000000000000000000007000000000000
310
00000000000000000000000000000000000000000000000000000000000000070000000000000000000000000000000000000700000000000000000000000000000000000000070000000000000000000000000000000000000000000000000700000000000000000000000000000000000000070000000000000000000000
310
00000000000000070000000000000000000000000000000000000000000000000000070000000000000000000000070000000000000000000000000000000000000000000000000000000000000000000000000007070707070707070707070707070707070707070000000000000000000000000000000000000007000000
310
00000000000000000000000000000000000000000007000000000000000000000000000000000000000707070707070707070707070707070707070707000000000000000000000000000000000000000000000000000007000007070707070707000007000000000000000000000000000000000000000000000000000000
310
00000000000000000000000000000000000000000000000000000000000000000000000000000000000000000000000000070000000000000000000000000000000000000000000000000700000000000000000000000000000000000000000000000000000000000000000000000000000000000000000000000000000000
310
00000000000000000000000000070707000007070700000700070000000000000000000000000000000000000000000000000000000000000000000000000000000000000000000000000000000000000000000000000000000000000000000000000000000007000000000000000000000000000000000000000000000000
310
07000000000000000000000000000000000000000000000000000000000000000000000000000000000000000000000000000000000000000000000000000000000007070007070000000707000707000000000000000000000000000000000000000000000000000000000000000000000000000000000000000000000000
310
00000000000000000000000000000000000000000000000000000000070000000000000000000000000000000000000000000000000700000000000000000000000000000000000000000000000000000000000000000000000000000000000000000000000000000000000000000000000000000000000700070000000000
310
00000700070000000000000000000000000000000000000000000000000000000000000000000000000000000000000000000000000000000000000000000000000000000000000000000000000000000007000000000000000000000000000000000000000000000000070000000000000000000000000000000000000000
310
00000000000000000000000000000000000000000000000000000000000000000000000000000000000000000007070000000000000000000707000000000000000000000000000000000000000000000000000000000000000000000000000000000000000000000000000000000000000000000000000000000000000000
310
00000000000000070000000000000000000000000000000000000000000000070000000000000000000000000000000000000000000000000000000000000000000000000000000000000000000000000000000000000000000000000000000000000707000000000000000000070700000000000000000000000000000000
310
00000000000000000000000000000000000000000000000000000000000000000000000000000000000000000000000000000000000000000000000007000000000000000000000000000000000000000000000007000000000000000000000000000000000000000000000000000000000000000000000000000000000000
310
00000000000000000000000000000000000000000000000000070000000000000000000700000000000000000000000000000000000000000000000000000000000000000000000000000000000000000000000000000000000000000000000000000000000000000000000000000000000700000000000000000000000000
310
00000000000000000000070000000000000000000000000000000000000000000000000000000000000000000000000000000000000000000000000000000000000000000000000000000000000007000000000000000000070000000000000000000000000000000000000000000000000000000000000000000000000000
310
00000000000000000000000000000000000000000000000000000000000000000000000000000007000000000000000000000000000000000000000000000007000000000000000000000000000000000000000000000000000000000000000000000000000000000000000000000000000000000000000000000000000000
310
00000000070000000000000000000700000000000000000000000000000000000000000000000000000000000000000000000000000000000000000000000000000000000000000000000000000000000000000000000000000000000700000000000000000000000000000000000000000000000700000000000000000000
310
00000000000000000000000000000000000000000000000000000000000000000000000000000000000000000000000000000000000000000007000000000000000000070000000000000000000000000000000000000000000000000000000000000000000000000000000000000000000000000000000000000000000000
310
00000000000000000000000000000000000007000000000000000000000000000000000000000000000007000000000000000000000000000000000000000000000000000000000000000000000000000000000000000000000000000000000000000000000000000000000000000700000000000000000007000000000000
310
00000000000000000000000000000000000000000000000000000000000000000000000000000000000000000000000000000000000000000000000000000000000000000000000700000000000000000000000000000000000000000000000700000000000000000000000000000000000000000000000000000000000000
310
00000000000000000000000000000000000000000000000000000000000000000000000007000000000000000000070000000000000000000000000000000000000000000000000000000000000000000000000000000000000000000000000000000000000000000000000000000000000000000000000000000000070000
310
00000000000000000000000000000000000000000007000000000000000000000000000000000000000000000000000000000000000000000000000000000000000000000000000000000000000000000000000000000000000700000000000000000007000000000000000000000000000000000000000000000000000000
310
00000000000000000000000000000000000000000000000000000000000000000000000000000000000000000000000000000700000000000000000000000000000000000000000000000700000000000000000000000000000000000000000000000000000000000000000000000000000000000000000000000000000000
310
00000000000000000000000000000007000000000000000000070000000000000000000000000000000000000000000000000000000000000000000000000000000000000000000000000000000000000000000000000000000000000000000000000000000000000700000000000000000000000000000000000000000000
310
07000000000000000000000000000000000000000000000000000000000000000000000000000000000000000000000000000000000000000000000000000000000000000700000000000000000007000000000000000000000000000000000000000000000000000000000000000000000000000000000000000000000000
310
00000000000000000000000000000000000000000000000000000000000007000000000000000000000000000000000000000000000700000000000000000000000000000000000000000000000000000000000000000000000000000000000000000000000000000000000000000000000000000000000000070000000000
310
00000000070000000000000000000000000000000000000000000000000000000000000000000000000000000000000000000000000000000000000000000000000000000000000000000000000000000000000700000000000000000000000000000000000000000000070000000000000000000000000000000000000000
310
00000000000000000000000000000000000000000000000000000000000000000000000000000000000000000000000700000000000000000007000000000000000000000000000000000000000000000000000000000000000000000000000000000000000000000000000000000000000000000000000000000000000000
310
00000000000000000007000000000000000000000000000000000000000000000700000000000000000000000000000000000000000000000000000000000000000000000000000000000000000000000000000000000000000000000000000000000000070000000000000000000700000000000000000000000000000000
310
00000000000000000000000000000000000000000000000000000000000000000000000000000000000000000000000000000000000000000000000000000700000000000000000000000000000000000000000000070000000000000000000000000000000000000000000000000000000000000000000000000000000000
310
00000000000000000000000000000000000000000000000000000700000000000000000007000000000000000000000000000000000000000000000000000000000000000000000000000000000000000000000000000000000000000000000000000000000000000000000000000000000000070000000000000000000000
310
00000000000000000000000700000000000000000000000000000000000000000000000000000000000000000000000000000000000000000000000000000000000000000000000000000000000000070000000000000000000700000000000000000000000000000000000000000000000000000000000000000000000000
310
00000000000000000000000000000000000000000000000000000000000000000000000000000000000700000000000000000000000000000000000000000000070000000000000000000000000000000000000000000000000000000000000000000000000000000000000000000000000000000000000000000000000000
310
00000000000700000000000000000007000000000000000000000000000000000000000000000000000000000000000000000000000000000000000000000000000000000000000000000000000000000000000000000000000000000000070000000000000000070707070707000000000000000700000000000000000000
310
00000000000000000000000000000000000000000000000000000000000000000000000000000000000000000000000000000000000000000000070000000000000000000700000000000000000000000000000000000000000000000000000000000000000000000000000000000000000000000000000000000000000000
310
00000000000000000000000000000000000000000700000000000000070000000000000700000000000007000000000000000000000000000000000000000000000000000000000000000000000000000000000000000000000000000000000000000000000000000000000000000007000000000000000000070000000000
310
00000000000000000000000000000000000000000000000000000000000000000000000000000000000000000000000000000000000000000000000000000000000000000000000000070000000000070700000000000000000700000000000700000000000000000000000000000000000000000000000000000000000000
310
00000000000000000000000000000000000000000000000000000000000000000000000000070000000000000000000700000000000000000000000000000000000000000000000000000000000000000000000000000000000000000000000000000000000000000000000000000000000000000000000000000000000007
310
00000000000700000707070707070007000000000007000000000000000000000000000000000000000000000000000000000000000000000000000000000000000000000000000000000000000000000000000000000000000007000000000000000000070000000000000000000000000000000000000000000000000000
310
00000000000000000000000000000000000000000000000000000000000000000000000000000000000000000000000000000000070000000000070007000000000000070007000000000700000000000000000000000000000000000000000000000000000000000000000000000000000000000000000000000000000000
310
00000000000000000000000000000000070000000000000000000700000000000000000000000000000000000000000000000000000000000000000000000000000000000000000000000000000000000000000000000000000000000000000000000000000000000007000000000007000700000000000000070700000000
310
07000000000000000000000000000000000000000000000000000000000000000000000000000000000000000000000000000000000000000000000000000000000000000007000000000000000000070000000000000000000000000000000000000000000000000000000000000000000000000000000000000000000000
310
00000000000000000000000000000000000000000000000000000000000000000700000000070707000000000000070000000000000700000000000000000000000000000000000000000000000000000000000000000000000000000000000000000000000000000000000000000000000000000000000000000700000007
310
07070000000700000000000000000000000000000000000000000000000000000000000000000000000000000000000000000000000000000000000000000000000000000000000000000000000000000000000000070000000007000707000000070707070700000000070000000000000000000000000000000000000000
310
00000000000000000000000000000000000000000000000000000000000000000000000000000000000000000000000007000007000000070000070000000000000000000000000000000000000000000000000000000000000000000000000000000000000000000000000000000000000000000000000000000000000000
310
00000000000000000000000700000000070000000707070700000707000000000700000000000000000000000000000000000000000000000000000000000000000000000000000000000000000000000000000000000000000000000000000000000000000700070707070707070007000000000000000000000000000000
310
00000000000000000000000000000000000000000000000000000000000000000000000000000000000000000000000000000000000000000000000000000000070000000007070700000000000007070700000000070000000000000000000000000000000000000000000000000000000000000000000000000000000000
310
00000000000000000000000000000000000000000000000000000007070707000000070707070000000000000000000000000000000000000000000000000000000000000000000000000000000000000000000000000000000000000000000000000000000000000000000000000000000000000000070000000700000707
310
07070707000007000000070000000000000000000000000000000000000000000000000000000000000000000000000000000000000000000000000000000000000000000000000000000000000000000707070000000000070707000000000000000000000000000000000000000000000000000000000000000000000000
310
00000000000000000000000000000000000000000000000000000000000000000000000000000000000000000700000700000000000000000000000700000007000000000000000000000000000000000000000000000000000000000000000000000000000000000000000000000000000000000000000000000000000000
310
00000000000007000700000000000700070000000000000000000000000000000000000000000000000000000000000000000000000000000000000000000000000000000000000000000000000000000000000000000000000000000000000000070000070000000000000000000000000700000700000000000000000000
310
00000000000000000000000000000000000000000000000000000000000000000000000000000000000000000000000000000000000000000000000007070000070000070700000000000000000000000000000000000000000000000000000000000000000000000000000000000000000000000000000000000000000000
310
00000000000000000000000000000000000000000000000700070000000000000000000000000007000007000000000000000000000000000000000000000000000000000000000000000000000000000000000000000000000000000000000000000000000000000000000000000000000707070707070707070000000000
310
00000000000000000000000000000000000000000000000000000000000000000000000000000000000000000000000000000000000000000000000000000000000000000000000000000000070007000000000000000000000000000000000700000000000000000000000000000000000000000000000000000000000000
310
00000000000000000000000000000000000000000000000000000000000000000007070707070707070707070707070707070707070700000000000000000000000000000000000000000000000000000000000000000000000000000000000000000000000000000000000000000000000000000000000000000000000000
310
00000700000000000000000000000000000000000007000000000000000000000000000000000000000000000000000000000000000000000000000000000000000000000000000000000000000000000000000007070707070007000707000707000007070000000707070707000000000000000000000000000000000000
310
00000000000000000000000000000000000000000000000000000000000000000000000000000000000000000000000000000000000000070000000000000000000000000000000000070000000000000000000000000000000000000000000000000000000000000000000000000000000000000000000000000000000000
310
00000000000000070707070707070007000007070700000707000700000700070707070707070000000000000000000000000000000000000000000000000000000000000000000000000000000000000000000000000000000000000000000000000000000000000000000000070000000000000000000000000000000007
310
00000000000000000000000000000000000000000000000000000000000000000000000000000000000000000000000000000000000000000000000700070700000707000007070007070007000700000707000007070000070700070000000000000000000000000000000000000000000000000000000000000000000000
310
00000000000000000000000000000000000000000000000000000000000000000000000007000000000000000000000000000007000000000000000000000000000000000000000000000000000000000000000000000000000000000000000000000000000000000000000000000007070700000707000007070000070700
310
07070000070700000707000007070000070707000000000000000000000000000000000000000000000000000000000000000000000000000000000000000000000000000000000000000000000000000000000000000000000700000000000000000000000000070000000000000000000000000000000000000000000000
310
00000000000000000000000000000000000000000000000000000000000000000000000007070700070700000707000007000707070707070707070007000007070000070700070707000000000000000000000000000000000000000000000000000000000000000000000000000000000000000000000000000000000000
310
00000000000000000000000000000000070700000000000000000000070000000000000000000000000000000000000000000000000000000000000000000000000000000000000000000000000000000000000000000000070700000007070000070700070000070707070007070707000007000707000007070000000707
310
00000000000000000000000000000000000000000000000000000000000000000000000000000000000000000000000000000000000000000000000000000000000000000000000707070000000707070700000000000000000000000000000000000000000000000000000000000000000000000000000000000000000000
310
00000000000000000000000000000707070000070000070700000700000000070707070700000000070000070700000700000707070000000000000000000000000000000000000000000000000000000000000000000000000000000000000000000000000000000000000000000000000000000000000000000000000000
310
07070700000000000000000000000000000000000000000000000000000000000000000000000000000000000000000000000000000000000000000000000000000000070707070007070000070700000700000000070707000000000700000707000007070007070707000000000000000000000000000000000000000000
310
00000000000000000000000000000000000000000000000000000000000000000000000000000000000000000000000000000000000000000000000000000000000000000000000000000000000000000000000000000000000000000000000000000000000000000000000000000000000000000000000007070707000700
310
00000707070700000707000707000007070000070707070000000700070707070000000000000000000000000000000000000000000000000000000000000000000000000000000000000000000000000000000000000000000000000000000000000000000000000000000000000000000000000000000000000000000000
310
00000000000000000000000000000000000000000000000000000000000000000000000000000000000000000000070007070700000707000007070007000700000700000700070007070000070700000707070007000000000000000000000000000000000000000000000000000000000000000000000000000000000000
310
00000000000000000000000000000000000000000000000000000000000000000000000000000000000000000000000000000000000000000000000000000000000000000000000000000000000000000000000000000000000000000000000000000007070007000707070007070000070700070700000707000007070000
310
07070007070700070007070000000000000000000000000000000000000000000000000000000000000000000000000000000000000000000000000000000000000000000000000000000000000000000000000000000000000000000000000000000000000000000000000000000000000000000000000000000000000000
310
00000000000000000000000000000000000000000000000000070007000707070007000000070000070700070000000707000007000000070007070700070007000000000000000000000000000000000000000000000000000000000000000000000000000000000000000000000000000000000000000000000000000000
310
00000000000000000000000000000000000000000000000000000000000000000000000000000000000000000000000000000000000000000000000000000000000000000000000000000000000007000007070707070700070700000007070007000000070000000007070007070707070700000700000000000000000000
310
00000000000000000000000000000000000000000000000000000000000000000000000000000000000000000000000000000000000000000000000000000000000000000000000000000000000000000000000000000000000000000000000000000000000000000000000000000000000000000000000000000000000000
310
00000000070000000000070707070707070700000707000007000000070707070707070707000000000007000000000000000000000000000000000000000000000000000000000000000000000000000000000000000000000000000000000000000000000000000000000000000000000000000000000000000000000000
310
00000000000000000000000000000000000000000000000000000000000000000000000000000000000000000000000000000000000000000007000000000000000707070707070707070707070707070707070707070707000000000000000700000000000000000000000000000000000000000000000000000000000000
310
00000000000000000000000000000000000000000000000000000000000000000000000000000000000000000000000000000000000000000000000000000000000000000000000000000000000000000000000000000000000000000000000000000000000000000000000000000700000000000000000000000000000007
310
07070707070700000000000000000000000000000007000000000000000000000000000000000000000000000000000000000000000000000000000000000000000000000000000000000000000000000000000000000000000000000000000000000000000000000000000000000000000000000000000000000000000000
310
00000000000000000000000000000000000000000000000000000000000000000000000007000000000000000000000000000000000000000000000000000000000000000000000000000700000000000000000000000000000000000000000000000000000000000000000000000000000000000000000000000000000000
310
00000000000000000000000000000000000000000000000000000000000000000000000000000000000000000000000000000000000000000000000000000000000000000000000000000000000000000000000000000000000007070000000000000000000000000000000000000000000000000000000000000000000707
310
00000000000000000000000000000000000000000000000000000000000000000000000000000000000000000000000000000000000000000000000000000000000000000000000000000000000000000000000000000000000000000000000000000000000000000000000000000000000000000000000000000000000000
310
00000000000000000000000000000000000707000000000000000000000000000000000000000000000000000000000000000707000000000000000000000000000000000000000000000000000000000000000000000000000000000000000000000000000000000000000000000000000000000000000000000000000000
310
00000000000000000000000000000000000000000000000000000000000000000000000000000000000000000000000000000000000000000000000000000000000000000000000707000000000000000000000000000000000000000000000000000000000007070000000000000000000000000000000000000000000000
310
00000000000000000000000000000000000000000000000000000000000000000000000000000000000000000000000000000000000000000000000000000000000000000000000000000000000000000000000000000000000000000000000000000000000000000000000000000000000000000000000000000000000007
310
07070000000000000000000000000000000000000000000000070707000000000000000000000000000000000000000000000000000000000000000000000000000000000000000000000000000000000000000000000000000000000000000000000000000000000000000000000000000000000000000000000000000000
310
00000000000000000000000000000000000000000000000000000000000000000000000000000000000000000000000000000000000007070707070700000000000000000000000000070707070707000000000000000000000000000000000000000000000000000000000000000000000000000000000000000000000000
310
00000000000000000000000000000000000000000000000000000000000000000000000000000000000000000000000000000000000000000000000000000000000000000000000000000000000000000000000000000000000000000000000000000000000000000000000000000007070707070707070707070707070707
310
07000000000000000000000000000000000000000000000000000000000000000000000000000000000000000000000000000000000000000000000000000000000000000000000000000000000000000000000000000000000000000000000000000000000000000000000000000000000000000000000000000000000000
310
00000000000000000000000000000000000000000000000000000000000000000000000000000000000000000000000000000000000000000000000000000000000000000000000000000000000000000000000000000000000000000000000000000000000000000000000000000000000000000000000000000000000000
310
00000000000000000000000000000000000000000000000000000000000000000000000000000000000000000000000000000000000000000000000000000000000000000000000000000000000000000000000000000000000000000000000000000000000000000000000000000000000000000000000000000000000000
310
00000000000000000000000000000000000000000000000000000000000000000000000000000000000000000000000000000000000000000000000000000000000000000000000000000000000000000000000000000000000000000000000000000000000000000000000000000000000000000000000000000000000000
310
00000000000000000000000000000000000000000000000000000000000000000000000000000000000000000000000000000000000000000000000000000000000000000000000000000000000000000000000000000000000000000000000000000000000000000000000000000000000000000000000000000000000000
310
000000000000000000000000000000000000000000000000000000000000000000000000000000000000000000000000000000000000000000000000000000000000000000000000000000000000000000000000000000000000000000000000000000000000000000000000
  0
ENDSEC
  0
EOF
