  0
SECTION
  2
HEADER
  9
$ACADVER
  1
AC1015
  9
$ACADMAINTVER
 70
     6
  9
$DWGCODEPAGE
  3
ANSI_1252
  9
$INSBASE
 10
0.0
 20
0.0
 30
0.0
  9
$EXTMIN
 10
0.0
 20
0.0
 30
0.0
  9
$EXTMAX
 10
407.0
 20
202.0909155
 30
0.0
  9
$LIMMIN
 10
0.0
 20
0.0
  9
$LIMMAX
 10
12.0
 20
9.0
  9
$ORTHOMODE
 70
     0
  9
$REGENMODE
 70
     1
  9
$FILLMODE
 70
     1
  9
$QTEXTMODE
 70
     0
  9
$MIRRTEXT
 70
     1
  9
$LTSCALE
 40
1.0
  9
$ATTMODE
 70
     1
  9
$TEXTSIZE
 40
0.2
  9
$TRACEWID
 40
0.05
  9
$TEXTSTYLE
  7
STANDARD
  9
$CLAYER
  8
0
  9
$CELTYPE
  6
CONTINUOUS
  9
$CECOLOR
 62
   256
  9
$CELTSCALE
 40
1.0
  9
$DISPSILH
 70
     0
  9
$DIMSCALE
 40
1.0
  9
$DIMASZ
 40
0.18
  9
$DIMEXO
 40
0.0625
  9
$DIMDLI
 40
0.38
  9
$DIMRND
 40
0.0
  9
$DIMDLE
 40
0.0
  9
$DIMEXE
 40
0.18
  9
$DIMTP
 40
0.0
  9
$DIMTM
 40
0.0
  9
$DIMTXT
 40
0.18
  9
$DIMCEN
 40
0.09
  9
$DIMTSZ
 40
0.0
  9
$DIMTOL
 70
     0
  9
$DIMLIM
 70
     0
  9
$DIMTIH
 70
     1
  9
$DIMTOH
 70
     1
  9
$DIMSE1
 70
     0
  9
$DIMSE2
 70
     0
  9
$DIMTAD
 70
     0
  9
$DIMZIN
 70
     0
  9
$DIMBLK
  1

  9
$DIMASO
 70
     1
  9
$DIMSHO
 70
     1
  9
$DIMPOST
  1

  9
$DIMAPOST
  1

  9
$DIMALT
 70
     0
  9
$DIMALTD
 70
     2
  9
$DIMALTF
 40
25.4
  9
$DIMLFAC
 40
1.0
  9
$DIMTOFL
 70
     0
  9
$DIMTVP
 40
0.0
  9
$DIMTIX
 70
     0
  9
$DIMSOXD
 70
     0
  9
$DIMSAH
 70
     0
  9
$DIMBLK1
  1

  9
$DIMBLK2
  1

  9
$DIMSTYLE
  2
STANDARD
  9
$DIMCLRD
 70
     0
  9
$DIMCLRE
 70
     0
  9
$DIMCLRT
 70
     0
  9
$DIMTFAC
 40
1.0
  9
$DIMGAP
 40
0.09
  9
$DIMJUST
 70
     0
  9
$DIMSD1
 70
     0
  9
$DIMSD2
 70
     0
  9
$DIMTOLJ
 70
     1
  9
$DIMTZIN
 70
     0
  9
$DIMALTZ
 70
     0
  9
$DIMALTTZ
 70
     0
  9
$DIMUPT
 70
     0
  9
$DIMDEC
 70
     4
  9
$DIMTDEC
 70
     4
  9
$DIMALTU
 70
     2
  9
$DIMALTTD
 70
     2
  9
$DIMTXSTY
  7
STANDARD
  9
$DIMAUNIT
 70
     0
  9
$DIMADEC
 70
     0
  9
$DIMALTRND
 40
0.0
  9
$DIMAZIN
 70
     0
  9
$DIMDSEP
 70
    46
  9
$DIMATFIT
 70
     3
  9
$DIMFRAC
 70
     0
  9
$DIMLDRBLK
  1

  9
$DIMLUNIT
 70
     2
  9
$DIMLWD
 70
    -2
  9
$DIMLWE
 70
    -2
  9
$DIMTMOVE
 70
     2
  9
$LUNITS
 70
     2
  9
$LUPREC
 70
     4
  9
$SKETCHINC
 40
0.1
  9
$FILLETRAD
 40
0.0
  9
$AUNITS
 70
     0
  9
$AUPREC
 70
     0
  9
$MENU
  1
.
  9
$ELEVATION
 40
0.0
  9
$PELEVATION
 40
0.0
  9
$THICKNESS
 40
0.0
  9
$LIMCHECK
 70
     0
  9
$CHAMFERA
 40
0.0
  9
$CHAMFERB
 40
0.0
  9
$CHAMFERC
 40
0.0
  9
$CHAMFERD
 40
0.0
  9
$SKPOLY
 70
     0
  9
$TDCREATE
 40
2454690.830328229
  9
$TDUCREATE
 40
2454690.746994896
  9
$TDUPDATE
 40
2456209.721289965
  9
$TDUUPDATE
 40
2456209.637956632
  9
$TDINDWG
 40
0.014219294
  9
$TDUSRTIMER
 40
0.014219294
  9
$USRTIMER
 70
     1
  9
$ANGBASE
 50
0.0
  9
$ANGDIR
 70
     0
  9
$PDMODE
 70
     0
  9
$PDSIZE
 40
0.0
  9
$PLINEWID
 40
0.0
  9
$SPLFRAME
 70
     0
  9
$SPLINETYPE
 70
     6
  9
$SPLINESEGS
 70
     8
  9
$HANDSEED
  5
1157
  9
$SURFTAB1
 70
     6
  9
$SURFTAB2
 70
     6
  9
$SURFTYPE
 70
     6
  9
$SURFU
 70
     6
  9
$SURFV
 70
     6
  9
$UCSBASE
  2

  9
$UCSNAME
  2

  9
$UCSORG
 10
0.0
 20
0.0
 30
0.0
  9
$UCSXDIR
 10
1.0
 20
0.0
 30
0.0
  9
$UCSYDIR
 10
0.0
 20
1.0
 30
0.0
  9
$UCSORTHOREF
  2

  9
$UCSORTHOVIEW
 70
     0
  9
$UCSORGTOP
 10
0.0
 20
0.0
 30
0.0
  9
$UCSORGBOTTOM
 10
0.0
 20
0.0
 30
0.0
  9
$UCSORGLEFT
 10
0.0
 20
0.0
 30
0.0
  9
$UCSORGRIGHT
 10
0.0
 20
0.0
 30
0.0
  9
$UCSORGFRONT
 10
0.0
 20
0.0
 30
0.0
  9
$UCSORGBACK
 10
0.0
 20
0.0
 30
0.0
  9
$PUCSBASE
  2

  9
$PUCSNAME
  2

  9
$PUCSORG
 10
0.0
 20
0.0
 30
0.0
  9
$PUCSXDIR
 10
1.0
 20
0.0
 30
0.0
  9
$PUCSYDIR
 10
0.0
 20
1.0
 30
0.0
  9
$PUCSORTHOREF
  2

  9
$PUCSORTHOVIEW
 70
     0
  9
$PUCSORGTOP
 10
0.0
 20
0.0
 30
0.0
  9
$PUCSORGBOTTOM
 10
0.0
 20
0.0
 30
0.0
  9
$PUCSORGLEFT
 10
0.0
 20
0.0
 30
0.0
  9
$PUCSORGRIGHT
 10
0.0
 20
0.0
 30
0.0
  9
$PUCSORGFRONT
 10
0.0
 20
0.0
 30
0.0
  9
$PUCSORGBACK
 10
0.0
 20
0.0
 30
0.0
  9
$USERI1
 70
     0
  9
$USERI2
 70
     0
  9
$USERI3
 70
     0
  9
$USERI4
 70
     0
  9
$USERI5
 70
     0
  9
$USERR1
 40
0.0
  9
$USERR2
 40
0.0
  9
$USERR3
 40
0.0
  9
$USERR4
 40
0.0
  9
$USERR5
 40
0.0
  9
$WORLDVIEW
 70
     1
  9
$SHADEDGE
 70
     3
  9
$SHADEDIF
 70
    70
  9
$TILEMODE
 70
     1
  9
$MAXACTVP
 70
    64
  9
$PINSBASE
 10
0.0
 20
0.0
 30
0.0
  9
$PLIMCHECK
 70
     0
  9
$PEXTMIN
 10
1.000000000000E+20
 20
1.000000000000E+20
 30
1.000000000000E+20
  9
$PEXTMAX
 10
-1.000000000000E+20
 20
-1.000000000000E+20
 30
-1.000000000000E+20
  9
$PLIMMIN
 10
0.0
 20
0.0
  9
$PLIMMAX
 10
12.0
 20
9.0
  9
$UNITMODE
 70
     0
  9
$VISRETAIN
 70
     1
  9
$PLINEGEN
 70
     0
  9
$PSLTSCALE
 70
     1
  9
$TREEDEPTH
 70
  3020
  9
$CMLSTYLE
  2
STANDARD
  9
$CMLJUST
 70
     0
  9
$CMLSCALE
 40
1.0
  9
$PROXYGRAPHICS
 70
     1
  9
$MEASUREMENT
 70
     0
  9
$CELWEIGHT
370
    -1
  9
$ENDCAPS
280
     0
  9
$JOINSTYLE
280
     0
  9
$LWDISPLAY
290
     0
  9
$INSUNITS
 70
     0
  9
$HYPERLINKBASE
  1

  9
$STYLESHEET
  1

  9
$XEDIT
290
     1
  9
$CEPSNTYPE
380
     0
  9
$PSTYLEMODE
290
     1
  9
$FINGERPRINTGUID
  2
{7ADF768D-3EA4-4367-B09B-DC3BF8E0AA37}
  9
$VERSIONGUID
  2
{18C5210F-15A0-49FC-9A3D-9EB195DBBFFC}
  9
$EXTNAMES
290
     1
  9
$PSVPSCALE
 40
0.0
  9
$OLESTARTUP
290
     0
  0
ENDSEC
  0
SECTION
  2
CLASSES
  0
CLASS
  1
ACDBDICTIONARYWDFLT
  2
AcDbDictionaryWithDefault
  3
ObjectDBX Classes
 90
        0
280
     0
281
     0
  0
CLASS
  1
ACDBPLACEHOLDER
  2
AcDbPlaceHolder
  3
ObjectDBX Classes
 90
        0
280
     0
281
     0
  0
CLASS
  1
LAYOUT
  2
AcDbLayout
  3
ObjectDBX Classes
 90
        0
280
     0
281
     0
  0
CLASS
  1
DICTIONARYVAR
  2
AcDbDictionaryVar
  3
ObjectDBX Classes
 90
        0
280
     0
281
     0
  0
CLASS
  1
DUMMY
  2
AcDbLongTransaction
  3
DUMMY
 90
        0
280
     0
281
     0
  0
CLASS
  1
LWPOLYLINE
  2
AcDbPolyline
  3
AutoCAD 2000
 90
        0
280
     0
281
     1
  0
CLASS
  1
HATCH
  2
AcDbHatch
  3
AutoCAD 2000
 90
        0
280
     0
281
     1
  0
CLASS
  1
XRECORD
  2
AcDbXrecord
  3
AutoCAD 2000
 90
        0
280
     0
281
     0
  0
CLASS
  1
SCALE
  2
AcDbScale
  3
ObjectDBX Classes
 90
     1153
280
     0
281
     0
  0
ENDSEC
  0
SECTION
  2
TABLES
  0
TABLE
  2
VPORT
  5
8
330
0
100
AcDbSymbolTable
 70
     1
  0
VPORT
  5
5D6
330
8
100
AcDbSymbolTableRecord
100
AcDbViewportTableRecord
  2
*ACTIVE
 70
     0
 10
0.0
 20
0.0
 11
1.0
 21
1.0
 12
203.5
 22
101.04545775
 13
0.0
 23
0.0
 14
1.0
 24
1.0
 15
0.0
 25
0.0
 16
0.0
 26
0.0
 36
1.0
 17
0.0
 27
0.0
 37
0.0
 40
206.13273381
 41
2.271724137931
 42
50.0
 43
0.0
 44
0.0
 50
0.0
 51
0.0
 71
    16
 72
   100
 73
     1
 74
     3
 75
     0
 76
     0
 77
     0
 78
     0
281
     0
 65
     1
110
0.0
120
0.0
130
0.0
111
1.0
121
0.0
131
0.0
112
0.0
122
1.0
132
0.0
 79
     0
146
0.0
  0
ENDTAB
  0
TABLE
  2
LTYPE
  5
5
330
0
100
AcDbSymbolTable
 70
     1
  0
LTYPE
  5
13
330
5
100
AcDbSymbolTableRecord
100
AcDbLinetypeTableRecord
  2
BYBLOCK
 70
     0
  3

 72
    65
 73
     0
 40
0.0
  0
LTYPE
  5
14
330
5
100
AcDbSymbolTableRecord
100
AcDbLinetypeTableRecord
  2
BYLAYER
 70
     0
  3

 72
    65
 73
     0
 40
0.0
  0
LTYPE
  5
15
330
5
100
AcDbSymbolTableRecord
100
AcDbLinetypeTableRecord
  2
CONTINUOUS
 70
     0
  3
Solid line
 72
    65
 73
     0
 40
0.0
  0
ENDTAB
  0
TABLE
  2
LAYER
  5
2
330
0
100
AcDbSymbolTable
 70
     1
  0
LAYER
  5
10
330
2
100
AcDbSymbolTableRecord
100
AcDbLayerTableRecord
  2
0
 70
     0
 62
     7
  6
CONTINUOUS
370
    -3
390
F
  0
ENDTAB
  0
TABLE
  2
STYLE
  5
3
330
0
100
AcDbSymbolTable
 70
     1
  0
STYLE
  5
11
330
3
100
AcDbSymbolTableRecord
100
AcDbTextStyleTableRecord
  2
STANDARD
 70
     0
 40
0.0
 41
1.0
 50
0.0
 71
     0
 42
0.2
  3
txt
  4

  0
ENDTAB
  0
TABLE
  2
VIEW
  5
6
330
0
100
AcDbSymbolTable
 70
     0
  0
ENDTAB
  0
TABLE
  2
UCS
  5
7
330
0
100
AcDbSymbolTable
 70
     0
  0
ENDTAB
  0
TABLE
  2
APPID
  5
9
330
0
100
AcDbSymbolTable
 70
     1
  0
APPID
  5
12
330
9
100
AcDbSymbolTableRecord
100
AcDbRegAppTableRecord
  2
ACAD
 70
     0
  0
ENDTAB
  0
TABLE
  2
DIMSTYLE
  5
A
330
0
100
AcDbSymbolTable
 70
     1
100
AcDbDimStyleTable
  0
DIMSTYLE
105
5D0
330
A
100
AcDbSymbolTableRecord
100
AcDbDimStyleTableRecord
  2
STANDARD
 70
     0
340
11
  0
ENDTAB
  0
TABLE
  2
BLOCK_RECORD
  5
1
330
0
100
AcDbSymbolTable
 70
     2
  0
BLOCK_RECORD
  5
1E
330
1
100
AcDbSymbolTableRecord
100
AcDbBlockTableRecord
  2
*MODEL_SPACE
340
5FB
  0
BLOCK_RECORD
  5
1A
330
1
100
AcDbSymbolTableRecord
100
AcDbBlockTableRecord
  2
*PAPER_SPACE
340
5FC
  0
ENDTAB
  0
ENDSEC
  0
SECTION
  2
BLOCKS
  0
BLOCK
  5
1F
330
1E
100
AcDbEntity
  8
0
100
AcDbBlockBegin
  2
*MODEL_SPACE
 70
     0
 10
0.0
 20
0.0
 30
0.0
  3
*MODEL_SPACE
  1
*MODEL_SPACE
  0
ENDBLK
  5
20
330
1E
100
AcDbEntity
  8
0
100
AcDbBlockEnd
  0
BLOCK
  5
1B
330
1A
100
AcDbEntity
 67
     1
  8
0
100
AcDbBlockBegin
  2
*PAPER_SPACE
 70
     0
 10
0.0
 20
0.0
 30
0.0
  3
*PAPER_SPACE
  1
*PAPER_SPACE
  0
ENDBLK
  5
1C
330
1A
100
AcDbEntity
 67
     1
  8
0
100
AcDbBlockEnd
  0
ENDSEC
  0
SECTION
  2
ENTITIES
  0
LINE
  5
22
330
1E
100
AcDbEntity
  8
0
100
AcDbLine
 10
3.9046
 20
0.148041
 30
0.0
 11
9.3239
 21
0.14802
 31
0.0
  0
LINE
  5
23
330
1E
100
AcDbEntity
  8
0
100
AcDbLine
 10
2.0016
 20
0.148067
 30
0.0
 11
3.9046
 21
0.148092
 31
0.0
  0
LINE
  5
24
330
1E
100
AcDbEntity
  8
0
100
AcDbLine
 10
2.0016
 20
0.148067
 30
0.0
 11
3.9046
 21
0.148041
 31
0.0
  0
LINE
  5
26
330
1E
100
AcDbEntity
  8
0
100
AcDbLine
 10
17.4345
 20
0.148005
 30
0.0
 11
27.0016
 21
0.148
 31
0.0
  0
LINE
  5
27
330
1E
100
AcDbEntity
  8
0
100
AcDbLine
 10
9.3239
 20
0.14802
 30
0.0
 11
17.4345
 21
0.148005
 31
0.0
  0
LINE
  5
28
330
1E
100
AcDbEntity
  8
0
100
AcDbLine
 10
3.9046
 20
0.148092
 30
0.0
 11
9.3239
 21
0.148114
 31
0.0
  0
LINE
  5
29
330
1E
100
AcDbEntity
  8
0
100
AcDbLine
 10
9.3239
 20
0.148114
 30
0.0
 11
17.4345
 21
0.148128
 31
0.0
  0
LINE
  5
2A
330
1E
100
AcDbEntity
  8
0
100
AcDbLine
 10
17.4345
 20
0.148128
 30
0.0
 11
27.0016
 21
0.148133
 31
0.0
  0
LINE
  5
2B
330
1E
100
AcDbEntity
  8
0
100
AcDbLine
 10
27.0016
 20
0.148133
 30
0.0
 11
36.5687
 21
0.148128
 31
0.0
  0
LINE
  5
2C
330
1E
100
AcDbEntity
  8
0
100
AcDbLine
 10
36.5687
 20
0.148128
 30
0.0
 11
44.6793
 21
0.148114
 31
0.0
  0
LINE
  5
2D
330
1E
100
AcDbEntity
  8
0
100
AcDbLine
 10
44.6793
 20
0.148114
 30
0.0
 11
50.0986
 21
0.148092
 31
0.0
  0
LINE
  5
2E
330
1E
100
AcDbEntity
  8
0
100
AcDbLine
 10
50.0986
 20
0.148092
 30
0.0
 11
52.0016
 21
0.148067
 31
0.0
  0
LINE
  5
30
330
1E
100
AcDbEntity
  8
0
100
AcDbLine
 10
50.0986
 20
0.148041
 30
0.0
 11
52.0016
 21
0.148067
 31
0.0
  0
LINE
  5
31
330
1E
100
AcDbEntity
  8
0
100
AcDbLine
 10
44.6793
 20
0.14802
 30
0.0
 11
50.0986
 21
0.148041
 31
0.0
  0
LINE
  5
32
330
1E
100
AcDbEntity
  8
0
100
AcDbLine
 10
36.5687
 20
0.148005
 30
0.0
 11
44.6793
 21
0.14802
 31
0.0
  0
LINE
  5
33
330
1E
100
AcDbEntity
  8
0
100
AcDbLine
 10
27.0016
 20
0.148
 30
0.0
 11
36.5687
 21
0.148005
 31
0.0
  0
LINE
  5
34
330
1E
100
AcDbEntity
  8
0
100
AcDbLine
 10
106.965
 20
0.14803
 30
0.0
 11
114.003
 21
0.14801
 31
0.0
  0
LINE
  5
35
330
1E
100
AcDbEntity
  8
0
100
AcDbLine
 10
104.5016
 20
0.14807
 30
0.0
 11
106.9848
 21
0.1481
 31
0.0
  0
LINE
  5
36
330
1E
100
AcDbEntity
  8
0
100
AcDbLine
 10
104.5016
 20
0.14807
 30
0.0
 11
104.5016
 21
10.1481
 31
0.0
  0
LINE
  5
37
330
1E
100
AcDbEntity
  8
0
100
AcDbLine
 10
104.5016
 20
0.14807
 30
0.0
 11
106.965
 21
0.14803
 31
0.0
  0
LINE
  5
38
330
1E
100
AcDbEntity
  8
0
100
AcDbLine
 10
124.54
 20
0.14799
 30
0.0
 11
136.976
 21
0.14798
 31
0.0
  0
LINE
  5
39
330
1E
100
AcDbEntity
  8
0
100
AcDbLine
 10
114.003
 20
0.14801
 30
0.0
 11
124.54
 21
0.14799
 31
0.0
  0
LINE
  5
3A
330
1E
100
AcDbEntity
  8
0
100
AcDbLine
 10
106.9848
 20
0.1481
 30
0.0
 11
114.039
 21
0.14813
 31
0.0
  0
LINE
  5
71
330
1E
100
AcDbEntity
  8
0
100
AcDbLine
 10
124.06
 20
59.487
 30
0.0
 11
127.095
 21
57.7546
 31
0.0
  0
LINE
  5
72
330
1E
100
AcDbEntity
  8
0
100
AcDbLine
 10
122.994
 20
61.5286
 30
0.0
 11
123.002
 21
70.1587
 31
0.0
  0
LINE
  5
73
330
1E
100
AcDbEntity
  8
0
100
AcDbLine
 10
122.994
 20
61.5286
 30
0.0
 11
124.06
 21
63.5687
 31
0.0
  0
LINE
  5
74
330
1E
100
AcDbEntity
  8
0
100
AcDbLine
 10
122.994
 20
61.5286
 30
0.0
 11
124.06
 21
59.487
 31
0.0
  0
LINE
  5
75
330
1E
100
AcDbEntity
  8
0
100
AcDbLine
 10
123.002
 20
70.1587
 30
0.0
 11
124.067
 21
72.1987
 31
0.0
  0
LINE
  5
76
330
1E
100
AcDbEntity
  8
0
100
AcDbLine
 10
124.06
 20
63.5687
 30
0.0
 11
127.095
 21
65.2966
 31
0.0
  0
LINE
  5
77
330
1E
100
AcDbEntity
  8
0
100
AcDbLine
 10
124.067
 20
72.1987
 30
0.0
 11
127.102
 21
73.9267
 31
0.0
  0
LINE
  5
78
330
1E
100
AcDbEntity
  8
0
100
AcDbLine
 10
123.107
 20
82.1484
 30
0.0
 11
123.110927017022
 21
70.367348934014
 31
0.0
  0
LINE
  5
79
330
1E
100
AcDbEntity
  8
0
100
AcDbLine
 10
123.1
 20
95.1484
 30
0.0
 11
123.107
 21
82.1484
 31
0.0
  0
LINE
  5
7A
330
1E
100
AcDbEntity
  8
0
100
AcDbLine
 10
122.092
 20
105.148
 30
0.0
 11
123.1
 21
95.1484
 31
0.0
  0
LINE
  5
7B
330
1E
100
AcDbEntity
  8
0
100
AcDbLine
 10
121.083
 20
111.148
 30
0.0
 11
122.092
 21
105.148
 31
0.0
  0
LINE
  5
7C
330
1E
100
AcDbEntity
  8
0
100
AcDbLine
 10
123.623
 20
126.377
 30
0.0
 11
129.787
 21
129.513
 31
0.0
  0
LINE
  5
7D
330
1E
100
AcDbEntity
  8
0
100
AcDbLine
 10
119.505
 20
121.684
 30
0.0
 11
123.623
 21
126.377
 31
0.0
  0
LINE
  5
7E
330
1E
100
AcDbEntity
  8
0
100
AcDbLine
 10
118.575
 20
120.717
 30
0.0
 11
120.410540756768
 21
122.715982217463
 31
0.0
  0
LINE
  5
7F
330
1E
100
AcDbEntity
  8
0
100
AcDbLine
 10
117.643
 20
117.894
 30
0.0
 11
118.575
 21
120.717
 31
0.0
  0
LINE
  5
80
330
1E
100
AcDbEntity
  8
0
100
AcDbLine
 10
116.046
 20
112.148
 30
0.0
 11
117.643
 21
117.894
 31
0.0
  0
LINE
  5
81
330
1E
100
AcDbEntity
  8
0
100
AcDbLine
 10
115.039
 20
108.148
 30
0.0
 11
116.046
 21
112.148
 31
0.0
  0
LINE
  5
82
330
1E
100
AcDbEntity
  8
0
100
AcDbLine
 10
114.031
 20
102.148
 30
0.0
 11
115.039
 21
108.148
 31
0.0
  0
LINE
  5
83
330
1E
100
AcDbEntity
  8
0
100
AcDbLine
 10
112.525
 20
96.148
 30
0.0
 11
114.031
 21
102.148
 31
0.0
  0
LINE
  5
84
330
1E
100
AcDbEntity
  8
0
100
AcDbLine
 10
111.268
 20
86.6481
 30
0.0
 11
112.525
 21
96.148
 31
0.0
  0
LINE
  5
85
330
1E
100
AcDbEntity
  8
0
100
AcDbLine
 10
110.014
 20
79.6481
 30
0.0
 11
111.268
 21
86.6481
 31
0.0
  0
LINE
  5
86
330
1E
100
AcDbEntity
  8
0
100
AcDbLine
 10
108.5096
 20
70.3481
 30
0.0
 11
110.014
 21
79.6481
 31
0.0
  0
LINE
  5
87
330
1E
100
AcDbEntity
  8
0
100
AcDbLine
 10
107.5064
 20
60.1481
 30
0.0
 11
108.5096
 21
70.3481
 31
0.0
  0
LINE
  5
88
330
1E
100
AcDbEntity
  8
0
100
AcDbLine
 10
106.5044
 20
50.1481
 30
0.0
 11
107.5064
 21
60.1481
 31
0.0
  0
LINE
  5
89
330
1E
100
AcDbEntity
  8
0
100
AcDbLine
 10
105.5028
 20
40.1481
 30
0.0
 11
106.5044
 21
50.1481
 31
0.0
  0
LINE
  5
8A
330
1E
100
AcDbEntity
  8
0
100
AcDbLine
 10
105.0024
 20
30.1481
 30
0.0
 11
105.5028
 21
40.1481
 31
0.0
  0
LINE
  5
8B
330
1E
100
AcDbEntity
  8
0
100
AcDbLine
 10
104.502
 20
20.1481
 30
0.0
 11
105.0024
 21
30.1481
 31
0.0
  0
LINE
  5
8C
330
1E
100
AcDbEntity
  8
0
100
AcDbLine
 10
104.5016
 20
10.1481
 30
0.0
 11
104.5016
 21
0.14807
 31
0.0
  0
LINE
  5
8D
330
1E
100
AcDbEntity
  8
0
100
AcDbLine
 10
104.5016
 20
10.1481
 30
0.0
 11
104.502
 21
20.1481
 31
0.0
  0
LINE
  5
8E
330
1E
100
AcDbEntity
  8
0
100
AcDbLine
 10
114.039
 20
0.14813
 30
0.0
 11
124.588
 21
0.14815
 31
0.0
  0
LINE
  5
B2
330
1E
100
AcDbEntity
  8
0
100
AcDbLine
 10
127.095
 20
57.7546
 30
0.0
 11
131.632
 21
56.596
 31
0.0
  0
LINE
  5
B3
330
1E
100
AcDbEntity
  8
0
100
AcDbLine
 10
127.095
 20
65.2966
 30
0.0
 11
131.636
 21
66.4493
 31
0.0
  0
LINE
  5
B4
330
1E
100
AcDbEntity
  8
0
100
AcDbLine
 10
128.375
 20
64.4797
 30
0.0
 11
130.398
 21
63.3247
 31
0.0
  0
LINE
  5
B5
330
1E
100
AcDbEntity
  8
0
100
AcDbLine
 10
127.848410848913
 20
65.487847893755
 30
0.0
 11
128.375
 21
64.4797
 31
0.0
  0
LINE
  5
B6
330
1E
100
AcDbEntity
  8
0
100
AcDbLine
 10
127.102
 20
73.9267
 30
0.0
 11
131.644
 21
75.0794
 31
0.0
  0
LINE
  5
B7
330
1E
100
AcDbEntity
  8
0
100
AcDbLine
 10
127.343471388339
 20
73.987982269779
 30
0.0
 11
131.762
 21
75.1233
 31
0.0
  0
LINE
  5
B8
330
1E
100
AcDbEntity
  8
0
100
AcDbLine
 10
131.632
 20
56.596
 30
0.0
 11
136.994
 21
56.1854
 31
0.0
  0
LINE
  5
B9
330
1E
100
AcDbEntity
  8
0
100
AcDbLine
 10
130.398
 20
63.3247
 30
0.0
 11
133.423
 21
62.5523
 31
0.0
  0
LINE
  5
BA
330
1E
100
AcDbEntity
  8
0
100
AcDbLine
 10
131.636
 20
66.4493
 30
0.0
 11
137.016
 21
66.8513
 31
0.0
  0
LINE
  5
BB
330
1E
100
AcDbEntity
  8
0
100
AcDbLine
 10
131.644
 20
75.0794
 30
0.0
 11
137.024
 21
75.4814
 31
0.0
  0
LINE
  5
BC
330
1E
100
AcDbEntity
  8
0
100
AcDbLine
 10
133.423
 20
62.5523
 30
0.0
 11
136.998
 21
62.2785
 31
0.0
  0
LINE
  5
BD
330
1E
100
AcDbEntity
  8
0
100
AcDbLine
 10
137.016
 20
66.8513
 30
0.0
 11
142.352
 21
66.4414
 31
0.0
  0
LINE
  5
BE
330
1E
100
AcDbEntity
  8
0
100
AcDbLine
 10
137.024
 20
75.4814
 30
0.0
 11
142.359
 21
75.0715
 31
0.0
  0
LINE
  5
BF
330
1E
100
AcDbEntity
  8
0
100
AcDbLine
 10
142.352
 20
66.4414
 30
0.0
 11
146.894
 21
65.2821
 31
0.0
  0
LINE
  5
C0
330
1E
100
AcDbEntity
  8
0
100
AcDbLine
 10
142.359
 20
75.0715
 30
0.0
 11
146.901
 21
73.9122
 31
0.0
  0
LINE
  5
C1
330
1E
100
AcDbEntity
  8
0
100
AcDbLine
 10
140.604
 20
62.552
 30
0.0
 11
143.598
 21
63.3151
 31
0.0
  0
LINE
  5
C2
330
1E
100
AcDbEntity
  8
0
100
AcDbLine
 10
142.403
 20
56.5955
 30
0.0
 11
146.894
 21
57.7401
 31
0.0
  0
LINE
  5
C3
330
1E
100
AcDbEntity
  8
0
100
AcDbLine
 10
136.998
 20
62.2785
 30
0.0
 11
140.604
 21
62.552
 31
0.0
  0
LINE
  5
C4
330
1E
100
AcDbEntity
  8
0
100
AcDbLine
 10
136.994
 20
56.1854
 30
0.0
 11
142.403
 21
56.5955
 31
0.0
  0
LINE
  5
C5
330
1E
100
AcDbEntity
  8
0
100
AcDbLine
 10
146.894
 20
65.2821
 30
0.0
 11
149.928
 21
63.5497
 31
0.0
  0
LINE
  5
C6
330
1E
100
AcDbEntity
  8
0
100
AcDbLine
 10
145.621
 20
64.4671
 30
0.0
 11
146.147740957811
 21
65.472575144784
 31
0.0
  0
LINE
  5
C7
330
1E
100
AcDbEntity
  8
0
100
AcDbLine
 10
143.598
 20
63.3151
 30
0.0
 11
145.621
 21
64.4671
 31
0.0
  0
LINE
  5
C8
330
1E
100
AcDbEntity
  8
0
100
AcDbLine
 10
146.901
 20
73.9122
 30
0.0
 11
149.936
 21
72.1798
 31
0.0
  0
LINE
  5
C9
330
1E
100
AcDbEntity
  8
0
100
AcDbLine
 10
146.894
 20
57.7401
 30
0.0
 11
149.928
 21
59.468
 31
0.0
  0
LINE
  5
CA
330
1E
100
AcDbEntity
  8
0
100
AcDbLine
 10
147.017
 20
73.956
 30
0.0
 11
150.049
 21
72.2091
 31
0.0
  0
LINE
  5
CB
330
1E
100
AcDbEntity
  8
0
100
AcDbLine
 10
142.478
 20
75.1233
 30
0.0
 11
147.017
 21
73.956
 31
0.0
  0
LINE
  5
CC
330
1E
100
AcDbEntity
  8
0
100
AcDbLine
 10
137.121
 20
75.5331
 30
0.0
 11
142.478
 21
75.1233
 31
0.0
  0
LINE
  5
CD
330
1E
100
AcDbEntity
  8
0
100
AcDbLine
 10
131.762
 20
75.1233
 30
0.0
 11
137.121
 21
75.5331
 31
0.0
  0
LINE
  5
CE
330
1E
100
AcDbEntity
  8
0
100
AcDbLine
 10
137.066
 20
130.626
 30
0.0
 11
144.329
 21
129.513
 31
0.0
  0
LINE
  5
CF
330
1E
100
AcDbEntity
  8
0
100
AcDbLine
 10
130.177
 20
129.524
 30
0.0
 11
137.066
 21
130.626
 31
0.0
  0
LINE
  5
D0
330
1E
100
AcDbEntity
  8
0
100
AcDbLine
 10
144.329
 20
129.513
 30
0.0
 11
150.493
 21
126.377
 31
0.0
  0
LINE
  5
D1
330
1E
100
AcDbEntity
  8
0
100
AcDbLine
 10
129.787
 20
129.513
 30
0.0
 11
135.802947699325
 21
130.423955634295
 31
0.0
  0
LINE
  5
D2
330
1E
100
AcDbEntity
  8
0
100
AcDbLine
 10
137.027
 20
0.14815
 30
0.0
 11
149.463
 21
0.14815
 31
0.0
  0
LINE
  5
D3
330
1E
100
AcDbEntity
  8
0
100
AcDbLine
 10
149.928
 20
59.468
 30
0.0
 11
150.994
 21
61.5038
 31
0.0
  0
LINE
  5
D4
330
1E
100
AcDbEntity
  8
0
100
AcDbLine
 10
149.928
 20
63.5497
 30
0.0
 11
150.994
 21
61.5038
 31
0.0
  0
LINE
  5
D5
330
1E
100
AcDbEntity
  8
0
100
AcDbLine
 10
149.936
 20
72.1798
 30
0.0
 11
151.002
 21
70.1339
 31
0.0
  0
LINE
  5
D6
330
1E
100
AcDbEntity
  8
0
100
AcDbLine
 10
150.994
 20
61.5038
 30
0.0
 11
151.002
 21
70.1339
 31
0.0
  0
LINE
  5
D7
330
1E
100
AcDbEntity
  8
0
100
AcDbLine
 10
151.001818522352
 20
69.938128718702
 30
0.0
 11
151.111
 21
70.1484
 31
0.0
  0
LINE
  5
D8
330
1E
100
AcDbEntity
  8
0
100
AcDbLine
 10
150.049
 20
72.2091
 30
0.0
 11
151.111
 21
70.1484
 31
0.0
  0
LINE
  5
D9
330
1E
100
AcDbEntity
  8
0
100
AcDbLine
 10
151.107
 20
82.1484
 30
0.0
 11
151.111
 21
70.1484
 31
0.0
  0
LINE
  5
DA
330
1E
100
AcDbEntity
  8
0
100
AcDbLine
 10
151.1
 20
95.1484
 30
0.0
 11
152.092
 21
105.148
 31
0.0
  0
LINE
  5
DB
330
1E
100
AcDbEntity
  8
0
100
AcDbLine
 10
151.1
 20
95.1484
 30
0.0
 11
151.107
 21
82.1484
 31
0.0
  0
LINE
  5
DC
330
1E
100
AcDbEntity
  8
0
100
AcDbLine
 10
152.092
 20
105.148
 30
0.0
 11
153.083
 21
111.148
 31
0.0
  0
LINE
  5
DD
330
1E
100
AcDbEntity
  8
0
100
AcDbLine
 10
153.083
 20
111.148
 30
0.0
 11
154.073
 21
115.148
 31
0.0
  0
LINE
  5
DE
330
1E
100
AcDbEntity
  8
0
100
AcDbLine
 10
150.493
 20
126.377
 30
0.0
 11
155.531
 21
120.717
 31
0.0
  0
LINE
  5
DF
330
1E
100
AcDbEntity
  8
0
100
AcDbLine
 10
155.531
 20
120.717
 30
0.0
 11
156.446
 21
117.894
 31
0.0
  0
LINE
  5
E0
330
1E
100
AcDbEntity
  8
0
100
AcDbLine
 10
158.046
 20
112.148
 30
0.0
 11
159.039
 21
108.148
 31
0.0
  0
LINE
  5
E1
330
1E
100
AcDbEntity
  8
0
100
AcDbLine
 10
156.446
 20
117.894
 30
0.0
 11
158.046
 21
112.148
 31
0.0
  0
LINE
  5
E2
330
1E
100
AcDbEntity
  8
0
100
AcDbLine
 10
159.039
 20
108.148
 30
0.0
 11
160.031
 21
102.148
 31
0.0
  0
LINE
  5
E3
330
1E
100
AcDbEntity
  8
0
100
AcDbLine
 10
160.031
 20
102.148
 30
0.0
 11
161.525
 21
96.148
 31
0.0
  0
LINE
  5
E4
330
1E
100
AcDbEntity
  8
0
100
AcDbLine
 10
161.525
 20
96.148
 30
0.0
 11
162.768
 21
86.6481
 31
0.0
  0
LINE
  5
E5
330
1E
100
AcDbEntity
  8
0
100
AcDbLine
 10
162.768
 20
86.6481
 30
0.0
 11
164.014
 21
79.6481
 31
0.0
  0
LINE
  5
E6
330
1E
100
AcDbEntity
  8
0
100
AcDbLine
 10
164.014
 20
79.6481
 30
0.0
 11
165.51
 21
70.3481
 31
0.0
  0
LINE
  5
E7
330
1E
100
AcDbEntity
  8
0
100
AcDbLine
 10
165.51
 20
70.3481
 30
0.0
 11
166.506
 21
60.1481
 31
0.0
  0
LINE
  5
E8
330
1E
100
AcDbEntity
  8
0
100
AcDbLine
 10
166.506
 20
60.1481
 30
0.0
 11
167.504
 21
50.1481
 31
0.0
  0
LINE
  5
E9
330
1E
100
AcDbEntity
  8
0
100
AcDbLine
 10
149.463
 20
0.14815
 30
0.0
 11
160.001
 21
0.14813
 31
0.0
  0
LINE
  5
EA
330
1E
100
AcDbEntity
  8
0
100
AcDbLine
 10
160.001
 20
0.14813
 30
0.0
 11
167.038
 21
0.1481
 31
0.0
  0
LINE
  5
EB
330
1E
100
AcDbEntity
  8
0
100
AcDbLine
 10
167.038
 20
0.1481
 30
0.0
 11
169.502
 21
0.14807
 31
0.0
  0
LINE
  5
14A
330
1E
100
AcDbEntity
  8
0
100
AcDbLine
 10
169.502
 20
0.14807
 30
0.0
 11
169.502
 21
10.1481
 31
0.0
  0
LINE
  5
14B
330
1E
100
AcDbEntity
  8
0
100
AcDbLine
 10
167.504
 20
50.1481
 30
0.0
 11
168.503
 21
40.1481
 31
0.0
  0
LINE
  5
14C
330
1E
100
AcDbEntity
  8
0
100
AcDbLine
 10
168.503
 20
40.1481
 30
0.0
 11
169.002
 21
30.1481
 31
0.0
  0
LINE
  5
14D
330
1E
100
AcDbEntity
  8
0
100
AcDbLine
 10
169.002
 20
30.1481
 30
0.0
 11
169.502
 21
20.1481
 31
0.0
  0
LINE
  5
5C8
330
1E
100
AcDbEntity
  8
0
100
AcDbLine
 10
169.502
 20
20.1481
 30
0.0
 11
169.502
 21
10.1481
 31
0.0
  0
LINE
  5
5C9
330
1E
100
AcDbEntity
  8
0
100
AcDbLine
 10
169.502
 20
10.1481
 30
0.0
 11
169.502
 21
0.14807
 31
0.0
  0
LINE
  5
5CA
330
1E
100
AcDbEntity
  8
0
100
AcDbLine
 10
169.502
 20
10.1481
 30
0.0
 11
169.502
 21
20.1481
 31
0.0
  0
LINE
  5
5CB
330
1E
100
AcDbEntity
  8
0
100
AcDbLine
 10
167.018
 20
0.14803
 30
0.0
 11
169.502
 21
0.14807
 31
0.0
  0
LINE
  5
5CC
330
1E
100
AcDbEntity
  8
0
100
AcDbLine
 10
159.964
 20
0.14801
 30
0.0
 11
167.018
 21
0.14803
 31
0.0
  0
LINE
  5
5CD
330
1E
100
AcDbEntity
  8
0
100
AcDbLine
 10
149.415
 20
0.14799
 30
0.0
 11
159.964
 21
0.14801
 31
0.0
  0
LINE
  5
5CE
330
1E
100
AcDbEntity
  8
0
100
AcDbLine
 10
136.976
 20
0.14798
 30
0.0
 11
149.415
 21
0.14799
 31
0.0
  0
LINE
  5
5CF
330
1E
100
AcDbEntity
  8
0
100
AcDbLine
 10
124.588
 20
0.14815
 30
0.0
 11
137.027
 21
0.14815
 31
0.0
  0
LINE
  5
B1A
330
1E
100
AcDbEntity
  8
0
100
AcDbLine
 10
322.0
 20
0.0
 30
0.0
 11
391.913
 21
0.1442015
 31
0.0
  0
LINE
  5
B1B
330
1E
100
AcDbEntity
  8
0
100
AcDbLine
 10
322.0
 20
0.0
 30
0.0
 11
391.913
 21
0.1442015
 31
0.0
  0
LINE
  5
B1C
330
1E
100
AcDbEntity
  8
0
100
AcDbLine
 10
322.0
 20
0.0
 30
0.0
 11
322.354996551922
 21
7.1056855
 31
0.0
  0
LINE
  5
B1D
330
1E
100
AcDbEntity
  8
0
100
AcDbLine
 10
322.355
 20
7.1056955
 30
0.0
 11
322.715
 21
8.1497555
 31
0.0
  0
LINE
  5
B1E
330
1E
100
AcDbEntity
  8
0
100
AcDbLine
 10
322.715
 20
8.1497555
 30
0.0
 11
323.501
 21
8.8287455
 31
0.0
  0
LINE
  5
B1F
330
1E
100
AcDbEntity
  8
0
100
AcDbLine
 10
324.239
 20
8.9982855
 30
0.0
 11
328.56
 21
9.2229155
 31
0.0
  0
LINE
  5
B20
330
1E
100
AcDbEntity
  8
0
100
AcDbLine
 10
323.501
 20
8.8287455
 30
0.0
 11
324.239
 21
8.9982855
 31
0.0
  0
LINE
  5
B21
330
1E
100
AcDbEntity
  8
0
100
AcDbLine
 10
328.827
 20
9.2229155
 30
0.0
 11
329.387
 21
9.2229155
 31
0.0
  0
LINE
  5
B22
330
1E
100
AcDbEntity
  8
0
100
AcDbLine
 10
328.678
 20
9.2229155
 30
0.0
 11
328.827
 21
9.2229155
 31
0.0
  0
LINE
  5
B23
330
1E
100
AcDbEntity
  8
0
100
AcDbLine
 10
329.387
 20
9.2229155
 30
0.0
 11
330.349
 21
9.2229155
 31
0.0
  0
LINE
  5
B24
330
1E
100
AcDbEntity
  8
0
100
AcDbLine
 10
328.56
 20
9.2229155
 30
0.0
 11
328.856
 21
9.2229155
 31
0.0
  0
LINE
  5
B25
330
1E
100
AcDbEntity
  8
0
100
AcDbLine
 10
328.856
 20
9.2229155
 30
0.0
 11
329.443
 21
9.2229155
 31
0.0
  0
LINE
  5
B26
330
1E
100
AcDbEntity
  8
0
100
AcDbLine
 10
329.443
 20
9.2229155
 30
0.0
 11
330.317
 21
9.2229155
 31
0.0
  0
LINE
  5
B27
330
1E
100
AcDbEntity
  8
0
100
AcDbLine
 10
330.317
 20
9.2229155
 30
0.0
 11
331.467
 21
9.2229155
 31
0.0
  0
LINE
  5
B28
330
1E
100
AcDbEntity
  8
0
100
AcDbLine
 10
330.349
 20
9.2229155
 30
0.0
 11
331.699
 21
9.2229155
 31
0.0
  0
LINE
  5
B29
330
1E
100
AcDbEntity
  8
0
100
AcDbLine
 10
331.699
 20
9.2229155
 30
0.0
 11
333.418
 21
9.2229155
 31
0.0
  0
LINE
  5
B2A
330
1E
100
AcDbEntity
  8
0
100
AcDbLine
 10
333.418
 20
9.2229155
 30
0.0
 11
335.481
 21
9.2229155
 31
0.0
  0
LINE
  5
B2B
330
1E
100
AcDbEntity
  8
0
100
AcDbLine
 10
331.467
 20
9.2229155
 30
0.0
 11
332.883
 21
9.2229155
 31
0.0
  0
LINE
  5
B2C
330
1E
100
AcDbEntity
  8
0
100
AcDbLine
 10
332.883
 20
9.2229155
 30
0.0
 11
334.548
 21
9.2229155
 31
0.0
  0
LINE
  5
B2D
330
1E
100
AcDbEntity
  8
0
100
AcDbLine
 10
335.488
 20
9.2229155
 30
0.0
 11
336.986
 21
9.4411955
 31
0.0
  0
LINE
  5
B2E
330
1E
100
AcDbEntity
  8
0
100
AcDbLine
 10
334.548
 20
9.2229155
 30
0.0
 11
377.5
 21
9.2229155
 31
0.0
  0
LINE
  5
B2F
330
1E
100
AcDbEntity
  8
0
100
AcDbLine
 10
336.986
 20
9.4411955
 30
0.0
 11
339.228107834354
 21
10.714307768645
 31
0.0
  0
LINE
  5
B30
330
1E
100
AcDbEntity
  8
0
100
AcDbLine
 10
391.552921649406
 20
7.1056955
 30
0.0
 11
391.913
 21
0.1442015
 31
0.0
  0
LINE
  5
B31
330
1E
100
AcDbEntity
  8
0
100
AcDbLine
 10
377.5
 20
9.2229155
 30
0.0
 11
379.399
 21
9.2229155
 31
0.0
  0
LINE
  5
B32
330
1E
100
AcDbEntity
  8
0
100
AcDbLine
 10
377.841
 20
9.2229155
 30
0.0
 11
379.993
 21
9.2229155
 31
0.0
  0
LINE
  5
B33
330
1E
100
AcDbEntity
  8
0
100
AcDbLine
 10
379.399
 20
9.2229155
 30
0.0
 11
381.065
 21
9.2229155
 31
0.0
  0
LINE
  5
B34
330
1E
100
AcDbEntity
  8
0
100
AcDbLine
 10
379.993
 20
9.2229155
 30
0.0
 11
381.81
 21
9.2229155
 31
0.0
  0
LINE
  5
B35
330
1E
100
AcDbEntity
  8
0
100
AcDbLine
 10
381.065
 20
9.2229155
 30
0.0
 11
382.48
 21
9.2229155
 31
0.0
  0
LINE
  5
B36
330
1E
100
AcDbEntity
  8
0
100
AcDbLine
 10
377.143
 20
9.3498355
 30
0.0
 11
378.474
 21
9.2229155
 31
0.0
  0
LINE
  5
B37
330
1E
100
AcDbEntity
  8
0
100
AcDbLine
 10
390.446
 20
8.8287555
 30
0.0
 11
391.271
 21
8.1491755
 31
0.0
  0
LINE
  5
B38
330
1E
100
AcDbEntity
  8
0
100
AcDbLine
 10
391.271
 20
8.1491755
 30
0.0
 11
391.552921649406
 21
7.1056955
 31
0.0
  0
LINE
  5
B39
330
1E
100
AcDbEntity
  8
0
100
AcDbLine
 10
389.708
 20
8.9982855
 30
0.0
 11
390.446
 21
8.8287555
 31
0.0
  0
LINE
  5
B3A
330
1E
100
AcDbEntity
  8
0
100
AcDbLine
 10
383.264
 20
9.2229155
 30
0.0
 11
384.335
 21
9.2229155
 31
0.0
  0
LINE
  5
B3B
330
1E
100
AcDbEntity
  8
0
100
AcDbLine
 10
381.81
 20
9.2229155
 30
0.0
 11
383.264
 21
9.2229155
 31
0.0
  0
LINE
  5
B3C
330
1E
100
AcDbEntity
  8
0
100
AcDbLine
 10
382.48
 20
9.2229155
 30
0.0
 11
383.63
 21
9.2229155
 31
0.0
  0
LINE
  5
B3D
330
1E
100
AcDbEntity
  8
0
100
AcDbLine
 10
385.006
 20
9.2229155
 30
0.0
 11
385.27
 21
9.2229155
 31
0.0
  0
LINE
  5
B3E
330
1E
100
AcDbEntity
  8
0
100
AcDbLine
 10
384.335
 20
9.2229155
 30
0.0
 11
385.006
 21
9.2229155
 31
0.0
  0
LINE
  5
B3F
330
1E
100
AcDbEntity
  8
0
100
AcDbLine
 10
383.63
 20
9.2229155
 30
0.0
 11
384.504
 21
9.2229155
 31
0.0
  0
LINE
  5
B40
330
1E
100
AcDbEntity
  8
0
100
AcDbLine
 10
384.504
 20
9.2229155
 30
0.0
 11
385.091
 21
9.2229155
 31
0.0
  0
LINE
  5
B41
330
1E
100
AcDbEntity
  8
0
100
AcDbLine
 10
385.387
 20
9.2229155
 30
0.0
 11
389.708
 21
8.9982855
 31
0.0
  0
LINE
  5
B42
330
1E
100
AcDbEntity
  8
0
100
AcDbLine
 10
385.091
 20
9.2229155
 30
0.0
 11
385.387
 21
9.2229155
 31
0.0
  0
LINE
  5
B43
330
1E
100
AcDbEntity
  8
0
100
AcDbLine
 10
375.021
 20
10.3132155
 30
0.0
 11
377.143
 21
9.3498355
 31
0.0
  0
LINE
  5
B44
330
1E
100
AcDbEntity
  8
0
100
AcDbLine
 10
339.228107834354
 20
10.714307768644
 30
0.0
 11
340.343
 21
11.9400155
 31
0.0
  0
LINE
  5
B45
330
1E
100
AcDbEntity
  8
0
100
AcDbLine
 10
373.707175682719
 20
11.740491011561
 30
0.0
 11
375.021
 21
10.3132155
 31
0.0
  0
LINE
  5
B46
330
1E
100
AcDbEntity
  8
0
100
AcDbLine
 10
340.343
 20
11.9400155
 30
0.0
 11
340.918
 21
13.4534155
 31
0.0
  0
LINE
  5
B47
330
1E
100
AcDbEntity
  8
0
100
AcDbLine
 10
373.353186137138
 20
12.481567434747
 30
0.0
 11
373.707175682719
 21
11.740491011561
 31
0.0
  0
LINE
  5
B48
330
1E
100
AcDbEntity
  8
0
100
AcDbLine
 10
340.918
 20
13.4534155
 30
0.0
 11
340.974
 21
14.2229155
 31
0.0
  0
LINE
  5
B49
330
1E
100
AcDbEntity
  8
0
100
AcDbLine
 10
340.918
 20
13.4533155
 30
0.0
 11
340.974
 21
14.2229155
 31
0.0
  0
LINE
  5
B4A
330
1E
100
AcDbEntity
  8
0
100
AcDbLine
 10
340.974
 20
14.2229155
 30
0.0
 11
340.974
 21
44.959764106811
 31
0.0
  0
LINE
  5
B4B
330
1E
100
AcDbEntity
  8
0
100
AcDbLine
 10
372.974
 20
14.2229155
 30
0.0
 11
372.991351854483
 21
13.933646738196
 31
0.0
  0
LINE
  5
B4C
330
1E
100
AcDbEntity
  8
0
100
AcDbLine
 10
342.717
 20
40.3238155
 30
0.0
 11
344.029
 21
38.9478155
 31
0.0
  0
LINE
  5
B4D
330
1E
100
AcDbEntity
  8
0
100
AcDbLine
 10
340.965
 20
45.0016155
 30
0.0
 11
340.983343998511
 21
45.568894294785
 31
0.0
  0
LINE
  5
B4E
330
1E
100
AcDbEntity
  8
0
100
AcDbLine
 10
340.965
 20
45.0016155
 30
0.0
 11
341.288
 21
43.4996155
 31
0.0
  0
LINE
  5
B4F
330
1E
100
AcDbEntity
  8
0
100
AcDbLine
 10
341.288
 20
43.4996155
 30
0.0
 11
341.94
 21
42.0484155
 31
0.0
  0
LINE
  5
B50
330
1E
100
AcDbEntity
  8
0
100
AcDbLine
 10
341.94
 20
42.0484155
 30
0.0
 11
342.912
 21
40.6634155
 31
0.0
  0
LINE
  5
B51
330
1E
100
AcDbEntity
  8
0
100
AcDbLine
 10
341.757
 20
41.8150155
 30
0.0
 11
342.717
 21
40.3238155
 31
0.0
  0
LINE
  5
B52
330
1E
100
AcDbEntity
  8
0
100
AcDbLine
 10
341.171
 20
43.3843155
 30
0.0
 11
341.757
 21
41.8150155
 31
0.0
  0
LINE
  5
B53
330
1E
100
AcDbEntity
  8
0
100
AcDbLine
 10
340.983511747885
 20
44.915533006738
 30
0.0
 11
341.171
 21
43.3843155
 31
0.0
  0
LINE
  5
B54
330
1E
100
AcDbEntity
  8
0
100
AcDbLine
 10
340.974
 20
44.959764106811
 30
0.0
 11
340.974
 21
14.2229155
 31
0.0
  0
LINE
  5
B55
330
1E
100
AcDbEntity
  8
0
100
AcDbLine
 10
342.912
 20
40.6634155
 30
0.0
 11
345.727
 21
38.2445155
 31
0.0
  0
LINE
  5
B56
330
1E
100
AcDbEntity
  8
0
100
AcDbLine
 10
352.03
 20
35.2119155
 30
0.0
 11
354.471
 21
34.8349155
 31
0.0
  0
LINE
  5
B57
330
1E
100
AcDbEntity
  8
0
100
AcDbLine
 10
354.471
 20
34.8349155
 30
0.0
 11
356.974
 21
34.7084155
 31
0.0
  0
LINE
  5
B58
330
1E
100
AcDbEntity
  8
0
100
AcDbLine
 10
345.66
 20
37.7206155
 30
0.0
 11
347.569
 21
36.6726155
 31
0.0
  0
LINE
  5
B59
330
1E
100
AcDbEntity
  8
0
100
AcDbLine
 10
355.546
 20
35.3293155
 30
0.0
 11
359.469
 21
35.4347155
 31
0.0
  0
LINE
  5
B5A
330
1E
100
AcDbEntity
  8
0
100
AcDbLine
 10
347.125
 20
37.5169155
 30
0.0
 11
348.371
 21
36.9343155
 31
0.0
  0
LINE
  5
B5B
330
1E
100
AcDbEntity
  8
0
100
AcDbLine
 10
348.651250898714
 20
36.828562433254
 30
0.0
 11
351.714
 21
35.8798155
 31
0.0
  0
LINE
  5
B5C
330
1E
100
AcDbEntity
  8
0
100
AcDbLine
 10
351.714
 20
35.8798155
 30
0.0
 11
355.546
 21
35.3293155
 31
0.0
  0
LINE
  5
B5D
330
1E
100
AcDbEntity
  8
0
100
AcDbLine
 10
348.371
 20
36.9342155
 30
0.0
 11
348.651988852678
 21
36.828205108177
 31
0.0
  0
LINE
  5
B5E
330
1E
100
AcDbEntity
  8
0
100
AcDbLine
 10
348.371
 20
36.9343155
 30
0.0
 11
348.651250898714
 21
36.828562433254
 31
0.0
  0
LINE
  5
B5F
330
1E
100
AcDbEntity
  8
0
100
AcDbLine
 10
347.569
 20
36.6726155
 30
0.0
 11
349.71
 21
35.8292155
 31
0.0
  0
LINE
  5
B60
330
1E
100
AcDbEntity
  8
0
100
AcDbLine
 10
349.71
 20
35.8292155
 30
0.0
 11
352.03
 21
35.2119155
 31
0.0
  0
LINE
  5
B61
330
1E
100
AcDbEntity
  8
0
100
AcDbLine
 10
356.974
 20
34.7086155
 30
0.0
 11
360.72
 21
34.9618155
 31
0.0
  0
LINE
  5
B62
330
1E
100
AcDbEntity
  8
0
100
AcDbLine
 10
359.469
 20
35.4347155
 30
0.0
 11
363.253
 21
36.1107155
 31
0.0
  0
LINE
  5
B63
330
1E
100
AcDbEntity
  8
0
100
AcDbLine
 10
344.029
 20
38.9478155
 30
0.0
 11
345.66
 21
37.7206155
 31
0.0
  0
LINE
  5
B64
330
1E
100
AcDbEntity
  8
0
100
AcDbLine
 10
345.203
 20
52.9463155
 30
0.0
 11
346.937
 21
51.9215155
 31
0.0
  0
LINE
  5
B65
330
1E
100
AcDbEntity
  8
0
100
AcDbLine
 10
353.6
 20
49.8496155
 30
0.0
 11
356.543
 21
49.6227155
 31
0.0
  0
LINE
  5
B66
330
1E
100
AcDbEntity
  8
0
100
AcDbLine
 10
350.257
 20
50.5827155
 30
0.0
 11
353.6
 21
49.8496155
 31
0.0
  0
LINE
  5
B67
330
1E
100
AcDbEntity
  8
0
100
AcDbLine
 10
356.543
 20
49.6227155
 30
0.0
 11
358.692
 21
49.6830155
 31
0.0
  0
LINE
  5
B68
330
1E
100
AcDbEntity
  8
0
100
AcDbLine
 10
358.692
 20
49.6830155
 30
0.0
 11
362.154
 21
50.1388155
 31
0.0
  0
LINE
  5
B69
330
1E
100
AcDbEntity
  8
0
100
AcDbLine
 10
346.937
 20
51.9215155
 30
0.0
 11
348.206
 21
51.3278155
 31
0.0
  0
LINE
  5
B6A
330
1E
100
AcDbEntity
  8
0
100
AcDbLine
 10
348.206
 20
51.3278155
 30
0.0
 11
350.257
 21
50.5827155
 31
0.0
  0
LINE
  5
B6B
330
1E
100
AcDbEntity
  8
0
100
AcDbLine
 10
351.048
 20
54.5084155
 30
0.0
 11
353.928
 21
53.7543155
 31
0.0
  0
LINE
  5
B6C
330
1E
100
AcDbEntity
  8
0
100
AcDbLine
 10
353.928
 20
53.7543155
 30
0.0
 11
357.0
 21
53.3998155
 31
0.0
  0
LINE
  5
B6D
330
1E
100
AcDbEntity
  8
0
100
AcDbLine
 10
357.0
 20
53.3998155
 30
0.0
 11
360.072
 21
53.7543155
 31
0.0
  0
LINE
  5
B6E
330
1E
100
AcDbEntity
  8
0
100
AcDbLine
 10
364.238
 20
35.8294155
 30
0.0
 11
367.394
 21
37.1470155
 31
0.0
  0
LINE
  5
B6F
330
1E
100
AcDbEntity
  8
0
100
AcDbLine
 10
363.253
 20
36.1107155
 30
0.0
 11
366.634
 21
37.3918155
 31
0.0
  0
LINE
  5
B70
330
1E
100
AcDbEntity
  8
0
100
AcDbLine
 10
360.72
 20
34.9618155
 30
0.0
 11
364.238
 21
35.8294155
 31
0.0
  0
LINE
  5
B71
330
1E
100
AcDbEntity
  8
0
100
AcDbLine
 10
362.154
 20
50.1388155
 30
0.0
 11
365.351
 21
51.1350155
 31
0.0
  0
LINE
  5
B72
330
1E
100
AcDbEntity
  8
0
100
AcDbLine
 10
365.351
 20
51.1350155
 30
0.0
 11
367.839
 21
52.3645155
 31
0.0
  0
LINE
  5
B73
330
1E
100
AcDbEntity
  8
0
100
AcDbLine
 10
360.072
 20
53.7543155
 30
0.0
 11
362.952
 21
54.5084155
 31
0.0
  0
LINE
  5
B74
330
1E
100
AcDbEntity
  8
0
100
AcDbLine
 10
342.898
 20
54.9862155
 30
0.0
 11
345.203
 21
52.9463155
 31
0.0
  0
LINE
  5
B75
330
1E
100
AcDbEntity
  8
0
100
AcDbLine
 10
348.552
 20
55.7501155
 30
0.0
 11
351.048
 21
54.5084155
 31
0.0
  0
LINE
  5
B76
330
1E
100
AcDbEntity
  8
0
100
AcDbLine
 10
348.552
 20
55.7501155
 30
0.0
 11
349.224
 21
55.4063155
 31
0.0
  0
LINE
  5
B77
330
1E
100
AcDbEntity
  8
0
100
AcDbLine
 10
364.776
 20
55.4063155
 30
0.0
 11
365.448
 21
55.7501155
 31
0.0
  0
LINE
  5
B78
330
1E
100
AcDbEntity
  8
0
100
AcDbLine
 10
362.952
 20
54.5084155
 30
0.0
 11
365.448
 21
55.7501155
 31
0.0
  0
LINE
  5
B79
330
1E
100
AcDbEntity
  8
0
100
AcDbLine
 10
367.394
 20
37.1470155
 30
0.0
 11
370.66
 21
39.6050155
 31
0.0
  0
LINE
  5
B7A
330
1E
100
AcDbEntity
  8
0
100
AcDbLine
 10
366.634
 20
37.3918155
 30
0.0
 11
369.475
 21
39.1345155
 31
0.0
  0
LINE
  5
B7B
330
1E
100
AcDbEntity
  8
0
100
AcDbLine
 10
368.176
 20
38.3056155
 30
0.0
 11
368.470434782115
 21
38.518304375323
 31
0.0
  0
LINE
  5
B7C
330
1E
100
AcDbEntity
  8
0
100
AcDbLine
 10
368.176
 20
38.3055155
 30
0.0
 11
368.472740610168
 21
38.519718795086
 31
0.0
  0
LINE
  5
B7D
330
1E
100
AcDbEntity
  8
0
100
AcDbLine
 10
369.475
 20
39.1345155
 30
0.0
 11
371.86
 21
41.7463155
 31
0.0
  0
LINE
  5
B7E
330
1E
100
AcDbEntity
  8
0
100
AcDbLine
 10
370.66
 20
39.6050155
 30
0.0
 11
372.582
 21
42.5901155
 31
0.0
  0
LINE
  5
B7F
330
1E
100
AcDbEntity
  8
0
100
AcDbLine
 10
367.839
 20
52.3645155
 30
0.0
 11
370.617
 21
54.4877155
 31
0.0
  0
LINE
  5
B80
330
1E
100
AcDbEntity
  8
0
100
AcDbLine
 10
370.617
 20
54.4877155
 30
0.0
 11
371.998
 21
56.3104155
 31
0.0
  0
LINE
  5
B81
330
1E
100
AcDbEntity
  8
0
100
AcDbLine
 10
371.86
 20
41.7463155
 30
0.0
 11
372.961
 21
44.6898155
 31
0.0
  0
LINE
  5
B82
330
1E
100
AcDbEntity
  8
0
100
AcDbLine
 10
372.582
 20
42.5901155
 30
0.0
 11
372.896333282945
 21
44.516930412214
 31
0.0
  0
LINE
  5
B83
330
1E
100
AcDbEntity
  8
0
100
AcDbLine
 10
372.961
 20
44.6898155
 30
0.0
 11
372.979637057189
 21
59.23623481571
 31
0.0
  0
LINE
  5
B84
330
1E
100
AcDbEntity
  8
0
100
AcDbLine
 10
371.998
 20
56.3104155
 30
0.0
 11
372.599
 21
57.5209155
 31
0.0
  0
LINE
  5
B85
330
1E
100
AcDbEntity
  8
0
100
AcDbLine
 10
365.448
 20
55.7501155
 30
0.0
 11
367.368
 21
57.3031155
 31
0.0
  0
LINE
  5
B86
330
1E
100
AcDbEntity
  8
0
100
AcDbLine
 10
341.706
 20
56.8557155
 30
0.0
 11
342.896
 21
54.9893155
 31
0.0
  0
LINE
  5
B87
330
1E
100
AcDbEntity
  8
0
100
AcDbLine
 10
346.632
 20
57.3031155
 30
0.0
 11
348.552
 21
55.7501155
 31
0.0
  0
LINE
  5
B88
330
1E
100
AcDbEntity
  8
0
100
AcDbLine
 10
340.967
 20
60.3424155
 30
0.0
 11
341.244
 21
61.8294155
 31
0.0
  0
LINE
  5
B89
330
1E
100
AcDbEntity
  8
0
100
AcDbLine
 10
340.967
 20
60.3424155
 30
0.0
 11
341.15
 21
58.3273155
 31
0.0
  0
LINE
  5
B8A
330
1E
100
AcDbEntity
  8
0
100
AcDbLine
 10
341.15
 20
58.3273155
 30
0.0
 11
341.706
 21
56.8557155
 31
0.0
  0
LINE
  5
B8B
330
1E
100
AcDbEntity
  8
0
100
AcDbLine
 10
341.244
 20
61.8294155
 30
0.0
 11
341.49
 21
62.5886155
 31
0.0
  0
LINE
  5
B8C
330
1E
100
AcDbEntity
  8
0
100
AcDbLine
 10
341.181600641377
 20
61.494441325731
 30
0.0
 11
341.204
 21
61.8531155
 31
0.0
  0
LINE
  5
B8D
330
1E
100
AcDbEntity
  8
0
100
AcDbLine
 10
341.400593749471
 20
62.204630184629
 30
0.0
 11
341.49
 21
62.5886155
 31
0.0
  0
LINE
  5
B8E
330
1E
100
AcDbEntity
  8
0
100
AcDbLine
 10
341.49
 20
62.5886155
 30
0.0
 11
341.70731624961
 21
62.93956875368
 31
0.0
  0
LINE
  5
B8F
330
1E
100
AcDbEntity
  8
0
100
AcDbLine
 10
341.49
 20
62.5886155
 30
0.0
 11
342.219
 21
64.1656155
 31
0.0
  0
LINE
  5
B90
330
1E
100
AcDbEntity
  8
0
100
AcDbLine
 10
341.204
 20
61.8531155
 30
0.0
 11
341.333594014034
 21
62.105918652255
 31
0.0
  0
LINE
  5
B91
330
1E
100
AcDbEntity
  8
0
100
AcDbLine
 10
345.384
 20
59.2106155
 30
0.0
 11
346.632
 21
57.3031155
 31
0.0
  0
LINE
  5
B92
330
1E
100
AcDbEntity
  8
0
100
AcDbLine
 10
345.0
 20
61.2064155
 30
0.0
 11
345.0
 21
133.2409155
 31
0.0
  0
LINE
  5
B93
330
1E
100
AcDbEntity
  8
0
100
AcDbLine
 10
345.0
 20
61.2064155
 30
0.0
 11
345.384
 21
59.2106155
 31
0.0
  0
LINE
  5
B94
330
1E
100
AcDbEntity
  8
0
100
AcDbLine
 10
367.368
 20
57.3031155
 30
0.0
 11
368.616
 21
59.2106155
 31
0.0
  0
LINE
  5
B95
330
1E
100
AcDbEntity
  8
0
100
AcDbLine
 10
372.599
 20
57.5209155
 30
0.0
 11
372.987
 21
59.2694155
 31
0.0
  0
LINE
  5
B96
330
1E
100
AcDbEntity
  8
0
100
AcDbLine
 10
372.758
 20
61.7882155
 30
0.0
 11
372.987
 21
59.2694155
 31
0.0
  0
LINE
  5
B97
330
1E
100
AcDbEntity
  8
0
100
AcDbLine
 10
372.770415338738
 20
61.601205480986
 30
0.0
 11
372.798
 21
61.5330155
 31
0.0
  0
LINE
  5
B98
330
1E
100
AcDbEntity
  8
0
100
AcDbLine
 10
369.0
 20
61.2064155
 30
0.0
 11
369.0
 21
133.2409155
 31
0.0
  0
LINE
  5
B99
330
1E
100
AcDbEntity
  8
0
100
AcDbLine
 10
368.616
 20
59.2106155
 30
0.0
 11
369.0
 21
61.2064155
 31
0.0
  0
LINE
  5
B9A
330
1E
100
AcDbEntity
  8
0
100
AcDbLine
 10
342.219
 20
64.1656155
 30
0.0
 11
342.935
 21
65.3167155
 31
0.0
  0
LINE
  5
B9B
330
1E
100
AcDbEntity
  8
0
100
AcDbLine
 10
369.0
 20
67.199456262463
 30
0.0
 11
370.822
 21
65.5738155
 31
0.0
  0
LINE
  5
B9C
330
1E
100
AcDbEntity
  8
0
100
AcDbLine
 10
343.885
 20
66.0351155
 30
0.0
 11
345.0
 21
67.018954871981
 31
0.0
  0
LINE
  5
B9D
330
1E
100
AcDbEntity
  8
0
100
AcDbLine
 10
342.935
 20
65.3167155
 30
0.0
 11
345.0
 21
67.186931812057
 31
0.0
  0
LINE
  5
B9E
330
1E
100
AcDbEntity
  8
0
100
AcDbLine
 10
370.822
 20
65.5738155
 30
0.0
 11
371.632
 21
64.3384155
 31
0.0
  0
LINE
  5
B9F
330
1E
100
AcDbEntity
  8
0
100
AcDbLine
 10
371.632
 20
64.3384155
 30
0.0
 11
372.181
 21
63.2659155
 31
0.0
  0
LINE
  5
BA0
330
1E
100
AcDbEntity
  8
0
100
AcDbLine
 10
372.181
 20
63.2659155
 30
0.0
 11
372.758
 21
61.7882155
 31
0.0
  0
LINE
  5
BA1
330
1E
100
AcDbEntity
  8
0
100
AcDbLine
 10
322.33
 20
147.5429155
 30
0.0
 11
322.33
 21
148.1599155
 31
0.0
  0
LINE
  5
BA2
330
1E
100
AcDbEntity
  8
0
100
AcDbLine
 10
320.87
 20
147.5429155
 30
0.0
 11
320.87
 21
148.439149996683
 31
0.0
  0
LINE
  5
BA3
330
1E
100
AcDbEntity
  8
0
100
AcDbLine
 10
320.87
 20
147.5429155
 30
0.0
 11
320.87
 21
148.1599155
 31
0.0
  0
LINE
  5
BA4
330
1E
100
AcDbEntity
  8
0
100
AcDbLine
 10
320.87
 20
147.5429155
 30
0.0
 11
322.33
 21
147.5429155
 31
0.0
  0
LINE
  5
BA5
330
1E
100
AcDbEntity
  8
0
100
AcDbLine
 10
322.33
 20
148.1599155
 30
0.0
 11
322.33
 21
148.961093144711
 31
0.0
  0
LINE
  5
BA6
330
1E
100
AcDbEntity
  8
0
100
AcDbLine
 10
322.33
 20
148.1599155
 30
0.0
 11
322.33
 21
147.5429155
 31
0.0
  0
LINE
  5
BA7
330
1E
100
AcDbEntity
  8
0
100
AcDbLine
 10
320.87
 20
148.439149996683
 30
0.0
 11
320.87
 21
147.5429155
 31
0.0
  0
LINE
  5
BA8
330
1E
100
AcDbEntity
  8
0
100
AcDbLine
 10
322.33
 20
148.961093144711
 30
0.0
 11
322.33
 21
148.1599155
 31
0.0
  0
LINE
  5
BA9
330
1E
100
AcDbEntity
  8
0
100
AcDbLine
 10
320.87
 20
148.611127621212
 30
0.0
 11
320.87
 21
148.1599155
 31
0.0
  0
LINE
  5
BAA
330
1E
100
AcDbEntity
  8
0
100
AcDbLine
 10
320.87
 20
148.1599155
 30
0.0
 11
320.87
 21
147.5429155
 31
0.0
  0
LINE
  5
BAB
330
1E
100
AcDbEntity
  8
0
100
AcDbLine
 10
320.87
 20
148.1599155
 30
0.0
 11
320.87
 21
148.611127621212
 31
0.0
  0
LINE
  5
BAC
330
1E
100
AcDbEntity
  8
0
100
AcDbLine
 10
320.87
 20
148.1599155
 30
0.0
 11
322.33
 21
148.1599155
 31
0.0
  0
LINE
  5
BAD
330
1E
100
AcDbEntity
  8
0
100
AcDbLine
 10
319.701
 20
148.3309155
 30
0.0
 11
320.87
 21
147.775161401639
 31
0.0
  0
LINE
  5
BAE
330
1E
100
AcDbEntity
  8
0
100
AcDbLine
 10
321.358517241379
 20
147.5429155
 30
0.0
 11
323.788
 21
146.3879155
 31
0.0
  0
LINE
  5
BAF
330
1E
100
AcDbEntity
  8
0
100
AcDbLine
 10
317.949
 20
147.7759155
 30
0.0
 11
322.182
 21
145.7089155
 31
0.0
  0
LINE
  5
BB0
330
1E
100
AcDbEntity
  8
0
100
AcDbLine
 10
316.084
 20
150.9749155
 30
0.0
 11
316.084
 21
151.5919155
 31
0.0
  0
LINE
  5
BB1
330
1E
100
AcDbEntity
  8
0
100
AcDbLine
 10
316.084
 20
150.9749155
 30
0.0
 11
317.544
 21
150.9749155
 31
0.0
  0
LINE
  5
BB2
330
1E
100
AcDbEntity
  8
0
100
AcDbLine
 10
316.084
 20
152.780891304253
 30
0.0
 11
316.084
 21
151.5919155
 31
0.0
  0
LINE
  5
BB3
330
1E
100
AcDbEntity
  8
0
100
AcDbLine
 10
317.544
 20
151.5919155
 30
0.0
 11
317.544
 21
152.74894882879
 31
0.0
  0
LINE
  5
BB4
330
1E
100
AcDbEntity
  8
0
100
AcDbLine
 10
317.544
 20
151.5919155
 30
0.0
 11
317.544
 21
150.9749155
 31
0.0
  0
LINE
  5
BB5
330
1E
100
AcDbEntity
  8
0
100
AcDbLine
 10
317.544
 20
150.9749155
 30
0.0
 11
317.544
 21
151.5919155
 31
0.0
  0
LINE
  5
BB6
330
1E
100
AcDbEntity
  8
0
100
AcDbLine
 10
317.544
 20
152.74894882879
 30
0.0
 11
317.544
 21
151.5919155
 31
0.0
  0
LINE
  5
BB7
330
1E
100
AcDbEntity
  8
0
100
AcDbLine
 10
316.084
 20
151.5919155
 30
0.0
 11
316.084
 21
150.9749155
 31
0.0
  0
LINE
  5
BB8
330
1E
100
AcDbEntity
  8
0
100
AcDbLine
 10
316.084
 20
151.5919155
 30
0.0
 11
316.084
 21
152.780891304253
 31
0.0
  0
LINE
  5
BB9
330
1E
100
AcDbEntity
  8
0
100
AcDbLine
 10
316.084
 20
151.5919155
 30
0.0
 11
317.544
 21
151.5919155
 31
0.0
  0
LINE
  5
BBA
330
1E
100
AcDbEntity
  8
0
100
AcDbLine
 10
316.197
 20
150.5209155
 30
0.0
 11
319.701
 21
148.3309155
 31
0.0
  0
LINE
  5
BBB
330
1E
100
AcDbEntity
  8
0
100
AcDbLine
 10
313.569
 20
152.8359155
 30
0.0
 11
316.197
 21
150.5209155
 31
0.0
  0
LINE
  5
BBC
330
1E
100
AcDbEntity
  8
0
100
AcDbLine
 10
314.299
 20
150.0589155
 30
0.0
 11
317.949
 21
147.7759155
 31
0.0
  0
LINE
  5
BBD
330
1E
100
AcDbEntity
  8
0
100
AcDbLine
 10
311.599
 20
152.4659155
 30
0.0
 11
314.299
 21
150.0589155
 31
0.0
  0
LINE
  5
BBE
330
1E
100
AcDbEntity
  8
0
100
AcDbLine
 10
323.14
 20
154.6729155
 30
0.0
 11
323.14
 21
155.2899155
 31
0.0
  0
LINE
  5
BBF
330
1E
100
AcDbEntity
  8
0
100
AcDbLine
 10
321.68
 20
154.6729155
 30
0.0
 11
321.68
 21
155.835826632739
 31
0.0
  0
LINE
  5
BC0
330
1E
100
AcDbEntity
  8
0
100
AcDbLine
 10
321.68
 20
154.6729155
 30
0.0
 11
321.68
 21
155.2899155
 31
0.0
  0
LINE
  5
BC1
330
1E
100
AcDbEntity
  8
0
100
AcDbLine
 10
321.68
 20
154.6729155
 30
0.0
 11
323.14
 21
154.6729155
 31
0.0
  0
LINE
  5
BC2
330
1E
100
AcDbEntity
  8
0
100
AcDbLine
 10
314.218
 20
155.0579155
 30
0.0
 11
314.218
 21
155.6749155
 31
0.0
  0
LINE
  5
BC3
330
1E
100
AcDbEntity
  8
0
100
AcDbLine
 10
312.759
 20
155.636795562888
 30
0.0
 11
312.759
 21
155.0579155
 31
0.0
  0
LINE
  5
BC4
330
1E
100
AcDbEntity
  8
0
100
AcDbLine
 10
323.14
 20
155.2899155
 30
0.0
 11
323.14
 21
155.86839981534
 31
0.0
  0
LINE
  5
BC5
330
1E
100
AcDbEntity
  8
0
100
AcDbLine
 10
323.14
 20
155.2899155
 30
0.0
 11
323.14
 21
154.6729155
 31
0.0
  0
LINE
  5
BC6
330
1E
100
AcDbEntity
  8
0
100
AcDbLine
 10
321.68
 20
155.2899155
 30
0.0
 11
321.68
 21
154.6729155
 31
0.0
  0
LINE
  5
BC7
330
1E
100
AcDbEntity
  8
0
100
AcDbLine
 10
321.68
 20
155.2899155
 30
0.0
 11
321.68
 21
155.835826632739
 31
0.0
  0
LINE
  5
BC8
330
1E
100
AcDbEntity
  8
0
100
AcDbLine
 10
321.68
 20
155.2899155
 30
0.0
 11
323.14
 21
155.2899155
 31
0.0
  0
LINE
  5
BC9
330
1E
100
AcDbEntity
  8
0
100
AcDbLine
 10
323.14
 20
155.86839981534
 30
0.0
 11
323.14
 21
155.2899155
 31
0.0
  0
LINE
  5
BCA
330
1E
100
AcDbEntity
  8
0
100
AcDbLine
 10
321.68
 20
155.835826632739
 30
0.0
 11
321.68
 21
155.2899155
 31
0.0
  0
LINE
  5
BCB
330
1E
100
AcDbEntity
  8
0
100
AcDbLine
 10
321.68
 20
155.835826632739
 30
0.0
 11
321.68
 21
154.6729155
 31
0.0
  0
LINE
  5
BCC
330
1E
100
AcDbEntity
  8
0
100
AcDbLine
 10
314.218
 20
155.6749155
 30
0.0
 11
314.218
 21
155.0579155
 31
0.0
  0
LINE
  5
BCD
330
1E
100
AcDbEntity
  8
0
100
AcDbLine
 10
312.759
 20
155.6749155
 30
0.0
 11
312.759
 21
155.0579155
 31
0.0
  0
LINE
  5
BCE
330
1E
100
AcDbEntity
  8
0
100
AcDbLine
 10
312.759
 20
155.6749155
 30
0.0
 11
314.218
 21
155.6749155
 31
0.0
  0
LINE
  5
BCF
330
1E
100
AcDbEntity
  8
0
100
AcDbLine
 10
312.759
 20
155.0579155
 30
0.0
 11
312.759
 21
155.636795562888
 31
0.0
  0
LINE
  5
BD0
330
1E
100
AcDbEntity
  8
0
100
AcDbLine
 10
312.759
 20
155.0579155
 30
0.0
 11
312.759
 21
155.6749155
 31
0.0
  0
LINE
  5
BD1
330
1E
100
AcDbEntity
  8
0
100
AcDbLine
 10
312.759
 20
155.0579155
 30
0.0
 11
314.218
 21
155.0579155
 31
0.0
  0
LINE
  5
BD2
330
1E
100
AcDbEntity
  8
0
100
AcDbLine
 10
311.599
 20
155.6109155
 30
0.0
 11
313.569
 21
152.8359155
 31
0.0
  0
LINE
  5
BD3
330
1E
100
AcDbEntity
  8
0
100
AcDbLine
 10
310.869
 20
153.2479155
 30
0.0
 11
311.599
 21
152.4659155
 31
0.0
  0
LINE
  5
BD4
330
1E
100
AcDbEntity
  8
0
100
AcDbLine
 10
309.482
 20
155.1799155
 30
0.0
 11
311.599
 21
152.4659155
 31
0.0
  0
LINE
  5
BD5
330
1E
100
AcDbEntity
  8
0
100
AcDbLine
 10
311.38
 20
160.14418389036
 30
0.0
 11
311.38
 21
159.2099155
 31
0.0
  0
LINE
  5
BD6
330
1E
100
AcDbEntity
  8
0
100
AcDbLine
 10
311.38
 20
160.517672262453
 30
0.0
 11
311.38
 21
159.8269155
 31
0.0
  0
LINE
  5
BD7
330
1E
100
AcDbEntity
  8
0
100
AcDbLine
 10
311.38
 20
159.8269155
 30
0.0
 11
311.38
 21
159.2099155
 31
0.0
  0
LINE
  5
BD8
330
1E
100
AcDbEntity
  8
0
100
AcDbLine
 10
311.38
 20
159.8269155
 30
0.0
 11
311.38
 21
160.517672262453
 31
0.0
  0
LINE
  5
BD9
330
1E
100
AcDbEntity
  8
0
100
AcDbLine
 10
311.38
 20
159.8269155
 30
0.0
 11
312.839
 21
159.8269155
 31
0.0
  0
LINE
  5
BDA
330
1E
100
AcDbEntity
  8
0
100
AcDbLine
 10
312.839
 20
159.8269155
 30
0.0
 11
312.839
 21
160.611364807946
 31
0.0
  0
LINE
  5
BDB
330
1E
100
AcDbEntity
  8
0
100
AcDbLine
 10
312.839
 20
159.8269155
 30
0.0
 11
312.839
 21
159.2099155
 31
0.0
  0
LINE
  5
BDC
330
1E
100
AcDbEntity
  8
0
100
AcDbLine
 10
321.599
 20
158.7559155
 30
0.0
 11
321.599
 21
159.3729155
 31
0.0
  0
LINE
  5
BDD
330
1E
100
AcDbEntity
  8
0
100
AcDbLine
 10
320.139
 20
159.756305606721
 30
0.0
 11
320.139
 21
159.3729155
 31
0.0
  0
LINE
  5
BDE
330
1E
100
AcDbEntity
  8
0
100
AcDbLine
 10
320.139
 20
159.756305606721
 30
0.0
 11
320.139
 21
158.7559155
 31
0.0
  0
LINE
  5
BDF
330
1E
100
AcDbEntity
  8
0
100
AcDbLine
 10
321.599
 20
159.3729155
 30
0.0
 11
321.599
 21
159.66092343193
 31
0.0
  0
LINE
  5
BE0
330
1E
100
AcDbEntity
  8
0
100
AcDbLine
 10
321.599
 20
159.3729155
 30
0.0
 11
321.599
 21
158.7559155
 31
0.0
  0
LINE
  5
BE1
330
1E
100
AcDbEntity
  8
0
100
AcDbLine
 10
321.599
 20
159.66092343193
 30
0.0
 11
321.599
 21
159.3729155
 31
0.0
  0
LINE
  5
BE2
330
1E
100
AcDbEntity
  8
0
100
AcDbLine
 10
320.139
 20
159.3729155
 30
0.0
 11
320.139
 21
158.7559155
 31
0.0
  0
LINE
  5
BE3
330
1E
100
AcDbEntity
  8
0
100
AcDbLine
 10
320.139
 20
159.3729155
 30
0.0
 11
320.139
 21
159.756305606721
 31
0.0
  0
LINE
  5
BE4
330
1E
100
AcDbEntity
  8
0
100
AcDbLine
 10
320.139
 20
159.3729155
 30
0.0
 11
321.599
 21
159.3729155
 31
0.0
  0
LINE
  5
BE5
330
1E
100
AcDbEntity
  8
0
100
AcDbLine
 10
320.139
 20
158.7559155
 30
0.0
 11
320.139
 21
159.756305606721
 31
0.0
  0
LINE
  5
BE6
330
1E
100
AcDbEntity
  8
0
100
AcDbLine
 10
320.139
 20
158.7559155
 30
0.0
 11
320.139
 21
159.3729155
 31
0.0
  0
LINE
  5
BE7
330
1E
100
AcDbEntity
  8
0
100
AcDbLine
 10
320.139
 20
158.7559155
 30
0.0
 11
321.599
 21
158.7559155
 31
0.0
  0
LINE
  5
BE8
330
1E
100
AcDbEntity
  8
0
100
AcDbLine
 10
312.839
 20
159.2099155
 30
0.0
 11
312.839
 21
159.8269155
 31
0.0
  0
LINE
  5
BE9
330
1E
100
AcDbEntity
  8
0
100
AcDbLine
 10
312.839
 20
160.611364807946
 30
0.0
 11
312.839
 21
159.8269155
 31
0.0
  0
LINE
  5
BEA
330
1E
100
AcDbEntity
  8
0
100
AcDbLine
 10
311.38
 20
159.2099155
 30
0.0
 11
311.38
 21
160.14418389036
 31
0.0
  0
LINE
  5
BEB
330
1E
100
AcDbEntity
  8
0
100
AcDbLine
 10
311.38
 20
159.2099155
 30
0.0
 11
311.38
 21
159.8269155
 31
0.0
  0
LINE
  5
BEC
330
1E
100
AcDbEntity
  8
0
100
AcDbLine
 10
311.38
 20
159.2099155
 30
0.0
 11
312.839
 21
159.2099155
 31
0.0
  0
LINE
  5
BED
330
1E
100
AcDbEntity
  8
0
100
AcDbLine
 10
310.358
 20
157.8009155
 30
0.0
 11
311.599
 21
155.6109155
 31
0.0
  0
LINE
  5
BEE
330
1E
100
AcDbEntity
  8
0
100
AcDbLine
 10
309.92
 20
160.4239155
 30
0.0
 11
310.358
 21
157.8009155
 31
0.0
  0
LINE
  5
BEF
330
1E
100
AcDbEntity
  8
0
100
AcDbLine
 10
309.92
 20
160.4239155
 30
0.0
 11
310.358
 21
163.0459155
 31
0.0
  0
LINE
  5
BF0
330
1E
100
AcDbEntity
  8
0
100
AcDbLine
 10
308.241
 20
157.7399155
 30
0.0
 11
309.482
 21
155.1799155
 31
0.0
  0
LINE
  5
BF1
330
1E
100
AcDbEntity
  8
0
100
AcDbLine
 10
307.73
 20
160.4239155
 30
0.0
 11
308.241
 21
157.7399155
 31
0.0
  0
LINE
  5
BF2
330
1E
100
AcDbEntity
  8
0
100
AcDbLine
 10
307.73
 20
160.4239155
 30
0.0
 11
308.241
 21
163.1079155
 31
0.0
  0
LINE
  5
BF3
330
1E
100
AcDbEntity
  8
0
100
AcDbLine
 10
308.825
 20
155.8699155
 30
0.0
 11
310.869
 21
153.2479155
 31
0.0
  0
LINE
  5
BF4
330
1E
100
AcDbEntity
  8
0
100
AcDbLine
 10
307.511
 20
158.6159155
 30
0.0
 11
308.825
 21
155.8699155
 31
0.0
  0
LINE
  5
BF5
330
1E
100
AcDbEntity
  8
0
100
AcDbLine
 10
307.0
 20
161.3309155
 30
0.0
 11
307.511
 21
158.6159155
 31
0.0
  0
LINE
  5
BF6
330
1E
100
AcDbEntity
  8
0
100
AcDbLine
 10
307.0
 20
161.3309155
 30
0.0
 11
307.0
 21
180.3629155
 31
0.0
  0
LINE
  5
BF7
330
1E
100
AcDbEntity
  8
0
100
AcDbLine
 10
307.0
 20
161.3309155
 30
0.0
 11
307.511
 21
164.0449155
 31
0.0
  0
LINE
  5
BF8
330
1E
100
AcDbEntity
  8
0
100
AcDbLine
 10
326.141
 20
150.830339154137
 30
0.0
 11
326.141
 21
150.5909155
 31
0.0
  0
LINE
  5
BF9
330
1E
100
AcDbEntity
  8
0
100
AcDbLine
 10
326.141
 20
152.167240309034
 30
0.0
 11
326.141
 21
151.2079155
 31
0.0
  0
LINE
  5
BFA
330
1E
100
AcDbEntity
  8
0
100
AcDbLine
 10
326.141
 20
151.2079155
 30
0.0
 11
326.141
 21
150.5909155
 31
0.0
  0
LINE
  5
BFB
330
1E
100
AcDbEntity
  8
0
100
AcDbLine
 10
326.141
 20
151.2079155
 30
0.0
 11
326.141
 21
152.167240309034
 31
0.0
  0
LINE
  5
BFC
330
1E
100
AcDbEntity
  8
0
100
AcDbLine
 10
326.141
 20
151.2079155
 30
0.0
 11
327.601
 21
151.2079155
 31
0.0
  0
LINE
  5
BFD
330
1E
100
AcDbEntity
  8
0
100
AcDbLine
 10
326.141
 20
150.5909155
 30
0.0
 11
326.141
 21
150.830339154137
 31
0.0
  0
LINE
  5
BFE
330
1E
100
AcDbEntity
  8
0
100
AcDbLine
 10
326.141
 20
150.5909155
 30
0.0
 11
326.141
 21
151.2079155
 31
0.0
  0
LINE
  5
BFF
330
1E
100
AcDbEntity
  8
0
100
AcDbLine
 10
326.141
 20
150.5909155
 30
0.0
 11
327.601
 21
150.5909155
 31
0.0
  0
LINE
  5
C00
330
1E
100
AcDbEntity
  8
0
100
AcDbLine
 10
323.788
 20
146.3879155
 30
0.0
 11
327.278
 21
145.077363206023
 31
0.0
  0
LINE
  5
C01
330
1E
100
AcDbEntity
  8
0
100
AcDbLine
 10
322.182
 20
145.7089155
 30
0.0
 11
327.073
 21
143.9199155
 31
0.0
  0
LINE
  5
C02
330
1E
100
AcDbEntity
  8
0
100
AcDbLine
 10
333.558
 20
143.183059266885
 30
0.0
 11
333.558
 21
142.9749155
 31
0.0
  0
LINE
  5
C03
330
1E
100
AcDbEntity
  8
0
100
AcDbLine
 10
333.558
 20
142.9749155
 30
0.0
 11
334.822
 21
142.6659155
 31
0.0
  0
LINE
  5
C04
330
1E
100
AcDbEntity
  8
0
100
AcDbLine
 10
333.558
 20
142.9749155
 30
0.0
 11
333.558
 21
143.183059266885
 31
0.0
  0
LINE
  5
C05
330
1E
100
AcDbEntity
  8
0
100
AcDbLine
 10
333.558
 20
142.9749155
 30
0.0
 11
334.288
 21
143.5089155
 31
0.0
  0
LINE
  5
C06
330
1E
100
AcDbEntity
  8
0
100
AcDbLine
 10
327.278
 20
145.077363206023
 30
0.0
 11
327.278
 21
144.6959155
 31
0.0
  0
LINE
  5
C07
330
1E
100
AcDbEntity
  8
0
100
AcDbLine
 10
327.278
 20
145.3129155
 30
0.0
 11
327.278
 21
144.6959155
 31
0.0
  0
LINE
  5
C08
330
1E
100
AcDbEntity
  8
0
100
AcDbLine
 10
327.278
 20
145.3129155
 30
0.0
 11
328.738
 21
145.3129155
 31
0.0
  0
LINE
  5
C09
330
1E
100
AcDbEntity
  8
0
100
AcDbLine
 10
327.278
 20
144.6959155
 30
0.0
 11
327.278
 21
145.077363206023
 31
0.0
  0
LINE
  5
C0A
330
1E
100
AcDbEntity
  8
0
100
AcDbLine
 10
327.278
 20
144.6959155
 30
0.0
 11
327.278
 21
145.3129155
 31
0.0
  0
LINE
  5
C0B
330
1E
100
AcDbEntity
  8
0
100
AcDbLine
 10
327.278
 20
144.6959155
 30
0.0
 11
328.738
 21
144.6959155
 31
0.0
  0
LINE
  5
C0C
330
1E
100
AcDbEntity
  8
0
100
AcDbLine
 10
327.601
 20
151.2079155
 30
0.0
 11
327.601
 21
150.5909155
 31
0.0
  0
LINE
  5
C0D
330
1E
100
AcDbEntity
  8
0
100
AcDbLine
 10
327.601
 20
150.5909155
 30
0.0
 11
327.601
 21
151.2079155
 31
0.0
  0
LINE
  5
C0E
330
1E
100
AcDbEntity
  8
0
100
AcDbLine
 10
328.738
 20
145.3129155
 30
0.0
 11
328.738
 21
144.6959155
 31
0.0
  0
LINE
  5
C0F
330
1E
100
AcDbEntity
  8
0
100
AcDbLine
 10
328.738
 20
144.6959155
 30
0.0
 11
328.738
 21
145.3129155
 31
0.0
  0
LINE
  5
C10
330
1E
100
AcDbEntity
  8
0
100
AcDbLine
 10
331.495
 20
148.930650291944
 30
0.0
 11
331.495
 21
148.3939155
 31
0.0
  0
LINE
  5
C11
330
1E
100
AcDbEntity
  8
0
100
AcDbLine
 10
331.495
 20
148.930650291944
 30
0.0
 11
331.495
 21
147.7769155
 31
0.0
  0
LINE
  5
C12
330
1E
100
AcDbEntity
  8
0
100
AcDbLine
 10
331.495
 20
148.3939155
 30
0.0
 11
331.495
 21
147.7769155
 31
0.0
  0
LINE
  5
C13
330
1E
100
AcDbEntity
  8
0
100
AcDbLine
 10
331.495
 20
148.3939155
 30
0.0
 11
331.495
 21
148.930650291944
 31
0.0
  0
LINE
  5
C14
330
1E
100
AcDbEntity
  8
0
100
AcDbLine
 10
331.495
 20
148.3939155
 30
0.0
 11
332.955
 21
148.3939155
 31
0.0
  0
LINE
  5
C15
330
1E
100
AcDbEntity
  8
0
100
AcDbLine
 10
331.495
 20
147.7769155
 30
0.0
 11
331.495
 21
148.930650291944
 31
0.0
  0
LINE
  5
C16
330
1E
100
AcDbEntity
  8
0
100
AcDbLine
 10
331.495
 20
147.7769155
 30
0.0
 11
331.495
 21
148.3939155
 31
0.0
  0
LINE
  5
C17
330
1E
100
AcDbEntity
  8
0
100
AcDbLine
 10
331.495
 20
147.7769155
 30
0.0
 11
332.955
 21
147.7769155
 31
0.0
  0
LINE
  5
C18
330
1E
100
AcDbEntity
  8
0
100
AcDbLine
 10
332.955
 20
148.3939155
 30
0.0
 11
332.955
 21
149.41234132558
 31
0.0
  0
LINE
  5
C19
330
1E
100
AcDbEntity
  8
0
100
AcDbLine
 10
332.955
 20
148.3939155
 30
0.0
 11
332.955
 21
147.7769155
 31
0.0
  0
LINE
  5
C1A
330
1E
100
AcDbEntity
  8
0
100
AcDbLine
 10
332.955
 20
147.7769155
 30
0.0
 11
332.955
 21
148.3939155
 31
0.0
  0
LINE
  5
C1B
330
1E
100
AcDbEntity
  8
0
100
AcDbLine
 10
332.955
 20
149.41234132558
 30
0.0
 11
332.955
 21
148.3939155
 31
0.0
  0
LINE
  5
C1C
330
1E
100
AcDbEntity
  8
0
100
AcDbLine
 10
332.548
 20
154.5289155
 30
0.0
 11
332.548
 21
155.1449155
 31
0.0
  0
LINE
  5
C1D
330
1E
100
AcDbEntity
  8
0
100
AcDbLine
 10
331.088
 20
154.750789871859
 30
0.0
 11
331.088
 21
154.5289155
 31
0.0
  0
LINE
  5
C1E
330
1E
100
AcDbEntity
  8
0
100
AcDbLine
 10
331.088
 20
156.100804914548
 30
0.0
 11
331.088
 21
155.1449155
 31
0.0
  0
LINE
  5
C1F
330
1E
100
AcDbEntity
  8
0
100
AcDbLine
 10
332.548
 20
155.1449155
 30
0.0
 11
332.548
 21
156.146492870392
 31
0.0
  0
LINE
  5
C20
330
1E
100
AcDbEntity
  8
0
100
AcDbLine
 10
332.548
 20
155.1449155
 30
0.0
 11
332.548
 21
154.5289155
 31
0.0
  0
LINE
  5
C21
330
1E
100
AcDbEntity
  8
0
100
AcDbLine
 10
332.548
 20
156.146492870392
 30
0.0
 11
332.548
 21
155.1449155
 31
0.0
  0
LINE
  5
C22
330
1E
100
AcDbEntity
  8
0
100
AcDbLine
 10
331.088
 20
155.1449155
 30
0.0
 11
331.088
 21
154.5289155
 31
0.0
  0
LINE
  5
C23
330
1E
100
AcDbEntity
  8
0
100
AcDbLine
 10
331.088
 20
155.1449155
 30
0.0
 11
331.088
 21
156.100804914548
 31
0.0
  0
LINE
  5
C24
330
1E
100
AcDbEntity
  8
0
100
AcDbLine
 10
331.088
 20
155.1449155
 30
0.0
 11
332.548
 21
155.1449155
 31
0.0
  0
LINE
  5
C25
330
1E
100
AcDbEntity
  8
0
100
AcDbLine
 10
331.088
 20
154.5289155
 30
0.0
 11
331.088
 21
154.750789871859
 31
0.0
  0
LINE
  5
C26
330
1E
100
AcDbEntity
  8
0
100
AcDbLine
 10
331.088
 20
154.5289155
 30
0.0
 11
331.088
 21
155.1449155
 31
0.0
  0
LINE
  5
C27
330
1E
100
AcDbEntity
  8
0
100
AcDbLine
 10
331.088
 20
154.5289155
 30
0.0
 11
332.548
 21
154.5289155
 31
0.0
  0
LINE
  5
C28
330
1E
100
AcDbEntity
  8
0
100
AcDbLine
 10
330.358
 20
158.3029155
 30
0.0
 11
330.358
 21
158.9199155
 31
0.0
  0
LINE
  5
C29
330
1E
100
AcDbEntity
  8
0
100
AcDbLine
 10
328.898
 20
159.116741772833
 30
0.0
 11
328.898
 21
158.3029155
 31
0.0
  0
LINE
  5
C2A
330
1E
100
AcDbEntity
  8
0
100
AcDbLine
 10
328.898
 20
159.469010039448
 30
0.0
 11
328.898
 21
158.9199155
 31
0.0
  0
LINE
  5
C2B
330
1E
100
AcDbEntity
  8
0
100
AcDbLine
 10
330.358
 20
158.9199155
 30
0.0
 11
330.358
 21
159.455037050719
 31
0.0
  0
LINE
  5
C2C
330
1E
100
AcDbEntity
  8
0
100
AcDbLine
 10
330.358
 20
158.9199155
 30
0.0
 11
330.358
 21
158.3029155
 31
0.0
  0
LINE
  5
C2D
330
1E
100
AcDbEntity
  8
0
100
AcDbLine
 10
330.358
 20
159.455037050719
 30
0.0
 11
330.358
 21
158.9199155
 31
0.0
  0
LINE
  5
C2E
330
1E
100
AcDbEntity
  8
0
100
AcDbLine
 10
328.898
 20
158.9199155
 30
0.0
 11
328.898
 21
158.3029155
 31
0.0
  0
LINE
  5
C2F
330
1E
100
AcDbEntity
  8
0
100
AcDbLine
 10
328.898
 20
158.9199155
 30
0.0
 11
328.898
 21
159.469010039448
 31
0.0
  0
LINE
  5
C30
330
1E
100
AcDbEntity
  8
0
100
AcDbLine
 10
328.898
 20
158.9199155
 30
0.0
 11
330.358
 21
158.9199155
 31
0.0
  0
LINE
  5
C31
330
1E
100
AcDbEntity
  8
0
100
AcDbLine
 10
328.898
 20
158.3029155
 30
0.0
 11
328.898
 21
159.116741772833
 31
0.0
  0
LINE
  5
C32
330
1E
100
AcDbEntity
  8
0
100
AcDbLine
 10
328.898
 20
158.3029155
 30
0.0
 11
328.898
 21
158.9199155
 31
0.0
  0
LINE
  5
C33
330
1E
100
AcDbEntity
  8
0
100
AcDbLine
 10
328.898
 20
158.3029155
 30
0.0
 11
330.358
 21
158.3029155
 31
0.0
  0
LINE
  5
C34
330
1E
100
AcDbEntity
  8
0
100
AcDbLine
 10
328.293795020266
 20
144.6959155
 30
0.0
 11
328.387
 21
144.6609155
 31
0.0
  0
LINE
  5
C35
330
1E
100
AcDbEntity
  8
0
100
AcDbLine
 10
328.387
 20
144.6609155
 30
0.0
 11
333.558
 21
143.183059266885
 31
0.0
  0
LINE
  5
C36
330
1E
100
AcDbEntity
  8
0
100
AcDbLine
 10
327.073
 20
143.9199155
 30
0.0
 11
332.474
 21
142.3779155
 31
0.0
  0
LINE
  5
C37
330
1E
100
AcDbEntity
  8
0
100
AcDbLine
 10
332.474
 20
142.3779155
 30
0.0
 11
338.168
 21
141.2359155
 31
0.0
  0
LINE
  5
C38
330
1E
100
AcDbEntity
  8
0
100
AcDbLine
 10
346.632
 20
127.2399155
 30
0.0
 11
348.552
 21
124.6799155
 31
0.0
  0
LINE
  5
C39
330
1E
100
AcDbEntity
  8
0
100
AcDbLine
 10
345.384
 20
130.1519155
 30
0.0
 11
346.632
 21
127.2399155
 31
0.0
  0
LINE
  5
C3A
330
1E
100
AcDbEntity
  8
0
100
AcDbLine
 10
345.0
 20
133.2409155
 30
0.0
 11
345.384
 21
136.4189155
 31
0.0
  0
LINE
  5
C3B
330
1E
100
AcDbEntity
  8
0
100
AcDbLine
 10
345.0
 20
133.2409155
 30
0.0
 11
345.0
 21
61.2064155
 31
0.0
  0
LINE
  5
C3C
330
1E
100
AcDbEntity
  8
0
100
AcDbLine
 10
345.0
 20
133.2409155
 30
0.0
 11
345.384
 21
130.1519155
 31
0.0
  0
LINE
  5
C3D
330
1E
100
AcDbEntity
  8
0
100
AcDbLine
 10
345.384
 20
136.4189155
 30
0.0
 11
346.632
 21
139.3309155
 31
0.0
  0
LINE
  5
C3E
330
1E
100
AcDbEntity
  8
0
100
AcDbLine
 10
346.632
 20
139.3309155
 30
0.0
 11
347.219743916615
 21
140.114574055487
 31
0.0
  0
LINE
  5
C3F
330
1E
100
AcDbEntity
  8
0
100
AcDbLine
 10
348.36
 20
140.015961382159
 30
0.0
 11
348.36
 21
133.2409155
 31
0.0
  0
LINE
  5
C40
330
1E
100
AcDbEntity
  8
0
100
AcDbLine
 10
348.552
 20
124.6799155
 30
0.0
 11
351.048
 21
122.7389155
 31
0.0
  0
LINE
  5
C41
330
1E
100
AcDbEntity
  8
0
100
AcDbLine
 10
349.512
 20
128.9169155
 30
0.0
 11
350.856
 21
127.0629155
 31
0.0
  0
LINE
  5
C42
330
1E
100
AcDbEntity
  8
0
100
AcDbLine
 10
350.529
 20
140.3069155
 30
0.0
 11
351.793
 21
140.6159155
 31
0.0
  0
LINE
  5
C43
330
1E
100
AcDbEntity
  8
0
100
AcDbLine
 10
348.648
 20
131.0349155
 30
0.0
 11
349.512
 21
128.9169155
 31
0.0
  0
LINE
  5
C44
330
1E
100
AcDbEntity
  8
0
100
AcDbLine
 10
348.36
 20
133.2409155
 30
0.0
 11
348.648
 21
131.0349155
 31
0.0
  0
LINE
  5
C45
330
1E
100
AcDbEntity
  8
0
100
AcDbLine
 10
348.36
 20
133.2409155
 30
0.0
 11
348.36
 21
140.015961382159
 31
0.0
  0
LINE
  5
C46
330
1E
100
AcDbEntity
  8
0
100
AcDbLine
 10
334.822
 20
142.6659155
 30
0.0
 11
335.552
 21
143.2009155
 31
0.0
  0
LINE
  5
C47
330
1E
100
AcDbEntity
  8
0
100
AcDbLine
 10
335.552
 20
143.2009155
 30
0.0
 11
335.552
 21
143.804754549394
 31
0.0
  0
LINE
  5
C48
330
1E
100
AcDbEntity
  8
0
100
AcDbLine
 10
334.288
 20
143.5089155
 30
0.0
 11
335.552
 21
143.2009155
 31
0.0
  0
LINE
  5
C49
330
1E
100
AcDbEntity
  8
0
100
AcDbLine
 10
334.288
 20
143.5089155
 30
0.0
 11
334.288
 21
143.618210020548
 31
0.0
  0
LINE
  5
C4A
330
1E
100
AcDbEntity
  8
0
100
AcDbLine
 10
335.552
 20
143.804754549394
 30
0.0
 11
335.552
 21
143.2009155
 31
0.0
  0
LINE
  5
C4B
330
1E
100
AcDbEntity
  8
0
100
AcDbLine
 10
334.288
 20
143.618210020548
 30
0.0
 11
334.288
 21
143.5089155
 31
0.0
  0
LINE
  5
C4C
330
1E
100
AcDbEntity
  8
0
100
AcDbLine
 10
336.36
 20
150.7209155
 30
0.0
 11
336.36
 21
151.3379155
 31
0.0
  0
LINE
  5
C4D
330
1E
100
AcDbEntity
  8
0
100
AcDbLine
 10
336.36
 20
150.7209155
 30
0.0
 11
337.82
 21
150.7209155
 31
0.0
  0
LINE
  5
C4E
330
1E
100
AcDbEntity
  8
0
100
AcDbLine
 10
336.36
 20
152.220673598224
 30
0.0
 11
336.36
 21
151.3379155
 31
0.0
  0
LINE
  5
C4F
330
1E
100
AcDbEntity
  8
0
100
AcDbLine
 10
336.36
 20
151.3379155
 30
0.0
 11
336.36
 21
150.7209155
 31
0.0
  0
LINE
  5
C50
330
1E
100
AcDbEntity
  8
0
100
AcDbLine
 10
336.36
 20
151.3379155
 30
0.0
 11
336.36
 21
152.220673598224
 31
0.0
  0
LINE
  5
C51
330
1E
100
AcDbEntity
  8
0
100
AcDbLine
 10
336.36
 20
151.3379155
 30
0.0
 11
337.82
 21
151.3379155
 31
0.0
  0
LINE
  5
C52
330
1E
100
AcDbEntity
  8
0
100
AcDbLine
 10
337.657
 20
158.429093890983
 30
0.0
 11
337.657
 21
157.8499155
 31
0.0
  0
LINE
  5
C53
330
1E
100
AcDbEntity
  8
0
100
AcDbLine
 10
337.657
 20
159.385181677614
 30
0.0
 11
337.657
 21
158.4659155
 31
0.0
  0
LINE
  5
C54
330
1E
100
AcDbEntity
  8
0
100
AcDbLine
 10
337.657
 20
158.4659155
 30
0.0
 11
337.657
 21
157.8499155
 31
0.0
  0
LINE
  5
C55
330
1E
100
AcDbEntity
  8
0
100
AcDbLine
 10
337.657
 20
158.4659155
 30
0.0
 11
337.657
 21
159.385181677614
 31
0.0
  0
LINE
  5
C56
330
1E
100
AcDbEntity
  8
0
100
AcDbLine
 10
337.657
 20
158.4659155
 30
0.0
 11
339.117
 21
158.4659155
 31
0.0
  0
LINE
  5
C57
330
1E
100
AcDbEntity
  8
0
100
AcDbLine
 10
337.82
 20
151.3379155
 30
0.0
 11
337.82
 21
150.7209155
 31
0.0
  0
LINE
  5
C58
330
1E
100
AcDbEntity
  8
0
100
AcDbLine
 10
337.82
 20
150.7209155
 30
0.0
 11
337.82
 21
151.3379155
 31
0.0
  0
LINE
  5
C59
330
1E
100
AcDbEntity
  8
0
100
AcDbLine
 10
337.937
 20
146.803401385088
 30
0.0
 11
337.937
 21
145.7279155
 31
0.0
  0
LINE
  5
C5A
330
1E
100
AcDbEntity
  8
0
100
AcDbLine
 10
337.937
 20
145.7279155
 30
0.0
 11
339.202
 21
145.4189155
 31
0.0
  0
LINE
  5
C5B
330
1E
100
AcDbEntity
  8
0
100
AcDbLine
 10
337.937
 20
145.7279155
 30
0.0
 11
337.937
 21
146.803401385088
 31
0.0
  0
LINE
  5
C5C
330
1E
100
AcDbEntity
  8
0
100
AcDbLine
 10
337.937
 20
145.7279155
 30
0.0
 11
338.667
 21
146.2619155
 31
0.0
  0
LINE
  5
C5D
330
1E
100
AcDbEntity
  8
0
100
AcDbLine
 10
337.657
 20
157.8499155
 30
0.0
 11
337.657
 21
158.429093890983
 31
0.0
  0
LINE
  5
C5E
330
1E
100
AcDbEntity
  8
0
100
AcDbLine
 10
337.657
 20
157.8499155
 30
0.0
 11
337.657
 21
158.4659155
 31
0.0
  0
LINE
  5
C5F
330
1E
100
AcDbEntity
  8
0
100
AcDbLine
 10
337.657
 20
157.8499155
 30
0.0
 11
339.117
 21
157.8499155
 31
0.0
  0
LINE
  5
C60
330
1E
100
AcDbEntity
  8
0
100
AcDbLine
 10
335.099557724212
 20
142.869331092402
 30
0.0
 11
339.044
 21
142.0689155
 31
0.0
  0
LINE
  5
C61
330
1E
100
AcDbEntity
  8
0
100
AcDbLine
 10
341.489
 20
141.2289155
 30
0.0
 11
342.753
 21
141.5369155
 31
0.0
  0
LINE
  5
C62
330
1E
100
AcDbEntity
  8
0
100
AcDbLine
 10
349.799
 20
140.8419155
 30
0.0
 11
351.063
 21
141.1499155
 31
0.0
  0
LINE
  5
C63
330
1E
100
AcDbEntity
  8
0
100
AcDbLine
 10
349.799
 20
140.8419155
 30
0.0
 11
350.529
 21
140.3069155
 31
0.0
  0
LINE
  5
C64
330
1E
100
AcDbEntity
  8
0
100
AcDbLine
 10
340.759
 20
141.7629155
 30
0.0
 11
342.023
 21
142.0719155
 31
0.0
  0
LINE
  5
C65
330
1E
100
AcDbEntity
  8
0
100
AcDbLine
 10
340.759
 20
141.7629155
 30
0.0
 11
341.489
 21
141.2289155
 31
0.0
  0
LINE
  5
C66
330
1E
100
AcDbEntity
  8
0
100
AcDbLine
 10
340.759
 20
141.7629155
 30
0.0
 11
340.759
 21
142.780523932455
 31
0.0
  0
LINE
  5
C67
330
1E
100
AcDbEntity
  8
0
100
AcDbLine
 10
342.753
 20
141.5369155
 30
0.0
 11
342.753
 21
141.598585617217
 31
0.0
  0
LINE
  5
C68
330
1E
100
AcDbEntity
  8
0
100
AcDbLine
 10
340.759
 20
142.780523932455
 30
0.0
 11
340.759
 21
141.7629155
 31
0.0
  0
LINE
  5
C69
330
1E
100
AcDbEntity
  8
0
100
AcDbLine
 10
338.667
 20
146.2619155
 30
0.0
 11
339.931
 21
145.9539155
 31
0.0
  0
LINE
  5
C6A
330
1E
100
AcDbEntity
  8
0
100
AcDbLine
 10
338.667
 20
146.2619155
 30
0.0
 11
338.667
 21
146.967172557456
 31
0.0
  0
LINE
  5
C6B
330
1E
100
AcDbEntity
  8
0
100
AcDbLine
 10
339.931
 20
145.9539155
 30
0.0
 11
339.931
 21
147.058120979452
 31
0.0
  0
LINE
  5
C6C
330
1E
100
AcDbEntity
  8
0
100
AcDbLine
 10
339.202
 20
145.4189155
 30
0.0
 11
339.931
 21
145.9539155
 31
0.0
  0
LINE
  5
C6D
330
1E
100
AcDbEntity
  8
0
100
AcDbLine
 10
339.931
 20
147.058120979452
 30
0.0
 11
339.931
 21
145.9539155
 31
0.0
  0
LINE
  5
C6E
330
1E
100
AcDbEntity
  8
0
100
AcDbLine
 10
338.667
 20
146.967172557456
 30
0.0
 11
338.667
 21
146.2619155
 31
0.0
  0
LINE
  5
C6F
330
1E
100
AcDbEntity
  8
0
100
AcDbLine
 10
340.82
 20
154.424777102106
 30
0.0
 11
340.82
 21
153.8349155
 31
0.0
  0
LINE
  5
C70
330
1E
100
AcDbEntity
  8
0
100
AcDbLine
 10
339.117
 20
158.4659155
 30
0.0
 11
339.117
 21
159.371208688885
 31
0.0
  0
LINE
  5
C71
330
1E
100
AcDbEntity
  8
0
100
AcDbLine
 10
339.117
 20
158.4659155
 30
0.0
 11
339.117
 21
157.8499155
 31
0.0
  0
LINE
  5
C72
330
1E
100
AcDbEntity
  8
0
100
AcDbLine
 10
339.117
 20
157.8499155
 30
0.0
 11
339.117
 21
158.4659155
 31
0.0
  0
LINE
  5
C73
330
1E
100
AcDbEntity
  8
0
100
AcDbLine
 10
339.117
 20
159.371208688885
 30
0.0
 11
339.117
 21
158.4659155
 31
0.0
  0
LINE
  5
C74
330
1E
100
AcDbEntity
  8
0
100
AcDbLine
 10
340.82
 20
154.94469063587
 30
0.0
 11
340.82
 21
154.4519155
 31
0.0
  0
LINE
  5
C75
330
1E
100
AcDbEntity
  8
0
100
AcDbLine
 10
340.82
 20
154.4519155
 30
0.0
 11
340.82
 21
153.8349155
 31
0.0
  0
LINE
  5
C76
330
1E
100
AcDbEntity
  8
0
100
AcDbLine
 10
340.82
 20
154.4519155
 30
0.0
 11
340.82
 21
154.94469063587
 31
0.0
  0
LINE
  5
C77
330
1E
100
AcDbEntity
  8
0
100
AcDbLine
 10
340.82
 20
154.4519155
 30
0.0
 11
342.28
 21
154.4519155
 31
0.0
  0
LINE
  5
C78
330
1E
100
AcDbEntity
  8
0
100
AcDbLine
 10
340.82
 20
153.8349155
 30
0.0
 11
340.82
 21
154.424777102106
 31
0.0
  0
LINE
  5
C79
330
1E
100
AcDbEntity
  8
0
100
AcDbLine
 10
340.82
 20
153.8349155
 30
0.0
 11
340.82
 21
154.4519155
 31
0.0
  0
LINE
  5
C7A
330
1E
100
AcDbEntity
  8
0
100
AcDbLine
 10
340.82
 20
153.8349155
 30
0.0
 11
342.28
 21
153.8349155
 31
0.0
  0
LINE
  5
C7B
330
1E
100
AcDbEntity
  8
0
100
AcDbLine
 10
342.023
 20
143.304998019116
 30
0.0
 11
342.023
 21
142.0719155
 31
0.0
  0
LINE
  5
C7C
330
1E
100
AcDbEntity
  8
0
100
AcDbLine
 10
342.28
 20
154.4519155
 30
0.0
 11
342.28
 21
155.22670603442
 31
0.0
  0
LINE
  5
C7D
330
1E
100
AcDbEntity
  8
0
100
AcDbLine
 10
342.28
 20
154.4519155
 30
0.0
 11
342.28
 21
153.8349155
 31
0.0
  0
LINE
  5
C7E
330
1E
100
AcDbEntity
  8
0
100
AcDbLine
 10
342.317
 20
148.573432576035
 30
0.0
 11
342.317
 21
148.4799155
 31
0.0
  0
LINE
  5
C7F
330
1E
100
AcDbEntity
  8
0
100
AcDbLine
 10
342.317
 20
148.4799155
 30
0.0
 11
343.581
 21
148.1709155
 31
0.0
  0
LINE
  5
C80
330
1E
100
AcDbEntity
  8
0
100
AcDbLine
 10
342.317
 20
148.4799155
 30
0.0
 11
342.317
 21
148.573432576035
 31
0.0
  0
LINE
  5
C81
330
1E
100
AcDbEntity
  8
0
100
AcDbLine
 10
342.317
 20
148.4799155
 30
0.0
 11
343.047
 21
149.0149155
 31
0.0
  0
LINE
  5
C82
330
1E
100
AcDbEntity
  8
0
100
AcDbLine
 10
342.28
 20
153.8349155
 30
0.0
 11
342.28
 21
154.4519155
 31
0.0
  0
LINE
  5
C83
330
1E
100
AcDbEntity
  8
0
100
AcDbLine
 10
342.28
 20
155.22670603442
 30
0.0
 11
342.28
 21
154.4519155
 31
0.0
  0
LINE
  5
C84
330
1E
100
AcDbEntity
  8
0
100
AcDbLine
 10
342.023
 20
142.0719155
 30
0.0
 11
342.753
 21
141.5369155
 31
0.0
  0
LINE
  5
C85
330
1E
100
AcDbEntity
  8
0
100
AcDbLine
 10
342.023
 20
142.0719155
 30
0.0
 11
342.023
 21
143.304998019116
 31
0.0
  0
LINE
  5
C86
330
1E
100
AcDbEntity
  8
0
100
AcDbLine
 10
339.044
 20
142.0689155
 30
0.0
 11
340.759
 21
141.851440237403
 31
0.0
  0
LINE
  5
C87
330
1E
100
AcDbEntity
  8
0
100
AcDbLine
 10
345.892
 20
144.910370045455
 30
0.0
 11
345.892
 21
144.6199155
 31
0.0
  0
LINE
  5
C88
330
1E
100
AcDbEntity
  8
0
100
AcDbLine
 10
345.892
 20
144.6199155
 30
0.0
 11
347.157
 21
144.9289155
 31
0.0
  0
LINE
  5
C89
330
1E
100
AcDbEntity
  8
0
100
AcDbLine
 10
345.892
 20
144.6199155
 30
0.0
 11
346.622
 21
144.0859155
 31
0.0
  0
LINE
  5
C8A
330
1E
100
AcDbEntity
  8
0
100
AcDbLine
 10
345.892
 20
144.6199155
 30
0.0
 11
345.892
 21
144.910370045455
 31
0.0
  0
LINE
  5
C8B
330
1E
100
AcDbEntity
  8
0
100
AcDbLine
 10
343.047
 20
149.0149155
 30
0.0
 11
344.311
 21
148.7059155
 31
0.0
  0
LINE
  5
C8C
330
1E
100
AcDbEntity
  8
0
100
AcDbLine
 10
344.311
 20
148.7059155
 30
0.0
 11
344.311
 21
149.450101662014
 31
0.0
  0
LINE
  5
C8D
330
1E
100
AcDbEntity
  8
0
100
AcDbLine
 10
343.581
 20
148.1709155
 30
0.0
 11
344.311
 21
148.7059155
 31
0.0
  0
LINE
  5
C8E
330
1E
100
AcDbEntity
  8
0
100
AcDbLine
 10
344.311
 20
149.450101662014
 30
0.0
 11
344.311
 21
148.7059155
 31
0.0
  0
LINE
  5
C8F
330
1E
100
AcDbEntity
  8
0
100
AcDbLine
 10
346.007
 20
155.9959155
 30
0.0
 11
346.399
 21
156.2169155
 31
0.0
  0
LINE
  5
C90
330
1E
100
AcDbEntity
  8
0
100
AcDbLine
 10
345.776
 20
155.7329155
 30
0.0
 11
346.007
 21
155.9959155
 31
0.0
  0
LINE
  5
C91
330
1E
100
AcDbEntity
  8
0
100
AcDbLine
 10
345.664
 20
155.4559155
 30
0.0
 11
345.743
 21
155.1819155
 31
0.0
  0
LINE
  5
C92
330
1E
100
AcDbEntity
  8
0
100
AcDbLine
 10
345.664
 20
155.4559155
 30
0.0
 11
345.776
 21
155.7329155
 31
0.0
  0
LINE
  5
C93
330
1E
100
AcDbEntity
  8
0
100
AcDbLine
 10
345.371875926283
 20
155.87848683836
 30
0.0
 11
345.743
 21
155.1819155
 31
0.0
  0
LINE
  5
C94
330
1E
100
AcDbEntity
  8
0
100
AcDbLine
 10
345.743
 20
155.1819155
 30
0.0
 11
346.007
 21
154.9139155
 31
0.0
  0
LINE
  5
C95
330
1E
100
AcDbEntity
  8
0
100
AcDbLine
 10
346.399
 20
156.2169155
 30
0.0
 11
346.944
 21
156.3919155
 31
0.0
  0
LINE
  5
C96
330
1E
100
AcDbEntity
  8
0
100
AcDbLine
 10
346.423
 20
154.6839155
 30
0.0
 11
346.944
 21
154.5179155
 31
0.0
  0
LINE
  5
C97
330
1E
100
AcDbEntity
  8
0
100
AcDbLine
 10
346.007
 20
154.9139155
 30
0.0
 11
346.423
 21
154.6839155
 31
0.0
  0
LINE
  5
C98
330
1E
100
AcDbEntity
  8
0
100
AcDbLine
 10
346.696
 20
152.351035119295
 30
0.0
 11
346.696
 21
151.2329155
 31
0.0
  0
LINE
  5
C99
330
1E
100
AcDbEntity
  8
0
100
AcDbLine
 10
346.944
 20
156.3919155
 30
0.0
 11
347.577
 21
156.5039155
 31
0.0
  0
LINE
  5
C9A
330
1E
100
AcDbEntity
  8
0
100
AcDbLine
 10
346.944
 20
154.5179155
 30
0.0
 11
347.568
 21
154.4209155
 31
0.0
  0
LINE
  5
C9B
330
1E
100
AcDbEntity
  8
0
100
AcDbLine
 10
346.696
 20
151.2329155
 30
0.0
 11
347.961
 21
150.9239155
 31
0.0
  0
LINE
  5
C9C
330
1E
100
AcDbEntity
  8
0
100
AcDbLine
 10
346.696
 20
151.2329155
 30
0.0
 11
346.696
 21
152.351035119295
 31
0.0
  0
LINE
  5
C9D
330
1E
100
AcDbEntity
  8
0
100
AcDbLine
 10
346.696
 20
151.2329155
 30
0.0
 11
347.426
 21
151.7669155
 31
0.0
  0
LINE
  5
C9E
330
1E
100
AcDbEntity
  8
0
100
AcDbLine
 10
347.157
 20
145.435259064146
 30
0.0
 11
347.157
 21
144.9289155
 31
0.0
  0
LINE
  5
C9F
330
1E
100
AcDbEntity
  8
0
100
AcDbLine
 10
347.426
 20
151.7669155
 30
0.0
 11
348.69
 21
151.4579155
 31
0.0
  0
LINE
  5
CA0
330
1E
100
AcDbEntity
  8
0
100
AcDbLine
 10
347.426
 20
151.7669155
 30
0.0
 11
347.426
 21
152.641056029238
 31
0.0
  0
LINE
  5
CA1
330
1E
100
AcDbEntity
  8
0
100
AcDbLine
 10
347.577
 20
156.5039155
 30
0.0
 11
348.224
 21
156.5369155
 31
0.0
  0
LINE
  5
CA2
330
1E
100
AcDbEntity
  8
0
100
AcDbLine
 10
347.568
 20
154.4209155
 30
0.0
 11
348.223
 21
154.3739155
 31
0.0
  0
LINE
  5
CA3
330
1E
100
AcDbEntity
  8
0
100
AcDbLine
 10
347.426
 20
152.641056029238
 30
0.0
 11
347.426
 21
151.7669155
 31
0.0
  0
LINE
  5
CA4
330
1E
100
AcDbEntity
  8
0
100
AcDbLine
 10
347.157
 20
144.9289155
 30
0.0
 11
347.887
 21
144.3939155
 31
0.0
  0
LINE
  5
CA5
330
1E
100
AcDbEntity
  8
0
100
AcDbLine
 10
347.157
 20
144.9289155
 30
0.0
 11
347.157
 21
145.435259064146
 31
0.0
  0
LINE
  5
CA6
330
1E
100
AcDbEntity
  8
0
100
AcDbLine
 10
347.887
 20
144.3939155
 30
0.0
 11
347.887
 21
145.021921822445
 31
0.0
  0
LINE
  5
CA7
330
1E
100
AcDbEntity
  8
0
100
AcDbLine
 10
348.69
 20
151.4579155
 30
0.0
 11
348.69
 21
151.80571717837
 31
0.0
  0
LINE
  5
CA8
330
1E
100
AcDbEntity
  8
0
100
AcDbLine
 10
347.961
 20
150.9239155
 30
0.0
 11
348.69
 21
151.4579155
 31
0.0
  0
LINE
  5
CA9
330
1E
100
AcDbEntity
  8
0
100
AcDbLine
 10
348.69
 20
151.80571717837
 30
0.0
 11
348.69
 21
151.4579155
 31
0.0
  0
LINE
  5
CAA
330
1E
100
AcDbEntity
  8
0
100
AcDbLine
 10
348.871
 20
154.4069155
 30
0.0
 11
349.504
 21
154.5179155
 31
0.0
  0
LINE
  5
CAB
330
1E
100
AcDbEntity
  8
0
100
AcDbLine
 10
348.223
 20
154.3739155
 30
0.0
 11
348.871
 21
154.4069155
 31
0.0
  0
LINE
  5
CAC
330
1E
100
AcDbEntity
  8
0
100
AcDbLine
 10
348.224
 20
156.5369155
 30
0.0
 11
348.879
 21
156.4889155
 31
0.0
  0
LINE
  5
CAD
330
1E
100
AcDbEntity
  8
0
100
AcDbLine
 10
348.879
 20
156.4889155
 30
0.0
 11
349.503
 21
156.3919155
 31
0.0
  0
LINE
  5
CAE
330
1E
100
AcDbEntity
  8
0
100
AcDbLine
 10
349.503
 20
156.3919155
 30
0.0
 11
350.024
 21
156.2269155
 31
0.0
  0
LINE
  5
CAF
330
1E
100
AcDbEntity
  8
0
100
AcDbLine
 10
350.024
 20
156.2269155
 30
0.0
 11
350.441
 21
155.9969155
 31
0.0
  0
LINE
  5
CB0
330
1E
100
AcDbEntity
  8
0
100
AcDbLine
 10
349.504
 20
154.5179155
 30
0.0
 11
350.049
 21
154.6939155
 31
0.0
  0
LINE
  5
CB1
330
1E
100
AcDbEntity
  8
0
100
AcDbLine
 10
350.049
 20
154.6939155
 30
0.0
 11
350.44
 21
154.9149155
 31
0.0
  0
LINE
  5
CB2
330
1E
100
AcDbEntity
  8
0
100
AcDbLine
 10
350.44
 20
154.9149155
 30
0.0
 11
350.672
 21
155.1779155
 31
0.0
  0
LINE
  5
CB3
330
1E
100
AcDbEntity
  8
0
100
AcDbLine
 10
350.441
 20
155.9969155
 30
0.0
 11
350.704
 21
155.7289155
 31
0.0
  0
LINE
  5
CB4
330
1E
100
AcDbEntity
  8
0
100
AcDbLine
 10
350.42
 20
148.061040117403
 30
0.0
 11
350.42
 21
147.6469155
 31
0.0
  0
LINE
  5
CB5
330
1E
100
AcDbEntity
  8
0
100
AcDbLine
 10
350.42
 20
147.6469155
 30
0.0
 11
351.684
 21
147.9549155
 31
0.0
  0
LINE
  5
CB6
330
1E
100
AcDbEntity
  8
0
100
AcDbLine
 10
350.42
 20
147.6469155
 30
0.0
 11
351.15
 21
147.1119155
 31
0.0
  0
LINE
  5
CB7
330
1E
100
AcDbEntity
  8
0
100
AcDbLine
 10
350.42
 20
147.6469155
 30
0.0
 11
350.42
 21
148.061040117403
 31
0.0
  0
LINE
  5
CB8
330
1E
100
AcDbEntity
  8
0
100
AcDbLine
 10
347.887
 20
145.021921822445
 30
0.0
 11
347.887
 21
144.3939155
 31
0.0
  0
LINE
  5
CB9
330
1E
100
AcDbEntity
  8
0
100
AcDbLine
 10
346.622
 20
144.0859155
 30
0.0
 11
347.887
 21
144.3939155
 31
0.0
  0
LINE
  5
CBA
330
1E
100
AcDbEntity
  8
0
100
AcDbLine
 10
342.753
 20
141.598585617217
 30
0.0
 11
345.613
 21
141.2359155
 31
0.0
  0
LINE
  5
CBB
330
1E
100
AcDbEntity
  8
0
100
AcDbLine
 10
342.753
 20
141.598585617217
 30
0.0
 11
342.753
 21
141.5369155
 31
0.0
  0
LINE
  5
CBC
330
1E
100
AcDbEntity
  8
0
100
AcDbLine
 10
345.613
 20
141.2359155
 30
0.0
 11
349.84522446175
 21
140.808038668444
 31
0.0
  0
LINE
  5
CBD
330
1E
100
AcDbEntity
  8
0
100
AcDbLine
 10
338.168
 20
141.2359155
 30
0.0
 11
344.591
 21
140.3419155
 31
0.0
  0
LINE
  5
CBE
330
1E
100
AcDbEntity
  8
0
100
AcDbLine
 10
344.591
 20
140.3419155
 30
0.0
 11
350.65
 21
139.8179155
 31
0.0
  0
LINE
  5
CBF
330
1E
100
AcDbEntity
  8
0
100
AcDbLine
 10
323.14
 20
162.8389155
 30
0.0
 11
323.14
 21
163.4559155
 31
0.0
  0
LINE
  5
CC0
330
1E
100
AcDbEntity
  8
0
100
AcDbLine
 10
321.68
 20
162.8389155
 30
0.0
 11
321.68
 21
163.4559155
 31
0.0
  0
LINE
  5
CC1
330
1E
100
AcDbEntity
  8
0
100
AcDbLine
 10
321.68
 20
162.8389155
 30
0.0
 11
321.68
 21
163.644178657895
 31
0.0
  0
LINE
  5
CC2
330
1E
100
AcDbEntity
  8
0
100
AcDbLine
 10
321.68
 20
162.8389155
 30
0.0
 11
323.14
 21
162.8389155
 31
0.0
  0
LINE
  5
CC3
330
1E
100
AcDbEntity
  8
0
100
AcDbLine
 10
312.759
 20
163.9769155
 30
0.0
 11
312.759
 21
165.052757605263
 31
0.0
  0
LINE
  5
CC4
330
1E
100
AcDbEntity
  8
0
100
AcDbLine
 10
312.759
 20
163.9769155
 30
0.0
 11
312.759
 21
163.3599155
 31
0.0
  0
LINE
  5
CC5
330
1E
100
AcDbEntity
  8
0
100
AcDbLine
 10
312.759
 20
163.9769155
 30
0.0
 11
314.218
 21
163.9769155
 31
0.0
  0
LINE
  5
CC6
330
1E
100
AcDbEntity
  8
0
100
AcDbLine
 10
323.14
 20
163.4559155
 30
0.0
 11
323.14
 21
162.8389155
 31
0.0
  0
LINE
  5
CC7
330
1E
100
AcDbEntity
  8
0
100
AcDbLine
 10
321.68
 20
163.4559155
 30
0.0
 11
321.68
 21
163.644178657895
 31
0.0
  0
LINE
  5
CC8
330
1E
100
AcDbEntity
  8
0
100
AcDbLine
 10
321.68
 20
163.4559155
 30
0.0
 11
321.68
 21
162.8389155
 31
0.0
  0
LINE
  5
CC9
330
1E
100
AcDbEntity
  8
0
100
AcDbLine
 10
321.68
 20
163.4559155
 30
0.0
 11
323.14
 21
163.4559155
 31
0.0
  0
LINE
  5
CCA
330
1E
100
AcDbEntity
  8
0
100
AcDbLine
 10
321.68
 20
163.644178657895
 30
0.0
 11
321.68
 21
162.8389155
 31
0.0
  0
LINE
  5
CCB
330
1E
100
AcDbEntity
  8
0
100
AcDbLine
 10
321.68
 20
163.644178657895
 30
0.0
 11
321.68
 21
163.4559155
 31
0.0
  0
LINE
  5
CCC
330
1E
100
AcDbEntity
  8
0
100
AcDbLine
 10
314.218
 20
163.3599155
 30
0.0
 11
314.218
 21
163.9769155
 31
0.0
  0
LINE
  5
CCD
330
1E
100
AcDbEntity
  8
0
100
AcDbLine
 10
314.218
 20
163.9769155
 30
0.0
 11
314.218
 21
163.3599155
 31
0.0
  0
LINE
  5
CCE
330
1E
100
AcDbEntity
  8
0
100
AcDbLine
 10
314.218
 20
163.9769155
 30
0.0
 11
314.218
 21
164.822389184211
 31
0.0
  0
LINE
  5
CCF
330
1E
100
AcDbEntity
  8
0
100
AcDbLine
 10
312.759
 20
163.3599155
 30
0.0
 11
312.759
 21
163.9769155
 31
0.0
  0
LINE
  5
CD0
330
1E
100
AcDbEntity
  8
0
100
AcDbLine
 10
312.759
 20
163.3599155
 30
0.0
 11
314.218
 21
163.3599155
 31
0.0
  0
LINE
  5
CD1
330
1E
100
AcDbEntity
  8
0
100
AcDbLine
 10
310.358
 20
163.0459155
 30
0.0
 11
311.599
 21
165.2359155
 31
0.0
  0
LINE
  5
CD2
330
1E
100
AcDbEntity
  8
0
100
AcDbLine
 10
308.241
 20
163.1079155
 30
0.0
 11
309.482
 21
165.6679155
 31
0.0
  0
LINE
  5
CD3
330
1E
100
AcDbEntity
  8
0
100
AcDbLine
 10
307.511
 20
164.0449155
 30
0.0
 11
308.825
 21
166.7899155
 31
0.0
  0
LINE
  5
CD4
330
1E
100
AcDbEntity
  8
0
100
AcDbLine
 10
342.28
 20
161.8639155
 30
0.0
 11
342.28
 21
162.4809155
 31
0.0
  0
LINE
  5
CD5
330
1E
100
AcDbEntity
  8
0
100
AcDbLine
 10
331.088
 20
162.386856954761
 30
0.0
 11
331.088
 21
162.0769155
 31
0.0
  0
LINE
  5
CD6
330
1E
100
AcDbEntity
  8
0
100
AcDbLine
 10
332.548
 20
162.0769155
 30
0.0
 11
332.548
 21
162.6939155
 31
0.0
  0
LINE
  5
CD7
330
1E
100
AcDbEntity
  8
0
100
AcDbLine
 10
331.088
 20
162.0769155
 30
0.0
 11
331.088
 21
162.6939155
 31
0.0
  0
LINE
  5
CD8
330
1E
100
AcDbEntity
  8
0
100
AcDbLine
 10
331.088
 20
162.0769155
 30
0.0
 11
331.088
 21
162.386856954761
 31
0.0
  0
LINE
  5
CD9
330
1E
100
AcDbEntity
  8
0
100
AcDbLine
 10
331.088
 20
162.0769155
 30
0.0
 11
332.548
 21
162.0769155
 31
0.0
  0
LINE
  5
CDA
330
1E
100
AcDbEntity
  8
0
100
AcDbLine
 10
331.088
 20
163.828992992727
 30
0.0
 11
331.088
 21
162.6939155
 31
0.0
  0
LINE
  5
CDB
330
1E
100
AcDbEntity
  8
0
100
AcDbLine
 10
332.548
 20
163.50409375972
 30
0.0
 11
332.548
 21
162.6939155
 31
0.0
  0
LINE
  5
CDC
330
1E
100
AcDbEntity
  8
0
100
AcDbLine
 10
332.548
 20
162.6939155
 30
0.0
 11
332.548
 21
162.0769155
 31
0.0
  0
LINE
  5
CDD
330
1E
100
AcDbEntity
  8
0
100
AcDbLine
 10
332.548
 20
162.6939155
 30
0.0
 11
332.548
 21
163.50409375972
 31
0.0
  0
LINE
  5
CDE
330
1E
100
AcDbEntity
  8
0
100
AcDbLine
 10
331.088
 20
162.6939155
 30
0.0
 11
331.088
 21
163.828992992727
 31
0.0
  0
LINE
  5
CDF
330
1E
100
AcDbEntity
  8
0
100
AcDbLine
 10
331.088
 20
162.6939155
 30
0.0
 11
331.088
 21
162.0769155
 31
0.0
  0
LINE
  5
CE0
330
1E
100
AcDbEntity
  8
0
100
AcDbLine
 10
331.088
 20
162.6939155
 30
0.0
 11
332.548
 21
162.6939155
 31
0.0
  0
LINE
  5
CE1
330
1E
100
AcDbEntity
  8
0
100
AcDbLine
 10
340.82
 20
163.384795906168
 30
0.0
 11
340.82
 21
162.4809155
 31
0.0
  0
LINE
  5
CE2
330
1E
100
AcDbEntity
  8
0
100
AcDbLine
 10
340.82
 20
162.4809155
 30
0.0
 11
340.82
 21
163.384795906168
 31
0.0
  0
LINE
  5
CE3
330
1E
100
AcDbEntity
  8
0
100
AcDbLine
 10
340.82
 20
162.4809155
 30
0.0
 11
340.82
 21
161.8639155
 31
0.0
  0
LINE
  5
CE4
330
1E
100
AcDbEntity
  8
0
100
AcDbLine
 10
340.82
 20
162.4809155
 30
0.0
 11
342.28
 21
162.4809155
 31
0.0
  0
LINE
  5
CE5
330
1E
100
AcDbEntity
  8
0
100
AcDbLine
 10
347.426
 20
164.5489155
 30
0.0
 11
348.69
 21
164.8579155
 31
0.0
  0
LINE
  5
CE6
330
1E
100
AcDbEntity
  8
0
100
AcDbLine
 10
342.28
 20
163.02091367332
 30
0.0
 11
342.28
 21
162.4809155
 31
0.0
  0
LINE
  5
CE7
330
1E
100
AcDbEntity
  8
0
100
AcDbLine
 10
342.28
 20
162.4809155
 30
0.0
 11
342.28
 21
161.8639155
 31
0.0
  0
LINE
  5
CE8
330
1E
100
AcDbEntity
  8
0
100
AcDbLine
 10
342.28
 20
162.4809155
 30
0.0
 11
342.28
 21
163.02091367332
 31
0.0
  0
LINE
  5
CE9
330
1E
100
AcDbEntity
  8
0
100
AcDbLine
 10
340.82
 20
162.799055275815
 30
0.0
 11
340.82
 21
161.8639155
 31
0.0
  0
LINE
  5
CEA
330
1E
100
AcDbEntity
  8
0
100
AcDbLine
 10
340.82
 20
161.8639155
 30
0.0
 11
340.82
 21
162.4809155
 31
0.0
  0
LINE
  5
CEB
330
1E
100
AcDbEntity
  8
0
100
AcDbLine
 10
340.82
 20
161.8639155
 30
0.0
 11
340.82
 21
162.799055275815
 31
0.0
  0
LINE
  5
CEC
330
1E
100
AcDbEntity
  8
0
100
AcDbLine
 10
340.82
 20
161.8639155
 30
0.0
 11
342.28
 21
161.8639155
 31
0.0
  0
LINE
  5
CED
330
1E
100
AcDbEntity
  8
0
100
AcDbLine
 10
351.048
 20
122.7389155
 30
0.0
 11
353.928
 21
121.5029155
 31
0.0
  0
LINE
  5
CEE
330
1E
100
AcDbEntity
  8
0
100
AcDbLine
 10
353.928
 20
121.5029155
 30
0.0
 11
357.0
 21
121.0619155
 31
0.0
  0
LINE
  5
CEF
330
1E
100
AcDbEntity
  8
0
100
AcDbLine
 10
354.792
 20
124.8569155
 30
0.0
 11
357.0
 21
124.5039155
 31
0.0
  0
LINE
  5
CF0
330
1E
100
AcDbEntity
  8
0
100
AcDbLine
 10
356.0
 20
135.9479155
 30
0.0
 11
356.0
 21
135.2169155
 31
0.0
  0
LINE
  5
CF1
330
1E
100
AcDbEntity
  8
0
100
AcDbLine
 10
356.0
 20
135.9479155
 30
0.0
 11
356.0
 21
136.9389155
 31
0.0
  0
LINE
  5
CF2
330
1E
100
AcDbEntity
  8
0
100
AcDbLine
 10
356.0
 20
135.2169155
 30
0.0
 11
356.0
 21
134.9749155
 31
0.0
  0
LINE
  5
CF3
330
1E
100
AcDbEntity
  8
0
100
AcDbLine
 10
356.0
 20
135.2169155
 30
0.0
 11
356.0
 21
135.9479155
 31
0.0
  0
LINE
  5
CF4
330
1E
100
AcDbEntity
  8
0
100
AcDbLine
 10
356.0
 20
134.9749155
 30
0.0
 11
356.0
 21
135.3069155
 31
0.0
  0
LINE
  5
CF5
330
1E
100
AcDbEntity
  8
0
100
AcDbLine
 10
356.0
 20
134.9749155
 30
0.0
 11
356.0
 21
135.2169155
 31
0.0
  0
LINE
  5
CF6
330
1E
100
AcDbEntity
  8
0
100
AcDbLine
 10
356.0
 20
134.9749155
 30
0.0
 11
358.0
 21
134.9749155
 31
0.0
  0
LINE
  5
CF7
330
1E
100
AcDbEntity
  8
0
100
AcDbLine
 10
356.0
 20
135.3069155
 30
0.0
 11
356.0
 21
135.9589155
 31
0.0
  0
LINE
  5
CF8
330
1E
100
AcDbEntity
  8
0
100
AcDbLine
 10
356.0
 20
135.3069155
 30
0.0
 11
356.0
 21
134.9749155
 31
0.0
  0
LINE
  5
CF9
330
1E
100
AcDbEntity
  8
0
100
AcDbLine
 10
356.0
 20
136.9389155
 30
0.0
 11
356.0
 21
135.9479155
 31
0.0
  0
LINE
  5
CFA
330
1E
100
AcDbEntity
  8
0
100
AcDbLine
 10
356.0
 20
135.9589155
 30
0.0
 11
356.0
 21
137.8849155
 31
0.0
  0
LINE
  5
CFB
330
1E
100
AcDbEntity
  8
0
100
AcDbLine
 10
356.0
 20
135.9589155
 30
0.0
 11
356.0
 21
135.3069155
 31
0.0
  0
LINE
  5
CFC
330
1E
100
AcDbEntity
  8
0
100
AcDbLine
 10
356.0
 20
137.8849155
 30
0.0
 11
356.0
 21
143.761731955696
 31
0.0
  0
LINE
  5
CFD
330
1E
100
AcDbEntity
  8
0
100
AcDbLine
 10
356.0
 20
137.8849155
 30
0.0
 11
356.0
 21
135.9589155
 31
0.0
  0
LINE
  5
CFE
330
1E
100
AcDbEntity
  8
0
100
AcDbLine
 10
352.68
 20
125.6509155
 30
0.0
 11
354.792
 21
124.8569155
 31
0.0
  0
LINE
  5
CFF
330
1E
100
AcDbEntity
  8
0
100
AcDbLine
 10
350.856
 20
127.0629155
 30
0.0
 11
352.68
 21
125.6509155
 31
0.0
  0
LINE
  5
D00
330
1E
100
AcDbEntity
  8
0
100
AcDbLine
 10
357.0
 20
121.0619155
 30
0.0
 11
360.072
 21
121.5029155
 31
0.0
  0
LINE
  5
D01
330
1E
100
AcDbEntity
  8
0
100
AcDbLine
 10
357.0
 20
124.5039155
 30
0.0
 11
359.208
 21
124.8569155
 31
0.0
  0
LINE
  5
D02
330
1E
100
AcDbEntity
  8
0
100
AcDbLine
 10
351.063
 20
141.404961361887
 30
0.0
 11
351.063
 21
141.1499155
 31
0.0
  0
LINE
  5
D03
330
1E
100
AcDbEntity
  8
0
100
AcDbLine
 10
351.063
 20
141.1499155
 30
0.0
 11
351.793
 21
140.6159155
 31
0.0
  0
LINE
  5
D04
330
1E
100
AcDbEntity
  8
0
100
AcDbLine
 10
351.063
 20
141.1499155
 30
0.0
 11
351.063
 21
141.404961361887
 31
0.0
  0
LINE
  5
D05
330
1E
100
AcDbEntity
  8
0
100
AcDbLine
 10
351.793
 20
140.6159155
 30
0.0
 11
351.793
 21
141.478467724371
 31
0.0
  0
LINE
  5
D06
330
1E
100
AcDbEntity
  8
0
100
AcDbLine
 10
350.672
 20
155.1779155
 30
0.0
 11
351.199147227839
 21
156.159803832086
 31
0.0
  0
LINE
  5
D07
330
1E
100
AcDbEntity
  8
0
100
AcDbLine
 10
350.672
 20
155.1779155
 30
0.0
 11
350.783
 21
155.4549155
 31
0.0
  0
LINE
  5
D08
330
1E
100
AcDbEntity
  8
0
100
AcDbLine
 10
350.704
 20
155.7289155
 30
0.0
 11
350.783
 21
155.4549155
 31
0.0
  0
LINE
  5
D09
330
1E
100
AcDbEntity
  8
0
100
AcDbLine
 10
351.0
 20
158.6119155
 30
0.0
 11
351.0
 21
158.0529155
 31
0.0
  0
LINE
  5
D0A
330
1E
100
AcDbEntity
  8
0
100
AcDbLine
 10
351.0
 20
158.0529155
 30
0.0
 11
351.216
 21
158.7019155
 31
0.0
  0
LINE
  5
D0B
330
1E
100
AcDbEntity
  8
0
100
AcDbLine
 10
351.0
 20
158.0529155
 30
0.0
 11
351.216
 21
157.4029155
 31
0.0
  0
LINE
  5
D0C
330
1E
100
AcDbEntity
  8
0
100
AcDbLine
 10
351.0
 20
158.0529155
 30
0.0
 11
351.0
 21
158.6119155
 31
0.0
  0
LINE
  5
D0D
330
1E
100
AcDbEntity
  8
0
100
AcDbLine
 10
351.216
 20
157.4029155
 30
0.0
 11
351.792
 21
156.7949155
 31
0.0
  0
LINE
  5
D0E
330
1E
100
AcDbEntity
  8
0
100
AcDbLine
 10
351.792
 20
156.7949155
 30
0.0
 11
352.752
 21
156.2569155
 31
0.0
  0
LINE
  5
D0F
330
1E
100
AcDbEntity
  8
0
100
AcDbLine
 10
351.792
 20
159.3099155
 30
0.0
 11
352.752
 21
159.8479155
 31
0.0
  0
LINE
  5
D10
330
1E
100
AcDbEntity
  8
0
100
AcDbLine
 10
351.216
 20
158.7019155
 30
0.0
 11
351.792
 21
159.3099155
 31
0.0
  0
LINE
  5
D11
330
1E
100
AcDbEntity
  8
0
100
AcDbLine
 10
351.684
 20
147.9549155
 30
0.0
 11
352.414
 21
147.4199155
 31
0.0
  0
LINE
  5
D12
330
1E
100
AcDbEntity
  8
0
100
AcDbLine
 10
351.15
 20
147.1119155
 30
0.0
 11
352.414
 21
147.4199155
 31
0.0
  0
LINE
  5
D13
330
1E
100
AcDbEntity
  8
0
100
AcDbLine
 10
351.793
 20
141.478467724371
 30
0.0
 11
351.793
 21
140.6159155
 31
0.0
  0
LINE
  5
D14
330
1E
100
AcDbEntity
  8
0
100
AcDbLine
 10
356.0
 20
140.415261956693
 30
0.0
 11
356.0
 21
136.9389155
 31
0.0
  0
LINE
  5
D15
330
1E
100
AcDbEntity
  8
0
100
AcDbLine
 10
356.0
 20
143.761731955696
 30
0.0
 11
356.0
 21
137.8849155
 31
0.0
  0
LINE
  5
D16
330
1E
100
AcDbEntity
  8
0
100
AcDbLine
 10
354.334
 20
144.0669155
 30
0.0
 11
355.599
 21
144.3759155
 31
0.0
  0
LINE
  5
D17
330
1E
100
AcDbEntity
  8
0
100
AcDbLine
 10
354.334
 20
144.0669155
 30
0.0
 11
355.064
 21
143.5329155
 31
0.0
  0
LINE
  5
D18
330
1E
100
AcDbEntity
  8
0
100
AcDbLine
 10
352.752
 20
156.2569155
 30
0.0
 11
354.024
 21
155.8519155
 31
0.0
  0
LINE
  5
D19
330
1E
100
AcDbEntity
  8
0
100
AcDbLine
 10
355.464
 20
155.6079155
 30
0.0
 11
357.0
 21
155.5169155
 31
0.0
  0
LINE
  5
D1A
330
1E
100
AcDbEntity
  8
0
100
AcDbLine
 10
354.024
 20
155.8519155
 30
0.0
 11
355.464
 21
155.6079155
 31
0.0
  0
LINE
  5
D1B
330
1E
100
AcDbEntity
  8
0
100
AcDbLine
 10
354.523
 20
162.1699155
 30
0.0
 11
354.779
 21
162.4239155
 31
0.0
  0
LINE
  5
D1C
330
1E
100
AcDbEntity
  8
0
100
AcDbLine
 10
354.779
 20
162.4239155
 30
0.0
 11
355.203
 21
162.6399155
 31
0.0
  0
LINE
  5
D1D
330
1E
100
AcDbEntity
  8
0
100
AcDbLine
 10
354.435
 20
161.8829155
 30
0.0
 11
354.523
 21
161.5959155
 31
0.0
  0
LINE
  5
D1E
330
1E
100
AcDbEntity
  8
0
100
AcDbLine
 10
354.435
 20
161.8829155
 30
0.0
 11
354.523
 21
162.1699155
 31
0.0
  0
LINE
  5
D1F
330
1E
100
AcDbEntity
  8
0
100
AcDbLine
 10
354.523
 20
161.5959155
 30
0.0
 11
354.779
 21
161.3419155
 31
0.0
  0
LINE
  5
D20
330
1E
100
AcDbEntity
  8
0
100
AcDbLine
 10
355.203
 20
162.6399155
 30
0.0
 11
355.715
 21
162.8189155
 31
0.0
  0
LINE
  5
D21
330
1E
100
AcDbEntity
  8
0
100
AcDbLine
 10
354.779
 20
161.3419155
 30
0.0
 11
355.203
 21
161.1259155
 31
0.0
  0
LINE
  5
D22
330
1E
100
AcDbEntity
  8
0
100
AcDbLine
 10
355.203
 20
161.1259155
 30
0.0
 11
355.715
 21
160.9459155
 31
0.0
  0
LINE
  5
D23
330
1E
100
AcDbEntity
  8
0
100
AcDbLine
 10
355.464
 20
160.4969155
 30
0.0
 11
357.0
 21
160.5879155
 31
0.0
  0
LINE
  5
D24
330
1E
100
AcDbEntity
  8
0
100
AcDbLine
 10
354.024
 20
160.2539155
 30
0.0
 11
355.464
 21
160.4969155
 31
0.0
  0
LINE
  5
D25
330
1E
100
AcDbEntity
  8
0
100
AcDbLine
 10
352.752
 20
159.8479155
 30
0.0
 11
354.024
 21
160.2539155
 31
0.0
  0
LINE
  5
D26
330
1E
100
AcDbEntity
  8
0
100
AcDbLine
 10
355.502
 20
150.6099155
 30
0.0
 11
356.766
 21
150.9179155
 31
0.0
  0
LINE
  5
D27
330
1E
100
AcDbEntity
  8
0
100
AcDbLine
 10
355.502
 20
150.6099155
 30
0.0
 11
356.232
 21
150.0749155
 31
0.0
  0
LINE
  5
D28
330
1E
100
AcDbEntity
  8
0
100
AcDbLine
 10
355.715
 20
162.8189155
 30
0.0
 11
356.315
 21
162.9279155
 31
0.0
  0
LINE
  5
D29
330
1E
100
AcDbEntity
  8
0
100
AcDbLine
 10
356.315
 20
162.9279155
 30
0.0
 11
356.995
 21
162.9649155
 31
0.0
  0
LINE
  5
D2A
330
1E
100
AcDbEntity
  8
0
100
AcDbLine
 10
355.715
 20
160.9459155
 30
0.0
 11
356.315
 21
160.8379155
 31
0.0
  0
LINE
  5
D2B
330
1E
100
AcDbEntity
  8
0
100
AcDbLine
 10
356.315
 20
160.8379155
 30
0.0
 11
356.995
 21
160.8009155
 31
0.0
  0
LINE
  5
D2C
330
1E
100
AcDbEntity
  8
0
100
AcDbLine
 10
356.232
 20
150.0749155
 30
0.0
 11
357.496
 21
150.3829155
 31
0.0
  0
LINE
  5
D2D
330
1E
100
AcDbEntity
  8
0
100
AcDbLine
 10
355.599
 20
144.3759155
 30
0.0
 11
356.328
 21
143.8419155
 31
0.0
  0
LINE
  5
D2E
330
1E
100
AcDbEntity
  8
0
100
AcDbLine
 10
356.328
 20
143.8419155
 30
0.0
 11
356.328
 21
144.96524238588
 31
0.0
  0
LINE
  5
D2F
330
1E
100
AcDbEntity
  8
0
100
AcDbLine
 10
356.995
 20
160.8009155
 30
0.0
 11
357.675
 21
160.8379155
 31
0.0
  0
LINE
  5
D30
330
1E
100
AcDbEntity
  8
0
100
AcDbLine
 10
356.995
 20
162.9649155
 30
0.0
 11
357.675
 21
162.9279155
 31
0.0
  0
LINE
  5
D31
330
1E
100
AcDbEntity
  8
0
100
AcDbLine
 10
357.0
 20
155.5169155
 30
0.0
 11
358.536
 21
155.6079155
 31
0.0
  0
LINE
  5
D32
330
1E
100
AcDbEntity
  8
0
100
AcDbLine
 10
357.0
 20
160.5879155
 30
0.0
 11
358.536
 21
160.4969155
 31
0.0
  0
LINE
  5
D33
330
1E
100
AcDbEntity
  8
0
100
AcDbLine
 10
356.766
 20
150.9179155
 30
0.0
 11
357.496
 21
150.3829155
 31
0.0
  0
LINE
  5
D34
330
1E
100
AcDbEntity
  8
0
100
AcDbLine
 10
356.328
 20
144.96524238588
 30
0.0
 11
356.328
 21
143.8419155
 31
0.0
  0
LINE
  5
D35
330
1E
100
AcDbEntity
  8
0
100
AcDbLine
 10
355.064
 20
143.5329155
 30
0.0
 11
356.328
 21
143.8419155
 31
0.0
  0
LINE
  5
D36
330
1E
100
AcDbEntity
  8
0
100
AcDbLine
 10
351.793
 20
140.682185487105
 30
0.0
 11
356.0
 21
140.556734971309
 31
0.0
  0
LINE
  5
D37
330
1E
100
AcDbEntity
  8
0
100
AcDbLine
 10
350.65
 20
139.8179155
 30
0.0
 11
356.0
 21
139.635931248032
 31
0.0
  0
LINE
  5
D38
330
1E
100
AcDbEntity
  8
0
100
AcDbLine
 10
312.759
 20
165.052757605263
 30
0.0
 11
312.759
 21
163.9769155
 31
0.0
  0
LINE
  5
D39
330
1E
100
AcDbEntity
  8
0
100
AcDbLine
 10
348.69
 20
164.8579155
 30
0.0
 11
348.69
 21
165.946910790289
 31
0.0
  0
LINE
  5
D3A
330
1E
100
AcDbEntity
  8
0
100
AcDbLine
 10
346.696
 20
165.0839155
 30
0.0
 11
347.961
 21
165.3919155
 31
0.0
  0
LINE
  5
D3B
330
1E
100
AcDbEntity
  8
0
100
AcDbLine
 10
346.696
 20
165.0839155
 30
0.0
 11
347.426
 21
164.5489155
 31
0.0
  0
LINE
  5
D3C
330
1E
100
AcDbEntity
  8
0
100
AcDbLine
 10
346.696
 20
165.0839155
 30
0.0
 11
346.696
 21
165.387675396171
 31
0.0
  0
LINE
  5
D3D
330
1E
100
AcDbEntity
  8
0
100
AcDbLine
 10
314.218
 20
164.822389184211
 30
0.0
 11
314.218
 21
163.9769155
 31
0.0
  0
LINE
  5
D3E
330
1E
100
AcDbEntity
  8
0
100
AcDbLine
 10
336.36
 20
166.5019155
 30
0.0
 11
336.36
 21
165.8849155
 31
0.0
  0
LINE
  5
D3F
330
1E
100
AcDbEntity
  8
0
100
AcDbLine
 10
336.36
 20
166.5019155
 30
0.0
 11
337.82
 21
166.5019155
 31
0.0
  0
LINE
  5
D40
330
1E
100
AcDbEntity
  8
0
100
AcDbLine
 10
336.36
 20
166.221547858063
 30
0.0
 11
336.36
 21
165.8849155
 31
0.0
  0
LINE
  5
D41
330
1E
100
AcDbEntity
  8
0
100
AcDbLine
 10
347.961
 20
166.452241754496
 30
0.0
 11
347.961
 21
165.3919155
 31
0.0
  0
LINE
  5
D42
330
1E
100
AcDbEntity
  8
0
100
AcDbLine
 10
355.502
 20
165.7059155
 30
0.0
 11
356.766
 21
165.3979155
 31
0.0
  0
LINE
  5
D43
330
1E
100
AcDbEntity
  8
0
100
AcDbLine
 10
355.502
 20
165.7059155
 30
0.0
 11
356.232
 21
166.2419155
 31
0.0
  0
LINE
  5
D44
330
1E
100
AcDbEntity
  8
0
100
AcDbLine
 10
356.766
 20
165.3979155
 30
0.0
 11
357.496
 21
165.9329155
 31
0.0
  0
LINE
  5
D45
330
1E
100
AcDbEntity
  8
0
100
AcDbLine
 10
356.232
 20
166.2419155
 30
0.0
 11
357.496
 21
165.9329155
 31
0.0
  0
LINE
  5
D46
330
1E
100
AcDbEntity
  8
0
100
AcDbLine
 10
348.69
 20
165.946910790289
 30
0.0
 11
348.69
 21
164.8579155
 31
0.0
  0
LINE
  5
D47
330
1E
100
AcDbEntity
  8
0
100
AcDbLine
 10
347.961
 20
165.3919155
 30
0.0
 11
347.961
 21
166.452241754496
 31
0.0
  0
LINE
  5
D48
330
1E
100
AcDbEntity
  8
0
100
AcDbLine
 10
347.961
 20
165.3919155
 30
0.0
 11
348.69
 21
164.8579155
 31
0.0
  0
LINE
  5
D49
330
1E
100
AcDbEntity
  8
0
100
AcDbLine
 10
346.696
 20
165.387675396171
 30
0.0
 11
346.696
 21
165.0839155
 31
0.0
  0
LINE
  5
D4A
330
1E
100
AcDbEntity
  8
0
100
AcDbLine
 10
337.82
 20
165.8849155
 30
0.0
 11
337.82
 21
166.5019155
 31
0.0
  0
LINE
  5
D4B
330
1E
100
AcDbEntity
  8
0
100
AcDbLine
 10
337.82
 20
166.5019155
 30
0.0
 11
337.82
 21
165.8849155
 31
0.0
  0
LINE
  5
D4C
330
1E
100
AcDbEntity
  8
0
100
AcDbLine
 10
337.82
 20
166.5019155
 30
0.0
 11
337.82
 21
167.355312996523
 31
0.0
  0
LINE
  5
D4D
330
1E
100
AcDbEntity
  8
0
100
AcDbLine
 10
336.36
 20
165.8849155
 30
0.0
 11
336.36
 21
166.5019155
 31
0.0
  0
LINE
  5
D4E
330
1E
100
AcDbEntity
  8
0
100
AcDbLine
 10
336.36
 20
165.8849155
 30
0.0
 11
336.36
 21
166.221547858063
 31
0.0
  0
LINE
  5
D4F
330
1E
100
AcDbEntity
  8
0
100
AcDbLine
 10
336.36
 20
165.8849155
 30
0.0
 11
337.82
 21
165.8849155
 31
0.0
  0
LINE
  5
D50
330
1E
100
AcDbEntity
  8
0
100
AcDbLine
 10
311.599
 20
165.2359155
 30
0.0
 11
313.569
 21
168.0129155
 31
0.0
  0
LINE
  5
D51
330
1E
100
AcDbEntity
  8
0
100
AcDbLine
 10
309.482
 20
165.6679155
 30
0.0
 11
311.599
 21
168.3829155
 31
0.0
  0
LINE
  5
D52
330
1E
100
AcDbEntity
  8
0
100
AcDbLine
 10
316.084
 20
168.0609155
 30
0.0
 11
316.084
 21
167.4439155
 31
0.0
  0
LINE
  5
D53
330
1E
100
AcDbEntity
  8
0
100
AcDbLine
 10
316.084
 20
168.0609155
 30
0.0
 11
317.544
 21
168.0609155
 31
0.0
  0
LINE
  5
D54
330
1E
100
AcDbEntity
  8
0
100
AcDbLine
 10
316.084
 20
167.756992994547
 30
0.0
 11
316.084
 21
167.4439155
 31
0.0
  0
LINE
  5
D55
330
1E
100
AcDbEntity
  8
0
100
AcDbLine
 10
327.601
 20
166.9209155
 30
0.0
 11
327.601
 21
167.5379155
 31
0.0
  0
LINE
  5
D56
330
1E
100
AcDbEntity
  8
0
100
AcDbLine
 10
326.141
 20
167.5379155
 30
0.0
 11
326.141
 21
168.776743532493
 31
0.0
  0
LINE
  5
D57
330
1E
100
AcDbEntity
  8
0
100
AcDbLine
 10
326.141
 20
167.5379155
 30
0.0
 11
326.141
 21
166.9209155
 31
0.0
  0
LINE
  5
D58
330
1E
100
AcDbEntity
  8
0
100
AcDbLine
 10
326.141
 20
167.5379155
 30
0.0
 11
327.601
 21
167.5379155
 31
0.0
  0
LINE
  5
D59
330
1E
100
AcDbEntity
  8
0
100
AcDbLine
 10
337.82
 20
167.355312996523
 30
0.0
 11
337.82
 21
166.5019155
 31
0.0
  0
LINE
  5
D5A
330
1E
100
AcDbEntity
  8
0
100
AcDbLine
 10
327.601
 20
167.5379155
 30
0.0
 11
327.601
 21
166.9209155
 31
0.0
  0
LINE
  5
D5B
330
1E
100
AcDbEntity
  8
0
100
AcDbLine
 10
327.601
 20
167.5379155
 30
0.0
 11
327.601
 21
168.549290689316
 31
0.0
  0
LINE
  5
D5C
330
1E
100
AcDbEntity
  8
0
100
AcDbLine
 10
326.141
 20
167.183532238625
 30
0.0
 11
326.141
 21
166.9209155
 31
0.0
  0
LINE
  5
D5D
330
1E
100
AcDbEntity
  8
0
100
AcDbLine
 10
326.141
 20
166.9209155
 30
0.0
 11
326.141
 21
167.5379155
 31
0.0
  0
LINE
  5
D5E
330
1E
100
AcDbEntity
  8
0
100
AcDbLine
 10
326.141
 20
166.9209155
 30
0.0
 11
326.141
 21
167.183532238625
 31
0.0
  0
LINE
  5
D5F
330
1E
100
AcDbEntity
  8
0
100
AcDbLine
 10
326.141
 20
166.9209155
 30
0.0
 11
327.601
 21
166.9209155
 31
0.0
  0
LINE
  5
D60
330
1E
100
AcDbEntity
  8
0
100
AcDbLine
 10
317.544
 20
167.4439155
 30
0.0
 11
317.544
 21
168.0609155
 31
0.0
  0
LINE
  5
D61
330
1E
100
AcDbEntity
  8
0
100
AcDbLine
 10
326.141
 20
168.776743532493
 30
0.0
 11
326.141
 21
167.5379155
 31
0.0
  0
LINE
  5
D62
330
1E
100
AcDbEntity
  8
0
100
AcDbLine
 10
327.601
 20
168.549290689316
 30
0.0
 11
327.601
 21
167.5379155
 31
0.0
  0
LINE
  5
D63
330
1E
100
AcDbEntity
  8
0
100
AcDbLine
 10
344.311
 20
168.5169155
 30
0.0
 11
344.311
 21
168.982362494348
 31
0.0
  0
LINE
  5
D64
330
1E
100
AcDbEntity
  8
0
100
AcDbLine
 10
343.047
 20
168.2089155
 30
0.0
 11
344.311
 21
168.5169155
 31
0.0
  0
LINE
  5
D65
330
1E
100
AcDbEntity
  8
0
100
AcDbLine
 10
343.581
 20
169.488386642319
 30
0.0
 11
343.581
 21
169.0509155
 31
0.0
  0
LINE
  5
D66
330
1E
100
AcDbEntity
  8
0
100
AcDbLine
 10
350.42
 20
169.5769155
 30
0.0
 11
351.684
 21
169.2689155
 31
0.0
  0
LINE
  5
D67
330
1E
100
AcDbEntity
  8
0
100
AcDbLine
 10
350.42
 20
169.5769155
 30
0.0
 11
351.15
 21
170.1109155
 31
0.0
  0
LINE
  5
D68
330
1E
100
AcDbEntity
  8
0
100
AcDbLine
 10
350.42
 20
169.5769155
 30
0.0
 11
350.42
 21
170.456152054438
 31
0.0
  0
LINE
  5
D69
330
1E
100
AcDbEntity
  8
0
100
AcDbLine
 10
351.684
 20
169.2689155
 30
0.0
 11
352.414
 21
169.8029155
 31
0.0
  0
LINE
  5
D6A
330
1E
100
AcDbEntity
  8
0
100
AcDbLine
 10
344.311
 20
168.982362494348
 30
0.0
 11
344.311
 21
168.5169155
 31
0.0
  0
LINE
  5
D6B
330
1E
100
AcDbEntity
  8
0
100
AcDbLine
 10
343.581
 20
169.0509155
 30
0.0
 11
343.581
 21
169.488386642319
 31
0.0
  0
LINE
  5
D6C
330
1E
100
AcDbEntity
  8
0
100
AcDbLine
 10
343.581
 20
169.0509155
 30
0.0
 11
344.311
 21
168.5169155
 31
0.0
  0
LINE
  5
D6D
330
1E
100
AcDbEntity
  8
0
100
AcDbLine
 10
342.317
 20
168.7429155
 30
0.0
 11
343.581
 21
169.0509155
 31
0.0
  0
LINE
  5
D6E
330
1E
100
AcDbEntity
  8
0
100
AcDbLine
 10
342.317
 20
168.7429155
 30
0.0
 11
343.047
 21
168.2089155
 31
0.0
  0
LINE
  5
D6F
330
1E
100
AcDbEntity
  8
0
100
AcDbLine
 10
342.317
 20
168.7429155
 30
0.0
 11
342.317
 21
170.126794450974
 31
0.0
  0
LINE
  5
D70
330
1E
100
AcDbEntity
  8
0
100
AcDbLine
 10
351.15
 20
170.1109155
 30
0.0
 11
352.414
 21
169.8029155
 31
0.0
  0
LINE
  5
D71
330
1E
100
AcDbEntity
  8
0
100
AcDbLine
 10
342.317
 20
170.126794450974
 30
0.0
 11
342.317
 21
168.7429155
 31
0.0
  0
LINE
  5
D72
330
1E
100
AcDbEntity
  8
0
100
AcDbLine
 10
332.955
 20
169.7349155
 30
0.0
 11
332.955
 21
170.3519155
 31
0.0
  0
LINE
  5
D73
330
1E
100
AcDbEntity
  8
0
100
AcDbLine
 10
331.495
 20
169.7349155
 30
0.0
 11
331.495
 21
170.3519155
 31
0.0
  0
LINE
  5
D74
330
1E
100
AcDbEntity
  8
0
100
AcDbLine
 10
331.495
 20
169.7349155
 30
0.0
 11
331.495
 21
170.488403998109
 31
0.0
  0
LINE
  5
D75
330
1E
100
AcDbEntity
  8
0
100
AcDbLine
 10
331.495
 20
169.7349155
 30
0.0
 11
332.955
 21
169.7349155
 31
0.0
  0
LINE
  5
D76
330
1E
100
AcDbEntity
  8
0
100
AcDbLine
 10
317.544
 20
168.0609155
 30
0.0
 11
317.544
 21
167.4439155
 31
0.0
  0
LINE
  5
D77
330
1E
100
AcDbEntity
  8
0
100
AcDbLine
 10
316.084
 20
167.4439155
 30
0.0
 11
316.084
 21
168.0609155
 31
0.0
  0
LINE
  5
D78
330
1E
100
AcDbEntity
  8
0
100
AcDbLine
 10
316.084
 20
167.4439155
 30
0.0
 11
316.084
 21
167.756992994547
 31
0.0
  0
LINE
  5
D79
330
1E
100
AcDbEntity
  8
0
100
AcDbLine
 10
316.084
 20
167.4439155
 30
0.0
 11
317.544
 21
167.4439155
 31
0.0
  0
LINE
  5
D7A
330
1E
100
AcDbEntity
  8
0
100
AcDbLine
 10
331.495
 20
170.3519155
 30
0.0
 11
331.495
 21
170.488403998109
 31
0.0
  0
LINE
  5
D7B
330
1E
100
AcDbEntity
  8
0
100
AcDbLine
 10
331.495
 20
170.3519155
 30
0.0
 11
331.495
 21
169.7349155
 31
0.0
  0
LINE
  5
D7C
330
1E
100
AcDbEntity
  8
0
100
AcDbLine
 10
331.495
 20
170.3519155
 30
0.0
 11
332.955
 21
170.3519155
 31
0.0
  0
LINE
  5
D7D
330
1E
100
AcDbEntity
  8
0
100
AcDbLine
 10
350.42
 20
170.456152054438
 30
0.0
 11
350.42
 21
169.5769155
 31
0.0
  0
LINE
  5
D7E
330
1E
100
AcDbEntity
  8
0
100
AcDbLine
 10
332.955
 20
170.3519155
 30
0.0
 11
332.955
 21
169.7349155
 31
0.0
  0
LINE
  5
D7F
330
1E
100
AcDbEntity
  8
0
100
AcDbLine
 10
331.495
 20
170.488403998109
 30
0.0
 11
331.495
 21
169.7349155
 31
0.0
  0
LINE
  5
D80
330
1E
100
AcDbEntity
  8
0
100
AcDbLine
 10
331.495
 20
170.488403998109
 30
0.0
 11
331.495
 21
170.3519155
 31
0.0
  0
LINE
  5
D81
330
1E
100
AcDbEntity
  8
0
100
AcDbLine
 10
316.197
 20
170.3259155
 30
0.0
 11
319.701
 21
172.5159155
 31
0.0
  0
LINE
  5
D82
330
1E
100
AcDbEntity
  8
0
100
AcDbLine
 10
313.569
 20
168.0129155
 30
0.0
 11
316.197
 21
170.3259155
 31
0.0
  0
LINE
  5
D83
330
1E
100
AcDbEntity
  8
0
100
AcDbLine
 10
320.87
 20
171.4919155
 30
0.0
 11
320.87
 21
172.254938863138
 31
0.0
  0
LINE
  5
D84
330
1E
100
AcDbEntity
  8
0
100
AcDbLine
 10
320.87
 20
171.4919155
 30
0.0
 11
320.87
 21
170.8749155
 31
0.0
  0
LINE
  5
D85
330
1E
100
AcDbEntity
  8
0
100
AcDbLine
 10
320.87
 20
171.4919155
 30
0.0
 11
322.33
 21
171.4919155
 31
0.0
  0
LINE
  5
D86
330
1E
100
AcDbEntity
  8
0
100
AcDbLine
 10
322.33
 20
170.8749155
 30
0.0
 11
322.33
 21
171.4919155
 31
0.0
  0
LINE
  5
D87
330
1E
100
AcDbEntity
  8
0
100
AcDbLine
 10
322.33
 20
171.4919155
 30
0.0
 11
322.33
 21
170.8749155
 31
0.0
  0
LINE
  5
D88
330
1E
100
AcDbEntity
  8
0
100
AcDbLine
 10
322.33
 20
171.4919155
 30
0.0
 11
322.33
 21
171.928997126767
 31
0.0
  0
LINE
  5
D89
330
1E
100
AcDbEntity
  8
0
100
AcDbLine
 10
320.87
 20
170.8749155
 30
0.0
 11
320.87
 21
171.4919155
 31
0.0
  0
LINE
  5
D8A
330
1E
100
AcDbEntity
  8
0
100
AcDbLine
 10
320.87
 20
170.8749155
 30
0.0
 11
320.87
 21
172.043627621212
 31
0.0
  0
LINE
  5
D8B
330
1E
100
AcDbEntity
  8
0
100
AcDbLine
 10
320.87
 20
170.8749155
 30
0.0
 11
322.33
 21
170.8749155
 31
0.0
  0
LINE
  5
D8C
330
1E
100
AcDbEntity
  8
0
100
AcDbLine
 10
314.299
 20
170.7889155
 30
0.0
 11
317.949
 21
173.0719155
 31
0.0
  0
LINE
  5
D8D
330
1E
100
AcDbEntity
  8
0
100
AcDbLine
 10
311.599
 20
168.3829155
 30
0.0
 11
314.299
 21
170.7889155
 31
0.0
  0
LINE
  5
D8E
330
1E
100
AcDbEntity
  8
0
100
AcDbLine
 10
338.667
 20
171.8669155
 30
0.0
 11
339.931
 21
172.1749155
 31
0.0
  0
LINE
  5
D8F
330
1E
100
AcDbEntity
  8
0
100
AcDbLine
 10
322.33
 20
171.928997126767
 30
0.0
 11
322.33
 21
171.4919155
 31
0.0
  0
LINE
  5
D90
330
1E
100
AcDbEntity
  8
0
100
AcDbLine
 10
337.937
 20
172.606854888907
 30
0.0
 11
337.937
 21
172.4019155
 31
0.0
  0
LINE
  5
D91
330
1E
100
AcDbEntity
  8
0
100
AcDbLine
 10
339.202
 20
172.7089155
 30
0.0
 11
339.931
 21
172.1749155
 31
0.0
  0
LINE
  5
D92
330
1E
100
AcDbEntity
  8
0
100
AcDbLine
 10
337.937
 20
172.4019155
 30
0.0
 11
339.202
 21
172.7089155
 31
0.0
  0
LINE
  5
D93
330
1E
100
AcDbEntity
  8
0
100
AcDbLine
 10
337.937
 20
172.4019155
 30
0.0
 11
338.667
 21
171.8669155
 31
0.0
  0
LINE
  5
D94
330
1E
100
AcDbEntity
  8
0
100
AcDbLine
 10
337.937
 20
172.4019155
 30
0.0
 11
337.937
 21
172.606854888907
 31
0.0
  0
LINE
  5
D95
330
1E
100
AcDbEntity
  8
0
100
AcDbLine
 10
320.87
 20
172.254938863138
 30
0.0
 11
320.87
 21
171.4919155
 31
0.0
  0
LINE
  5
D96
330
1E
100
AcDbEntity
  8
0
100
AcDbLine
 10
320.87
 20
172.043627621212
 30
0.0
 11
320.87
 21
170.8749155
 31
0.0
  0
LINE
  5
D97
330
1E
100
AcDbEntity
  8
0
100
AcDbLine
 10
319.701
 20
172.5159155
 30
0.0
 11
323.788
 21
174.4589155
 31
0.0
  0
LINE
  5
D98
330
1E
100
AcDbEntity
  8
0
100
AcDbLine
 10
323.788
 20
174.4589155
 30
0.0
 11
328.387
 21
176.1869155
 31
0.0
  0
LINE
  5
D99
330
1E
100
AcDbEntity
  8
0
100
AcDbLine
 10
322.182
 20
175.1379155
 30
0.0
 11
327.073
 21
176.9279155
 31
0.0
  0
LINE
  5
D9A
330
1E
100
AcDbEntity
  8
0
100
AcDbLine
 10
321.672
 20
176.2609155
 30
0.0
 11
326.635
 21
178.0809155
 31
0.0
  0
LINE
  5
D9B
330
1E
100
AcDbEntity
  8
0
100
AcDbLine
 10
327.278
 20
175.770226654599
 30
0.0
 11
327.278
 21
174.3389155
 31
0.0
  0
LINE
  5
D9C
330
1E
100
AcDbEntity
  8
0
100
AcDbLine
 10
327.278
 20
174.3389155
 30
0.0
 11
327.278
 21
175.770226654599
 31
0.0
  0
LINE
  5
D9D
330
1E
100
AcDbEntity
  8
0
100
AcDbLine
 10
327.278
 20
174.3389155
 30
0.0
 11
327.278
 21
173.7219155
 31
0.0
  0
LINE
  5
D9E
330
1E
100
AcDbEntity
  8
0
100
AcDbLine
 10
327.278
 20
174.3389155
 30
0.0
 11
328.738
 21
174.3389155
 31
0.0
  0
LINE
  5
D9F
330
1E
100
AcDbEntity
  8
0
100
AcDbLine
 10
327.278
 20
173.7219155
 30
0.0
 11
327.278
 21
174.3389155
 31
0.0
  0
LINE
  5
DA0
330
1E
100
AcDbEntity
  8
0
100
AcDbLine
 10
327.278
 20
173.7219155
 30
0.0
 11
328.738
 21
173.7219155
 31
0.0
  0
LINE
  5
DA1
330
1E
100
AcDbEntity
  8
0
100
AcDbLine
 10
328.738
 20
173.7219155
 30
0.0
 11
328.738
 21
174.3389155
 31
0.0
  0
LINE
  5
DA2
330
1E
100
AcDbEntity
  8
0
100
AcDbLine
 10
328.738
 20
174.3389155
 30
0.0
 11
328.738
 21
173.7219155
 31
0.0
  0
LINE
  5
DA3
330
1E
100
AcDbEntity
  8
0
100
AcDbLine
 10
335.552
 20
175.8339155
 30
0.0
 11
335.552
 21
176.708017829916
 31
0.0
  0
LINE
  5
DA4
330
1E
100
AcDbEntity
  8
0
100
AcDbLine
 10
334.288
 20
175.5259155
 30
0.0
 11
335.552
 21
175.8339155
 31
0.0
  0
LINE
  5
DA5
330
1E
100
AcDbEntity
  8
0
100
AcDbLine
 10
334.822
 20
177.061384092731
 30
0.0
 11
334.822
 21
176.3689155
 31
0.0
  0
LINE
  5
DA6
330
1E
100
AcDbEntity
  8
0
100
AcDbLine
 10
335.552
 20
176.708017829916
 30
0.0
 11
335.552
 21
175.8339155
 31
0.0
  0
LINE
  5
DA7
330
1E
100
AcDbEntity
  8
0
100
AcDbLine
 10
334.822
 20
176.3689155
 30
0.0
 11
334.822
 21
177.061384092731
 31
0.0
  0
LINE
  5
DA8
330
1E
100
AcDbEntity
  8
0
100
AcDbLine
 10
334.822
 20
176.3689155
 30
0.0
 11
335.552
 21
175.8339155
 31
0.0
  0
LINE
  5
DA9
330
1E
100
AcDbEntity
  8
0
100
AcDbLine
 10
333.558
 20
177.664771733115
 30
0.0
 11
333.558
 21
176.0599155
 31
0.0
  0
LINE
  5
DAA
330
1E
100
AcDbEntity
  8
0
100
AcDbLine
 10
333.558
 20
176.0599155
 30
0.0
 11
334.822
 21
176.3689155
 31
0.0
  0
LINE
  5
DAB
330
1E
100
AcDbEntity
  8
0
100
AcDbLine
 10
333.558
 20
176.0599155
 30
0.0
 11
334.288
 21
175.5259155
 31
0.0
  0
LINE
  5
DAC
330
1E
100
AcDbEntity
  8
0
100
AcDbLine
 10
333.558
 20
176.0599155
 30
0.0
 11
333.558
 21
177.664771733115
 31
0.0
  0
LINE
  5
DAD
330
1E
100
AcDbEntity
  8
0
100
AcDbLine
 10
328.387
 20
176.1869155
 30
0.0
 11
333.569
 21
177.6679155
 31
0.0
  0
LINE
  5
DAE
330
1E
100
AcDbEntity
  8
0
100
AcDbLine
 10
333.569
 20
177.6679155
 30
0.0
 11
339.044
 21
178.7789155
 31
0.0
  0
LINE
  5
DAF
330
1E
100
AcDbEntity
  8
0
100
AcDbLine
 10
327.073
 20
176.9279155
 30
0.0
 11
332.474
 21
178.4699155
 31
0.0
  0
LINE
  5
DB0
330
1E
100
AcDbEntity
  8
0
100
AcDbLine
 10
332.474
 20
178.4699155
 30
0.0
 11
338.168
 21
179.6109155
 31
0.0
  0
LINE
  5
DB1
330
1E
100
AcDbEntity
  8
0
100
AcDbLine
 10
326.635
 20
178.0809155
 30
0.0
 11
332.109
 21
179.6229155
 31
0.0
  0
LINE
  5
DB2
330
1E
100
AcDbEntity
  8
0
100
AcDbLine
 10
332.109
 20
179.6229155
 30
0.0
 11
337.876
 21
180.8259155
 31
0.0
  0
LINE
  5
DB3
330
1E
100
AcDbEntity
  8
0
100
AcDbLine
 10
340.759
 20
177.737093070094
 30
0.0
 11
340.759
 21
177.2719155
 31
0.0
  0
LINE
  5
DB4
330
1E
100
AcDbEntity
  8
0
100
AcDbLine
 10
340.759
 20
177.2719155
 30
0.0
 11
342.023
 21
176.9639155
 31
0.0
  0
LINE
  5
DB5
330
1E
100
AcDbEntity
  8
0
100
AcDbLine
 10
340.759
 20
177.2719155
 30
0.0
 11
341.489
 21
177.8059155
 31
0.0
  0
LINE
  5
DB6
330
1E
100
AcDbEntity
  8
0
100
AcDbLine
 10
340.759
 20
177.2719155
 30
0.0
 11
340.759
 21
177.737093070094
 31
0.0
  0
LINE
  5
DB7
330
1E
100
AcDbEntity
  8
0
100
AcDbLine
 10
342.023
 20
176.9639155
 30
0.0
 11
342.753
 21
177.4979155
 31
0.0
  0
LINE
  5
DB8
330
1E
100
AcDbEntity
  8
0
100
AcDbLine
 10
341.489
 20
179.08858820513
 30
0.0
 11
341.489
 21
177.8059155
 31
0.0
  0
LINE
  5
DB9
330
1E
100
AcDbEntity
  8
0
100
AcDbLine
 10
341.489
 20
177.8059155
 30
0.0
 11
342.753
 21
177.4979155
 31
0.0
  0
LINE
  5
DBA
330
1E
100
AcDbEntity
  8
0
100
AcDbLine
 10
341.489
 20
177.8059155
 30
0.0
 11
341.489
 21
179.08858820513
 31
0.0
  0
LINE
  5
DBB
330
1E
100
AcDbEntity
  8
0
100
AcDbLine
 10
339.044
 20
178.7789155
 30
0.0
 11
345.613
 21
179.6109155
 31
0.0
  0
LINE
  5
DBC
330
1E
100
AcDbEntity
  8
0
100
AcDbLine
 10
338.168
 20
179.6109155
 30
0.0
 11
344.591
 21
180.5059155
 31
0.0
  0
LINE
  5
DBD
330
1E
100
AcDbEntity
  8
0
100
AcDbLine
 10
345.892
 20
173.5089155
 30
0.0
 11
347.157
 21
173.2009155
 31
0.0
  0
LINE
  5
DBE
330
1E
100
AcDbEntity
  8
0
100
AcDbLine
 10
345.892
 20
173.5089155
 30
0.0
 11
346.622
 21
174.0429155
 31
0.0
  0
LINE
  5
DBF
330
1E
100
AcDbEntity
  8
0
100
AcDbLine
 10
345.892
 20
173.5089155
 30
0.0
 11
345.892
 21
174.6189155
 31
0.0
  0
LINE
  5
DC0
330
1E
100
AcDbEntity
  8
0
100
AcDbLine
 10
347.887
 20
173.7349155
 30
0.0
 11
347.887
 21
174.377600431507
 31
0.0
  0
LINE
  5
DC1
330
1E
100
AcDbEntity
  8
0
100
AcDbLine
 10
347.157
 20
173.2009155
 30
0.0
 11
347.887
 21
173.7349155
 31
0.0
  0
LINE
  5
DC2
330
1E
100
AcDbEntity
  8
0
100
AcDbLine
 10
346.622
 20
174.0429155
 30
0.0
 11
347.887
 21
173.7349155
 31
0.0
  0
LINE
  5
DC3
330
1E
100
AcDbEntity
  8
0
100
AcDbLine
 10
346.622
 20
174.0429155
 30
0.0
 11
346.622
 21
174.175457556075
 31
0.0
  0
LINE
  5
DC4
330
1E
100
AcDbEntity
  8
0
100
AcDbLine
 10
346.622
 20
174.175457556075
 30
0.0
 11
346.622
 21
174.0429155
 31
0.0
  0
LINE
  5
DC5
330
1E
100
AcDbEntity
  8
0
100
AcDbLine
 10
347.887
 20
174.377600431507
 30
0.0
 11
347.887
 21
173.7349155
 31
0.0
  0
LINE
  5
DC6
330
1E
100
AcDbEntity
  8
0
100
AcDbLine
 10
354.334
 20
174.0619155
 30
0.0
 11
355.599
 21
173.7529155
 31
0.0
  0
LINE
  5
DC7
330
1E
100
AcDbEntity
  8
0
100
AcDbLine
 10
354.334
 20
174.0619155
 30
0.0
 11
355.064
 21
174.5959155
 31
0.0
  0
LINE
  5
DC8
330
1E
100
AcDbEntity
  8
0
100
AcDbLine
 10
355.599
 20
173.7529155
 30
0.0
 11
356.328
 21
174.2879155
 31
0.0
  0
LINE
  5
DC9
330
1E
100
AcDbEntity
  8
0
100
AcDbLine
 10
345.892
 20
174.6189155
 30
0.0
 11
345.892
 21
173.5089155
 31
0.0
  0
LINE
  5
DCA
330
1E
100
AcDbEntity
  8
0
100
AcDbLine
 10
349.799
 20
178.1929155
 30
0.0
 11
351.063
 21
177.8849155
 31
0.0
  0
LINE
  5
DCB
330
1E
100
AcDbEntity
  8
0
100
AcDbLine
 10
349.799
 20
178.1929155
 30
0.0
 11
350.529
 21
178.7279155
 31
0.0
  0
LINE
  5
DCC
330
1E
100
AcDbEntity
  8
0
100
AcDbLine
 10
351.793
 20
178.4189155
 30
0.0
 11
351.793
 21
179.078009149258
 31
0.0
  0
LINE
  5
DCD
330
1E
100
AcDbEntity
  8
0
100
AcDbLine
 10
351.063
 20
177.8849155
 30
0.0
 11
351.793
 21
178.4189155
 31
0.0
  0
LINE
  5
DCE
330
1E
100
AcDbEntity
  8
0
100
AcDbLine
 10
350.529
 20
180.108870352402
 30
0.0
 11
350.529
 21
178.7279155
 31
0.0
  0
LINE
  5
DCF
330
1E
100
AcDbEntity
  8
0
100
AcDbLine
 10
351.793
 20
179.078009149258
 30
0.0
 11
351.793
 21
178.4189155
 31
0.0
  0
LINE
  5
DD0
330
1E
100
AcDbEntity
  8
0
100
AcDbLine
 10
350.529
 20
178.7279155
 30
0.0
 11
351.793
 21
178.4189155
 31
0.0
  0
LINE
  5
DD1
330
1E
100
AcDbEntity
  8
0
100
AcDbLine
 10
350.529
 20
178.7279155
 30
0.0
 11
350.529
 21
180.108870352402
 31
0.0
  0
LINE
  5
DD2
330
1E
100
AcDbEntity
  8
0
100
AcDbLine
 10
355.064
 20
175.607185003546
 30
0.0
 11
355.064
 21
174.5959155
 31
0.0
  0
LINE
  5
DD3
330
1E
100
AcDbEntity
  8
0
100
AcDbLine
 10
355.064
 20
174.5959155
 30
0.0
 11
356.328
 21
174.2879155
 31
0.0
  0
LINE
  5
DD4
330
1E
100
AcDbEntity
  8
0
100
AcDbLine
 10
355.064
 20
174.5959155
 30
0.0
 11
355.064
 21
175.607185003546
 31
0.0
  0
LINE
  5
DD5
330
1E
100
AcDbEntity
  8
0
100
AcDbLine
 10
345.613
 20
179.6109155
 30
0.0
 11
350.796
 21
180.1359155
 31
0.0
  0
LINE
  5
DD6
330
1E
100
AcDbEntity
  8
0
100
AcDbLine
 10
350.796
 20
180.1359155
 30
0.0
 11
357.0
 21
180.3209155
 31
0.0
  0
LINE
  5
DD7
330
1E
100
AcDbEntity
  8
0
100
AcDbLine
 10
344.591
 20
180.5059155
 30
0.0
 11
350.65
 21
181.0299155
 31
0.0
  0
LINE
  5
DD8
330
1E
100
AcDbEntity
  8
0
100
AcDbLine
 10
350.65
 20
181.0299155
 30
0.0
 11
357.0
 21
181.2469155
 31
0.0
  0
LINE
  5
DD9
330
1E
100
AcDbEntity
  8
0
100
AcDbLine
 10
337.876
 20
180.8259155
 30
0.0
 11
344.08
 21
181.6899155
 31
0.0
  0
LINE
  5
DDA
330
1E
100
AcDbEntity
  8
0
100
AcDbLine
 10
317.949
 20
173.0719155
 30
0.0
 11
322.182
 21
175.1379155
 31
0.0
  0
LINE
  5
DDB
330
1E
100
AcDbEntity
  8
0
100
AcDbLine
 10
317.365
 20
174.1629155
 30
0.0
 11
321.672
 21
176.2609155
 31
0.0
  0
LINE
  5
DDC
330
1E
100
AcDbEntity
  8
0
100
AcDbLine
 10
313.715
 20
171.8499155
 30
0.0
 11
317.365
 21
174.1629155
 31
0.0
  0
LINE
  5
DDD
330
1E
100
AcDbEntity
  8
0
100
AcDbLine
 10
310.869
 20
169.4129155
 30
0.0
 11
313.715
 21
171.8499155
 31
0.0
  0
LINE
  5
DDE
330
1E
100
AcDbEntity
  8
0
100
AcDbLine
 10
308.825
 20
166.7899155
 30
0.0
 11
310.869
 21
169.4129155
 31
0.0
  0
LINE
  5
DDF
330
1E
100
AcDbEntity
  8
0
100
AcDbLine
 10
307.0
 20
180.3629155
 30
0.0
 11
307.511
 21
183.0779155
 31
0.0
  0
LINE
  5
DE0
330
1E
100
AcDbEntity
  8
0
100
AcDbLine
 10
307.0
 20
180.3629155
 30
0.0
 11
307.0
 21
161.3309155
 31
0.0
  0
LINE
  5
DE1
330
1E
100
AcDbEntity
  8
0
100
AcDbLine
 10
357.0
 20
180.3209155
 30
0.0
 11
363.204
 21
180.1359155
 31
0.0
  0
LINE
  5
DE2
330
1E
100
AcDbEntity
  8
0
100
AcDbLine
 10
310.869
 20
188.4449155
 30
0.0
 11
311.599
 21
189.2279155
 31
0.0
  0
LINE
  5
DE3
330
1E
100
AcDbEntity
  8
0
100
AcDbLine
 10
310.869
 20
188.4449155
 30
0.0
 11
313.715
 21
190.8809155
 31
0.0
  0
LINE
  5
DE4
330
1E
100
AcDbEntity
  8
0
100
AcDbLine
 10
308.825
 20
185.8229155
 30
0.0
 11
310.869
 21
188.4449155
 31
0.0
  0
LINE
  5
DE5
330
1E
100
AcDbEntity
  8
0
100
AcDbLine
 10
307.511
 20
183.0779155
 30
0.0
 11
308.825
 21
185.8229155
 31
0.0
  0
LINE
  5
DE6
330
1E
100
AcDbEntity
  8
0
100
AcDbLine
 10
344.08
 20
181.6899155
 30
0.0
 11
350.577
 21
182.2449155
 31
0.0
  0
LINE
  5
DE7
330
1E
100
AcDbEntity
  8
0
100
AcDbLine
 10
350.577
 20
182.2449155
 30
0.0
 11
357.0
 21
182.4619155
 31
0.0
  0
LINE
  5
DE8
330
1E
100
AcDbEntity
  8
0
100
AcDbLine
 10
313.715
 20
190.8809155
 30
0.0
 11
317.365
 21
193.1959155
 31
0.0
  0
LINE
  5
DE9
330
1E
100
AcDbEntity
  8
0
100
AcDbLine
 10
317.365
 20
193.1959155
 30
0.0
 11
321.672
 21
195.2929155
 31
0.0
  0
LINE
  5
DEA
330
1E
100
AcDbEntity
  8
0
100
AcDbLine
 10
321.672
 20
195.2929155
 30
0.0
 11
326.635
 21
197.1139155
 31
0.0
  0
LINE
  5
DEB
330
1E
100
AcDbEntity
  8
0
100
AcDbLine
 10
326.635
 20
197.1139155
 30
0.0
 11
332.109
 21
198.6559155
 31
0.0
  0
LINE
  5
DEC
330
1E
100
AcDbEntity
  8
0
100
AcDbLine
 10
322.182
 20
195.9839155
 30
0.0
 11
327.073
 21
197.7729155
 31
0.0
  0
LINE
  5
DED
330
1E
100
AcDbEntity
  8
0
100
AcDbLine
 10
332.109
 20
198.6559155
 30
0.0
 11
337.876
 21
199.8589155
 31
0.0
  0
LINE
  5
DEE
330
1E
100
AcDbEntity
  8
0
100
AcDbLine
 10
327.073
 20
197.7729155
 30
0.0
 11
332.474
 21
199.3159155
 31
0.0
  0
LINE
  5
DEF
330
1E
100
AcDbEntity
  8
0
100
AcDbLine
 10
337.876
 20
199.8589155
 30
0.0
 11
344.08
 21
200.7229155
 31
0.0
  0
LINE
  5
DF0
330
1E
100
AcDbEntity
  8
0
100
AcDbLine
 10
332.474
 20
199.3159155
 30
0.0
 11
338.168
 21
200.4569155
 31
0.0
  0
LINE
  5
DF1
330
1E
100
AcDbEntity
  8
0
100
AcDbLine
 10
344.08
 20
200.7229155
 30
0.0
 11
350.577
 21
201.2779155
 31
0.0
  0
LINE
  5
DF2
330
1E
100
AcDbEntity
  8
0
100
AcDbLine
 10
350.577
 20
201.2779155
 30
0.0
 11
357.0
 21
201.4939155
 31
0.0
  0
LINE
  5
DF3
330
1E
100
AcDbEntity
  8
0
100
AcDbLine
 10
338.168
 20
200.4569155
 30
0.0
 11
344.591
 21
201.3509155
 31
0.0
  0
LINE
  5
DF4
330
1E
100
AcDbEntity
  8
0
100
AcDbLine
 10
344.591
 20
201.3509155
 30
0.0
 11
350.65
 21
201.8759155
 31
0.0
  0
LINE
  5
DF5
330
1E
100
AcDbEntity
  8
0
100
AcDbLine
 10
317.949
 20
193.9169155
 30
0.0
 11
322.182
 21
195.9839155
 31
0.0
  0
LINE
  5
DF6
330
1E
100
AcDbEntity
  8
0
100
AcDbLine
 10
314.299
 20
191.6339155
 30
0.0
 11
317.949
 21
193.9169155
 31
0.0
  0
LINE
  5
DF7
330
1E
100
AcDbEntity
  8
0
100
AcDbLine
 10
311.599
 20
189.2279155
 30
0.0
 11
314.299
 21
191.6339155
 31
0.0
  0
LINE
  5
DF8
330
1E
100
AcDbEntity
  8
0
100
AcDbLine
 10
357.0
 20
181.2469155
 30
0.0
 11
363.35
 21
181.0299155
 31
0.0
  0
LINE
  5
DF9
330
1E
100
AcDbEntity
  8
0
100
AcDbLine
 10
357.0
 20
182.4619155
 30
0.0
 11
363.423
 21
182.2449155
 31
0.0
  0
LINE
  5
DFA
330
1E
100
AcDbEntity
  8
0
100
AcDbLine
 10
350.65
 20
201.8759155
 30
0.0
 11
357.0
 21
202.0909155
 31
0.0
  0
LINE
  5
DFB
330
1E
100
AcDbEntity
  8
0
100
AcDbLine
 10
357.0
 20
201.4939155
 30
0.0
 11
363.423
 21
201.2779155
 31
0.0
  0
LINE
  5
DFC
330
1E
100
AcDbEntity
  8
0
100
AcDbLine
 10
360.072
 20
121.5029155
 30
0.0
 11
362.952
 21
122.7389155
 31
0.0
  0
LINE
  5
DFD
330
1E
100
AcDbEntity
  8
0
100
AcDbLine
 10
362.952
 20
122.7389155
 30
0.0
 11
365.448
 21
124.6799155
 31
0.0
  0
LINE
  5
DFE
330
1E
100
AcDbEntity
  8
0
100
AcDbLine
 10
359.208
 20
124.8569155
 30
0.0
 11
361.32
 21
125.6509155
 31
0.0
  0
LINE
  5
DFF
330
1E
100
AcDbEntity
  8
0
100
AcDbLine
 10
358.0
 20
134.9749155
 30
0.0
 11
358.0
 21
135.3069155
 31
0.0
  0
LINE
  5
E00
330
1E
100
AcDbEntity
  8
0
100
AcDbLine
 10
358.0
 20
135.3069155
 30
0.0
 11
358.0
 21
134.9749155
 31
0.0
  0
LINE
  5
E01
330
1E
100
AcDbEntity
  8
0
100
AcDbLine
 10
358.0
 20
135.3069155
 30
0.0
 11
358.0
 21
135.9589155
 31
0.0
  0
LINE
  5
E02
330
1E
100
AcDbEntity
  8
0
100
AcDbLine
 10
358.0
 20
135.9589155
 30
0.0
 11
358.0
 21
135.3069155
 31
0.0
  0
LINE
  5
E03
330
1E
100
AcDbEntity
  8
0
100
AcDbLine
 10
358.0
 20
135.9589155
 30
0.0
 11
358.0
 21
137.9389155
 31
0.0
  0
LINE
  5
E04
330
1E
100
AcDbEntity
  8
0
100
AcDbLine
 10
358.0
 20
137.9389155
 30
0.0
 11
358.0
 21
135.9589155
 31
0.0
  0
LINE
  5
E05
330
1E
100
AcDbEntity
  8
0
100
AcDbLine
 10
358.0
 20
137.9389155
 30
0.0
 11
358.0
 21
144.0219155
 31
0.0
  0
LINE
  5
E06
330
1E
100
AcDbEntity
  8
0
100
AcDbLine
 10
361.32
 20
125.6509155
 30
0.0
 11
363.144
 21
127.0629155
 31
0.0
  0
LINE
  5
E07
330
1E
100
AcDbEntity
  8
0
100
AcDbLine
 10
363.144
 20
127.0629155
 30
0.0
 11
364.488
 21
128.9169155
 31
0.0
  0
LINE
  5
E08
330
1E
100
AcDbEntity
  8
0
100
AcDbLine
 10
359.952
 20
140.2709155
 30
0.0
 11
361.216
 21
140.5799155
 31
0.0
  0
LINE
  5
E09
330
1E
100
AcDbEntity
  8
0
100
AcDbLine
 10
359.222
 20
140.8049155
 30
0.0
 11
360.486
 21
141.1139155
 31
0.0
  0
LINE
  5
E0A
330
1E
100
AcDbEntity
  8
0
100
AcDbLine
 10
359.222
 20
140.8049155
 30
0.0
 11
359.952
 21
140.2709155
 31
0.0
  0
LINE
  5
E0B
330
1E
100
AcDbEntity
  8
0
100
AcDbLine
 10
357.675
 20
160.8379155
 30
0.0
 11
358.275
 21
160.9459155
 31
0.0
  0
LINE
  5
E0C
330
1E
100
AcDbEntity
  8
0
100
AcDbLine
 10
357.675
 20
162.9279155
 30
0.0
 11
358.275
 21
162.8189155
 31
0.0
  0
LINE
  5
E0D
330
1E
100
AcDbEntity
  8
0
100
AcDbLine
 10
358.536
 20
155.6079155
 30
0.0
 11
359.976
 21
155.8519155
 31
0.0
  0
LINE
  5
E0E
330
1E
100
AcDbEntity
  8
0
100
AcDbLine
 10
359.976
 20
155.8519155
 30
0.0
 11
361.248
 21
156.2569155
 31
0.0
  0
LINE
  5
E0F
330
1E
100
AcDbEntity
  8
0
100
AcDbLine
 10
358.275
 20
160.9459155
 30
0.0
 11
358.787
 21
161.1259155
 31
0.0
  0
LINE
  5
E10
330
1E
100
AcDbEntity
  8
0
100
AcDbLine
 10
358.275
 20
162.8189155
 30
0.0
 11
358.787
 21
162.6399155
 31
0.0
  0
LINE
  5
E11
330
1E
100
AcDbEntity
  8
0
100
AcDbLine
 10
359.211
 20
161.3419155
 30
0.0
 11
359.467
 21
161.5959155
 31
0.0
  0
LINE
  5
E12
330
1E
100
AcDbEntity
  8
0
100
AcDbLine
 10
358.787
 20
161.1259155
 30
0.0
 11
359.211
 21
161.3419155
 31
0.0
  0
LINE
  5
E13
330
1E
100
AcDbEntity
  8
0
100
AcDbLine
 10
359.467
 20
161.5959155
 30
0.0
 11
359.555
 21
161.8829155
 31
0.0
  0
LINE
  5
E14
330
1E
100
AcDbEntity
  8
0
100
AcDbLine
 10
359.467
 20
162.1699155
 30
0.0
 11
359.555
 21
161.8829155
 31
0.0
  0
LINE
  5
E15
330
1E
100
AcDbEntity
  8
0
100
AcDbLine
 10
359.211
 20
162.4239155
 30
0.0
 11
359.467
 21
162.1699155
 31
0.0
  0
LINE
  5
E16
330
1E
100
AcDbEntity
  8
0
100
AcDbLine
 10
358.787
 20
162.6399155
 30
0.0
 11
359.211
 21
162.4239155
 31
0.0
  0
LINE
  5
E17
330
1E
100
AcDbEntity
  8
0
100
AcDbLine
 10
358.536
 20
160.4969155
 30
0.0
 11
359.976
 21
160.2539155
 31
0.0
  0
LINE
  5
E18
330
1E
100
AcDbEntity
  8
0
100
AcDbLine
 10
359.976
 20
160.2539155
 30
0.0
 11
361.248
 21
159.8479155
 31
0.0
  0
LINE
  5
E19
330
1E
100
AcDbEntity
  8
0
100
AcDbLine
 10
358.0
 20
144.0219155
 30
0.0
 11
358.0
 21
137.9389155
 31
0.0
  0
LINE
  5
E1A
330
1E
100
AcDbEntity
  8
0
100
AcDbLine
 10
359.222
 20
178.2299155
 30
0.0
 11
360.486
 21
177.9209155
 31
0.0
  0
LINE
  5
E1B
330
1E
100
AcDbEntity
  8
0
100
AcDbLine
 10
359.222
 20
178.2299155
 30
0.0
 11
359.952
 21
178.7639155
 31
0.0
  0
LINE
  5
E1C
330
1E
100
AcDbEntity
  8
0
100
AcDbLine
 10
360.86
 20
169.6019155
 30
0.0
 11
362.125
 21
169.2939155
 31
0.0
  0
LINE
  5
E1D
330
1E
100
AcDbEntity
  8
0
100
AcDbLine
 10
360.86
 20
169.6019155
 30
0.0
 11
361.59
 21
170.1369155
 31
0.0
  0
LINE
  5
E1E
330
1E
100
AcDbEntity
  8
0
100
AcDbLine
 10
360.486
 20
177.9209155
 30
0.0
 11
361.216
 21
178.4549155
 31
0.0
  0
LINE
  5
E1F
330
1E
100
AcDbEntity
  8
0
100
AcDbLine
 10
359.952
 20
180.232888420696
 30
0.0
 11
359.952
 21
178.7639155
 31
0.0
  0
LINE
  5
E20
330
1E
100
AcDbEntity
  8
0
100
AcDbLine
 10
359.952
 20
178.7639155
 30
0.0
 11
361.216
 21
178.4549155
 31
0.0
  0
LINE
  5
E21
330
1E
100
AcDbEntity
  8
0
100
AcDbLine
 10
359.952
 20
178.7639155
 30
0.0
 11
359.952
 21
180.232888420696
 31
0.0
  0
LINE
  5
E22
330
1E
100
AcDbEntity
  8
0
100
AcDbLine
 10
360.86
 20
147.6199155
 30
0.0
 11
362.125
 21
147.9289155
 31
0.0
  0
LINE
  5
E23
330
1E
100
AcDbEntity
  8
0
100
AcDbLine
 10
360.86
 20
147.6199155
 30
0.0
 11
361.59
 21
147.0859155
 31
0.0
  0
LINE
  5
E24
330
1E
100
AcDbEntity
  8
0
100
AcDbLine
 10
360.486
 20
141.1139155
 30
0.0
 11
361.216
 21
140.5799155
 31
0.0
  0
LINE
  5
E25
330
1E
100
AcDbEntity
  8
0
100
AcDbLine
 10
361.216
 20
140.5799155
 30
0.0
 11
361.216
 21
140.652634391038
 31
0.0
  0
LINE
  5
E26
330
1E
100
AcDbEntity
  8
0
100
AcDbLine
 10
358.0
 20
140.556734971309
 30
0.0
 11
359.500121390284
 21
140.601467798066
 31
0.0
  0
LINE
  5
E27
330
1E
100
AcDbEntity
  8
0
100
AcDbLine
 10
361.248
 20
156.2569155
 30
0.0
 11
362.208
 21
156.7949155
 31
0.0
  0
LINE
  5
E28
330
1E
100
AcDbEntity
  8
0
100
AcDbLine
 10
361.248
 20
159.8479155
 30
0.0
 11
362.208
 21
159.3099155
 31
0.0
  0
LINE
  5
E29
330
1E
100
AcDbEntity
  8
0
100
AcDbLine
 10
361.59
 20
170.1369155
 30
0.0
 11
362.854
 21
169.8279155
 31
0.0
  0
LINE
  5
E2A
330
1E
100
AcDbEntity
  8
0
100
AcDbLine
 10
362.810636480609
 20
156.155668104706
 30
0.0
 11
363.334
 21
155.1819155
 31
0.0
  0
LINE
  5
E2B
330
1E
100
AcDbEntity
  8
0
100
AcDbLine
 10
362.208
 20
156.7949155
 30
0.0
 11
362.784
 21
157.4029155
 31
0.0
  0
LINE
  5
E2C
330
1E
100
AcDbEntity
  8
0
100
AcDbLine
 10
363.0
 20
158.6119155
 30
0.0
 11
363.0
 21
158.0529155
 31
0.0
  0
LINE
  5
E2D
330
1E
100
AcDbEntity
  8
0
100
AcDbLine
 10
362.784
 20
157.4029155
 30
0.0
 11
363.0
 21
158.0529155
 31
0.0
  0
LINE
  5
E2E
330
1E
100
AcDbEntity
  8
0
100
AcDbLine
 10
363.0
 20
158.0529155
 30
0.0
 11
363.0
 21
158.6119155
 31
0.0
  0
LINE
  5
E2F
330
1E
100
AcDbEntity
  8
0
100
AcDbLine
 10
362.208
 20
159.3099155
 30
0.0
 11
362.784
 21
158.7019155
 31
0.0
  0
LINE
  5
E30
330
1E
100
AcDbEntity
  8
0
100
AcDbLine
 10
362.784
 20
158.7019155
 30
0.0
 11
363.0
 21
158.0529155
 31
0.0
  0
LINE
  5
E31
330
1E
100
AcDbEntity
  8
0
100
AcDbLine
 10
362.125
 20
169.2939155
 30
0.0
 11
362.854
 21
169.8279155
 31
0.0
  0
LINE
  5
E32
330
1E
100
AcDbEntity
  8
0
100
AcDbLine
 10
362.125
 20
147.9289155
 30
0.0
 11
362.854
 21
147.3949155
 31
0.0
  0
LINE
  5
E33
330
1E
100
AcDbEntity
  8
0
100
AcDbLine
 10
361.59
 20
147.0859155
 30
0.0
 11
362.854
 21
147.3949155
 31
0.0
  0
LINE
  5
E34
330
1E
100
AcDbEntity
  8
0
100
AcDbLine
 10
363.204
 20
140.7119155
 30
0.0
 11
368.387
 21
141.2359155
 31
0.0
  0
LINE
  5
E35
330
1E
100
AcDbEntity
  8
0
100
AcDbLine
 10
361.216
 20
140.652634391038
 30
0.0
 11
363.204
 21
140.7119155
 31
0.0
  0
LINE
  5
E36
330
1E
100
AcDbEntity
  8
0
100
AcDbLine
 10
361.216
 20
140.652634391038
 30
0.0
 11
361.216
 21
140.5799155
 31
0.0
  0
LINE
  5
E37
330
1E
100
AcDbEntity
  8
0
100
AcDbLine
 10
358.0
 20
139.635931248032
 30
0.0
 11
363.35
 21
139.8179155
 31
0.0
  0
LINE
  5
E38
330
1E
100
AcDbEntity
  8
0
100
AcDbLine
 10
363.222
 20
155.4589155
 30
0.0
 11
363.301
 21
155.7319155
 31
0.0
  0
LINE
  5
E39
330
1E
100
AcDbEntity
  8
0
100
AcDbLine
 10
363.222
 20
155.4589155
 30
0.0
 11
363.334
 21
155.1819155
 31
0.0
  0
LINE
  5
E3A
330
1E
100
AcDbEntity
  8
0
100
AcDbLine
 10
363.334
 20
155.1819155
 30
0.0
 11
363.565
 21
154.9179155
 31
0.0
  0
LINE
  5
E3B
330
1E
100
AcDbEntity
  8
0
100
AcDbLine
 10
363.301
 20
155.7319155
 30
0.0
 11
363.564
 21
155.9999155
 31
0.0
  0
LINE
  5
E3C
330
1E
100
AcDbEntity
  8
0
100
AcDbLine
 10
363.35
 20
139.8179155
 30
0.0
 11
369.409
 21
140.3419155
 31
0.0
  0
LINE
  5
E3D
330
1E
100
AcDbEntity
  8
0
100
AcDbLine
 10
363.204
 20
180.1359155
 30
0.0
 11
368.387
 21
179.6109155
 31
0.0
  0
LINE
  5
E3E
330
1E
100
AcDbEntity
  8
0
100
AcDbLine
 10
363.35
 20
181.0299155
 30
0.0
 11
369.409
 21
180.5059155
 31
0.0
  0
LINE
  5
E3F
330
1E
100
AcDbEntity
  8
0
100
AcDbLine
 10
364.488
 20
128.9169155
 30
0.0
 11
365.352
 21
131.0349155
 31
0.0
  0
LINE
  5
E40
330
1E
100
AcDbEntity
  8
0
100
AcDbLine
 10
365.448
 20
124.6799155
 30
0.0
 11
367.368
 21
127.2399155
 31
0.0
  0
LINE
  5
E41
330
1E
100
AcDbEntity
  8
0
100
AcDbLine
 10
367.368
 20
127.2399155
 30
0.0
 11
368.616
 21
130.1519155
 31
0.0
  0
LINE
  5
E42
330
1E
100
AcDbEntity
  8
0
100
AcDbLine
 10
367.368
 20
139.3309155
 30
0.0
 11
368.616
 21
136.4189155
 31
0.0
  0
LINE
  5
E43
330
1E
100
AcDbEntity
  8
0
100
AcDbLine
 10
365.64
 20
133.2409155
 30
0.0
 11
365.64
 21
140.015961382159
 31
0.0
  0
LINE
  5
E44
330
1E
100
AcDbEntity
  8
0
100
AcDbLine
 10
365.352
 20
131.0349155
 30
0.0
 11
365.64
 21
133.2409155
 31
0.0
  0
LINE
  5
E45
330
1E
100
AcDbEntity
  8
0
100
AcDbLine
 10
364.931
 20
144.4759155
 30
0.0
 11
366.196
 21
144.7849155
 31
0.0
  0
LINE
  5
E46
330
1E
100
AcDbEntity
  8
0
100
AcDbLine
 10
364.931
 20
144.4759155
 30
0.0
 11
365.661
 21
143.9419155
 31
0.0
  0
LINE
  5
E47
330
1E
100
AcDbEntity
  8
0
100
AcDbLine
 10
366.196
 20
145.703720087935
 30
0.0
 11
366.196
 21
144.7849155
 31
0.0
  0
LINE
  5
E48
330
1E
100
AcDbEntity
  8
0
100
AcDbLine
 10
366.196
 20
144.7849155
 30
0.0
 11
366.926
 21
144.2499155
 31
0.0
  0
LINE
  5
E49
330
1E
100
AcDbEntity
  8
0
100
AcDbLine
 10
366.196
 20
144.7849155
 30
0.0
 11
366.196
 21
145.703720087935
 31
0.0
  0
LINE
  5
E4A
330
1E
100
AcDbEntity
  8
0
100
AcDbLine
 10
365.661
 20
143.9419155
 30
0.0
 11
366.926
 21
144.2499155
 31
0.0
  0
LINE
  5
E4B
330
1E
100
AcDbEntity
  8
0
100
AcDbLine
 10
365.31
 20
151.80571717837
 30
0.0
 11
365.31
 21
151.4579155
 31
0.0
  0
LINE
  5
E4C
330
1E
100
AcDbEntity
  8
0
100
AcDbLine
 10
365.31
 20
151.4579155
 30
0.0
 11
366.574
 21
151.7669155
 31
0.0
  0
LINE
  5
E4D
330
1E
100
AcDbEntity
  8
0
100
AcDbLine
 10
365.31
 20
151.4579155
 30
0.0
 11
366.039
 21
150.9239155
 31
0.0
  0
LINE
  5
E4E
330
1E
100
AcDbEntity
  8
0
100
AcDbLine
 10
365.31
 20
151.4579155
 30
0.0
 11
365.31
 21
151.80571717837
 31
0.0
  0
LINE
  5
E4F
330
1E
100
AcDbEntity
  8
0
100
AcDbLine
 10
363.956
 20
154.6989155
 30
0.0
 11
364.501
 21
154.5219155
 31
0.0
  0
LINE
  5
E50
330
1E
100
AcDbEntity
  8
0
100
AcDbLine
 10
363.565
 20
154.9179155
 30
0.0
 11
363.956
 21
154.6989155
 31
0.0
  0
LINE
  5
E51
330
1E
100
AcDbEntity
  8
0
100
AcDbLine
 10
364.501
 20
154.5219155
 30
0.0
 11
365.134
 21
154.4109155
 31
0.0
  0
LINE
  5
E52
330
1E
100
AcDbEntity
  8
0
100
AcDbLine
 10
365.134
 20
154.4109155
 30
0.0
 11
365.782
 21
154.3769155
 31
0.0
  0
LINE
  5
E53
330
1E
100
AcDbEntity
  8
0
100
AcDbLine
 10
365.126
 20
156.4939155
 30
0.0
 11
365.781
 21
156.5399155
 31
0.0
  0
LINE
  5
E54
330
1E
100
AcDbEntity
  8
0
100
AcDbLine
 10
364.502
 20
156.3959155
 30
0.0
 11
365.126
 21
156.4939155
 31
0.0
  0
LINE
  5
E55
330
1E
100
AcDbEntity
  8
0
100
AcDbLine
 10
363.981
 20
156.2299155
 30
0.0
 11
364.502
 21
156.3959155
 31
0.0
  0
LINE
  5
E56
330
1E
100
AcDbEntity
  8
0
100
AcDbLine
 10
363.564
 20
155.9999155
 30
0.0
 11
363.981
 21
156.2299155
 31
0.0
  0
LINE
  5
E57
330
1E
100
AcDbEntity
  8
0
100
AcDbLine
 10
365.782
 20
154.3769155
 30
0.0
 11
366.437
 21
154.4249155
 31
0.0
  0
LINE
  5
E58
330
1E
100
AcDbEntity
  8
0
100
AcDbLine
 10
366.437
 20
154.4249155
 30
0.0
 11
367.061
 21
154.5229155
 31
0.0
  0
LINE
  5
E59
330
1E
100
AcDbEntity
  8
0
100
AcDbLine
 10
366.428
 20
156.5069155
 30
0.0
 11
367.061
 21
156.3959155
 31
0.0
  0
LINE
  5
E5A
330
1E
100
AcDbEntity
  8
0
100
AcDbLine
 10
365.781
 20
156.5399155
 30
0.0
 11
366.428
 21
156.5069155
 31
0.0
  0
LINE
  5
E5B
330
1E
100
AcDbEntity
  8
0
100
AcDbLine
 10
366.574
 20
152.641056029238
 30
0.0
 11
366.574
 21
151.7669155
 31
0.0
  0
LINE
  5
E5C
330
1E
100
AcDbEntity
  8
0
100
AcDbLine
 10
366.574
 20
151.7669155
 30
0.0
 11
367.304
 21
151.2329155
 31
0.0
  0
LINE
  5
E5D
330
1E
100
AcDbEntity
  8
0
100
AcDbLine
 10
366.574
 20
151.7669155
 30
0.0
 11
366.574
 21
152.641056029238
 31
0.0
  0
LINE
  5
E5E
330
1E
100
AcDbEntity
  8
0
100
AcDbLine
 10
366.039
 20
150.9239155
 30
0.0
 11
367.304
 21
151.2329155
 31
0.0
  0
LINE
  5
E5F
330
1E
100
AcDbEntity
  8
0
100
AcDbLine
 10
366.926
 20
144.2499155
 30
0.0
 11
366.926
 21
145.400819705608
 31
0.0
  0
LINE
  5
E60
330
1E
100
AcDbEntity
  8
0
100
AcDbLine
 10
366.926
 20
145.400819705608
 30
0.0
 11
366.926
 21
144.2499155
 31
0.0
  0
LINE
  5
E61
330
1E
100
AcDbEntity
  8
0
100
AcDbLine
 10
367.304
 20
151.2329155
 30
0.0
 11
367.304
 21
152.351035119295
 31
0.0
  0
LINE
  5
E62
330
1E
100
AcDbEntity
  8
0
100
AcDbLine
 10
367.061
 20
154.5229155
 30
0.0
 11
367.582
 21
154.6869155
 31
0.0
  0
LINE
  5
E63
330
1E
100
AcDbEntity
  8
0
100
AcDbLine
 10
367.582
 20
154.6869155
 30
0.0
 11
367.999
 21
154.9179155
 31
0.0
  0
LINE
  5
E64
330
1E
100
AcDbEntity
  8
0
100
AcDbLine
 10
367.061
 20
156.3959155
 30
0.0
 11
367.606
 21
156.2199155
 31
0.0
  0
LINE
  5
E65
330
1E
100
AcDbEntity
  8
0
100
AcDbLine
 10
367.606
 20
156.2199155
 30
0.0
 11
367.998
 21
155.9989155
 31
0.0
  0
LINE
  5
E66
330
1E
100
AcDbEntity
  8
0
100
AcDbLine
 10
367.998
 20
155.9989155
 30
0.0
 11
368.229
 21
155.7369155
 31
0.0
  0
LINE
  5
E67
330
1E
100
AcDbEntity
  8
0
100
AcDbLine
 10
368.229
 20
155.7369155
 30
0.0
 11
368.341
 21
155.4589155
 31
0.0
  0
LINE
  5
E68
330
1E
100
AcDbEntity
  8
0
100
AcDbLine
 10
368.262
 20
155.1849155
 30
0.0
 11
368.63136868048
 21
155.878192100286
 31
0.0
  0
LINE
  5
E69
330
1E
100
AcDbEntity
  8
0
100
AcDbLine
 10
368.262
 20
155.1849155
 30
0.0
 11
368.341
 21
155.4589155
 31
0.0
  0
LINE
  5
E6A
330
1E
100
AcDbEntity
  8
0
100
AcDbLine
 10
367.999
 20
154.9179155
 30
0.0
 11
368.262
 21
155.1849155
 31
0.0
  0
LINE
  5
E6B
330
1E
100
AcDbEntity
  8
0
100
AcDbLine
 10
367.304
 20
152.351035119295
 30
0.0
 11
367.304
 21
151.2329155
 31
0.0
  0
LINE
  5
E6C
330
1E
100
AcDbEntity
  8
0
100
AcDbLine
 10
366.780256083385
 20
140.114574055487
 30
0.0
 11
367.368
 21
139.3309155
 31
0.0
  0
LINE
  5
E6D
330
1E
100
AcDbEntity
  8
0
100
AcDbLine
 10
365.64
 20
140.015961382159
 30
0.0
 11
365.64
 21
133.2409155
 31
0.0
  0
LINE
  5
E6E
330
1E
100
AcDbEntity
  8
0
100
AcDbLine
 10
368.387
 20
141.2359155
 30
0.0
 11
369.582249704487
 21
141.387482405745
 31
0.0
  0
LINE
  5
E6F
330
1E
100
AcDbEntity
  8
0
100
AcDbLine
 10
364.931
 20
173.6529155
 30
0.0
 11
366.196
 21
173.3439155
 31
0.0
  0
LINE
  5
E70
330
1E
100
AcDbEntity
  8
0
100
AcDbLine
 10
364.931
 20
173.6529155
 30
0.0
 11
365.661
 21
174.1869155
 31
0.0
  0
LINE
  5
E71
330
1E
100
AcDbEntity
  8
0
100
AcDbLine
 10
365.661
 20
174.1869155
 30
0.0
 11
366.926
 21
173.8779155
 31
0.0
  0
LINE
  5
E72
330
1E
100
AcDbEntity
  8
0
100
AcDbLine
 10
366.039
 20
166.452241754496
 30
0.0
 11
366.039
 21
165.3919155
 31
0.0
  0
LINE
  5
E73
330
1E
100
AcDbEntity
  8
0
100
AcDbLine
 10
365.31
 20
165.946910790289
 30
0.0
 11
365.31
 21
164.8579155
 31
0.0
  0
LINE
  5
E74
330
1E
100
AcDbEntity
  8
0
100
AcDbLine
 10
365.31
 20
164.8579155
 30
0.0
 11
366.574
 21
164.5489155
 31
0.0
  0
LINE
  5
E75
330
1E
100
AcDbEntity
  8
0
100
AcDbLine
 10
365.31
 20
164.8579155
 30
0.0
 11
366.039
 21
165.3919155
 31
0.0
  0
LINE
  5
E76
330
1E
100
AcDbEntity
  8
0
100
AcDbLine
 10
365.31
 20
164.8579155
 30
0.0
 11
365.31
 21
165.946910790289
 31
0.0
  0
LINE
  5
E77
330
1E
100
AcDbEntity
  8
0
100
AcDbLine
 10
367.304
 20
165.0839155
 30
0.0
 11
367.304
 21
165.387675396171
 31
0.0
  0
LINE
  5
E78
330
1E
100
AcDbEntity
  8
0
100
AcDbLine
 10
366.574
 20
164.5489155
 30
0.0
 11
367.304
 21
165.0839155
 31
0.0
  0
LINE
  5
E79
330
1E
100
AcDbEntity
  8
0
100
AcDbLine
 10
367.304
 20
165.387675396171
 30
0.0
 11
367.304
 21
165.0839155
 31
0.0
  0
LINE
  5
E7A
330
1E
100
AcDbEntity
  8
0
100
AcDbLine
 10
366.196
 20
173.3439155
 30
0.0
 11
366.926
 21
173.8779155
 31
0.0
  0
LINE
  5
E7B
330
1E
100
AcDbEntity
  8
0
100
AcDbLine
 10
366.039
 20
165.3919155
 30
0.0
 11
367.304
 21
165.0839155
 31
0.0
  0
LINE
  5
E7C
330
1E
100
AcDbEntity
  8
0
100
AcDbLine
 10
366.039
 20
165.3919155
 30
0.0
 11
366.039
 21
166.452241754496
 31
0.0
  0
LINE
  5
E7D
330
1E
100
AcDbEntity
  8
0
100
AcDbLine
 10
368.616
 20
130.1519155
 30
0.0
 11
369.0
 21
133.2409155
 31
0.0
  0
LINE
  5
E7E
330
1E
100
AcDbEntity
  8
0
100
AcDbLine
 10
369.0
 20
133.2409155
 30
0.0
 11
369.0
 21
61.2064155
 31
0.0
  0
LINE
  5
E7F
330
1E
100
AcDbEntity
  8
0
100
AcDbLine
 10
368.616
 20
136.4189155
 30
0.0
 11
369.0
 21
133.2409155
 31
0.0
  0
LINE
  5
E80
330
1E
100
AcDbEntity
  8
0
100
AcDbLine
 10
369.251
 20
177.4059155
 30
0.0
 11
370.516
 21
177.0969155
 31
0.0
  0
LINE
  5
E81
330
1E
100
AcDbEntity
  8
0
100
AcDbLine
 10
369.251
 20
177.4059155
 30
0.0
 11
369.982
 21
177.9399155
 31
0.0
  0
LINE
  5
E82
330
1E
100
AcDbEntity
  8
0
100
AcDbLine
 10
369.251
 20
141.6299155
 30
0.0
 11
370.516
 21
141.9379155
 31
0.0
  0
LINE
  5
E83
330
1E
100
AcDbEntity
  8
0
100
AcDbLine
 10
369.251
 20
141.6299155
 30
0.0
 11
369.982
 21
141.0949155
 31
0.0
  0
LINE
  5
E84
330
1E
100
AcDbEntity
  8
0
100
AcDbLine
 10
369.409
 20
140.3419155
 30
0.0
 11
375.832
 21
141.2359155
 31
0.0
  0
LINE
  5
E85
330
1E
100
AcDbEntity
  8
0
100
AcDbLine
 10
368.387
 20
179.6109155
 30
0.0
 11
374.956
 21
178.7789155
 31
0.0
  0
LINE
  5
E86
330
1E
100
AcDbEntity
  8
0
100
AcDbLine
 10
369.409
 20
180.5059155
 30
0.0
 11
375.832
 21
179.6109155
 31
0.0
  0
LINE
  5
E87
330
1E
100
AcDbEntity
  8
0
100
AcDbLine
 10
363.423
 20
182.2449155
 30
0.0
 11
369.92
 21
181.6899155
 31
0.0
  0
LINE
  5
E88
330
1E
100
AcDbEntity
  8
0
100
AcDbLine
 10
363.423
 20
201.2779155
 30
0.0
 11
369.92
 21
200.7229155
 31
0.0
  0
LINE
  5
E89
330
1E
100
AcDbEntity
  8
0
100
AcDbLine
 10
369.689
 20
168.982362494348
 30
0.0
 11
369.689
 21
168.5169155
 31
0.0
  0
LINE
  5
E8A
330
1E
100
AcDbEntity
  8
0
100
AcDbLine
 10
369.689
 20
168.5169155
 30
0.0
 11
370.953
 21
168.2089155
 31
0.0
  0
LINE
  5
E8B
330
1E
100
AcDbEntity
  8
0
100
AcDbLine
 10
369.689
 20
168.5169155
 30
0.0
 11
370.419
 21
169.0509155
 31
0.0
  0
LINE
  5
E8C
330
1E
100
AcDbEntity
  8
0
100
AcDbLine
 10
369.689
 20
168.5169155
 30
0.0
 11
369.689
 21
168.982362494348
 31
0.0
  0
LINE
  5
E8D
330
1E
100
AcDbEntity
  8
0
100
AcDbLine
 10
369.689
 20
149.450101662014
 30
0.0
 11
369.689
 21
148.7059155
 31
0.0
  0
LINE
  5
E8E
330
1E
100
AcDbEntity
  8
0
100
AcDbLine
 10
369.689
 20
148.7059155
 30
0.0
 11
370.953
 21
149.0149155
 31
0.0
  0
LINE
  5
E8F
330
1E
100
AcDbEntity
  8
0
100
AcDbLine
 10
369.689
 20
148.7059155
 30
0.0
 11
370.419
 21
148.1709155
 31
0.0
  0
LINE
  5
E90
330
1E
100
AcDbEntity
  8
0
100
AcDbLine
 10
369.689
 20
148.7059155
 30
0.0
 11
369.689
 21
149.450101662014
 31
0.0
  0
LINE
  5
E91
330
1E
100
AcDbEntity
  8
0
100
AcDbLine
 10
371.246
 20
141.4039155
 30
0.0
 11
371.246
 21
141.598458809484
 31
0.0
  0
LINE
  5
E92
330
1E
100
AcDbEntity
  8
0
100
AcDbLine
 10
369.982
 20
141.0949155
 30
0.0
 11
371.246
 21
141.4039155
 31
0.0
  0
LINE
  5
E93
330
1E
100
AcDbEntity
  8
0
100
AcDbLine
 10
369.982
 20
177.9399155
 30
0.0
 11
371.246
 21
177.6309155
 31
0.0
  0
LINE
  5
E94
330
1E
100
AcDbEntity
  8
0
100
AcDbLine
 10
369.982
 20
177.9399155
 30
0.0
 11
369.982
 21
179.408899972523
 31
0.0
  0
LINE
  5
E95
330
1E
100
AcDbEntity
  8
0
100
AcDbLine
 10
370.419
 20
169.488386642319
 30
0.0
 11
370.419
 21
169.0509155
 31
0.0
  0
LINE
  5
E96
330
1E
100
AcDbEntity
  8
0
100
AcDbLine
 10
370.419
 20
169.0509155
 30
0.0
 11
371.683
 21
168.7429155
 31
0.0
  0
LINE
  5
E97
330
1E
100
AcDbEntity
  8
0
100
AcDbLine
 10
370.419
 20
169.0509155
 30
0.0
 11
370.419
 21
169.488386642319
 31
0.0
  0
LINE
  5
E98
330
1E
100
AcDbEntity
  8
0
100
AcDbLine
 10
370.516
 20
141.9379155
 30
0.0
 11
371.246
 21
141.4039155
 31
0.0
  0
LINE
  5
E99
330
1E
100
AcDbEntity
  8
0
100
AcDbLine
 10
371.683
 20
148.4799155
 30
0.0
 11
371.683
 21
148.573432576035
 31
0.0
  0
LINE
  5
E9A
330
1E
100
AcDbEntity
  8
0
100
AcDbLine
 10
370.516
 20
177.0969155
 30
0.0
 11
371.246
 21
177.6309155
 31
0.0
  0
LINE
  5
E9B
330
1E
100
AcDbEntity
  8
0
100
AcDbLine
 10
370.953
 20
168.2089155
 30
0.0
 11
371.683
 21
168.7429155
 31
0.0
  0
LINE
  5
E9C
330
1E
100
AcDbEntity
  8
0
100
AcDbLine
 10
371.72
 20
153.8349155
 30
0.0
 11
371.72
 21
154.4519155
 31
0.0
  0
LINE
  5
E9D
330
1E
100
AcDbEntity
  8
0
100
AcDbLine
 10
371.72
 20
153.8349155
 30
0.0
 11
373.18
 21
153.8349155
 31
0.0
  0
LINE
  5
E9E
330
1E
100
AcDbEntity
  8
0
100
AcDbLine
 10
371.72
 20
153.8349155
 30
0.0
 11
371.72
 21
154.646447977301
 31
0.0
  0
LINE
  5
E9F
330
1E
100
AcDbEntity
  8
0
100
AcDbLine
 10
371.72
 20
154.646447977301
 30
0.0
 11
371.72
 21
153.8349155
 31
0.0
  0
LINE
  5
EA0
330
1E
100
AcDbEntity
  8
0
100
AcDbLine
 10
371.72
 20
155.22670603442
 30
0.0
 11
371.72
 21
154.4519155
 31
0.0
  0
LINE
  5
EA1
330
1E
100
AcDbEntity
  8
0
100
AcDbLine
 10
371.72
 20
154.4519155
 30
0.0
 11
373.18
 21
154.4519155
 31
0.0
  0
LINE
  5
EA2
330
1E
100
AcDbEntity
  8
0
100
AcDbLine
 10
371.72
 20
154.4519155
 30
0.0
 11
371.72
 21
155.22670603442
 31
0.0
  0
LINE
  5
EA3
330
1E
100
AcDbEntity
  8
0
100
AcDbLine
 10
371.72
 20
154.4519155
 30
0.0
 11
371.72
 21
153.8349155
 31
0.0
  0
LINE
  5
EA4
330
1E
100
AcDbEntity
  8
0
100
AcDbLine
 10
373.18
 20
153.8349155
 30
0.0
 11
373.18
 21
154.4519155
 31
0.0
  0
LINE
  5
EA5
330
1E
100
AcDbEntity
  8
0
100
AcDbLine
 10
373.18
 20
154.94469063587
 30
0.0
 11
373.18
 21
154.4519155
 31
0.0
  0
LINE
  5
EA6
330
1E
100
AcDbEntity
  8
0
100
AcDbLine
 10
373.18
 20
154.4519155
 30
0.0
 11
373.18
 21
153.8349155
 31
0.0
  0
LINE
  5
EA7
330
1E
100
AcDbEntity
  8
0
100
AcDbLine
 10
373.18
 20
154.4519155
 30
0.0
 11
373.18
 21
154.94469063587
 31
0.0
  0
LINE
  5
EA8
330
1E
100
AcDbEntity
  8
0
100
AcDbLine
 10
371.72
 20
161.8639155
 30
0.0
 11
373.18
 21
161.8639155
 31
0.0
  0
LINE
  5
EA9
330
1E
100
AcDbEntity
  8
0
100
AcDbLine
 10
371.72
 20
161.8639155
 30
0.0
 11
371.72
 21
162.36718820154
 31
0.0
  0
LINE
  5
EAA
330
1E
100
AcDbEntity
  8
0
100
AcDbLine
 10
371.72
 20
161.8639155
 30
0.0
 11
371.72
 21
162.4809155
 31
0.0
  0
LINE
  5
EAB
330
1E
100
AcDbEntity
  8
0
100
AcDbLine
 10
371.72
 20
163.02091367332
 30
0.0
 11
371.72
 21
162.4809155
 31
0.0
  0
LINE
  5
EAC
330
1E
100
AcDbEntity
  8
0
100
AcDbLine
 10
371.72
 20
162.4809155
 30
0.0
 11
371.72
 21
161.8639155
 31
0.0
  0
LINE
  5
EAD
330
1E
100
AcDbEntity
  8
0
100
AcDbLine
 10
371.72
 20
162.4809155
 30
0.0
 11
373.18
 21
162.4809155
 31
0.0
  0
LINE
  5
EAE
330
1E
100
AcDbEntity
  8
0
100
AcDbLine
 10
371.72
 20
162.4809155
 30
0.0
 11
371.72
 21
163.02091367332
 31
0.0
  0
LINE
  5
EAF
330
1E
100
AcDbEntity
  8
0
100
AcDbLine
 10
373.18
 20
163.384795906168
 30
0.0
 11
373.18
 21
162.4809155
 31
0.0
  0
LINE
  5
EB0
330
1E
100
AcDbEntity
  8
0
100
AcDbLine
 10
371.72
 20
162.36718820154
 30
0.0
 11
371.72
 21
161.8639155
 31
0.0
  0
LINE
  5
EB1
330
1E
100
AcDbEntity
  8
0
100
AcDbLine
 10
373.18
 20
162.4809155
 30
0.0
 11
373.18
 21
163.384795906168
 31
0.0
  0
LINE
  5
EB2
330
1E
100
AcDbEntity
  8
0
100
AcDbLine
 10
373.18
 20
162.4809155
 30
0.0
 11
373.18
 21
161.8639155
 31
0.0
  0
LINE
  5
EB3
330
1E
100
AcDbEntity
  8
0
100
AcDbLine
 10
373.18
 20
161.8639155
 30
0.0
 11
373.18
 21
162.4809155
 31
0.0
  0
LINE
  5
EB4
330
1E
100
AcDbEntity
  8
0
100
AcDbLine
 10
371.683
 20
168.7429155
 30
0.0
 11
371.683
 21
170.126794450974
 31
0.0
  0
LINE
  5
EB5
330
1E
100
AcDbEntity
  8
0
100
AcDbLine
 10
371.246
 20
177.6309155
 30
0.0
 11
371.246
 21
179.248807416578
 31
0.0
  0
LINE
  5
EB6
330
1E
100
AcDbEntity
  8
0
100
AcDbLine
 10
371.683
 20
170.126794450974
 30
0.0
 11
371.683
 21
168.7429155
 31
0.0
  0
LINE
  5
EB7
330
1E
100
AcDbEntity
  8
0
100
AcDbLine
 10
370.953
 20
149.0149155
 30
0.0
 11
371.683
 21
148.4799155
 31
0.0
  0
LINE
  5
EB8
330
1E
100
AcDbEntity
  8
0
100
AcDbLine
 10
371.683
 20
148.573432576035
 30
0.0
 11
371.683
 21
148.4799155
 31
0.0
  0
LINE
  5
EB9
330
1E
100
AcDbEntity
  8
0
100
AcDbLine
 10
370.419
 20
148.1709155
 30
0.0
 11
371.683
 21
148.4799155
 31
0.0
  0
LINE
  5
EBA
330
1E
100
AcDbEntity
  8
0
100
AcDbLine
 10
371.246
 20
141.598458809484
 30
0.0
 11
374.956
 21
142.0689155
 31
0.0
  0
LINE
  5
EBB
330
1E
100
AcDbEntity
  8
0
100
AcDbLine
 10
371.246
 20
141.598458809484
 30
0.0
 11
371.246
 21
141.4039155
 31
0.0
  0
LINE
  5
EBC
330
1E
100
AcDbEntity
  8
0
100
AcDbLine
 10
374.069
 20
172.1749155
 30
0.0
 11
375.333
 21
171.8669155
 31
0.0
  0
LINE
  5
EBD
330
1E
100
AcDbEntity
  8
0
100
AcDbLine
 10
374.069
 20
172.1749155
 30
0.0
 11
374.798
 21
172.7089155
 31
0.0
  0
LINE
  5
EBE
330
1E
100
AcDbEntity
  8
0
100
AcDbLine
 10
374.069
 20
147.058120979452
 30
0.0
 11
374.069
 21
145.9539155
 31
0.0
  0
LINE
  5
EBF
330
1E
100
AcDbEntity
  8
0
100
AcDbLine
 10
374.883
 20
158.314472826079
 30
0.0
 11
374.883
 21
157.8499155
 31
0.0
  0
LINE
  5
EC0
330
1E
100
AcDbEntity
  8
0
100
AcDbLine
 10
374.883
 20
157.8499155
 30
0.0
 11
374.883
 21
158.4659155
 31
0.0
  0
LINE
  5
EC1
330
1E
100
AcDbEntity
  8
0
100
AcDbLine
 10
374.883
 20
157.8499155
 30
0.0
 11
376.343
 21
157.8499155
 31
0.0
  0
LINE
  5
EC2
330
1E
100
AcDbEntity
  8
0
100
AcDbLine
 10
374.883
 20
157.8499155
 30
0.0
 11
374.883
 21
158.314472826079
 31
0.0
  0
LINE
  5
EC3
330
1E
100
AcDbEntity
  8
0
100
AcDbLine
 10
374.798
 20
172.7089155
 30
0.0
 11
376.063
 21
172.4019155
 31
0.0
  0
LINE
  5
EC4
330
1E
100
AcDbEntity
  8
0
100
AcDbLine
 10
374.883
 20
159.371208688885
 30
0.0
 11
374.883
 21
158.4659155
 31
0.0
  0
LINE
  5
EC5
330
1E
100
AcDbEntity
  8
0
100
AcDbLine
 10
374.883
 20
158.4659155
 30
0.0
 11
376.343
 21
158.4659155
 31
0.0
  0
LINE
  5
EC6
330
1E
100
AcDbEntity
  8
0
100
AcDbLine
 10
374.883
 20
158.4659155
 30
0.0
 11
374.883
 21
159.371208688885
 31
0.0
  0
LINE
  5
EC7
330
1E
100
AcDbEntity
  8
0
100
AcDbLine
 10
374.883
 20
158.4659155
 30
0.0
 11
374.883
 21
157.8499155
 31
0.0
  0
LINE
  5
EC8
330
1E
100
AcDbEntity
  8
0
100
AcDbLine
 10
374.069
 20
145.9539155
 30
0.0
 11
375.333
 21
146.2619155
 31
0.0
  0
LINE
  5
EC9
330
1E
100
AcDbEntity
  8
0
100
AcDbLine
 10
374.069
 20
145.9539155
 30
0.0
 11
374.798
 21
145.4189155
 31
0.0
  0
LINE
  5
ECA
330
1E
100
AcDbEntity
  8
0
100
AcDbLine
 10
374.069
 20
145.9539155
 30
0.0
 11
374.069
 21
147.058120979452
 31
0.0
  0
LINE
  5
ECB
330
1E
100
AcDbEntity
  8
0
100
AcDbLine
 10
374.798
 20
145.4189155
 30
0.0
 11
376.063
 21
145.7279155
 31
0.0
  0
LINE
  5
ECC
330
1E
100
AcDbEntity
  8
0
100
AcDbLine
 10
375.333
 20
171.8669155
 30
0.0
 11
376.063
 21
172.4019155
 31
0.0
  0
LINE
  5
ECD
330
1E
100
AcDbEntity
  8
0
100
AcDbLine
 10
375.333
 20
146.967172557456
 30
0.0
 11
375.333
 21
146.2619155
 31
0.0
  0
LINE
  5
ECE
330
1E
100
AcDbEntity
  8
0
100
AcDbLine
 10
375.333
 20
146.2619155
 30
0.0
 11
376.063
 21
145.7279155
 31
0.0
  0
LINE
  5
ECF
330
1E
100
AcDbEntity
  8
0
100
AcDbLine
 10
375.333
 20
146.2619155
 30
0.0
 11
375.333
 21
146.967172557456
 31
0.0
  0
LINE
  5
ED0
330
1E
100
AcDbEntity
  8
0
100
AcDbLine
 10
374.956
 20
142.0689155
 30
0.0
 11
378.900442275788
 21
142.869331092402
 31
0.0
  0
LINE
  5
ED1
330
1E
100
AcDbEntity
  8
0
100
AcDbLine
 10
375.832
 20
141.2359155
 30
0.0
 11
381.526
 21
142.3779155
 31
0.0
  0
LINE
  5
ED2
330
1E
100
AcDbEntity
  8
0
100
AcDbLine
 10
369.982
 20
179.408899972523
 30
0.0
 11
369.982
 21
177.9399155
 31
0.0
  0
LINE
  5
ED3
330
1E
100
AcDbEntity
  8
0
100
AcDbLine
 10
371.246
 20
179.248807416578
 30
0.0
 11
371.246
 21
177.6309155
 31
0.0
  0
LINE
  5
ED4
330
1E
100
AcDbEntity
  8
0
100
AcDbLine
 10
374.956
 20
178.7789155
 30
0.0
 11
380.431
 21
177.6679155
 31
0.0
  0
LINE
  5
ED5
330
1E
100
AcDbEntity
  8
0
100
AcDbLine
 10
378.448
 20
143.2009155
 30
0.0
 11
379.712
 21
143.5089155
 31
0.0
  0
LINE
  5
ED6
330
1E
100
AcDbEntity
  8
0
100
AcDbLine
 10
378.448
 20
143.2009155
 30
0.0
 11
379.178
 21
142.6659155
 31
0.0
  0
LINE
  5
ED7
330
1E
100
AcDbEntity
  8
0
100
AcDbLine
 10
378.448
 20
143.2009155
 30
0.0
 11
378.448
 21
143.804754549394
 31
0.0
  0
LINE
  5
ED8
330
1E
100
AcDbEntity
  8
0
100
AcDbLine
 10
376.063
 20
145.7279155
 30
0.0
 11
376.063
 21
146.803401385088
 31
0.0
  0
LINE
  5
ED9
330
1E
100
AcDbEntity
  8
0
100
AcDbLine
 10
376.18
 20
151.143560910292
 30
0.0
 11
376.18
 21
150.7209155
 31
0.0
  0
LINE
  5
EDA
330
1E
100
AcDbEntity
  8
0
100
AcDbLine
 10
376.18
 20
150.7209155
 30
0.0
 11
376.18
 21
151.3379155
 31
0.0
  0
LINE
  5
EDB
330
1E
100
AcDbEntity
  8
0
100
AcDbLine
 10
376.18
 20
150.7209155
 30
0.0
 11
377.64
 21
150.7209155
 31
0.0
  0
LINE
  5
EDC
330
1E
100
AcDbEntity
  8
0
100
AcDbLine
 10
376.18
 20
150.7209155
 30
0.0
 11
376.18
 21
151.143560910292
 31
0.0
  0
LINE
  5
EDD
330
1E
100
AcDbEntity
  8
0
100
AcDbLine
 10
376.18
 20
151.3379155
 30
0.0
 11
377.64
 21
151.3379155
 31
0.0
  0
LINE
  5
EDE
330
1E
100
AcDbEntity
  8
0
100
AcDbLine
 10
376.18
 20
151.3379155
 30
0.0
 11
376.18
 21
150.7209155
 31
0.0
  0
LINE
  5
EDF
330
1E
100
AcDbEntity
  8
0
100
AcDbLine
 10
376.343
 20
157.8499155
 30
0.0
 11
376.343
 21
158.4659155
 31
0.0
  0
LINE
  5
EE0
330
1E
100
AcDbEntity
  8
0
100
AcDbLine
 10
376.063
 20
172.4019155
 30
0.0
 11
376.063
 21
172.606854888907
 31
0.0
  0
LINE
  5
EE1
330
1E
100
AcDbEntity
  8
0
100
AcDbLine
 10
376.18
 20
167.355312996523
 30
0.0
 11
376.18
 21
166.5019155
 31
0.0
  0
LINE
  5
EE2
330
1E
100
AcDbEntity
  8
0
100
AcDbLine
 10
376.18
 20
166.5019155
 30
0.0
 11
376.18
 21
165.8849155
 31
0.0
  0
LINE
  5
EE3
330
1E
100
AcDbEntity
  8
0
100
AcDbLine
 10
376.18
 20
166.5019155
 30
0.0
 11
377.64
 21
166.5019155
 31
0.0
  0
LINE
  5
EE4
330
1E
100
AcDbEntity
  8
0
100
AcDbLine
 10
376.18
 20
166.5019155
 30
0.0
 11
376.18
 21
167.355312996523
 31
0.0
  0
LINE
  5
EE5
330
1E
100
AcDbEntity
  8
0
100
AcDbLine
 10
376.18
 20
165.8849155
 30
0.0
 11
377.64
 21
165.8849155
 31
0.0
  0
LINE
  5
EE6
330
1E
100
AcDbEntity
  8
0
100
AcDbLine
 10
376.18
 20
165.8849155
 30
0.0
 11
376.18
 21
166.5019155
 31
0.0
  0
LINE
  5
EE7
330
1E
100
AcDbEntity
  8
0
100
AcDbLine
 10
376.063
 20
172.606854888907
 30
0.0
 11
376.063
 21
172.4019155
 31
0.0
  0
LINE
  5
EE8
330
1E
100
AcDbEntity
  8
0
100
AcDbLine
 10
376.343
 20
159.385181677614
 30
0.0
 11
376.343
 21
158.4659155
 31
0.0
  0
LINE
  5
EE9
330
1E
100
AcDbEntity
  8
0
100
AcDbLine
 10
377.64
 20
150.7209155
 30
0.0
 11
377.64
 21
151.3379155
 31
0.0
  0
LINE
  5
EEA
330
1E
100
AcDbEntity
  8
0
100
AcDbLine
 10
377.64
 20
152.220673598224
 30
0.0
 11
377.64
 21
151.3379155
 31
0.0
  0
LINE
  5
EEB
330
1E
100
AcDbEntity
  8
0
100
AcDbLine
 10
377.64
 20
151.3379155
 30
0.0
 11
377.64
 21
150.7209155
 31
0.0
  0
LINE
  5
EEC
330
1E
100
AcDbEntity
  8
0
100
AcDbLine
 10
377.64
 20
151.3379155
 30
0.0
 11
377.64
 21
152.220673598224
 31
0.0
  0
LINE
  5
EED
330
1E
100
AcDbEntity
  8
0
100
AcDbLine
 10
377.64
 20
166.5019155
 30
0.0
 11
377.64
 21
165.8849155
 31
0.0
  0
LINE
  5
EEE
330
1E
100
AcDbEntity
  8
0
100
AcDbLine
 10
377.64
 20
165.8849155
 30
0.0
 11
377.64
 21
166.5019155
 31
0.0
  0
LINE
  5
EEF
330
1E
100
AcDbEntity
  8
0
100
AcDbLine
 10
378.448
 20
176.708017829916
 30
0.0
 11
378.448
 21
175.8339155
 31
0.0
  0
LINE
  5
EF0
330
1E
100
AcDbEntity
  8
0
100
AcDbLine
 10
378.448
 20
175.8339155
 30
0.0
 11
379.712
 21
175.5259155
 31
0.0
  0
LINE
  5
EF1
330
1E
100
AcDbEntity
  8
0
100
AcDbLine
 10
378.448
 20
175.8339155
 30
0.0
 11
379.178
 21
176.3689155
 31
0.0
  0
LINE
  5
EF2
330
1E
100
AcDbEntity
  8
0
100
AcDbLine
 10
378.448
 20
175.8339155
 30
0.0
 11
378.448
 21
176.708017829916
 31
0.0
  0
LINE
  5
EF3
330
1E
100
AcDbEntity
  8
0
100
AcDbLine
 10
376.343
 20
158.4659155
 30
0.0
 11
376.343
 21
157.8499155
 31
0.0
  0
LINE
  5
EF4
330
1E
100
AcDbEntity
  8
0
100
AcDbLine
 10
376.343
 20
158.4659155
 30
0.0
 11
376.343
 21
159.385181677614
 31
0.0
  0
LINE
  5
EF5
330
1E
100
AcDbEntity
  8
0
100
AcDbLine
 10
376.063
 20
146.803401385088
 30
0.0
 11
376.063
 21
145.7279155
 31
0.0
  0
LINE
  5
EF6
330
1E
100
AcDbEntity
  8
0
100
AcDbLine
 10
379.712
 20
175.5259155
 30
0.0
 11
380.442
 21
176.0599155
 31
0.0
  0
LINE
  5
EF7
330
1E
100
AcDbEntity
  8
0
100
AcDbLine
 10
379.178
 20
177.061384092731
 30
0.0
 11
379.178
 21
176.3689155
 31
0.0
  0
LINE
  5
EF8
330
1E
100
AcDbEntity
  8
0
100
AcDbLine
 10
379.178
 20
176.3689155
 30
0.0
 11
380.442
 21
176.0599155
 31
0.0
  0
LINE
  5
EF9
330
1E
100
AcDbEntity
  8
0
100
AcDbLine
 10
379.178
 20
176.3689155
 30
0.0
 11
379.178
 21
177.061384092731
 31
0.0
  0
LINE
  5
EFA
330
1E
100
AcDbEntity
  8
0
100
AcDbLine
 10
378.448
 20
143.804754549394
 30
0.0
 11
378.448
 21
143.2009155
 31
0.0
  0
LINE
  5
EFB
330
1E
100
AcDbEntity
  8
0
100
AcDbLine
 10
379.712
 20
143.618210020548
 30
0.0
 11
379.712
 21
143.5089155
 31
0.0
  0
LINE
  5
EFC
330
1E
100
AcDbEntity
  8
0
100
AcDbLine
 10
379.712
 20
143.5089155
 30
0.0
 11
380.442
 21
142.9749155
 31
0.0
  0
LINE
  5
EFD
330
1E
100
AcDbEntity
  8
0
100
AcDbLine
 10
379.712
 20
143.5089155
 30
0.0
 11
379.712
 21
143.618210020548
 31
0.0
  0
LINE
  5
EFE
330
1E
100
AcDbEntity
  8
0
100
AcDbLine
 10
379.178
 20
142.6659155
 30
0.0
 11
380.442
 21
142.9749155
 31
0.0
  0
LINE
  5
EFF
330
1E
100
AcDbEntity
  8
0
100
AcDbLine
 10
380.442
 20
176.0599155
 30
0.0
 11
380.442
 21
177.664771733115
 31
0.0
  0
LINE
  5
F00
330
1E
100
AcDbEntity
  8
0
100
AcDbLine
 10
380.442
 20
177.664771733115
 30
0.0
 11
380.442
 21
176.0599155
 31
0.0
  0
LINE
  5
F01
330
1E
100
AcDbEntity
  8
0
100
AcDbLine
 10
380.442
 20
142.9749155
 30
0.0
 11
380.442
 21
143.183059266885
 31
0.0
  0
LINE
  5
F02
330
1E
100
AcDbEntity
  8
0
100
AcDbLine
 10
381.045
 20
147.7769155
 30
0.0
 11
381.045
 21
148.3939155
 31
0.0
  0
LINE
  5
F03
330
1E
100
AcDbEntity
  8
0
100
AcDbLine
 10
381.045
 20
147.7769155
 30
0.0
 11
382.505
 21
147.7769155
 31
0.0
  0
LINE
  5
F04
330
1E
100
AcDbEntity
  8
0
100
AcDbLine
 10
381.045
 20
149.41234132558
 30
0.0
 11
381.045
 21
148.3939155
 31
0.0
  0
LINE
  5
F05
330
1E
100
AcDbEntity
  8
0
100
AcDbLine
 10
381.452
 20
154.93567429397
 30
0.0
 11
381.452
 21
154.5289155
 31
0.0
  0
LINE
  5
F06
330
1E
100
AcDbEntity
  8
0
100
AcDbLine
 10
381.452
 20
154.5289155
 30
0.0
 11
381.452
 21
155.1449155
 31
0.0
  0
LINE
  5
F07
330
1E
100
AcDbEntity
  8
0
100
AcDbLine
 10
381.452
 20
154.5289155
 30
0.0
 11
382.912
 21
154.5289155
 31
0.0
  0
LINE
  5
F08
330
1E
100
AcDbEntity
  8
0
100
AcDbLine
 10
381.452
 20
154.5289155
 30
0.0
 11
381.452
 21
154.93567429397
 31
0.0
  0
LINE
  5
F09
330
1E
100
AcDbEntity
  8
0
100
AcDbLine
 10
381.452
 20
156.146492870392
 30
0.0
 11
381.452
 21
155.1449155
 31
0.0
  0
LINE
  5
F0A
330
1E
100
AcDbEntity
  8
0
100
AcDbLine
 10
381.452
 20
155.1449155
 30
0.0
 11
382.912
 21
155.1449155
 31
0.0
  0
LINE
  5
F0B
330
1E
100
AcDbEntity
  8
0
100
AcDbLine
 10
381.452
 20
155.1449155
 30
0.0
 11
381.452
 21
156.146492870392
 31
0.0
  0
LINE
  5
F0C
330
1E
100
AcDbEntity
  8
0
100
AcDbLine
 10
381.452
 20
155.1449155
 30
0.0
 11
381.452
 21
154.5289155
 31
0.0
  0
LINE
  5
F0D
330
1E
100
AcDbEntity
  8
0
100
AcDbLine
 10
381.045
 20
148.3939155
 30
0.0
 11
382.505
 21
148.3939155
 31
0.0
  0
LINE
  5
F0E
330
1E
100
AcDbEntity
  8
0
100
AcDbLine
 10
381.045
 20
148.3939155
 30
0.0
 11
381.045
 21
149.41234132558
 31
0.0
  0
LINE
  5
F0F
330
1E
100
AcDbEntity
  8
0
100
AcDbLine
 10
381.045
 20
148.3939155
 30
0.0
 11
381.045
 21
147.7769155
 31
0.0
  0
LINE
  5
F10
330
1E
100
AcDbEntity
  8
0
100
AcDbLine
 10
381.045
 20
170.3519155
 30
0.0
 11
381.045
 21
169.7349155
 31
0.0
  0
LINE
  5
F11
330
1E
100
AcDbEntity
  8
0
100
AcDbLine
 10
381.045
 20
170.3519155
 30
0.0
 11
382.505
 21
170.3519155
 31
0.0
  0
LINE
  5
F12
330
1E
100
AcDbEntity
  8
0
100
AcDbLine
 10
381.045
 20
169.7349155
 30
0.0
 11
382.505
 21
169.7349155
 31
0.0
  0
LINE
  5
F13
330
1E
100
AcDbEntity
  8
0
100
AcDbLine
 10
381.045
 20
169.7349155
 30
0.0
 11
381.045
 21
170.3519155
 31
0.0
  0
LINE
  5
F14
330
1E
100
AcDbEntity
  8
0
100
AcDbLine
 10
381.452
 20
163.50409375972
 30
0.0
 11
381.452
 21
162.6939155
 31
0.0
  0
LINE
  5
F15
330
1E
100
AcDbEntity
  8
0
100
AcDbLine
 10
381.452
 20
162.6939155
 30
0.0
 11
381.452
 21
162.0769155
 31
0.0
  0
LINE
  5
F16
330
1E
100
AcDbEntity
  8
0
100
AcDbLine
 10
381.452
 20
162.6939155
 30
0.0
 11
382.912
 21
162.6939155
 31
0.0
  0
LINE
  5
F17
330
1E
100
AcDbEntity
  8
0
100
AcDbLine
 10
381.452
 20
162.6939155
 30
0.0
 11
381.452
 21
163.50409375972
 31
0.0
  0
LINE
  5
F18
330
1E
100
AcDbEntity
  8
0
100
AcDbLine
 10
381.452
 20
162.210652539227
 30
0.0
 11
381.452
 21
162.0769155
 31
0.0
  0
LINE
  5
F19
330
1E
100
AcDbEntity
  8
0
100
AcDbLine
 10
381.452
 20
162.0769155
 30
0.0
 11
382.912
 21
162.0769155
 31
0.0
  0
LINE
  5
F1A
330
1E
100
AcDbEntity
  8
0
100
AcDbLine
 10
381.452
 20
162.0769155
 30
0.0
 11
381.452
 21
162.210652539227
 31
0.0
  0
LINE
  5
F1B
330
1E
100
AcDbEntity
  8
0
100
AcDbLine
 10
381.452
 20
162.0769155
 30
0.0
 11
381.452
 21
162.6939155
 31
0.0
  0
LINE
  5
F1C
330
1E
100
AcDbEntity
  8
0
100
AcDbLine
 10
380.442
 20
143.183059266885
 30
0.0
 11
385.613
 21
144.6609155
 31
0.0
  0
LINE
  5
F1D
330
1E
100
AcDbEntity
  8
0
100
AcDbLine
 10
380.442
 20
143.183059266885
 30
0.0
 11
380.442
 21
142.9749155
 31
0.0
  0
LINE
  5
F1E
330
1E
100
AcDbEntity
  8
0
100
AcDbLine
 10
381.526
 20
142.3779155
 30
0.0
 11
386.927
 21
143.9199155
 31
0.0
  0
LINE
  5
F1F
330
1E
100
AcDbEntity
  8
0
100
AcDbLine
 10
380.431
 20
177.6679155
 30
0.0
 11
385.613
 21
176.1869155
 31
0.0
  0
LINE
  5
F20
330
1E
100
AcDbEntity
  8
0
100
AcDbLine
 10
381.526
 20
178.4699155
 30
0.0
 11
386.927
 21
176.9279155
 31
0.0
  0
LINE
  5
F21
330
1E
100
AcDbEntity
  8
0
100
AcDbLine
 10
375.832
 20
179.6109155
 30
0.0
 11
381.526
 21
178.4699155
 31
0.0
  0
LINE
  5
F22
330
1E
100
AcDbEntity
  8
0
100
AcDbLine
 10
376.124
 20
180.8259155
 30
0.0
 11
381.891
 21
179.6229155
 31
0.0
  0
LINE
  5
F23
330
1E
100
AcDbEntity
  8
0
100
AcDbLine
 10
369.92
 20
181.6899155
 30
0.0
 11
376.124
 21
180.8259155
 31
0.0
  0
LINE
  5
F24
330
1E
100
AcDbEntity
  8
0
100
AcDbLine
 10
376.124
 20
199.8589155
 30
0.0
 11
381.891
 21
198.6559155
 31
0.0
  0
LINE
  5
F25
330
1E
100
AcDbEntity
  8
0
100
AcDbLine
 10
382.505
 20
147.7769155
 30
0.0
 11
382.505
 21
148.3939155
 31
0.0
  0
LINE
  5
F26
330
1E
100
AcDbEntity
  8
0
100
AcDbLine
 10
382.505
 20
148.930650291944
 30
0.0
 11
382.505
 21
148.3939155
 31
0.0
  0
LINE
  5
F27
330
1E
100
AcDbEntity
  8
0
100
AcDbLine
 10
382.912
 20
154.5289155
 30
0.0
 11
382.912
 21
155.1449155
 31
0.0
  0
LINE
  5
F28
330
1E
100
AcDbEntity
  8
0
100
AcDbLine
 10
382.912
 20
156.100804914548
 30
0.0
 11
382.912
 21
155.1449155
 31
0.0
  0
LINE
  5
F29
330
1E
100
AcDbEntity
  8
0
100
AcDbLine
 10
382.912
 20
155.1449155
 30
0.0
 11
382.912
 21
154.5289155
 31
0.0
  0
LINE
  5
F2A
330
1E
100
AcDbEntity
  8
0
100
AcDbLine
 10
382.912
 20
155.1449155
 30
0.0
 11
382.912
 21
156.100804914548
 31
0.0
  0
LINE
  5
F2B
330
1E
100
AcDbEntity
  8
0
100
AcDbLine
 10
382.505
 20
148.3939155
 30
0.0
 11
382.505
 21
147.7769155
 31
0.0
  0
LINE
  5
F2C
330
1E
100
AcDbEntity
  8
0
100
AcDbLine
 10
382.505
 20
148.3939155
 30
0.0
 11
382.505
 21
148.930650291944
 31
0.0
  0
LINE
  5
F2D
330
1E
100
AcDbEntity
  8
0
100
AcDbLine
 10
383.642
 20
158.3029155
 30
0.0
 11
383.642
 21
158.9199155
 31
0.0
  0
LINE
  5
F2E
330
1E
100
AcDbEntity
  8
0
100
AcDbLine
 10
383.642
 20
158.3029155
 30
0.0
 11
385.102
 21
158.3029155
 31
0.0
  0
LINE
  5
F2F
330
1E
100
AcDbEntity
  8
0
100
AcDbLine
 10
383.642
 20
158.3029155
 30
0.0
 11
383.642
 21
159.002120707928
 31
0.0
  0
LINE
  5
F30
330
1E
100
AcDbEntity
  8
0
100
AcDbLine
 10
385.262
 20
144.817765750179
 30
0.0
 11
385.262
 21
144.6959155
 31
0.0
  0
LINE
  5
F31
330
1E
100
AcDbEntity
  8
0
100
AcDbLine
 10
385.262
 20
144.6959155
 30
0.0
 11
385.262
 21
145.3129155
 31
0.0
  0
LINE
  5
F32
330
1E
100
AcDbEntity
  8
0
100
AcDbLine
 10
385.262
 20
144.6959155
 30
0.0
 11
386.722
 21
144.6959155
 31
0.0
  0
LINE
  5
F33
330
1E
100
AcDbEntity
  8
0
100
AcDbLine
 10
385.262
 20
144.6959155
 30
0.0
 11
385.262
 21
144.817765750179
 31
0.0
  0
LINE
  5
F34
330
1E
100
AcDbEntity
  8
0
100
AcDbLine
 10
385.262
 20
145.3129155
 30
0.0
 11
386.722
 21
145.3129155
 31
0.0
  0
LINE
  5
F35
330
1E
100
AcDbEntity
  8
0
100
AcDbLine
 10
385.262
 20
145.3129155
 30
0.0
 11
385.262
 21
144.6959155
 31
0.0
  0
LINE
  5
F36
330
1E
100
AcDbEntity
  8
0
100
AcDbLine
 10
385.102
 20
158.3029155
 30
0.0
 11
385.102
 21
158.9199155
 31
0.0
  0
LINE
  5
F37
330
1E
100
AcDbEntity
  8
0
100
AcDbLine
 10
383.642
 20
158.9199155
 30
0.0
 11
385.102
 21
158.9199155
 31
0.0
  0
LINE
  5
F38
330
1E
100
AcDbEntity
  8
0
100
AcDbLine
 10
383.642
 20
158.9199155
 30
0.0
 11
383.642
 21
159.455037050719
 31
0.0
  0
LINE
  5
F39
330
1E
100
AcDbEntity
  8
0
100
AcDbLine
 10
383.642
 20
158.9199155
 30
0.0
 11
383.642
 21
158.3029155
 31
0.0
  0
LINE
  5
F3A
330
1E
100
AcDbEntity
  8
0
100
AcDbLine
 10
383.642
 20
159.002120707928
 30
0.0
 11
383.642
 21
158.3029155
 31
0.0
  0
LINE
  5
F3B
330
1E
100
AcDbEntity
  8
0
100
AcDbLine
 10
382.912
 20
162.0769155
 30
0.0
 11
382.912
 21
162.6939155
 31
0.0
  0
LINE
  5
F3C
330
1E
100
AcDbEntity
  8
0
100
AcDbLine
 10
383.642
 20
159.455037050719
 30
0.0
 11
383.642
 21
158.9199155
 31
0.0
  0
LINE
  5
F3D
330
1E
100
AcDbEntity
  8
0
100
AcDbLine
 10
385.102
 20
159.469010039448
 30
0.0
 11
385.102
 21
158.9199155
 31
0.0
  0
LINE
  5
F3E
330
1E
100
AcDbEntity
  8
0
100
AcDbLine
 10
385.102
 20
158.9199155
 30
0.0
 11
385.102
 21
158.3029155
 31
0.0
  0
LINE
  5
F3F
330
1E
100
AcDbEntity
  8
0
100
AcDbLine
 10
385.102
 20
158.9199155
 30
0.0
 11
385.102
 21
159.469010039448
 31
0.0
  0
LINE
  5
F40
330
1E
100
AcDbEntity
  8
0
100
AcDbLine
 10
385.613
 20
144.6609155
 30
0.0
 11
385.706204979734
 21
144.6959155
 31
0.0
  0
LINE
  5
F41
330
1E
100
AcDbEntity
  8
0
100
AcDbLine
 10
382.505
 20
170.488403998109
 30
0.0
 11
382.505
 21
170.3519155
 31
0.0
  0
LINE
  5
F42
330
1E
100
AcDbEntity
  8
0
100
AcDbLine
 10
382.505
 20
170.3519155
 30
0.0
 11
382.505
 21
170.488403998109
 31
0.0
  0
LINE
  5
F43
330
1E
100
AcDbEntity
  8
0
100
AcDbLine
 10
382.505
 20
170.3519155
 30
0.0
 11
382.505
 21
169.7349155
 31
0.0
  0
LINE
  5
F44
330
1E
100
AcDbEntity
  8
0
100
AcDbLine
 10
382.505
 20
169.7349155
 30
0.0
 11
382.505
 21
170.3519155
 31
0.0
  0
LINE
  5
F45
330
1E
100
AcDbEntity
  8
0
100
AcDbLine
 10
382.912
 20
163.828992992727
 30
0.0
 11
382.912
 21
162.6939155
 31
0.0
  0
LINE
  5
F46
330
1E
100
AcDbEntity
  8
0
100
AcDbLine
 10
385.262
 20
174.3389155
 30
0.0
 11
385.262
 21
173.7219155
 31
0.0
  0
LINE
  5
F47
330
1E
100
AcDbEntity
  8
0
100
AcDbLine
 10
385.262
 20
174.3389155
 30
0.0
 11
386.722
 21
174.3389155
 31
0.0
  0
LINE
  5
F48
330
1E
100
AcDbEntity
  8
0
100
AcDbLine
 10
385.262
 20
173.7219155
 30
0.0
 11
386.722
 21
173.7219155
 31
0.0
  0
LINE
  5
F49
330
1E
100
AcDbEntity
  8
0
100
AcDbLine
 10
385.262
 20
173.7219155
 30
0.0
 11
385.262
 21
174.3389155
 31
0.0
  0
LINE
  5
F4A
330
1E
100
AcDbEntity
  8
0
100
AcDbLine
 10
382.912
 20
162.6939155
 30
0.0
 11
382.912
 21
163.828992992727
 31
0.0
  0
LINE
  5
F4B
330
1E
100
AcDbEntity
  8
0
100
AcDbLine
 10
382.912
 20
162.6939155
 30
0.0
 11
382.912
 21
162.0769155
 31
0.0
  0
LINE
  5
F4C
330
1E
100
AcDbEntity
  8
0
100
AcDbLine
 10
386.399
 20
150.875769417114
 30
0.0
 11
386.399
 21
150.5909155
 31
0.0
  0
LINE
  5
F4D
330
1E
100
AcDbEntity
  8
0
100
AcDbLine
 10
386.399
 20
150.5909155
 30
0.0
 11
386.399
 21
151.2079155
 31
0.0
  0
LINE
  5
F4E
330
1E
100
AcDbEntity
  8
0
100
AcDbLine
 10
386.399
 20
150.5909155
 30
0.0
 11
387.859
 21
150.5909155
 31
0.0
  0
LINE
  5
F4F
330
1E
100
AcDbEntity
  8
0
100
AcDbLine
 10
386.399
 20
150.5909155
 30
0.0
 11
386.399
 21
150.875769417114
 31
0.0
  0
LINE
  5
F50
330
1E
100
AcDbEntity
  8
0
100
AcDbLine
 10
386.399
 20
151.2079155
 30
0.0
 11
387.859
 21
151.2079155
 31
0.0
  0
LINE
  5
F51
330
1E
100
AcDbEntity
  8
0
100
AcDbLine
 10
386.399
 20
151.2079155
 30
0.0
 11
386.399
 21
150.5909155
 31
0.0
  0
LINE
  5
F52
330
1E
100
AcDbEntity
  8
0
100
AcDbLine
 10
386.722
 20
144.6959155
 30
0.0
 11
386.722
 21
145.3129155
 31
0.0
  0
LINE
  5
F53
330
1E
100
AcDbEntity
  8
0
100
AcDbLine
 10
386.722
 20
145.3129155
 30
0.0
 11
386.722
 21
144.6959155
 31
0.0
  0
LINE
  5
F54
330
1E
100
AcDbEntity
  8
0
100
AcDbLine
 10
386.399
 20
168.549290689316
 30
0.0
 11
386.399
 21
167.5379155
 31
0.0
  0
LINE
  5
F55
330
1E
100
AcDbEntity
  8
0
100
AcDbLine
 10
386.722
 20
175.770226654599
 30
0.0
 11
386.722
 21
174.3389155
 31
0.0
  0
LINE
  5
F56
330
1E
100
AcDbEntity
  8
0
100
AcDbLine
 10
386.722
 20
174.3389155
 30
0.0
 11
386.722
 21
175.770226654599
 31
0.0
  0
LINE
  5
F57
330
1E
100
AcDbEntity
  8
0
100
AcDbLine
 10
386.722
 20
174.3389155
 30
0.0
 11
386.722
 21
173.7219155
 31
0.0
  0
LINE
  5
F58
330
1E
100
AcDbEntity
  8
0
100
AcDbLine
 10
386.722
 20
173.7219155
 30
0.0
 11
386.722
 21
174.3389155
 31
0.0
  0
LINE
  5
F59
330
1E
100
AcDbEntity
  8
0
100
AcDbLine
 10
386.399
 20
167.5379155
 30
0.0
 11
386.399
 21
166.9209155
 31
0.0
  0
LINE
  5
F5A
330
1E
100
AcDbEntity
  8
0
100
AcDbLine
 10
386.399
 20
167.5379155
 30
0.0
 11
387.859
 21
167.5379155
 31
0.0
  0
LINE
  5
F5B
330
1E
100
AcDbEntity
  8
0
100
AcDbLine
 10
386.399
 20
167.5379155
 30
0.0
 11
386.399
 21
168.549290689316
 31
0.0
  0
LINE
  5
F5C
330
1E
100
AcDbEntity
  8
0
100
AcDbLine
 10
386.399
 20
166.9209155
 30
0.0
 11
387.859
 21
166.9209155
 31
0.0
  0
LINE
  5
F5D
330
1E
100
AcDbEntity
  8
0
100
AcDbLine
 10
386.399
 20
166.9209155
 30
0.0
 11
386.399
 21
167.5379155
 31
0.0
  0
LINE
  5
F5E
330
1E
100
AcDbEntity
  8
0
100
AcDbLine
 10
386.722
 20
145.077363206023
 30
0.0
 11
390.212
 21
146.3879155
 31
0.0
  0
LINE
  5
F5F
330
1E
100
AcDbEntity
  8
0
100
AcDbLine
 10
386.927
 20
143.9199155
 30
0.0
 11
391.818
 21
145.7089155
 31
0.0
  0
LINE
  5
F60
330
1E
100
AcDbEntity
  8
0
100
AcDbLine
 10
385.613
 20
176.1869155
 30
0.0
 11
390.212
 21
174.4589155
 31
0.0
  0
LINE
  5
F61
330
1E
100
AcDbEntity
  8
0
100
AcDbLine
 10
386.927
 20
176.9279155
 30
0.0
 11
391.818
 21
175.1379155
 31
0.0
  0
LINE
  5
F62
330
1E
100
AcDbEntity
  8
0
100
AcDbLine
 10
387.365
 20
178.0809155
 30
0.0
 11
392.328
 21
176.2609155
 31
0.0
  0
LINE
  5
F63
330
1E
100
AcDbEntity
  8
0
100
AcDbLine
 10
381.891
 20
179.6229155
 30
0.0
 11
387.365
 21
178.0809155
 31
0.0
  0
LINE
  5
F64
330
1E
100
AcDbEntity
  8
0
100
AcDbLine
 10
391.67
 20
147.5429155
 30
0.0
 11
391.67
 21
148.1599155
 31
0.0
  0
LINE
  5
F65
330
1E
100
AcDbEntity
  8
0
100
AcDbLine
 10
391.67
 20
147.5429155
 30
0.0
 11
393.13
 21
147.5429155
 31
0.0
  0
LINE
  5
F66
330
1E
100
AcDbEntity
  8
0
100
AcDbLine
 10
391.67
 20
147.5429155
 30
0.0
 11
391.67
 21
148.574327383473
 31
0.0
  0
LINE
  5
F67
330
1E
100
AcDbEntity
  8
0
100
AcDbLine
 10
390.212
 20
146.3879155
 30
0.0
 11
392.641482758621
 21
147.5429155
 31
0.0
  0
LINE
  5
F68
330
1E
100
AcDbEntity
  8
0
100
AcDbLine
 10
393.13
 20
147.5429155
 30
0.0
 11
393.13
 21
148.1599155
 31
0.0
  0
LINE
  5
F69
330
1E
100
AcDbEntity
  8
0
100
AcDbLine
 10
393.13
 20
147.775161401639
 30
0.0
 11
394.299
 21
148.3309155
 31
0.0
  0
LINE
  5
F6A
330
1E
100
AcDbEntity
  8
0
100
AcDbLine
 10
391.818
 20
145.7089155
 30
0.0
 11
396.051
 21
147.7759155
 31
0.0
  0
LINE
  5
F6B
330
1E
100
AcDbEntity
  8
0
100
AcDbLine
 10
391.67
 20
148.1599155
 30
0.0
 11
393.13
 21
148.1599155
 31
0.0
  0
LINE
  5
F6C
330
1E
100
AcDbEntity
  8
0
100
AcDbLine
 10
391.67
 20
148.1599155
 30
0.0
 11
391.67
 21
148.961093144711
 31
0.0
  0
LINE
  5
F6D
330
1E
100
AcDbEntity
  8
0
100
AcDbLine
 10
391.67
 20
148.1599155
 30
0.0
 11
391.67
 21
147.5429155
 31
0.0
  0
LINE
  5
F6E
330
1E
100
AcDbEntity
  8
0
100
AcDbLine
 10
393.13
 20
148.1599155
 30
0.0
 11
393.13
 21
147.5429155
 31
0.0
  0
LINE
  5
F6F
330
1E
100
AcDbEntity
  8
0
100
AcDbLine
 10
393.13
 20
148.1599155
 30
0.0
 11
393.13
 21
148.611127621212
 31
0.0
  0
LINE
  5
F70
330
1E
100
AcDbEntity
  8
0
100
AcDbLine
 10
391.67
 20
148.574327383473
 30
0.0
 11
391.67
 21
147.5429155
 31
0.0
  0
LINE
  5
F71
330
1E
100
AcDbEntity
  8
0
100
AcDbLine
 10
387.859
 20
150.5909155
 30
0.0
 11
387.859
 21
151.2079155
 31
0.0
  0
LINE
  5
F72
330
1E
100
AcDbEntity
  8
0
100
AcDbLine
 10
387.859
 20
152.167240309034
 30
0.0
 11
387.859
 21
151.2079155
 31
0.0
  0
LINE
  5
F73
330
1E
100
AcDbEntity
  8
0
100
AcDbLine
 10
387.859
 20
151.2079155
 30
0.0
 11
387.859
 21
150.5909155
 31
0.0
  0
LINE
  5
F74
330
1E
100
AcDbEntity
  8
0
100
AcDbLine
 10
387.859
 20
151.2079155
 30
0.0
 11
387.859
 21
152.167240309034
 31
0.0
  0
LINE
  5
F75
330
1E
100
AcDbEntity
  8
0
100
AcDbLine
 10
391.67
 20
148.961093144711
 30
0.0
 11
391.67
 21
148.1599155
 31
0.0
  0
LINE
  5
F76
330
1E
100
AcDbEntity
  8
0
100
AcDbLine
 10
396.456
 20
150.9749155
 30
0.0
 11
396.456
 21
151.5919155
 31
0.0
  0
LINE
  5
F77
330
1E
100
AcDbEntity
  8
0
100
AcDbLine
 10
396.456
 20
150.9749155
 30
0.0
 11
397.916
 21
150.9749155
 31
0.0
  0
LINE
  5
F78
330
1E
100
AcDbEntity
  8
0
100
AcDbLine
 10
396.456
 20
151.5919155
 30
0.0
 11
397.916
 21
151.5919155
 31
0.0
  0
LINE
  5
F79
330
1E
100
AcDbEntity
  8
0
100
AcDbLine
 10
396.456
 20
151.5919155
 30
0.0
 11
396.456
 21
152.74894882879
 31
0.0
  0
LINE
  5
F7A
330
1E
100
AcDbEntity
  8
0
100
AcDbLine
 10
396.456
 20
151.5919155
 30
0.0
 11
396.456
 21
150.9749155
 31
0.0
  0
LINE
  5
F7B
330
1E
100
AcDbEntity
  8
0
100
AcDbLine
 10
393.13
 20
148.611127621212
 30
0.0
 11
393.13
 21
148.1599155
 31
0.0
  0
LINE
  5
F7C
330
1E
100
AcDbEntity
  8
0
100
AcDbLine
 10
394.299
 20
148.3309155
 30
0.0
 11
397.803
 21
150.5209155
 31
0.0
  0
LINE
  5
F7D
330
1E
100
AcDbEntity
  8
0
100
AcDbLine
 10
397.916
 20
150.9749155
 30
0.0
 11
397.916
 21
151.5919155
 31
0.0
  0
LINE
  5
F7E
330
1E
100
AcDbEntity
  8
0
100
AcDbLine
 10
397.916
 20
151.5919155
 30
0.0
 11
397.916
 21
150.9749155
 31
0.0
  0
LINE
  5
F7F
330
1E
100
AcDbEntity
  8
0
100
AcDbLine
 10
397.916
 20
151.5919155
 30
0.0
 11
397.916
 21
152.780891304253
 31
0.0
  0
LINE
  5
F80
330
1E
100
AcDbEntity
  8
0
100
AcDbLine
 10
397.803
 20
150.5209155
 30
0.0
 11
400.431
 21
152.8359155
 31
0.0
  0
LINE
  5
F81
330
1E
100
AcDbEntity
  8
0
100
AcDbLine
 10
396.051
 20
147.7759155
 30
0.0
 11
399.701
 21
150.0589155
 31
0.0
  0
LINE
  5
F82
330
1E
100
AcDbEntity
  8
0
100
AcDbLine
 10
399.701
 20
150.0589155
 30
0.0
 11
402.401
 21
152.4659155
 31
0.0
  0
LINE
  5
F83
330
1E
100
AcDbEntity
  8
0
100
AcDbLine
 10
396.456
 20
152.74894882879
 30
0.0
 11
396.456
 21
151.5919155
 31
0.0
  0
LINE
  5
F84
330
1E
100
AcDbEntity
  8
0
100
AcDbLine
 10
397.916
 20
152.780891304253
 30
0.0
 11
397.916
 21
151.5919155
 31
0.0
  0
LINE
  5
F85
330
1E
100
AcDbEntity
  8
0
100
AcDbLine
 10
390.86
 20
154.6729155
 30
0.0
 11
390.86
 21
155.2899155
 31
0.0
  0
LINE
  5
F86
330
1E
100
AcDbEntity
  8
0
100
AcDbLine
 10
390.86
 20
154.6729155
 30
0.0
 11
392.32
 21
154.6729155
 31
0.0
  0
LINE
  5
F87
330
1E
100
AcDbEntity
  8
0
100
AcDbLine
 10
390.86
 20
154.6729155
 30
0.0
 11
390.86
 21
155.86839981534
 31
0.0
  0
LINE
  5
F88
330
1E
100
AcDbEntity
  8
0
100
AcDbLine
 10
392.32
 20
154.6729155
 30
0.0
 11
392.32
 21
155.2899155
 31
0.0
  0
LINE
  5
F89
330
1E
100
AcDbEntity
  8
0
100
AcDbLine
 10
390.86
 20
155.2899155
 30
0.0
 11
392.32
 21
155.2899155
 31
0.0
  0
LINE
  5
F8A
330
1E
100
AcDbEntity
  8
0
100
AcDbLine
 10
390.86
 20
155.2899155
 30
0.0
 11
390.86
 21
155.86839981534
 31
0.0
  0
LINE
  5
F8B
330
1E
100
AcDbEntity
  8
0
100
AcDbLine
 10
390.86
 20
155.2899155
 30
0.0
 11
390.86
 21
154.6729155
 31
0.0
  0
LINE
  5
F8C
330
1E
100
AcDbEntity
  8
0
100
AcDbLine
 10
390.86
 20
155.86839981534
 30
0.0
 11
390.86
 21
155.2899155
 31
0.0
  0
LINE
  5
F8D
330
1E
100
AcDbEntity
  8
0
100
AcDbLine
 10
390.86
 20
155.86839981534
 30
0.0
 11
390.86
 21
154.6729155
 31
0.0
  0
LINE
  5
F8E
330
1E
100
AcDbEntity
  8
0
100
AcDbLine
 10
392.32
 20
155.835826632739
 30
0.0
 11
392.32
 21
155.2899155
 31
0.0
  0
LINE
  5
F8F
330
1E
100
AcDbEntity
  8
0
100
AcDbLine
 10
392.32
 20
155.2899155
 30
0.0
 11
392.32
 21
154.6729155
 31
0.0
  0
LINE
  5
F90
330
1E
100
AcDbEntity
  8
0
100
AcDbLine
 10
392.32
 20
155.2899155
 30
0.0
 11
392.32
 21
155.835826632739
 31
0.0
  0
LINE
  5
F91
330
1E
100
AcDbEntity
  8
0
100
AcDbLine
 10
392.401
 20
158.7559155
 30
0.0
 11
392.401
 21
159.3729155
 31
0.0
  0
LINE
  5
F92
330
1E
100
AcDbEntity
  8
0
100
AcDbLine
 10
392.401
 20
158.7559155
 30
0.0
 11
393.861
 21
158.7559155
 31
0.0
  0
LINE
  5
F93
330
1E
100
AcDbEntity
  8
0
100
AcDbLine
 10
392.401
 20
158.7559155
 30
0.0
 11
392.401
 21
159.66092343193
 31
0.0
  0
LINE
  5
F94
330
1E
100
AcDbEntity
  8
0
100
AcDbLine
 10
392.401
 20
159.66092343193
 30
0.0
 11
392.401
 21
159.3729155
 31
0.0
  0
LINE
  5
F95
330
1E
100
AcDbEntity
  8
0
100
AcDbLine
 10
392.401
 20
159.66092343193
 30
0.0
 11
392.401
 21
158.7559155
 31
0.0
  0
LINE
  5
F96
330
1E
100
AcDbEntity
  8
0
100
AcDbLine
 10
393.861
 20
158.7559155
 30
0.0
 11
393.861
 21
159.3729155
 31
0.0
  0
LINE
  5
F97
330
1E
100
AcDbEntity
  8
0
100
AcDbLine
 10
392.401
 20
159.3729155
 30
0.0
 11
393.861
 21
159.3729155
 31
0.0
  0
LINE
  5
F98
330
1E
100
AcDbEntity
  8
0
100
AcDbLine
 10
392.401
 20
159.3729155
 30
0.0
 11
392.401
 21
159.66092343193
 31
0.0
  0
LINE
  5
F99
330
1E
100
AcDbEntity
  8
0
100
AcDbLine
 10
392.401
 20
159.3729155
 30
0.0
 11
392.401
 21
158.7559155
 31
0.0
  0
LINE
  5
F9A
330
1E
100
AcDbEntity
  8
0
100
AcDbLine
 10
393.861
 20
159.756305606721
 30
0.0
 11
393.861
 21
159.3729155
 31
0.0
  0
LINE
  5
F9B
330
1E
100
AcDbEntity
  8
0
100
AcDbLine
 10
399.782
 20
155.66934643509
 30
0.0
 11
399.782
 21
155.0579155
 31
0.0
  0
LINE
  5
F9C
330
1E
100
AcDbEntity
  8
0
100
AcDbLine
 10
399.782
 20
155.0579155
 30
0.0
 11
399.782
 21
155.6749155
 31
0.0
  0
LINE
  5
F9D
330
1E
100
AcDbEntity
  8
0
100
AcDbLine
 10
399.782
 20
155.0579155
 30
0.0
 11
401.241
 21
155.0579155
 31
0.0
  0
LINE
  5
F9E
330
1E
100
AcDbEntity
  8
0
100
AcDbLine
 10
399.782
 20
155.0579155
 30
0.0
 11
399.782
 21
155.66934643509
 31
0.0
  0
LINE
  5
F9F
330
1E
100
AcDbEntity
  8
0
100
AcDbLine
 10
399.782
 20
155.6749155
 30
0.0
 11
401.241
 21
155.6749155
 31
0.0
  0
LINE
  5
FA0
330
1E
100
AcDbEntity
  8
0
100
AcDbLine
 10
399.782
 20
155.6749155
 30
0.0
 11
399.782
 21
155.0579155
 31
0.0
  0
LINE
  5
FA1
330
1E
100
AcDbEntity
  8
0
100
AcDbLine
 10
393.861
 20
159.3729155
 30
0.0
 11
393.861
 21
158.7559155
 31
0.0
  0
LINE
  5
FA2
330
1E
100
AcDbEntity
  8
0
100
AcDbLine
 10
393.861
 20
159.3729155
 30
0.0
 11
393.861
 21
159.756305606721
 31
0.0
  0
LINE
  5
FA3
330
1E
100
AcDbEntity
  8
0
100
AcDbLine
 10
401.161
 20
159.864643877714
 30
0.0
 11
401.161
 21
159.2099155
 31
0.0
  0
LINE
  5
FA4
330
1E
100
AcDbEntity
  8
0
100
AcDbLine
 10
401.161
 20
159.2099155
 30
0.0
 11
401.161
 21
159.8269155
 31
0.0
  0
LINE
  5
FA5
330
1E
100
AcDbEntity
  8
0
100
AcDbLine
 10
401.161
 20
159.2099155
 30
0.0
 11
402.62
 21
159.2099155
 31
0.0
  0
LINE
  5
FA6
330
1E
100
AcDbEntity
  8
0
100
AcDbLine
 10
401.161
 20
159.2099155
 30
0.0
 11
401.161
 21
159.864643877714
 31
0.0
  0
LINE
  5
FA7
330
1E
100
AcDbEntity
  8
0
100
AcDbLine
 10
390.86
 20
163.4559155
 30
0.0
 11
390.86
 21
162.8389155
 31
0.0
  0
LINE
  5
FA8
330
1E
100
AcDbEntity
  8
0
100
AcDbLine
 10
390.86
 20
163.4559155
 30
0.0
 11
392.32
 21
163.4559155
 31
0.0
  0
LINE
  5
FA9
330
1E
100
AcDbEntity
  8
0
100
AcDbLine
 10
390.86
 20
163.413652342105
 30
0.0
 11
390.86
 21
162.8389155
 31
0.0
  0
LINE
  5
FAA
330
1E
100
AcDbEntity
  8
0
100
AcDbLine
 10
390.86
 20
162.8389155
 30
0.0
 11
392.32
 21
162.8389155
 31
0.0
  0
LINE
  5
FAB
330
1E
100
AcDbEntity
  8
0
100
AcDbLine
 10
390.86
 20
162.8389155
 30
0.0
 11
390.86
 21
163.413652342105
 31
0.0
  0
LINE
  5
FAC
330
1E
100
AcDbEntity
  8
0
100
AcDbLine
 10
390.86
 20
162.8389155
 30
0.0
 11
390.86
 21
163.4559155
 31
0.0
  0
LINE
  5
FAD
330
1E
100
AcDbEntity
  8
0
100
AcDbLine
 10
392.32
 20
163.644178657895
 30
0.0
 11
392.32
 21
163.4559155
 31
0.0
  0
LINE
  5
FAE
330
1E
100
AcDbEntity
  8
0
100
AcDbLine
 10
392.32
 20
163.4559155
 30
0.0
 11
392.32
 21
163.644178657895
 31
0.0
  0
LINE
  5
FAF
330
1E
100
AcDbEntity
  8
0
100
AcDbLine
 10
392.32
 20
163.4559155
 30
0.0
 11
392.32
 21
162.8389155
 31
0.0
  0
LINE
  5
FB0
330
1E
100
AcDbEntity
  8
0
100
AcDbLine
 10
392.32
 20
162.8389155
 30
0.0
 11
392.32
 21
163.4559155
 31
0.0
  0
LINE
  5
FB1
330
1E
100
AcDbEntity
  8
0
100
AcDbLine
 10
399.782
 20
164.822389184211
 30
0.0
 11
399.782
 21
163.9769155
 31
0.0
  0
LINE
  5
FB2
330
1E
100
AcDbEntity
  8
0
100
AcDbLine
 10
399.782
 20
163.9769155
 30
0.0
 11
399.782
 21
163.3599155
 31
0.0
  0
LINE
  5
FB3
330
1E
100
AcDbEntity
  8
0
100
AcDbLine
 10
399.782
 20
163.9769155
 30
0.0
 11
401.241
 21
163.9769155
 31
0.0
  0
LINE
  5
FB4
330
1E
100
AcDbEntity
  8
0
100
AcDbLine
 10
399.782
 20
163.9769155
 30
0.0
 11
399.782
 21
164.822389184211
 31
0.0
  0
LINE
  5
FB5
330
1E
100
AcDbEntity
  8
0
100
AcDbLine
 10
399.782
 20
163.3599155
 30
0.0
 11
401.241
 21
163.3599155
 31
0.0
  0
LINE
  5
FB6
330
1E
100
AcDbEntity
  8
0
100
AcDbLine
 10
399.782
 20
163.3599155
 30
0.0
 11
399.782
 21
163.9769155
 31
0.0
  0
LINE
  5
FB7
330
1E
100
AcDbEntity
  8
0
100
AcDbLine
 10
401.161
 20
160.611364807946
 30
0.0
 11
401.161
 21
159.8269155
 31
0.0
  0
LINE
  5
FB8
330
1E
100
AcDbEntity
  8
0
100
AcDbLine
 10
401.241
 20
155.0579155
 30
0.0
 11
401.241
 21
155.6749155
 31
0.0
  0
LINE
  5
FB9
330
1E
100
AcDbEntity
  8
0
100
AcDbLine
 10
401.241
 20
155.6749155
 30
0.0
 11
401.241
 21
155.0579155
 31
0.0
  0
LINE
  5
FBA
330
1E
100
AcDbEntity
  8
0
100
AcDbLine
 10
401.241
 20
165.052757605263
 30
0.0
 11
401.241
 21
163.9769155
 31
0.0
  0
LINE
  5
FBB
330
1E
100
AcDbEntity
  8
0
100
AcDbLine
 10
401.241
 20
163.9769155
 30
0.0
 11
401.241
 21
165.052757605263
 31
0.0
  0
LINE
  5
FBC
330
1E
100
AcDbEntity
  8
0
100
AcDbLine
 10
401.241
 20
163.9769155
 30
0.0
 11
401.241
 21
163.3599155
 31
0.0
  0
LINE
  5
FBD
330
1E
100
AcDbEntity
  8
0
100
AcDbLine
 10
401.241
 20
163.3599155
 30
0.0
 11
401.241
 21
163.9769155
 31
0.0
  0
LINE
  5
FBE
330
1E
100
AcDbEntity
  8
0
100
AcDbLine
 10
401.161
 20
159.8269155
 30
0.0
 11
402.62
 21
159.8269155
 31
0.0
  0
LINE
  5
FBF
330
1E
100
AcDbEntity
  8
0
100
AcDbLine
 10
401.161
 20
159.8269155
 30
0.0
 11
401.161
 21
160.611364807946
 31
0.0
  0
LINE
  5
FC0
330
1E
100
AcDbEntity
  8
0
100
AcDbLine
 10
401.161
 20
159.8269155
 30
0.0
 11
401.161
 21
159.2099155
 31
0.0
  0
LINE
  5
FC1
330
1E
100
AcDbEntity
  8
0
100
AcDbLine
 10
400.431
 20
152.8359155
 30
0.0
 11
402.401
 21
155.6109155
 31
0.0
  0
LINE
  5
FC2
330
1E
100
AcDbEntity
  8
0
100
AcDbLine
 10
402.62
 20
159.2099155
 30
0.0
 11
402.62
 21
159.8269155
 31
0.0
  0
LINE
  5
FC3
330
1E
100
AcDbEntity
  8
0
100
AcDbLine
 10
402.62
 20
160.517672262453
 30
0.0
 11
402.62
 21
159.8269155
 31
0.0
  0
LINE
  5
FC4
330
1E
100
AcDbEntity
  8
0
100
AcDbLine
 10
402.62
 20
159.8269155
 30
0.0
 11
402.62
 21
159.2099155
 31
0.0
  0
LINE
  5
FC5
330
1E
100
AcDbEntity
  8
0
100
AcDbLine
 10
402.62
 20
159.8269155
 30
0.0
 11
402.62
 21
160.517672262453
 31
0.0
  0
LINE
  5
FC6
330
1E
100
AcDbEntity
  8
0
100
AcDbLine
 10
402.401
 20
155.6109155
 30
0.0
 11
403.642
 21
157.8009155
 31
0.0
  0
LINE
  5
FC7
330
1E
100
AcDbEntity
  8
0
100
AcDbLine
 10
402.401
 20
152.4659155
 30
0.0
 11
403.131
 21
153.2479155
 31
0.0
  0
LINE
  5
FC8
330
1E
100
AcDbEntity
  8
0
100
AcDbLine
 10
402.401
 20
152.4659155
 30
0.0
 11
404.518
 21
155.1799155
 31
0.0
  0
LINE
  5
FC9
330
1E
100
AcDbEntity
  8
0
100
AcDbLine
 10
403.642
 20
157.8009155
 30
0.0
 11
404.08
 21
160.4239155
 31
0.0
  0
LINE
  5
FCA
330
1E
100
AcDbEntity
  8
0
100
AcDbLine
 10
403.131
 20
153.2479155
 30
0.0
 11
405.175
 21
155.8699155
 31
0.0
  0
LINE
  5
FCB
330
1E
100
AcDbEntity
  8
0
100
AcDbLine
 10
402.401
 20
165.2359155
 30
0.0
 11
403.642
 21
163.0459155
 31
0.0
  0
LINE
  5
FCC
330
1E
100
AcDbEntity
  8
0
100
AcDbLine
 10
404.518
 20
155.1799155
 30
0.0
 11
405.759
 21
157.7399155
 31
0.0
  0
LINE
  5
FCD
330
1E
100
AcDbEntity
  8
0
100
AcDbLine
 10
405.759
 20
157.7399155
 30
0.0
 11
406.27
 21
160.4239155
 31
0.0
  0
LINE
  5
FCE
330
1E
100
AcDbEntity
  8
0
100
AcDbLine
 10
405.175
 20
155.8699155
 30
0.0
 11
406.489
 21
158.6159155
 31
0.0
  0
LINE
  5
FCF
330
1E
100
AcDbEntity
  8
0
100
AcDbLine
 10
403.642
 20
163.0459155
 30
0.0
 11
404.08
 21
160.4239155
 31
0.0
  0
LINE
  5
FD0
330
1E
100
AcDbEntity
  8
0
100
AcDbLine
 10
404.518
 20
165.6679155
 30
0.0
 11
405.759
 21
163.1079155
 31
0.0
  0
LINE
  5
FD1
330
1E
100
AcDbEntity
  8
0
100
AcDbLine
 10
406.489
 20
158.6159155
 30
0.0
 11
407.0
 21
161.3309155
 31
0.0
  0
LINE
  5
FD2
330
1E
100
AcDbEntity
  8
0
100
AcDbLine
 10
405.759
 20
163.1079155
 30
0.0
 11
406.27
 21
160.4239155
 31
0.0
  0
LINE
  5
FD3
330
1E
100
AcDbEntity
  8
0
100
AcDbLine
 10
387.859
 20
166.9209155
 30
0.0
 11
387.859
 21
167.5379155
 31
0.0
  0
LINE
  5
FD4
330
1E
100
AcDbEntity
  8
0
100
AcDbLine
 10
387.859
 20
167.5379155
 30
0.0
 11
387.859
 21
168.776743532493
 31
0.0
  0
LINE
  5
FD5
330
1E
100
AcDbEntity
  8
0
100
AcDbLine
 10
387.859
 20
167.5379155
 30
0.0
 11
387.859
 21
166.9209155
 31
0.0
  0
LINE
  5
FD6
330
1E
100
AcDbEntity
  8
0
100
AcDbLine
 10
387.859
 20
168.776743532493
 30
0.0
 11
387.859
 21
167.5379155
 31
0.0
  0
LINE
  5
FD7
330
1E
100
AcDbEntity
  8
0
100
AcDbLine
 10
396.456
 20
168.0609155
 30
0.0
 11
396.456
 21
167.4439155
 31
0.0
  0
LINE
  5
FD8
330
1E
100
AcDbEntity
  8
0
100
AcDbLine
 10
396.456
 20
168.0609155
 30
0.0
 11
397.916
 21
168.0609155
 31
0.0
  0
LINE
  5
FD9
330
1E
100
AcDbEntity
  8
0
100
AcDbLine
 10
397.916
 20
168.0609155
 30
0.0
 11
397.916
 21
167.4439155
 31
0.0
  0
LINE
  5
FDA
330
1E
100
AcDbEntity
  8
0
100
AcDbLine
 10
396.456
 20
167.608425655398
 30
0.0
 11
396.456
 21
167.4439155
 31
0.0
  0
LINE
  5
FDB
330
1E
100
AcDbEntity
  8
0
100
AcDbLine
 10
396.456
 20
167.4439155
 30
0.0
 11
397.916
 21
167.4439155
 31
0.0
  0
LINE
  5
FDC
330
1E
100
AcDbEntity
  8
0
100
AcDbLine
 10
396.456
 20
167.4439155
 30
0.0
 11
396.456
 21
167.608425655398
 31
0.0
  0
LINE
  5
FDD
330
1E
100
AcDbEntity
  8
0
100
AcDbLine
 10
396.456
 20
167.4439155
 30
0.0
 11
396.456
 21
168.0609155
 31
0.0
  0
LINE
  5
FDE
330
1E
100
AcDbEntity
  8
0
100
AcDbLine
 10
397.916
 20
167.4439155
 30
0.0
 11
397.916
 21
168.0609155
 31
0.0
  0
LINE
  5
FDF
330
1E
100
AcDbEntity
  8
0
100
AcDbLine
 10
397.803
 20
170.3259155
 30
0.0
 11
400.431
 21
168.0129155
 31
0.0
  0
LINE
  5
FE0
330
1E
100
AcDbEntity
  8
0
100
AcDbLine
 10
400.431
 20
168.0129155
 30
0.0
 11
402.401
 21
165.2359155
 31
0.0
  0
LINE
  5
FE1
330
1E
100
AcDbEntity
  8
0
100
AcDbLine
 10
391.67
 20
171.4919155
 30
0.0
 11
391.67
 21
170.8749155
 31
0.0
  0
LINE
  5
FE2
330
1E
100
AcDbEntity
  8
0
100
AcDbLine
 10
391.67
 20
171.4919155
 30
0.0
 11
393.13
 21
171.4919155
 31
0.0
  0
LINE
  5
FE3
330
1E
100
AcDbEntity
  8
0
100
AcDbLine
 10
391.67
 20
171.4919155
 30
0.0
 11
391.67
 21
171.928997126767
 31
0.0
  0
LINE
  5
FE4
330
1E
100
AcDbEntity
  8
0
100
AcDbLine
 10
391.67
 20
171.453772785429
 30
0.0
 11
391.67
 21
170.8749155
 31
0.0
  0
LINE
  5
FE5
330
1E
100
AcDbEntity
  8
0
100
AcDbLine
 10
391.67
 20
170.8749155
 30
0.0
 11
393.13
 21
170.8749155
 31
0.0
  0
LINE
  5
FE6
330
1E
100
AcDbEntity
  8
0
100
AcDbLine
 10
391.67
 20
170.8749155
 30
0.0
 11
391.67
 21
171.453772785429
 31
0.0
  0
LINE
  5
FE7
330
1E
100
AcDbEntity
  8
0
100
AcDbLine
 10
391.67
 20
170.8749155
 30
0.0
 11
391.67
 21
171.4919155
 31
0.0
  0
LINE
  5
FE8
330
1E
100
AcDbEntity
  8
0
100
AcDbLine
 10
393.13
 20
171.4919155
 30
0.0
 11
393.13
 21
172.254938863138
 31
0.0
  0
LINE
  5
FE9
330
1E
100
AcDbEntity
  8
0
100
AcDbLine
 10
393.13
 20
171.4919155
 30
0.0
 11
393.13
 21
170.8749155
 31
0.0
  0
LINE
  5
FEA
330
1E
100
AcDbEntity
  8
0
100
AcDbLine
 10
393.13
 20
170.8749155
 30
0.0
 11
393.13
 21
171.4919155
 31
0.0
  0
LINE
  5
FEB
330
1E
100
AcDbEntity
  8
0
100
AcDbLine
 10
399.701
 20
170.7889155
 30
0.0
 11
402.401
 21
168.3829155
 31
0.0
  0
LINE
  5
FEC
330
1E
100
AcDbEntity
  8
0
100
AcDbLine
 10
402.401
 20
168.3829155
 30
0.0
 11
404.518
 21
165.6679155
 31
0.0
  0
LINE
  5
FED
330
1E
100
AcDbEntity
  8
0
100
AcDbLine
 10
393.13
 20
172.254938863138
 30
0.0
 11
393.13
 21
171.4919155
 31
0.0
  0
LINE
  5
FEE
330
1E
100
AcDbEntity
  8
0
100
AcDbLine
 10
391.67
 20
171.928997126767
 30
0.0
 11
391.67
 21
171.4919155
 31
0.0
  0
LINE
  5
FEF
330
1E
100
AcDbEntity
  8
0
100
AcDbLine
 10
390.212
 20
174.4589155
 30
0.0
 11
394.299
 21
172.5159155
 31
0.0
  0
LINE
  5
FF0
330
1E
100
AcDbEntity
  8
0
100
AcDbLine
 10
394.299
 20
172.5159155
 30
0.0
 11
397.803
 21
170.3259155
 31
0.0
  0
LINE
  5
FF1
330
1E
100
AcDbEntity
  8
0
100
AcDbLine
 10
391.818
 20
175.1379155
 30
0.0
 11
396.051
 21
173.0719155
 31
0.0
  0
LINE
  5
FF2
330
1E
100
AcDbEntity
  8
0
100
AcDbLine
 10
396.051
 20
173.0719155
 30
0.0
 11
399.701
 21
170.7889155
 31
0.0
  0
LINE
  5
FF3
330
1E
100
AcDbEntity
  8
0
100
AcDbLine
 10
392.328
 20
176.2609155
 30
0.0
 11
396.635
 21
174.1629155
 31
0.0
  0
LINE
  5
FF4
330
1E
100
AcDbEntity
  8
0
100
AcDbLine
 10
396.635
 20
174.1629155
 30
0.0
 11
400.285
 21
171.8499155
 31
0.0
  0
LINE
  5
FF5
330
1E
100
AcDbEntity
  8
0
100
AcDbLine
 10
400.285
 20
171.8499155
 30
0.0
 11
403.131
 21
169.4129155
 31
0.0
  0
LINE
  5
FF6
330
1E
100
AcDbEntity
  8
0
100
AcDbLine
 10
403.131
 20
169.4129155
 30
0.0
 11
405.175
 21
166.7899155
 31
0.0
  0
LINE
  5
FF7
330
1E
100
AcDbEntity
  8
0
100
AcDbLine
 10
405.175
 20
166.7899155
 30
0.0
 11
406.489
 21
164.0449155
 31
0.0
  0
LINE
  5
FF8
330
1E
100
AcDbEntity
  8
0
100
AcDbLine
 10
406.489
 20
164.0449155
 30
0.0
 11
407.0
 21
161.3309155
 31
0.0
  0
LINE
  5
FF9
330
1E
100
AcDbEntity
  8
0
100
AcDbLine
 10
400.285
 20
190.8809155
 30
0.0
 11
403.131
 21
188.4449155
 31
0.0
  0
LINE
  5
FFA
330
1E
100
AcDbEntity
  8
0
100
AcDbLine
 10
402.401
 20
189.2279155
 30
0.0
 11
403.131
 21
188.4449155
 31
0.0
  0
LINE
  5
FFB
330
1E
100
AcDbEntity
  8
0
100
AcDbLine
 10
403.131
 20
188.4449155
 30
0.0
 11
405.175
 21
185.8229155
 31
0.0
  0
LINE
  5
FFC
330
1E
100
AcDbEntity
  8
0
100
AcDbLine
 10
405.175
 20
185.8229155
 30
0.0
 11
406.489
 21
183.0779155
 31
0.0
  0
LINE
  5
FFD
330
1E
100
AcDbEntity
  8
0
100
AcDbLine
 10
407.0
 20
180.3629155
 30
0.0
 11
407.0
 21
161.3309155
 31
0.0
  0
LINE
  5
FFE
330
1E
100
AcDbEntity
  8
0
100
AcDbLine
 10
407.0
 20
161.3309155
 30
0.0
 11
407.0
 21
180.3629155
 31
0.0
  0
LINE
  5
FFF
330
1E
100
AcDbEntity
  8
0
100
AcDbLine
 10
406.489
 20
183.0779155
 30
0.0
 11
407.0
 21
180.3629155
 31
0.0
  0
LINE
  5
1000
330
1E
100
AcDbEntity
  8
0
100
AcDbLine
 10
392.328
 20
195.2929155
 30
0.0
 11
396.635
 21
193.1959155
 31
0.0
  0
LINE
  5
1001
330
1E
100
AcDbEntity
  8
0
100
AcDbLine
 10
391.818
 20
195.9839155
 30
0.0
 11
396.051
 21
193.9169155
 31
0.0
  0
LINE
  5
1002
330
1E
100
AcDbEntity
  8
0
100
AcDbLine
 10
396.635
 20
193.1959155
 30
0.0
 11
400.285
 21
190.8809155
 31
0.0
  0
LINE
  5
1003
330
1E
100
AcDbEntity
  8
0
100
AcDbLine
 10
396.051
 20
193.9169155
 30
0.0
 11
399.701
 21
191.6339155
 31
0.0
  0
LINE
  5
1004
330
1E
100
AcDbEntity
  8
0
100
AcDbLine
 10
399.701
 20
191.6339155
 30
0.0
 11
402.401
 21
189.2279155
 31
0.0
  0
LINE
  5
1005
330
1E
100
AcDbEntity
  8
0
100
AcDbLine
 10
387.365
 20
197.1139155
 30
0.0
 11
392.328
 21
195.2929155
 31
0.0
  0
LINE
  5
1006
330
1E
100
AcDbEntity
  8
0
100
AcDbLine
 10
381.891
 20
198.6559155
 30
0.0
 11
387.365
 21
197.1139155
 31
0.0
  0
LINE
  5
1007
330
1E
100
AcDbEntity
  8
0
100
AcDbLine
 10
386.927
 20
197.7729155
 30
0.0
 11
391.818
 21
195.9839155
 31
0.0
  0
LINE
  5
1008
330
1E
100
AcDbEntity
  8
0
100
AcDbLine
 10
381.526
 20
199.3159155
 30
0.0
 11
386.927
 21
197.7729155
 31
0.0
  0
LINE
  5
1009
330
1E
100
AcDbEntity
  8
0
100
AcDbLine
 10
369.92
 20
200.7229155
 30
0.0
 11
376.124
 21
199.8589155
 31
0.0
  0
LINE
  5
100A
330
1E
100
AcDbEntity
  8
0
100
AcDbLine
 10
375.832
 20
200.4569155
 30
0.0
 11
381.526
 21
199.3159155
 31
0.0
  0
LINE
  5
100B
330
1E
100
AcDbEntity
  8
0
100
AcDbLine
 10
369.409
 20
201.3509155
 30
0.0
 11
375.832
 21
200.4569155
 31
0.0
  0
LINE
  5
100C
330
1E
100
AcDbEntity
  8
0
100
AcDbLine
 10
363.35
 20
201.8759155
 30
0.0
 11
369.409
 21
201.3509155
 31
0.0
  0
LINE
  5
100D
330
1E
100
AcDbEntity
  8
0
100
AcDbLine
 10
357.0
 20
202.0909155
 30
0.0
 11
363.35
 21
201.8759155
 31
0.0
  0
LINE
  5
100E
330
1E
100
AcDbEntity
  8
0
  6
ByBlock
100
AcDbLine
 10
373.353186137138
 20
12.481567434747
 30
0.0
 11
372.991351854483
 21
13.933646738196
 31
0.0
  0
LINE
  5
100F
330
1E
100
AcDbEntity
  8
0
  6
ByBlock
100
AcDbLine
 10
340.983343998511
 20
45.568894294785
 30
0.0
 11
340.967
 21
60.3424155
 31
0.0
  0
LINE
  5
1010
330
1E
100
AcDbEntity
  8
0
  6
ByBlock
100
AcDbLine
 10
345.727
 20
38.2445155
 30
0.0
 11
347.125
 21
37.5169155
 31
0.0
  0
LINE
  5
1011
330
1E
100
AcDbEntity
  8
0
  6
ByBlock
100
AcDbLine
 10
372.974
 20
14.2229155
 30
0.0
 11
372.961
 21
44.6898155
 31
0.0
  0
LINE
  5
105C
330
1E
100
AcDbEntity
  8
0
100
AcDbLine
 10
44.6793
 20
50.1481
 30
0.0
 11
50.0986
 21
50.1481
 31
0.0
  0
LINE
  5
105D
330
1E
100
AcDbEntity
  8
0
100
AcDbLine
 10
44.6793
 20
0.148114
 30
0.0
 11
50.0986
 21
0.148092
 31
0.0
  0
LINE
  5
105E
330
1E
100
AcDbEntity
  8
0
100
AcDbLine
 10
44.6793
 20
0.14802
 30
0.0
 11
50.0986
 21
0.148041
 31
0.0
  0
LINE
  5
105F
330
1E
100
AcDbEntity
  8
0
100
AcDbLine
 10
2.0016
 20
0.148067
 30
0.0
 11
2.0016
 21
46.168008681482
 31
0.0
  0
LINE
  5
1060
330
1E
100
AcDbEntity
  8
0
100
AcDbLine
 10
0.0031
 20
46.0174
 30
0.0
 11
0.0032
 21
46.1696
 31
0.0
  0
LINE
  5
1061
330
1E
100
AcDbEntity
  8
0
100
AcDbLine
 10
2.0016
 20
46.168008681482
 30
0.0
 11
2.0016
 21
0.148067
 31
0.0
  0
LINE
  5
1062
330
1E
100
AcDbEntity
  8
0
100
AcDbLine
 10
26.2362
 20
46.0174
 30
0.0
 11
27.0016
 21
46.1696
 31
0.0
  0
LINE
  5
1063
330
1E
100
AcDbEntity
  8
0
100
AcDbLine
 10
27.0016
 20
46.1696
 30
0.0
 11
27.767
 21
46.0174
 31
0.0
  0
LINE
  5
1064
330
1E
100
AcDbEntity
  8
0
100
AcDbLine
 10
17.4345
 20
0.148005
 30
0.0
 11
27.0016
 21
0.148
 31
0.0
  0
LINE
  5
1065
330
1E
100
AcDbEntity
  8
0
100
AcDbLine
 10
17.4345
 20
0.148128
 30
0.0
 11
27.0016
 21
0.148133
 31
0.0
  0
LINE
  5
1066
330
1E
100
AcDbEntity
  8
0
100
AcDbLine
 10
3.9046
 20
0.148041
 30
0.0
 11
9.3239
 21
0.14802
 31
0.0
  0
LINE
  5
1067
330
1E
100
AcDbEntity
  8
0
100
AcDbLine
 10
2.0016
 20
0.148067
 30
0.0
 11
3.9046
 21
0.148092
 31
0.0
  0
LINE
  5
1068
330
1E
100
AcDbEntity
  8
0
100
AcDbLine
 10
2.0016
 20
0.148067
 30
0.0
 11
3.9046
 21
0.148041
 31
0.0
  0
LINE
  5
1069
330
1E
100
AcDbEntity
  8
0
100
AcDbLine
 10
9.3239
 20
0.14802
 30
0.0
 11
17.4345
 21
0.148005
 31
0.0
  0
LINE
  5
106A
330
1E
100
AcDbEntity
  8
0
100
AcDbLine
 10
3.9046
 20
0.148092
 30
0.0
 11
9.3239
 21
0.148114
 31
0.0
  0
LINE
  5
106B
330
1E
100
AcDbEntity
  8
0
100
AcDbLine
 10
9.3239
 20
0.148114
 30
0.0
 11
17.4345
 21
0.148128
 31
0.0
  0
LINE
  5
106C
330
1E
100
AcDbEntity
  8
0
100
AcDbLine
 10
0.0
 20
42.1696
 30
0.0
 11
2.0016
 21
42.168006133333
 31
0.0
  0
LINE
  5
106D
330
1E
100
AcDbEntity
  8
0
100
AcDbLine
 10
0.0
 20
42.1696
 30
0.0
 11
0.0001
 21
42.3218
 31
0.0
  0
LINE
  5
106E
330
1E
100
AcDbEntity
  8
0
100
AcDbLine
 10
0.0
 20
42.1696
 30
0.0
 11
2.0016
 21
42.168006133333
 31
0.0
  0
LINE
  5
106F
330
1E
100
AcDbEntity
  8
0
100
AcDbLine
 10
0.0
 20
42.1696
 30
0.0
 11
0.0001
 21
42.3218
 31
0.0
  0
LINE
  5
1070
330
1E
100
AcDbEntity
  8
0
100
AcDbLine
 10
0.0001
 20
42.3218
 30
0.0
 11
0.0005
 21
42.7554
 31
0.0
  0
LINE
  5
1071
330
1E
100
AcDbEntity
  8
0
100
AcDbLine
 10
0.0005
 20
42.7554
 30
0.0
 11
0.001
 21
43.4042
 31
0.0
  0
LINE
  5
1072
330
1E
100
AcDbEntity
  8
0
100
AcDbLine
 10
0.001
 20
43.4042
 30
0.0
 11
0.0016
 21
44.1696
 31
0.0
  0
LINE
  5
1073
330
1E
100
AcDbEntity
  8
0
100
AcDbLine
 10
0.0027
 20
45.5838
 30
0.0
 11
0.0031
 21
46.0174
 31
0.0
  0
LINE
  5
1074
330
1E
100
AcDbEntity
  8
0
100
AcDbLine
 10
0.0022
 20
44.935
 30
0.0
 11
0.0027
 21
45.5838
 31
0.0
  0
LINE
  5
1075
330
1E
100
AcDbEntity
  8
0
100
AcDbLine
 10
0.0016
 20
44.1696
 30
0.0
 11
0.0022
 21
44.935
 31
0.0
  0
LINE
  5
1076
330
1E
100
AcDbEntity
  8
0
100
AcDbLine
 10
25.5874
 20
45.5838
 30
0.0
 11
26.2362
 21
46.0174
 31
0.0
  0
LINE
  5
1077
330
1E
100
AcDbEntity
  8
0
100
AcDbLine
 10
25.1538
 20
44.935
 30
0.0
 11
25.5874
 21
45.5838
 31
0.0
  0
LINE
  5
1078
330
1E
100
AcDbEntity
  8
0
100
AcDbLine
 10
25.0016
 20
44.1696
 30
0.0
 11
25.1538
 21
43.4042
 31
0.0
  0
LINE
  5
1079
330
1E
100
AcDbEntity
  8
0
100
AcDbLine
 10
25.0016
 20
44.1696
 30
0.0
 11
25.1538
 21
44.935
 31
0.0
  0
LINE
  5
107A
330
1E
100
AcDbEntity
  8
0
100
AcDbLine
 10
25.1538
 20
43.4042
 30
0.0
 11
25.5874
 21
42.7554
 31
0.0
  0
LINE
  5
107B
330
1E
100
AcDbEntity
  8
0
100
AcDbLine
 10
25.5874
 20
42.7554
 30
0.0
 11
26.2362
 21
42.3218
 31
0.0
  0
LINE
  5
107C
330
1E
100
AcDbEntity
  8
0
100
AcDbLine
 10
26.2362
 20
42.3218
 30
0.0
 11
27.0016
 21
42.1696
 31
0.0
  0
LINE
  5
107D
330
1E
100
AcDbEntity
  8
0
100
AcDbLine
 10
27.0016
 20
42.1696
 30
0.0
 11
27.767
 21
42.3218
 31
0.0
  0
LINE
  5
107E
330
1E
100
AcDbEntity
  8
0
100
AcDbLine
 10
27.767
 20
42.3218
 30
0.0
 11
28.4158
 21
42.7554
 31
0.0
  0
LINE
  5
107F
330
1E
100
AcDbEntity
  8
0
100
AcDbLine
 10
28.4158
 20
42.7554
 30
0.0
 11
28.8494
 21
43.4042
 31
0.0
  0
LINE
  5
1080
330
1E
100
AcDbEntity
  8
0
100
AcDbLine
 10
28.8494
 20
43.4042
 30
0.0
 11
29.0016
 21
44.1696
 31
0.0
  0
LINE
  5
1081
330
1E
100
AcDbEntity
  8
0
100
AcDbLine
 10
28.8494
 20
44.935
 30
0.0
 11
29.0016
 21
44.1696
 31
0.0
  0
LINE
  5
1082
330
1E
100
AcDbEntity
  8
0
100
AcDbLine
 10
28.4158
 20
45.5838
 30
0.0
 11
28.8494
 21
44.935
 31
0.0
  0
LINE
  5
1083
330
1E
100
AcDbEntity
  8
0
100
AcDbLine
 10
27.767
 20
46.0174
 30
0.0
 11
28.4158
 21
45.5838
 31
0.0
  0
LINE
  5
1084
330
1E
100
AcDbEntity
  8
0
100
AcDbLine
 10
27.0016
 20
0.148133
 30
0.0
 11
36.5687
 21
0.148128
 31
0.0
  0
LINE
  5
1085
330
1E
100
AcDbEntity
  8
0
100
AcDbLine
 10
36.5687
 20
0.148128
 30
0.0
 11
44.6793
 21
0.148114
 31
0.0
  0
LINE
  5
1086
330
1E
100
AcDbEntity
  8
0
100
AcDbLine
 10
36.5687
 20
0.148005
 30
0.0
 11
44.6793
 21
0.14802
 31
0.0
  0
LINE
  5
1087
330
1E
100
AcDbEntity
  8
0
100
AcDbLine
 10
27.0016
 20
0.148
 30
0.0
 11
36.5687
 21
0.148005
 31
0.0
  0
LINE
  5
1088
330
1E
100
AcDbEntity
  8
0
100
AcDbLine
 10
0.0032
 20
46.1696
 30
0.0
 11
2.0016
 21
46.168008681482
 31
0.0
  0
LINE
  5
1089
330
1E
100
AcDbEntity
  8
0
100
AcDbLine
 10
0.0032
 20
46.1696
 30
0.0
 11
2.0016
 21
46.168008681482
 31
0.0
  0
LINE
  5
108A
330
1E
100
AcDbEntity
  8
0
100
AcDbLine
 10
2.0016
 20
46.168008681482
 30
0.0
 11
2.0016
 21
50.1481
 31
0.0
  0
LINE
  5
108B
330
1E
100
AcDbEntity
  8
0
100
AcDbLine
 10
2.0016
 20
50.1481
 30
0.0
 11
2.0016
 21
46.168008681482
 31
0.0
  0
LINE
  5
108C
330
1E
100
AcDbEntity
  8
0
100
AcDbLine
 10
2.0016
 20
50.1481
 30
0.0
 11
3.9046
 21
50.1481
 31
0.0
  0
LINE
  5
108D
330
1E
100
AcDbEntity
  8
0
100
AcDbLine
 10
3.9046
 20
50.1481
 30
0.0
 11
9.3239
 21
50.1481
 31
0.0
  0
LINE
  5
108E
330
1E
100
AcDbEntity
  8
0
100
AcDbLine
 10
9.3239
 20
50.1481
 30
0.0
 11
17.4345
 21
50.1481
 31
0.0
  0
LINE
  5
108F
330
1E
100
AcDbEntity
  8
0
100
AcDbLine
 10
17.4345
 20
50.1481
 30
0.0
 11
27.0016
 21
50.1481
 31
0.0
  0
LINE
  5
1090
330
1E
100
AcDbEntity
  8
0
100
AcDbLine
 10
27.0016
 20
50.1481
 30
0.0
 11
36.5687
 21
50.1481
 31
0.0
  0
LINE
  5
1091
330
1E
100
AcDbEntity
  8
0
100
AcDbLine
 10
36.5687
 20
50.1481
 30
0.0
 11
44.6793
 21
50.1481
 31
0.0
  0
LINE
  5
1092
330
1E
100
AcDbEntity
  8
0
100
AcDbLine
 10
50.0986
 20
50.1481
 30
0.0
 11
52.0016
 21
50.1481
 31
0.0
  0
LINE
  5
1093
330
1E
100
AcDbEntity
  8
0
100
AcDbLine
 10
50.0986
 20
0.148092
 30
0.0
 11
52.0016
 21
0.148067
 31
0.0
  0
LINE
  5
1094
330
1E
100
AcDbEntity
  8
0
100
AcDbLine
 10
52.0016
 20
46.128193866667
 30
0.0
 11
54.0032
 21
46.1266
 31
0.0
  0
LINE
  5
1095
330
1E
100
AcDbEntity
  8
0
100
AcDbLine
 10
52.0016
 20
46.122552327496
 30
0.0
 11
52.0016
 21
50.1481
 31
0.0
  0
LINE
  5
1096
330
1E
100
AcDbEntity
  8
0
100
AcDbLine
 10
52.0016
 20
0.148067
 30
0.0
 11
52.0016
 21
46.122552327496
 31
0.0
  0
LINE
  5
1097
330
1E
100
AcDbEntity
  8
0
100
AcDbLine
 10
54.0
 20
42.1266
 30
0.0
 11
54.0001
 21
42.2788
 31
0.0
  0
LINE
  5
1098
330
1E
100
AcDbEntity
  8
0
100
AcDbLine
 10
54.0001
 20
42.2788
 30
0.0
 11
54.0005
 21
42.7124
 31
0.0
  0
LINE
  5
1099
330
1E
100
AcDbEntity
  8
0
100
AcDbLine
 10
54.0005
 20
42.7124
 30
0.0
 11
54.001
 21
43.3612
 31
0.0
  0
LINE
  5
109A
330
1E
100
AcDbEntity
  8
0
100
AcDbLine
 10
54.001
 20
43.3612
 30
0.0
 11
54.0016
 21
44.1266
 31
0.0
  0
LINE
  5
109B
330
1E
100
AcDbEntity
  8
0
100
AcDbLine
 10
54.0016
 20
44.1266
 30
0.0
 11
54.0022
 21
44.892
 31
0.0
  0
LINE
  5
109C
330
1E
100
AcDbEntity
  8
0
100
AcDbLine
 10
54.0022
 20
44.892
 30
0.0
 11
54.0027
 21
45.5408
 31
0.0
  0
LINE
  5
109D
330
1E
100
AcDbEntity
  8
0
100
AcDbLine
 10
54.0027
 20
45.5408
 30
0.0
 11
54.0031
 21
45.9744
 31
0.0
  0
LINE
  5
109E
330
1E
100
AcDbEntity
  8
0
100
AcDbLine
 10
54.0031
 20
45.9744
 30
0.0
 11
54.0032
 21
46.1266
 31
0.0
  0
LINE
  5
109F
330
1E
100
AcDbEntity
  8
0
100
AcDbLine
 10
52.0016
 20
46.122552327496
 30
0.0
 11
52.0016
 21
0.148067
 31
0.0
  0
LINE
  5
10A0
330
1E
100
AcDbEntity
  8
0
100
AcDbLine
 10
52.0016
 20
42.128191318519
 30
0.0
 11
54.0
 21
42.1266
 31
0.0
  0
LINE
  5
10A1
330
1E
100
AcDbEntity
  8
0
100
AcDbLine
 10
52.0016
 20
50.1481
 30
0.0
 11
52.0016
 21
46.122552327496
 31
0.0
  0
LINE
  5
10A2
330
1E
100
AcDbEntity
  8
0
100
AcDbLine
 10
50.0986
 20
0.148041
 30
0.0
 11
52.0016
 21
0.148067
 31
0.0
  0
LINE
  5
10FA
330
1E
100
AcDbEntity
  8
0
100
AcDbLine
 10
247.0016
 20
0.148
 30
0.0
 11
256.5687
 21
0.148005
 31
0.0
  0
LINE
  5
10FB
330
1E
100
AcDbEntity
  8
0
100
AcDbLine
 10
237.4345
 20
0.148005
 30
0.0
 11
247.0016
 21
0.148
 31
0.0
  0
LINE
  5
10FC
330
1E
100
AcDbEntity
  8
0
100
AcDbLine
 10
270.0986
 20
0.148041
 30
0.0
 11
272.0016
 21
0.148067
 31
0.0
  0
LINE
  5
10FD
330
1E
100
AcDbEntity
  8
0
100
AcDbLine
 10
272.0016
 20
50.1481
 30
0.0
 11
272.0016
 21
46.122552327496
 31
0.0
  0
LINE
  5
10FE
330
1E
100
AcDbEntity
  8
0
100
AcDbLine
 10
272.0016
 20
42.128191318519
 30
0.0
 11
274.0
 21
42.1266
 31
0.0
  0
LINE
  5
10FF
330
1E
100
AcDbEntity
  8
0
100
AcDbLine
 10
272.0016
 20
46.122552327496
 30
0.0
 11
272.0016
 21
0.148067
 31
0.0
  0
LINE
  5
1100
330
1E
100
AcDbEntity
  8
0
100
AcDbLine
 10
274.0031
 20
45.9744
 30
0.0
 11
274.0032
 21
46.1266
 31
0.0
  0
LINE
  5
1101
330
1E
100
AcDbEntity
  8
0
100
AcDbLine
 10
274.0027
 20
45.5408
 30
0.0
 11
274.0031
 21
45.9744
 31
0.0
  0
LINE
  5
1102
330
1E
100
AcDbEntity
  8
0
100
AcDbLine
 10
274.0022
 20
44.892
 30
0.0
 11
274.0027
 21
45.5408
 31
0.0
  0
LINE
  5
1103
330
1E
100
AcDbEntity
  8
0
100
AcDbLine
 10
274.0016
 20
44.1266
 30
0.0
 11
274.0022
 21
44.892
 31
0.0
  0
LINE
  5
1104
330
1E
100
AcDbEntity
  8
0
100
AcDbLine
 10
274.001
 20
43.3612
 30
0.0
 11
274.0016
 21
44.1266
 31
0.0
  0
LINE
  5
1105
330
1E
100
AcDbEntity
  8
0
100
AcDbLine
 10
274.0005
 20
42.7124
 30
0.0
 11
274.001
 21
43.3612
 31
0.0
  0
LINE
  5
1106
330
1E
100
AcDbEntity
  8
0
100
AcDbLine
 10
274.0001
 20
42.2788
 30
0.0
 11
274.0005
 21
42.7124
 31
0.0
  0
LINE
  5
1107
330
1E
100
AcDbEntity
  8
0
100
AcDbLine
 10
274.0
 20
42.1266
 30
0.0
 11
274.0001
 21
42.2788
 31
0.0
  0
LINE
  5
1108
330
1E
100
AcDbEntity
  8
0
100
AcDbLine
 10
272.0016
 20
0.148067
 30
0.0
 11
272.0016
 21
46.122552327496
 31
0.0
  0
LINE
  5
1109
330
1E
100
AcDbEntity
  8
0
100
AcDbLine
 10
272.0016
 20
46.122552327496
 30
0.0
 11
272.0016
 21
50.1481
 31
0.0
  0
LINE
  5
110A
330
1E
100
AcDbEntity
  8
0
100
AcDbLine
 10
272.0016
 20
46.128193866667
 30
0.0
 11
274.0032
 21
46.1266
 31
0.0
  0
LINE
  5
110B
330
1E
100
AcDbEntity
  8
0
100
AcDbLine
 10
270.0986
 20
0.148092
 30
0.0
 11
272.0016
 21
0.148067
 31
0.0
  0
LINE
  5
110C
330
1E
100
AcDbEntity
  8
0
100
AcDbLine
 10
270.0986
 20
50.1481
 30
0.0
 11
272.0016
 21
50.1481
 31
0.0
  0
LINE
  5
110D
330
1E
100
AcDbEntity
  8
0
100
AcDbLine
 10
256.5687
 20
50.1481
 30
0.0
 11
264.6793
 21
50.1481
 31
0.0
  0
LINE
  5
110E
330
1E
100
AcDbEntity
  8
0
100
AcDbLine
 10
247.0016
 20
50.1481
 30
0.0
 11
256.5687
 21
50.1481
 31
0.0
  0
LINE
  5
110F
330
1E
100
AcDbEntity
  8
0
100
AcDbLine
 10
237.4345
 20
50.1481
 30
0.0
 11
247.0016
 21
50.1481
 31
0.0
  0
LINE
  5
1110
330
1E
100
AcDbEntity
  8
0
100
AcDbLine
 10
229.3239
 20
50.1481
 30
0.0
 11
237.4345
 21
50.1481
 31
0.0
  0
LINE
  5
1111
330
1E
100
AcDbEntity
  8
0
100
AcDbLine
 10
223.9046
 20
50.1481
 30
0.0
 11
229.3239
 21
50.1481
 31
0.0
  0
LINE
  5
1112
330
1E
100
AcDbEntity
  8
0
100
AcDbLine
 10
222.0016
 20
50.1481
 30
0.0
 11
223.9046
 21
50.1481
 31
0.0
  0
LINE
  5
1113
330
1E
100
AcDbEntity
  8
0
100
AcDbLine
 10
222.0016
 20
50.1481
 30
0.0
 11
222.0016
 21
46.168008681482
 31
0.0
  0
LINE
  5
1114
330
1E
100
AcDbEntity
  8
0
100
AcDbLine
 10
222.0016
 20
46.168008681482
 30
0.0
 11
222.0016
 21
50.1481
 31
0.0
  0
LINE
  5
1115
330
1E
100
AcDbEntity
  8
0
100
AcDbLine
 10
220.0032
 20
46.1696
 30
0.0
 11
222.0016
 21
46.168008681482
 31
0.0
  0
LINE
  5
1116
330
1E
100
AcDbEntity
  8
0
100
AcDbLine
 10
220.0032
 20
46.1696
 30
0.0
 11
222.0016
 21
46.168008681482
 31
0.0
  0
LINE
  5
1117
330
1E
100
AcDbEntity
  8
0
100
AcDbLine
 10
256.5687
 20
0.148005
 30
0.0
 11
264.6793
 21
0.14802
 31
0.0
  0
LINE
  5
1118
330
1E
100
AcDbEntity
  8
0
100
AcDbLine
 10
256.5687
 20
0.148128
 30
0.0
 11
264.6793
 21
0.148114
 31
0.0
  0
LINE
  5
1119
330
1E
100
AcDbEntity
  8
0
100
AcDbLine
 10
247.0016
 20
0.148133
 30
0.0
 11
256.5687
 21
0.148128
 31
0.0
  0
LINE
  5
111A
330
1E
100
AcDbEntity
  8
0
100
AcDbLine
 10
247.767
 20
46.0174
 30
0.0
 11
248.4158
 21
45.5838
 31
0.0
  0
LINE
  5
111B
330
1E
100
AcDbEntity
  8
0
100
AcDbLine
 10
248.4158
 20
45.5838
 30
0.0
 11
248.8494
 21
44.935
 31
0.0
  0
LINE
  5
111C
330
1E
100
AcDbEntity
  8
0
100
AcDbLine
 10
248.8494
 20
44.935
 30
0.0
 11
249.0016
 21
44.1696
 31
0.0
  0
LINE
  5
111D
330
1E
100
AcDbEntity
  8
0
100
AcDbLine
 10
248.8494
 20
43.4042
 30
0.0
 11
249.0016
 21
44.1696
 31
0.0
  0
LINE
  5
111E
330
1E
100
AcDbEntity
  8
0
100
AcDbLine
 10
248.4158
 20
42.7554
 30
0.0
 11
248.8494
 21
43.4042
 31
0.0
  0
LINE
  5
111F
330
1E
100
AcDbEntity
  8
0
100
AcDbLine
 10
247.767
 20
42.3218
 30
0.0
 11
248.4158
 21
42.7554
 31
0.0
  0
LINE
  5
1120
330
1E
100
AcDbEntity
  8
0
100
AcDbLine
 10
247.0016
 20
42.1696
 30
0.0
 11
247.767
 21
42.3218
 31
0.0
  0
LINE
  5
1121
330
1E
100
AcDbEntity
  8
0
100
AcDbLine
 10
246.2362
 20
42.3218
 30
0.0
 11
247.0016
 21
42.1696
 31
0.0
  0
LINE
  5
1122
330
1E
100
AcDbEntity
  8
0
100
AcDbLine
 10
245.5874
 20
42.7554
 30
0.0
 11
246.2362
 21
42.3218
 31
0.0
  0
LINE
  5
1123
330
1E
100
AcDbEntity
  8
0
100
AcDbLine
 10
245.1538
 20
43.4042
 30
0.0
 11
245.5874
 21
42.7554
 31
0.0
  0
LINE
  5
1124
330
1E
100
AcDbEntity
  8
0
100
AcDbLine
 10
245.0016
 20
44.1696
 30
0.0
 11
245.1538
 21
44.935
 31
0.0
  0
LINE
  5
1125
330
1E
100
AcDbEntity
  8
0
100
AcDbLine
 10
245.0016
 20
44.1696
 30
0.0
 11
245.1538
 21
43.4042
 31
0.0
  0
LINE
  5
1126
330
1E
100
AcDbEntity
  8
0
100
AcDbLine
 10
245.1538
 20
44.935
 30
0.0
 11
245.5874
 21
45.5838
 31
0.0
  0
LINE
  5
1127
330
1E
100
AcDbEntity
  8
0
100
AcDbLine
 10
245.5874
 20
45.5838
 30
0.0
 11
246.2362
 21
46.0174
 31
0.0
  0
LINE
  5
1128
330
1E
100
AcDbEntity
  8
0
100
AcDbLine
 10
220.0016
 20
44.1696
 30
0.0
 11
220.0022
 21
44.935
 31
0.0
  0
LINE
  5
1129
330
1E
100
AcDbEntity
  8
0
100
AcDbLine
 10
220.0022
 20
44.935
 30
0.0
 11
220.0027
 21
45.5838
 31
0.0
  0
LINE
  5
112A
330
1E
100
AcDbEntity
  8
0
100
AcDbLine
 10
220.0027
 20
45.5838
 30
0.0
 11
220.0031
 21
46.0174
 31
0.0
  0
LINE
  5
112B
330
1E
100
AcDbEntity
  8
0
100
AcDbLine
 10
220.001
 20
43.4042
 30
0.0
 11
220.0016
 21
44.1696
 31
0.0
  0
LINE
  5
112C
330
1E
100
AcDbEntity
  8
0
100
AcDbLine
 10
220.0005
 20
42.7554
 30
0.0
 11
220.001
 21
43.4042
 31
0.0
  0
LINE
  5
112D
330
1E
100
AcDbEntity
  8
0
100
AcDbLine
 10
220.0001
 20
42.3218
 30
0.0
 11
220.0005
 21
42.7554
 31
0.0
  0
LINE
  5
112E
330
1E
100
AcDbEntity
  8
0
100
AcDbLine
 10
220.0
 20
42.1696
 30
0.0
 11
220.0001
 21
42.3218
 31
0.0
  0
LINE
  5
112F
330
1E
100
AcDbEntity
  8
0
100
AcDbLine
 10
220.0
 20
42.1696
 30
0.0
 11
222.0016
 21
42.168006133333
 31
0.0
  0
LINE
  5
1130
330
1E
100
AcDbEntity
  8
0
100
AcDbLine
 10
220.0
 20
42.1696
 30
0.0
 11
220.0001
 21
42.3218
 31
0.0
  0
LINE
  5
1131
330
1E
100
AcDbEntity
  8
0
100
AcDbLine
 10
220.0
 20
42.1696
 30
0.0
 11
222.0016
 21
42.168006133333
 31
0.0
  0
LINE
  5
1132
330
1E
100
AcDbEntity
  8
0
100
AcDbLine
 10
229.3239
 20
0.148114
 30
0.0
 11
237.4345
 21
0.148128
 31
0.0
  0
LINE
  5
1133
330
1E
100
AcDbEntity
  8
0
100
AcDbLine
 10
223.9046
 20
0.148092
 30
0.0
 11
229.3239
 21
0.148114
 31
0.0
  0
LINE
  5
1134
330
1E
100
AcDbEntity
  8
0
100
AcDbLine
 10
229.3239
 20
0.14802
 30
0.0
 11
237.4345
 21
0.148005
 31
0.0
  0
LINE
  5
1135
330
1E
100
AcDbEntity
  8
0
100
AcDbLine
 10
222.0016
 20
0.148067
 30
0.0
 11
223.9046
 21
0.148041
 31
0.0
  0
LINE
  5
1136
330
1E
100
AcDbEntity
  8
0
100
AcDbLine
 10
222.0016
 20
0.148067
 30
0.0
 11
223.9046
 21
0.148092
 31
0.0
  0
LINE
  5
1137
330
1E
100
AcDbEntity
  8
0
100
AcDbLine
 10
223.9046
 20
0.148041
 30
0.0
 11
229.3239
 21
0.14802
 31
0.0
  0
LINE
  5
1138
330
1E
100
AcDbEntity
  8
0
100
AcDbLine
 10
237.4345
 20
0.148128
 30
0.0
 11
247.0016
 21
0.148133
 31
0.0
  0
LINE
  5
1139
330
1E
100
AcDbEntity
  8
0
100
AcDbLine
 10
247.0016
 20
46.1696
 30
0.0
 11
247.767
 21
46.0174
 31
0.0
  0
LINE
  5
113A
330
1E
100
AcDbEntity
  8
0
100
AcDbLine
 10
246.2362
 20
46.0174
 30
0.0
 11
247.0016
 21
46.1696
 31
0.0
  0
LINE
  5
113B
330
1E
100
AcDbEntity
  8
0
100
AcDbLine
 10
222.0016
 20
46.168008681482
 30
0.0
 11
222.0016
 21
0.148067
 31
0.0
  0
LINE
  5
113C
330
1E
100
AcDbEntity
  8
0
100
AcDbLine
 10
220.0031
 20
46.0174
 30
0.0
 11
220.0032
 21
46.1696
 31
0.0
  0
LINE
  5
113D
330
1E
100
AcDbEntity
  8
0
100
AcDbLine
 10
222.0016
 20
0.148067
 30
0.0
 11
222.0016
 21
46.168008681482
 31
0.0
  0
LINE
  5
113E
330
1E
100
AcDbEntity
  8
0
100
AcDbLine
 10
264.6793
 20
0.14802
 30
0.0
 11
270.0986
 21
0.148041
 31
0.0
  0
LINE
  5
113F
330
1E
100
AcDbEntity
  8
0
100
AcDbLine
 10
264.6793
 20
0.148114
 30
0.0
 11
270.0986
 21
0.148092
 31
0.0
  0
LINE
  5
1140
330
1E
100
AcDbEntity
  8
0
100
AcDbLine
 10
264.6793
 20
50.1481
 30
0.0
 11
270.0986
 21
50.1481
 31
0.0
  0
LINE
  5
1141
330
1E
100
AcDbEntity
  8
0
100
AcDbLine
 10
264.6793
 20
0.148114
 30
0.0
 11
270.0986
 21
0.148092
 31
0.0
  0
LINE
  5
1142
330
1E
100
AcDbEntity
  8
0
100
AcDbLine
 10
264.6793
 20
0.14802
 30
0.0
 11
270.0986
 21
0.148041
 31
0.0
  0
LINE
  5
1143
330
1E
100
AcDbEntity
  8
0
100
AcDbLine
 10
237.4345
 20
0.148005
 30
0.0
 11
247.0016
 21
0.148
 31
0.0
  0
LINE
  5
1144
330
1E
100
AcDbEntity
  8
0
100
AcDbLine
 10
237.4345
 20
0.148128
 30
0.0
 11
247.0016
 21
0.148133
 31
0.0
  0
LINE
  5
1145
330
1E
100
AcDbEntity
  8
0
100
AcDbLine
 10
223.9046
 20
0.148041
 30
0.0
 11
229.3239
 21
0.14802
 31
0.0
  0
LINE
  5
1146
330
1E
100
AcDbEntity
  8
0
100
AcDbLine
 10
222.0016
 20
0.148067
 30
0.0
 11
223.9046
 21
0.148092
 31
0.0
  0
LINE
  5
1147
330
1E
100
AcDbEntity
  8
0
100
AcDbLine
 10
222.0016
 20
0.148067
 30
0.0
 11
223.9046
 21
0.148041
 31
0.0
  0
LINE
  5
1148
330
1E
100
AcDbEntity
  8
0
100
AcDbLine
 10
229.3239
 20
0.14802
 30
0.0
 11
237.4345
 21
0.148005
 31
0.0
  0
LINE
  5
1149
330
1E
100
AcDbEntity
  8
0
100
AcDbLine
 10
223.9046
 20
0.148092
 30
0.0
 11
229.3239
 21
0.148114
 31
0.0
  0
LINE
  5
114A
330
1E
100
AcDbEntity
  8
0
100
AcDbLine
 10
229.3239
 20
0.148114
 30
0.0
 11
237.4345
 21
0.148128
 31
0.0
  0
LINE
  5
114B
330
1E
100
AcDbEntity
  8
0
100
AcDbLine
 10
247.0016
 20
0.148133
 30
0.0
 11
256.5687
 21
0.148128
 31
0.0
  0
LINE
  5
114C
330
1E
100
AcDbEntity
  8
0
100
AcDbLine
 10
256.5687
 20
0.148128
 30
0.0
 11
264.6793
 21
0.148114
 31
0.0
  0
LINE
  5
114D
330
1E
100
AcDbEntity
  8
0
100
AcDbLine
 10
256.5687
 20
0.148005
 30
0.0
 11
264.6793
 21
0.14802
 31
0.0
  0
LINE
  5
114E
330
1E
100
AcDbEntity
  8
0
100
AcDbLine
 10
247.0016
 20
0.148
 30
0.0
 11
256.5687
 21
0.148005
 31
0.0
  0
LINE
  5
114F
330
1E
100
AcDbEntity
  8
0
100
AcDbLine
 10
270.0986
 20
0.148092
 30
0.0
 11
272.0016
 21
0.148067
 31
0.0
  0
LINE
  5
1150
330
1E
100
AcDbEntity
  8
0
100
AcDbLine
 10
270.0986
 20
0.148041
 30
0.0
 11
272.0016
 21
0.148067
 31
0.0
  0
ENDSEC
  0
SECTION
  2
OBJECTS
  0
DICTIONARY
  5
C
330
0
100
AcDbDictionary
281
     1
  3
ACAD_GROUP
350
D
  3
ACAD_LAYOUT
350
19
  3
ACAD_MLEADERSTYLE
350
1153
  3
ACAD_MLINESTYLE
350
16
  3
ACAD_PLOTSETTINGS
350
18
  3
ACAD_PLOTSTYLENAME
350
E
  3
ACAD_SCALELIST
350
5FD
  3
ACDBVARIABLEDICTIONARY
350
5D4
  3
DWGPROPS
350
1156
  0
DICTIONARY
  5
D
102
{ACAD_REACTORS
330
C
102
}
330
C
100
AcDbDictionary
281
     1
  0
DICTIONARY
  5
19
102
{ACAD_REACTORS
330
C
102
}
330
C
100
AcDbDictionary
281
     1
  3
Layout1
350
5FC
  3
Model
350
5FB
  0
DICTIONARY
  5
1153
102
{ACAD_REACTORS
330
C
102
}
330
C
100
AcDbDictionary
281
     1
  0
DICTIONARY
  5
16
102
{ACAD_REACTORS
330
C
102
}
330
C
100
AcDbDictionary
281
     1
  3
STANDARD
350
17
  0
DICTIONARY
  5
18
102
{ACAD_REACTORS
330
C
102
}
330
C
100
AcDbDictionary
281
     1
  0
ACDBDICTIONARYWDFLT
  5
E
102
{ACAD_REACTORS
330
C
102
}
330
C
100
AcDbDictionary
281
     1
  3
Normal
350
F
100
AcDbDictionaryWithDefault
340
F
  0
DICTIONARY
  5
5FD
102
{ACAD_REACTORS
330
C
102
}
330
C
100
AcDbDictionary
281
     1
  3
A0
350
5FE
  3
A1
350
5FF
  3
A2
350
600
  3
A3
350
601
  3
A4
350
602
  3
A5
350
603
  3
A6
350
604
  3
A7
350
605
  3
A8
350
606
  3
A9
350
607
  3
B0
350
608
  3
B1
350
609
  3
B2
350
60A
  3
B3
350
60B
  3
B4
350
60C
  3
B5
350
60D
  3
B6
350
60E
  3
B7
350
60F
  3
B8
350
610
  3
B9
350
611
  3
C0
350
612
  3
C1
350
613
  3
C2
350
614
  3
C3
350
615
  3
C4
350
616
  3
C5
350
617
  3
C6
350
618
  3
C7
350
619
  3
C8
350
61A
  3
C9
350
61B
  3
D0
350
61C
  3
D1
350
61D
  3
D2
350
61E
  0
DICTIONARY
  5
5D4
102
{ACAD_REACTORS
330
C
102
}
330
C
100
AcDbDictionary
281
     1
  3
CANNOSCALE
350
1154
  3
DIMASSOC
350
5D5
  0
XRECORD
  5
1156
102
{ACAD_REACTORS
330
C
102
}
330
C
100
AcDbXrecord
280
     1
  1
DWGPROPS COOKIE
  2

  3

  4

  6

  7

  8
MARTIN
  9

300
=
301
=
302
=
303
=
304
=
305
=
306
=
307
=
308
=
309
=
 40
0.0
 41
2454690.746994896
 42
2456209.637956632
  1

 90
        0
  0
LAYOUT
  5
5FC
102
{ACAD_REACTORS
330
19
102
}
330
19
100
AcDbPlotSettings
  1

  2
none_device
  4

  6

 40
0.0
 41
0.0
 42
0.0
 43
0.0
 44
0.0
 45
0.0
 46
0.0
 47
0.0
 48
0.0
 49
0.0
140
0.0
141
0.0
142
1.0
143
1.0
 70
   688
 72
     0
 73
     0
 74
     5
  7

 75
    16
147
1.0
148
0.0
149
0.0
100
AcDbLayout
  1
Layout1
 70
     1
 71
     1
 10
0.0
 20
0.0
 11
0.0
 21
0.0
 12
0.0
 22
0.0
 32
0.0
 14
0.0
 24
0.0
 34
0.0
 15
0.0
 25
0.0
 35
0.0
146
0.0
 13
0.0
 23
0.0
 33
0.0
 16
1.0
 26
0.0
 36
0.0
 17
0.0
 27
1.0
 37
0.0
 76
     0
330
1A
  0
LAYOUT
  5
5FB
102
{ACAD_REACTORS
330
19
102
}
330
19
100
AcDbPlotSettings
  1

  2
none_device
  4

  6

 40
0.0
 41
0.0
 42
0.0
 43
0.0
 44
0.0
 45
0.0
 46
0.0
 47
0.0
 48
0.0
 49
0.0
140
0.0
141
0.0
142
1.0
143
1.0
 70
   688
 72
     0
 73
     0
 74
     5
  7

 75
    16
147
1.0
148
0.0
149
0.0
100
AcDbLayout
  1
Model
 70
     1
 71
     0
 10
0.0
 20
0.0
 11
0.0
 21
0.0
 12
0.0
 22
0.0
 32
0.0
 14
0.0
 24
0.0
 34
0.0
 15
407.0
 25
202.0909155
 35
0.0
146
0.0
 13
0.0
 23
0.0
 33
0.0
 16
1.0
 26
0.0
 36
0.0
 17
0.0
 27
1.0
 37
0.0
 76
     0
330
1E
331
5D6
  0
MLINESTYLE
  5
17
102
{ACAD_REACTORS
330
16
102
}
330
16
100
AcDbMlineStyle
  2
STANDARD
 70
     0
  3

 62
   256
 51
90.0
 52
90.0
 71
     2
 49
0.5
 62
   256
  6
BYLAYER
 49
-0.5
 62
   256
  6
BYLAYER
  0
ACDBPLACEHOLDER
  5
F
102
{ACAD_REACTORS
330
E
102
}
330
E
  0
SCALE
  5
5FE
102
{ACAD_REACTORS
330
5FD
102
}
330
5FD
100
AcDbScale
 70
     0
300
1:1
140
1.0
141
1.0
290
     1
  0
SCALE
  5
5FF
102
{ACAD_REACTORS
330
5FD
102
}
330
5FD
100
AcDbScale
 70
     0
300
1:2
140
1.0
141
2.0
290
     0
  0
SCALE
  5
600
102
{ACAD_REACTORS
330
5FD
102
}
330
5FD
100
AcDbScale
 70
     0
300
1:4
140
1.0
141
4.0
290
     0
  0
SCALE
  5
601
102
{ACAD_REACTORS
330
5FD
102
}
330
5FD
100
AcDbScale
 70
     0
300
1:5
140
1.0
141
5.0
290
     0
  0
SCALE
  5
602
102
{ACAD_REACTORS
330
5FD
102
}
330
5FD
100
AcDbScale
 70
     0
300
1:8
140
1.0
141
8.0
290
     0
  0
SCALE
  5
603
102
{ACAD_REACTORS
330
5FD
102
}
330
5FD
100
AcDbScale
 70
     0
300
1:10
140
1.0
141
10.0
290
     0
  0
SCALE
  5
604
102
{ACAD_REACTORS
330
5FD
102
}
330
5FD
100
AcDbScale
 70
     0
300
1:16
140
1.0
141
16.0
290
     0
  0
SCALE
  5
605
102
{ACAD_REACTORS
330
5FD
102
}
330
5FD
100
AcDbScale
 70
     0
300
1:20
140
1.0
141
20.0
290
     0
  0
SCALE
  5
606
102
{ACAD_REACTORS
330
5FD
102
}
330
5FD
100
AcDbScale
 70
     0
300
1:30
140
1.0
141
30.0
290
     0
  0
SCALE
  5
607
102
{ACAD_REACTORS
330
5FD
102
}
330
5FD
100
AcDbScale
 70
     0
300
1:40
140
1.0
141
40.0
290
     0
  0
SCALE
  5
608
102
{ACAD_REACTORS
330
5FD
102
}
330
5FD
100
AcDbScale
 70
     0
300
1:50
140
1.0
141
50.0
290
     0
  0
SCALE
  5
609
102
{ACAD_REACTORS
330
5FD
102
}
330
5FD
100
AcDbScale
 70
     0
300
1:100
140
1.0
141
100.0
290
     0
  0
SCALE
  5
60A
102
{ACAD_REACTORS
330
5FD
102
}
330
5FD
100
AcDbScale
 70
     0
300
2:1
140
2.0
141
1.0
290
     0
  0
SCALE
  5
60B
102
{ACAD_REACTORS
330
5FD
102
}
330
5FD
100
AcDbScale
 70
     0
300
4:1
140
4.0
141
1.0
290
     0
  0
SCALE
  5
60C
102
{ACAD_REACTORS
330
5FD
102
}
330
5FD
100
AcDbScale
 70
     0
300
8:1
140
8.0
141
1.0
290
     0
  0
SCALE
  5
60D
102
{ACAD_REACTORS
330
5FD
102
}
330
5FD
100
AcDbScale
 70
     0
300
10:1
140
10.0
141
1.0
290
     0
  0
SCALE
  5
60E
102
{ACAD_REACTORS
330
5FD
102
}
330
5FD
100
AcDbScale
 70
     0
300
100:1
140
100.0
141
1.0
290
     0
  0
SCALE
  5
60F
102
{ACAD_REACTORS
330
5FD
102
}
330
5FD
100
AcDbScale
 70
     0
300
1/128" = 1'-0"
140
0.0078125
141
12.0
290
     0
  0
SCALE
  5
610
102
{ACAD_REACTORS
330
5FD
102
}
330
5FD
100
AcDbScale
 70
     0
300
1/64" = 1'-0"
140
0.015625
141
12.0
290
     0
  0
SCALE
  5
611
102
{ACAD_REACTORS
330
5FD
102
}
330
5FD
100
AcDbScale
 70
     0
300
1/32" = 1'-0"
140
0.03125
141
12.0
290
     0
  0
SCALE
  5
612
102
{ACAD_REACTORS
330
5FD
102
}
330
5FD
100
AcDbScale
 70
     0
300
1/16" = 1'-0"
140
0.0625
141
12.0
290
     0
  0
SCALE
  5
613
102
{ACAD_REACTORS
330
5FD
102
}
330
5FD
100
AcDbScale
 70
     0
300
3/32" = 1'-0"
140
0.09375
141
12.0
290
     0
  0
SCALE
  5
614
102
{ACAD_REACTORS
330
5FD
102
}
330
5FD
100
AcDbScale
 70
     0
300
1/8" = 1'-0"
140
0.125
141
12.0
290
     0
  0
SCALE
  5
615
102
{ACAD_REACTORS
330
5FD
102
}
330
5FD
100
AcDbScale
 70
     0
300
3/16" = 1'-0"
140
0.1875
141
12.0
290
     0
  0
SCALE
  5
616
102
{ACAD_REACTORS
330
5FD
102
}
330
5FD
100
AcDbScale
 70
     0
300
1/4" = 1'-0"
140
0.25
141
12.0
290
     0
  0
SCALE
  5
617
102
{ACAD_REACTORS
330
5FD
102
}
330
5FD
100
AcDbScale
 70
     0
300
3/8" = 1'-0"
140
0.375
141
12.0
290
     0
  0
SCALE
  5
618
102
{ACAD_REACTORS
330
5FD
102
}
330
5FD
100
AcDbScale
 70
     0
300
1/2" = 1'-0"
140
0.5
141
12.0
290
     0
  0
SCALE
  5
619
102
{ACAD_REACTORS
330
5FD
102
}
330
5FD
100
AcDbScale
 70
     0
300
3/4" = 1'-0"
140
0.75
141
12.0
290
     0
  0
SCALE
  5
61A
102
{ACAD_REACTORS
330
5FD
102
}
330
5FD
100
AcDbScale
 70
     0
300
1" = 1'-0"
140
1.0
141
12.0
290
     0
  0
SCALE
  5
61B
102
{ACAD_REACTORS
330
5FD
102
}
330
5FD
100
AcDbScale
 70
     0
300
1-1/2" = 1'-0"
140
1.5
141
12.0
290
     0
  0
SCALE
  5
61C
102
{ACAD_REACTORS
330
5FD
102
}
330
5FD
100
AcDbScale
 70
     0
300
3" = 1'-0"
140
3.0
141
12.0
290
     0
  0
SCALE
  5
61D
102
{ACAD_REACTORS
330
5FD
102
}
330
5FD
100
AcDbScale
 70
     0
300
6" = 1'-0"
140
6.0
141
12.0
290
     0
  0
SCALE
  5
61E
102
{ACAD_REACTORS
330
5FD
102
}
330
5FD
100
AcDbScale
 70
     0
300
1'-0" = 1'-0"
140
12.0
141
12.0
290
     0
  0
DICTIONARYVAR
  5
1154
102
{ACAD_REACTORS
330
5D4
102
}
330
5D4
100
DictionaryVariables
280
     0
  1
1:1
  0
DICTIONARYVAR
  5
5D5
102
{ACAD_REACTORS
330
5D4
102
}
330
5D4
100
DictionaryVariables
280
     0
  1
1
  0
ENDSEC
  0
SECTION
  2
THUMBNAILIMAGE
 90
    16364
310
28000000B40000005500000001000800000000000000000000000000000000000000000000000000FFFFFF000000FF0000FFFF0000FF0000FFFF0000FF000000FF00FF000000000080808000C0C0C0000000FF007F7FFF000000A5005252A50000007F003F3F7F0000004C0026264C000000260013132600003FFF007F9FFF
310
000029A5005267A500001F7F003F4F7F0000134C00262F4C000009260013172600007FFF007FBFFF000052A500527CA500003F7F003F5F7F0000264C0026394C0000132600131C260000BFFF007FDFFF00007CA5005291A500005F7F003F6F7F0000394C0026424C00001C26001321260000FFFF007FFFFF0000A5A50052A5
310
A500007F7F003F7F7F00004C4C00264C4C00002626001326260000FFBF007FFFDF0000A57C0052A59100007F5F003F7F6F00004C3900264C420000261C001326210000FF7F007FFFBF0000A5520052A57C00007F3F003F7F5F00004C2600264C39000026130013261C0000FF3F007FFF9F0000A5290052A56700007F1F003F
310
7F4F00004C1300264C2F00002609001326170000FF00007FFF7F0000A5000052A55200007F00003F7F3F00004C0000264C260000260000132613003FFF00009FFF7F0029A5000067A552001F7F00004F7F3F00134C00002F4C260009260000172613007FFF0000BFFF7F0052A500007CA552003F7F00005F7F3F00264C0000
310
394C2600132600001C261300BFFF0000DFFF7F007CA5000091A552005F7F00006F7F3F00394C0000424C26001C26000021261300FFFF0000FFFF7F00A5A50000A5A552007F7F00007F7F3F004C4C00004C4C26002626000026261300FFBF0000FFDF7F00A57C0000A59152007F5F00007F6F3F004C3900004C422600261C00
310
0026211300FF7F0000FFBF7F00A5520000A57C52007F3F00007F5F3F004C2600004C39260026130000261C1300FF3F0000FF9F7F00A5290000A56752007F1F00007F4F3F004C1300004C2F26002609000026171300FF000000FF7F7F00A5000000A55252007F0000007F3F3F004C0000004C2626002600000026131300FF00
310
3F00FF7F9F00A5002900A55267007F001F007F3F4F004C0013004C262F002600090026131700FF007F00FF7FBF00A5005200A5527C007F003F007F3F5F004C0026004C2639002600130026131C00FF00BF00FF7FDF00A5007C00A55291007F005F007F3F6F004C0039004C26420026001C0026132100FF00FF00FF7FFF00A5
310
00A500A552A5007F007F007F3F7F004C004C004C264C002600260026132600BF00FF00DF7FFF007C00A5009152A5005F007F006F3F7F0039004C0042264C001C002600211326007F00FF00BF7FFF005200A5007C52A5003F007F005F3F7F0026004C0039264C00130026001C1326003F00FF009F7FFF002900A5006752A500
310
1F007F004F3F7F0013004C002F264C000900260017132600000000002D2D2D005B5B5B0089898900B7B7B700B3B3B30000000000000000000000000000000000000000000000000000000000000000000000000000000000000000000000000000000000000000000000000000000000000000000000000000000000000000
310
00000000000000000000000000000000000000000000000000000000000000000000000000000000000000000000000000000000000000000000000000000000000000000000000000000000000000000000000000000000000000000000000000000000000000000000000000000000000000000000000000000000000000
310
00000000000000000000000000000000000000000000000000000000000000000000000000000000000000000000000000000000000000000000000000000000000000000000000000000000000000000000000000000000000000000000000000000000000000000000000000000000000000000000000000000000000000
310
00000000000000000000000000000000000000000000000000000000000000000000000000000000000000000000000000000000000000000000000000000000000000000000000000000000000000000000000000000000000000000000000000000000000000000000000000000000000000000000000000000000000000
310
00000000000000000000000000000000000000000000000000000000000000000000000000000000000000000000000000000000000000000000000000000000000000000000000000000000000000000000000000000000000000000007070707070707070707070707070707070707070000000000000000000000000000
310
00000000000707070707070707070707070707070707070707070707070707000000000000000000000000000000000000000707070707070707070707070707070707070707000000000000000000000000000000000000000707070707070707070707070707070707070707070707070707000000000000000000000000
310
00000000000000000000000000000000000000070000000000000000000000000000000000000700000000000000000000000000000000000000070000000000000000000000000000000000000000000000000700000000000000000000000000000000000000070000000000000000000000000000000000000700000000
310
00000000000000000000000000000007000000000000000000000000000000000000000000000000000700000000000000000000000000000000000000000000000000000000000007000000000000000000000000000000000000070000000000000000000000000000000000000007000000000000000000000000000000
310
00000000000000000007000000000000000000000000000000000000000700000000000000000000000000000000000007000000000000000000000000000000000000000700000000000000000000000000000000000000000000000000070000000000000000000000000000000000000000000000000000000000000700
310
00000000000000000000000000000000000700000000000000000000000000000000000000070000000000000000000000000000000000000000000000000700000000000000000000000000000000000000070000000000000000000000000000000000000700000000000000000000000000000000000000070707070707
310
07070707070707070707070707070707070707070700000000000000000000000000000000000000000000000000000000000007000000000000000000000000000000000000070000000000000000000000000000000000000007000000000000000000000000000000000000000000000000070000000000000000000000
310
00000000000000000700000000000000000000000000000000000007000000000000000000000000000000000000000000000000000707000000000000000000000007070000000000000000000000000000000000000000000000000000000000000000000000000700000000000000000000000000000000000007000000
310
00000000000000000000000000000000070000000000000000000000000000000000000000000000000700000000000000000000000000000000000000070000000000000000000000000000000000000700000000000000000000000000000000000000000000000000000700000000000000000000000700000000000000
310
00000000000000000000000000000000000000000000000000000000000007000000000000000000000000000000000000070000000000000000000000000000000000000007000000000000000000000000000000000000000000000000070000000000000000000000000000000000000007000000000000000000000000
310
00000000000007000000000000000000000000000000000000000000000000000007000000000000000000000007000000000000000000000000000000000000000000000000000000000000000000000000000700000000000000000000000000000000000007000000000000000000000000000000000000000700000000
310
00000000000000000000000000000000000000000700000000000000000000000000000000000000070000000000000000000000000000000000000700000000000000000000000000000000000000000000000000000700000000000000000000000700000000000000000000000000000000000000000000000000000000
310
00000000000000000007000000000000000000000000000000000000070000000000000000000000000000000000000007000000000000000000000000000000000000000000000000070000000000000000000000000000000000000007000000000000000000000000000000000000070000000000000000000000000000
310
00000000000000000000000007000000000000000000000007000000000000000000000000000000000000000000000000000000000000000000000000000700000000000000000000000000000000000007000000000000000000000000000000000000000700000000000000000000000000000000000000000000000007
310
00000000000000000000000000000000000000070000000000000000000000000000000000000700000000000000000000000000000000000000000000000000000700000000000000000000000700000000000000000000000000000000000000000000000000000000000000000000000000070000000000000000000000
310
00000000000000070000000000000000000000000000000000000007000000000000000000000000000000000000000000000000070000000000000000000000000000000000000007000000000000000000000000000000000000070000000000000000000000000000000000000000000000000000070000000000000000
310
00000007000000000000000000000000000000000000000000000000000000000000000000000000000700000000000000000000000000000000000007000000000000000000000000000000000000000700000000000000000000000000000000000000000000000007000000000000000000000000000000000000000700
310
00000000000000000000000000000000000700000000000000000000000000000000000000000000000000000700000000000000000000000700000000000000000000000000000000000000000000000000000000000000000000000000070000000000000000000000000000000000000700000000000000000000000000
310
00000000000007000000000000000000000000000000000000000000000000070000000000000000000000000000000000000007000000000000000000000000000000000000070000000000000000000000000000000000000000000000000000070000000000000000000000070000000000000000000000000000000000
310
00000000000000000000000000000000000000000700000000000000000000000000000000000007000000000000000000000000000000000000000700000000000000000000000000000000000000000000000007000000000000000000000000000000000000000700000000000000000000000000000000000007000000
310
00000000000000000000000000000000000000000000000700000707070707070700000700000000000000000000000000000000000000000000000000000000000000000000000000070000000000000000000000000000000000000700000000000000000000000000000000000000070000000000000000000000000000
310
00000000000000000000070000000000000000000000000000000000000007000000000000000000000000000000000000070000000000000000000000000000000000000000000000000000070007070000000007070700070000000000000000000000000000000000000000000000000000000000000000000000000007
310
00000000000000000000000000000000000007000000000000000000000000000000000000000700000000000000000000000000000000000000000000000007000000000000000000000000000000000000000700000000000000000000000000000000000007000000000000000000000000000000000000000000000000
310
00000707000000000000000000070700000000000000000000000000000000000000000000000000000000000000000000000007070000000000000007070700000000000000000707000000000000000000000000000000000000070000000000000000000000000000000000000000000000000700000000000000000000
310
00000000000000000707000000000000000007070000000000000000070700000000000000000000000000000000000000000000000000070000000000000000000000070000000000000000000000000000000000000000000000000000000000000000000000000707000000000000000707070000000000000000070700
310
00000000000000000000000000000000000700000000000000000000000000000000000000000000000700000000000000000000000000000000000000070700000000000000000707000000000000000007070000000000000000000000000000000000000000000000000007000000000000000000000007000000000000
310
00000000000000000000000000000000000000000000000000000000000000070000000000000000000000000000000000000700000000000000000000000000000000000000000700000000000000000000000000000000000000000000070000000000000000000000000000000000000000070000000000000000000000
310
00000000000000070000000000000000000000000000000000000000000000000000070000000000000000000000070000000000000000000000000000000000000000000000000000000000000000000000000007070707070707070707070707070707070707070000000000000000000000000000000000000000070000
310
00000000000000000000000000000000000000000700000000000000000000000000000000000000000707070707070707070707070707070707070707000000000000000000000000000000000000000000000000000007000007070707070707000007000000000000000000000000000000000000000000000000000000
310
00000000000000000000000000000000000000000000000000000000000000000000000000000000000000000000000000000700000000000000000000000000000000000000000000070000000000000000000000000000000000000000000000000000000000000000000000000000000000000000000000000000000000
310
00000000000000000000000000070707000007070700000700070000000000000000000000000000000000000000000000000000000000000000000000000000000000000000000000000000000000000000000000000000000000000000000000000000000000070000000000000000070707070707000000000000000007
310
00000000000000000000000000000000000000000000000000000000000000000000000000000000000000000000000000000000000000000000000000000000000007070007070000000707000707000000000000000000000000000000000000000000000000000000000000000000000000000000000000000000000000
310
00000000000000000000000000000000000000000000000000000000000700000000000000070000000000000700000000000000070000000000000000000000000000000000000000000000000000000000000000000000000000000000000000000000000000000000000000000000000000000000000700070000000000
310
00000700070000000000000000000000000000000000000000000000000000000000000000000000000000000000000000000000000000000000000000000000000000000000000000000000000000000000070000000000070700000000000000000707000000000007000000000000000000000000000000000000000000
310
00000000000000000000000000000000000000000000000000000000000000000000000000000000000000000007070000000000000000000707000000000000000000000000000000000000000000000000000000000000000000000000000000000000000000000000000000000000000000000000000000000000000000
310
00000000000000000700000000000700070707070707070707070000000000070000000000000000000000000000000000000000000000000000000000000000000000000000000000000000000000000000000000000000000000000000000000000707000000000000000000070700000000000000000000000000000000
310
00000000000000000000000000000000000000000000000000000000000000000000000000000000000000000000000000000000000000000000000000070000000000070707070707070707070007000000000700000000000000000000000000000000000000000000000000000000000000000000000000000000000000
310
00000000000000000000000000000000000000000000000000070000000000000000000700000000000000000000000000000000000000000000000000000000000000000000000000000000000000000000000000000000000000000000000000000000000000000000000000000000000007000000000007000000000000
310
00000000070000000007000000000000000000000000000000000000000000000000000000000000000000000000000000000000000000000000000000000000000000000000000000000000000007000000000000000000070000000000000000000000000000000000000000000000000000000000000000000000000000
310
00000000000000000000000000000000000000000000000000000000000000000000000000000000070000000000070000000000000000000707000000000700000000000000000000000000000000000000000000000000000000000000000000000000000000000000000000000000000000000000000000000000000000
310
00000000070000000000000000000700000000000000000000000000000000000000000000000000000000000000000000000000000000000000000000000000000000000000000000000000000000000000000000000000000000000007000000000007070700000000000007000700000000070000000000000000000000
310
00000000000000000000000000000000000000000000000000000000000000000000000000000000000000000000000000000000000000000007000000000000000000070000000000000000000000000000000000000000000000000000000000000000000000000000000000000000000000000000000000000000000000
310
00000000000000000000000000000000000000000700000000070000070707070707000007000000000700000000000000000000000000000000000000000000000000000000000000000000000000000000000000000000000000000000000000000000000000000000000000000700000000000000000007000000000000
310
00000000000000000000000000000000000000000000000000000000000000000000000000000000000000000000000000000000000000000000000000000000000000000000000000070000000007000000000000000000000700000000070000000000000000000000000000000000000000000000000000000000000000
310
00000000000000000000000000000000000000000000000000000000000000000000000007000000000000000000070000000000000000000000000000000000000000000000000000000000000000000000000000000000000000000000000000000000000000000000000000000000000000000000000000000000000007
310
00000000070000000000000000000007000000000700000000000000000000000000000000000000000000000000000000000000000000000000000000000000000000000000000000000000000000000000000000000000000700000000000000000007000000000000000000000000000000000000000000000000000000
310
00000000000000000000000000000000000000000000000000000000000000000000000000000000000000000000000000000000000700000007000000000000000000000700000007000000000000000000000000000000000000000000000000000000000000000000000000000000000000000000000000000000000000
310
00000000000000000000000000000007000000000000000000070000000000000000000000000000000000000000000000000000000000000000000000000000000000000000000000000000000000000000000000000000000000000000000000000000000000000000070000000700000000000000000000070000000700
310
00000000000000000000000000000000000000000000000000000000000000000000000000000000000000000000000000000000000000000000000000000000000000000700000000000000000007000000000000000000000000000000000000000000000000000000000000000000000000000000000000000000000000
310
00000000000000000000000000000000000000000000000000000000000000000700000007000000000000000000000700000007000000000000000000000000000000000000000000000000000000000000000000000000000000000000000000000000000000000000000000000000000000000000000000070000000000
310
00000000070000000000000000000000000000000000000000000000000000000000000000000000000000000000000000000000000000000000000000000000000000000000000000000000000000000000000000070000000700000000000000000000070000000700000000000000000000000000000000000000000000
310
00000000000000000000000000000000000000000000000000000000000000000000000000000000000000000000000700000000000000000007000000000000000000000000000000000000000000000000000000000000000000000000000000000000000000000000000000000000000000000000000000000000000000
310
00000000000000000000000700000007000000000000000000000700000007000000000000000000000000000000000000000000000000000000000000000000000000000000000000000000000000000000000000000000000000000000000000000000070000000000000000000700000000000000000000000000000000
310
00000000000000000000000000000000000000000000000000000000000000000000000000000000000000000000000000000000000000000000000000000000070000000700000000000000000000070000000700000000000000000000000000000000000000000000000000000000000000000000000000000000000000
310
00000000000000000000000000000000000000000000000000000700000000000000000007000000000000000000000000000000000000000000000000000000000000000000000000000000000000000000000000000000000000000000000000000000000000000000000000000000000000000007000000070000000000
310
00000000000700000700000000000000000000000000000000000000000000000000000000000000000000000000000000000000000000000000000000000000000000000000000000000000000000070000000000000000000700000000000000000000000000000000000000000000000000000000000000000000000000
310
00000000000000000000000000000000000000000000000000000000000000000000000000000000000000000700000700000000000000000000070000070000000000000000000000000000000000000000000000000000000000000000000000000000000000000000000000000000000000000000000000000000000000
310
00000000000700000000000000000007000000000000000000000000000000000000000000000000000000000000000000000000000000000000000000000000000000000000000000000000000000000000000000000000000000000000000000070000070000000000000000000007000007000000000000000000000000
310
00000000000000000000000000000000000000000000000000000000000000000000000000000000000000000000000000000000000000000000070000000000000000000700000000000000000000000000000000000000000000000000000000000000000000000000000000000000000000000000000000000000000000
310
00000000000000000000000000000000000000000000000700070000000000000000000000070000070000000000000000000000000000000000000000000000000000000000000000000000000000000000000000000000000000000000000000000000000000000000000000000007000000000000000000070000000000
310
00000000000000000000000000000000000000000000000000000000000000000000000000000000000000000000000000000000000000000000000000000000000000000000000000000000070007000000000000000000000000070007000000000000000000000000000000000000000000000000000000000000000000
310
00000000000000000000000000000000000000000000000000000000000000000000000000070000000000000000000700000000000000000000000000000000000000000000000000000000000000000000000000000000000000000000000000000000000000000000000000000000000000000000000000000000000000
310
00000700000000000000000000000000000700070000000000000000000000000000000000000000000000000000000000000000000000000000000000000000000000000000000000000000000000000000000000000000000007000000000000000000070000000000000000000000000000000000000000000000000000
310
00000000000000000000000000000000000000000000000000000000000000000000000000000000000000000000000000000000000000070000000000000000000000000000000700000000000000000000000000000000000000000000000000000000000000000000000000000000000000000000000000000000000000
310
00000000000000000000000000000000070000000000000000000700000000000000000000000000000000000000000000000000000000000000000000000000000000000000000000000000000000000000000000000000000000000000000000000000000000000000000000070000000000000000000000000000070000
310
00000000000000000000000000000000000000000000000000000000000000000000000000000000000000000000000000000000000000000000000000000000000000000007000000000000000000070000000000000000000000000000000000000000000000000000000000000000000000000000000000000000000000
310
00000000000000000000000000000000000000000000000000000000000000000000000707000000000000000000000000000700000000000000000000000000000000000000000000000000000000000000000000000000000000000000000000000000000000000000000000000000000000000000000000000700000007
310
07070000000700000000000000000000000000000000000000000000000000000000000000000000000000000000000000000000000000000000000000000000000000000000000000000000000000000000000000000000000700000000000000000000000007000000000000000000000000000000000000000000000000
310
00000000000000000000000000000000000000000000000000000000000000000000000000000000000000000000000007000007000000070000070000000000000000000000000000000000000000000000000000000000000000000000000000000000000000000000000000000000000000000000000000000000000000
310
00000000000000000000000000000000070700000000000000000707000000000000000000000000000000000000000000000000000000000000000000000000000000000000000000000000000000000000000000000000000000000000000000000000000700070707070707070007000000000000000000000000000000
310
00000000000000000000000000000000000000000000000000000000000000000000000000000000000000000000000000000000000000000000000000000000000000000000000707000000070707000000000000000000000000000000000000000000000000000000000000000000000000000000000000000000000000
310
00000000000000000000000000000000000000000000000000000007070707000000070707070000000000000000000000000000000000000000000000000000000000000000000000000000000000000000000000000000000000000000000000000000000000000000000000000000000000000000000000000000000007
310
07070000000000000000000000000000000000000000000000000000000000000000000000000000000000000000000000000000000000000000000000000000000000000000000000000000000000000707070000000000070707000000000000000000000000000000000000000000000000000000000000000000000000
310
00000000000000000000000000000000000000000000000000000000000000000000000000000000000000000000000000000000000000000000000000000000000000000000000000000000000000000000000000000000000000000000000000000000000000000000000000000000000000000000000000000000000000
310
00000000000007000700000000000700070000000000000000000000000000000000000000000000000000000000000000000000000000000000000000000000000000000000000000000000000000000000000000000000000000000000000000000000000000000000000000000000000000000000000000000000000000
310
00000000000000000000000000000000000000000000000000000000000000000000000000000000000000000000000000000000000000000000000007070000070000070700000000000000000000000000000000000000000000000000000000000000000000000000000000000000000000000000000000000000000000
310
00000000000000000000000000000000000000000000000000000000000000000000000000000000000000000000000000000000000000000000000000000000000000000000000000000000000000000000000000000000000000000000000000000000000000000000000000000000000707070707070707070000000000
310
00000000000000000000000000000000000000000000000000000000000000000000000000000000000000000000000000000000000000000000000000000000000000000000000000000000000000000000000000000000000000000000000000000000000000000000000000000000000000000000000000000000000000
310
00000000000000000000000000000000000000000000000000000000000000000007070707070707070707070707070707070707070700000000000000000000000000000000000000000000000000000000000000000000000000000000000000000000000000000000000000000000000000000000000000000000000000
310
00000000000000000000000000000000000000000000000000000000000000000000000000000000000000000000000000000000000000000000000000000000000000000000000000000000000000000000000007070707070007000707000707000007070000000707070707000000000000000000000000000000000000
310
00000000000000000000000000000000000000000000000000000000000000000000000000000000000000000000000000000000000000000000000000000000000000000000000000000000000000000000000000000000000000000000000000000000000000000000000000000000000000000000000000000000000000
310
00000000000000070707070707070007000007070700000707000700000700070707070707070000000000000000000000000000000000000000000000000000000000000000000000000000000000000000000000000000000000000000000000000000000000000000000000000000000000000000000000000000000000
310
00000000000000000000000000000000000000000000000000000000000000000000000000000000000000000000000000000000000000000000000700070700000707000007070007070007000700000707000007070000070700070000000000000000000000000000000000000000000000000000000000000000000000
310
00000000000000000000000000000000000000000000000000000000000000000000000000000000000000000000000000000000000000000000000000000000000000000000000000000000000000000000000000000000000000000000000000000000000000000000000000000007070700000707000007070000070700
310
07070000070700000707000007070000070707000000000000000000000000000000000000000000000000000000000000000000000000000000000000000000000000000000000000000000000000000000000000000000000000000000000000000000000000000000000000000000000000000000000000000000000000
310
00000000000000000000000000000000000000000000000000000000000000000000000007070700070700000707000007000707070707070707070007000007070000070700070707000000000000000000000000000000000000000000000000000000000000000000000000000000000000000000000000000000000000
310
00000000000000000000000000000000000000000000000000000000000000000000000000000000000000000000000000000000000000000000000000000000000000000000000000000000000000000000000000000000070700000007070000070700070000070707070007070707000007000707000007070000000707
310
00000000000000000000000000000000000000000000000000000000000000000000000000000000000000000000000000000000000000000000000000000000000000000000000000000000000000000000000000000000000000000000000000000000000000000000000000000000000000000000000000000000000000
310
00000000000000000000000000000707070000070000070700000700000000070707070700000000070000070700000700000707070000000000000000000000000000000000000000000000000000000000000000000000000000000000000000000000000000000000000000000000000000000000000000000000000000
310
00000000000000000000000000000000000000000000000000000000000000000000000000000000000000000000000000000000000000000000000000000000000000070707070007070000070700000700000000070707000000000700000707000007070007070707000000000000000000000000000000000000000000
310
00000000000000000000000000000000000000000000000000000000000000000000000000000000000000000000000000000000000000000000000000000000000000000000000000000000000000000000000000000000000000000000000000000000000000000000000000000000000000000000000007070707000700
310
00000707070700000707000707000007070000070707070000000700070707070000000000000000000000000000000000000000000000000000000000000000000000000000000000000000000000000000000000000000000000000000000000000000000000000000000000000000000000000000000000000000000000
310
00000000000000000000000000000000000000000000000000000000000000000000000000000000000000000000070007070700000707000007070007000700000700000700070007070000070700000707070007000000000000000000000000000000000000000000000000000000000000000000000000000000000000
310
00000000000000000000000000000000000000000000000000000000000000000000000000000000000000000000000000000000000000000000000000000000000000000000000000000000000000000000000000000000000000000000000000000007070007000707070007070000070700070700000707000007070000
310
07070007070700070007070000000000000000000000000000000000000000000000000000000000000000000000000000000000000000000000000000000000000000000000000000000000000000000000000000000000000000000000000000000000000000000000000000000000000000000000000000000000000000
310
00000000000000000000000000000000000000000000000000070007000707070007000000070000070700070000000707000007000000070007070700070007000000000000000000000000000000000000000000000000000000000000000000000000000000000000000000000000000000000000000000000000000000
310
00000000000000000000000000000000000000000000000000000000000000000000000000000000000000000000000000000000000000000000000000000000000000000000000000000000000007000007070707070700070700000007070007000000070000000007070007070707070700000700000000000000000000
310
00000000000000000000000000000000000000000000000000000000000000000000000000000000000000000000000000000000000000000000000000000000000000000000000000000000000000000000000000000000000000000000000000000000000000000000000000000000000000000000000000000000000000
310
00000000070000000000070707070707070700000707000007000000070707070707070707000000000007000000000000000000000000000000000000000000000000000000000000000000000000000000000000000000000000000000000000000000000000000000000000000000000000000000000000000000000000
310
00000000000000000000000000000000000000000000000000000000000000000000000000000000000000000000000000000000000000000007000000000000000707070707070707070707070707070707070707070707000000000000000700000000000000000000000000000000000000000000000000000000000000
310
00000000000000000000000000000000000000000000000000000000000000000000000000000000000000000000000000000000000000000000000000000000000000000000000000000000000000000000000000000000000000000000000000000000000000000000000000000700000000000000000000000000000007
310
07070707070700000000000000000000000000000007000000000000000000000000000000000000000000000000000000000000000000000000000000000000000000000000000000000000000000000000000000000000000000000000000000000000000000000000000000000000000000000000000000000000000000
310
00000000000000000000000000000000000000000000000000000000000000000000000007000000000000000000000000000000000000000000000000000000000000000000000000000700000000000000000000000000000000000000000000000000000000000000000000000000000000000000000000000000000000
310
00000000000000000000000000000000000000000000000000000000000000000000000000000000000000000000000000000000000000000000000000000000000000000000000000000000000000000000000000000000000007070000000000000000000000000000000000000000000000000000000000000000000707
310
00000000000000000000000000000000000000000000000000000000000000000000000000000000000000000000000000000000000000000000000000000000000000000000000000000000000000000000000000000000000000000000000000000000000000000000000000000000000000000000000000000000000000
310
00000000000000000000000000000000000707000000000000000000000000000000000000000000000000000000000000000707000000000000000000000000000000000000000000000000000000000000000000000000000000000000000000000000000000000000000000000000000000000000000000000000000000
310
00000000000000000000000000000000000000000000000000000000000000000000000000000000000000000000000000000000000000000000000000000000000000000000000707000000000000000000000000000000000000000000000000000000000007070000000000000000000000000000000000000000000000
310
00000000000000000000000000000000000000000000000000000000000000000000000000000000000000000000000000000000000000000000000000000000000000000000000000000000000000000000000000000000000000000000000000000000000000000000000000000000000000000000000000000000000007
310
07070000000000000000000000000000000000000000000000070707000000000000000000000000000000000000000000000000000000000000000000000000000000000000000000000000000000000000000000000000000000000000000000000000000000000000000000000000000000000000000000000000000000
310
00000000000000000000000000000000000000000000000000000000000000000000000000000000000000000000000000000000000007070707070700000000000000000000000000070707070707000000000000000000000000000000000000000000000000000000000000000000000000000000000000000000000000
310
00000000000000000000000000000000000000000000000000000000000000000000000000000000000000000000000000000000000000000000000000000000000000000000000000000000000000000000000000000000000000000000000000000000000000000000000000000007070707070707070707070707070707
310
07000000000000000000000000000000000000000000000000000000000000000000000000000000000000000000000000000000000000000000000000000000000000000000000000000000000000000000000000000000000000000000000000000000000000000000000000000000000000000000000000000000000000
310
00000000000000000000000000000000000000000000000000000000000000000000000000000000000000000000000000000000000000000000000000000000000000000000000000000000000000000000000000000000000000000000000000000000000000000000000000000000000000000000000000000000000000
310
00000000000000000000000000000000000000000000000000000000000000000000000000000000000000000000000000000000000000000000000000000000000000000000000000000000000000000000000000000000000000000000000000000000000000000000000000000000000000000000000000000000000000
310
00000000000000000000000000000000000000000000000000000000000000000000000000000000000000000000000000000000000000000000000000000000000000000000000000000000000000000000000000000000000000000000000000000000000000000000000000000000000000000000000000000000000000
310
00000000000000000000000000000000000000000000000000000000000000000000000000000000000000000000000000000000000000000000000000000000000000000000000000000000000000000000000000000000000000000000000000000000000000000000000000000000000000000000000000000000000000
310
000000000000000000000000000000000000000000000000000000000000000000000000000000000000000000000000000000000000000000000000000000000000000000000000000000000000000000000000000000000000000000000000000000000000000000000000
  0
ENDSEC
  0
EOF
