  0
SECTION
  2
HEADER
  9
$ACADVER
  1
AC1015
  9
$ACADMAINTVER
 70
     6
  9
$DWGCODEPAGE
  3
ANSI_1252
  9
$INSBASE
 10
0.0
 20
0.0
 30
0.0
  9
$EXTMIN
 10
-5.8268
 20
-0.17
 30
0.0
  9
$EXTMAX
 10
254.8905
 20
201.898
 30
0.0
  9
$LIMMIN
 10
0.0
 20
0.0
  9
$LIMMAX
 10
12.0
 20
9.0
  9
$ORTHOMODE
 70
     0
  9
$REGENMODE
 70
     1
  9
$FILLMODE
 70
     1
  9
$QTEXTMODE
 70
     0
  9
$MIRRTEXT
 70
     1
  9
$LTSCALE
 40
1.0
  9
$ATTMODE
 70
     1
  9
$TEXTSIZE
 40
0.2
  9
$TRACEWID
 40
0.05
  9
$TEXTSTYLE
  7
Standard
  9
$CLAYER
  8
0
  9
$CELTYPE
  6
Continuous
  9
$CECOLOR
 62
   256
  9
$CELTSCALE
 40
1.0
  9
$DISPSILH
 70
     0
  9
$DIMSCALE
 40
1.0
  9
$DIMASZ
 40
0.18
  9
$DIMEXO
 40
0.0625
  9
$DIMDLI
 40
0.38
  9
$DIMRND
 40
0.0
  9
$DIMDLE
 40
0.0
  9
$DIMEXE
 40
0.18
  9
$DIMTP
 40
0.0
  9
$DIMTM
 40
0.0
  9
$DIMTXT
 40
0.18
  9
$DIMCEN
 40
0.09
  9
$DIMTSZ
 40
0.0
  9
$DIMTOL
 70
     0
  9
$DIMLIM
 70
     0
  9
$DIMTIH
 70
     1
  9
$DIMTOH
 70
     1
  9
$DIMSE1
 70
     0
  9
$DIMSE2
 70
     0
  9
$DIMTAD
 70
     0
  9
$DIMZIN
 70
     0
  9
$DIMBLK
  1

  9
$DIMASO
 70
     1
  9
$DIMSHO
 70
     1
  9
$DIMPOST
  1

  9
$DIMAPOST
  1

  9
$DIMALT
 70
     0
  9
$DIMALTD
 70
     2
  9
$DIMALTF
 40
25.4
  9
$DIMLFAC
 40
1.0
  9
$DIMTOFL
 70
     0
  9
$DIMTVP
 40
0.0
  9
$DIMTIX
 70
     0
  9
$DIMSOXD
 70
     0
  9
$DIMSAH
 70
     0
  9
$DIMBLK1
  1

  9
$DIMBLK2
  1

  9
$DIMSTYLE
  2
Standard
  9
$DIMCLRD
 70
     0
  9
$DIMCLRE
 70
     0
  9
$DIMCLRT
 70
     0
  9
$DIMTFAC
 40
1.0
  9
$DIMGAP
 40
0.09
  9
$DIMJUST
 70
     0
  9
$DIMSD1
 70
     0
  9
$DIMSD2
 70
     0
  9
$DIMTOLJ
 70
     1
  9
$DIMTZIN
 70
     0
  9
$DIMALTZ
 70
     0
  9
$DIMALTTZ
 70
     0
  9
$DIMUPT
 70
     0
  9
$DIMDEC
 70
     4
  9
$DIMTDEC
 70
     4
  9
$DIMALTU
 70
     2
  9
$DIMALTTD
 70
     2
  9
$DIMTXSTY
  7
Standard
  9
$DIMAUNIT
 70
     0
  9
$DIMADEC
 70
     0
  9
$DIMALTRND
 40
0.0
  9
$DIMAZIN
 70
     0
  9
$DIMDSEP
 70
    46
  9
$DIMATFIT
 70
     3
  9
$DIMFRAC
 70
     0
  9
$DIMLDRBLK
  1

  9
$DIMLUNIT
 70
     2
  9
$DIMLWD
 70
    -2
  9
$DIMLWE
 70
    -2
  9
$DIMTMOVE
 70
     0
  9
$LUNITS
 70
     2
  9
$LUPREC
 70
     4
  9
$SKETCHINC
 40
0.1
  9
$FILLETRAD
 40
0.0
  9
$AUNITS
 70
     0
  9
$AUPREC
 70
     0
  9
$MENU
  1
.
  9
$ELEVATION
 40
0.0
  9
$PELEVATION
 40
0.0
  9
$THICKNESS
 40
0.0
  9
$LIMCHECK
 70
     0
  9
$CHAMFERA
 40
0.0
  9
$CHAMFERB
 40
0.0
  9
$CHAMFERC
 40
0.0
  9
$CHAMFERD
 40
0.0
  9
$SKPOLY
 70
     0
  9
$TDCREATE
 40
2454745.656335532
  9
$TDUCREATE
 40
2454745.573002199
  9
$TDUPDATE
 40
2456209.593803345
  9
$TDUUPDATE
 40
2456209.510470012
  9
$TDINDWG
 40
0.0122480903
  9
$TDUSRTIMER
 40
0.0122480903
  9
$USRTIMER
 70
     1
  9
$ANGBASE
 50
0.0
  9
$ANGDIR
 70
     0
  9
$PDMODE
 70
     0
  9
$PDSIZE
 40
0.0
  9
$PLINEWID
 40
0.0
  9
$SPLFRAME
 70
     0
  9
$SPLINETYPE
 70
     6
  9
$SPLINESEGS
 70
     8
  9
$HANDSEED
  5
7B8
  9
$SURFTAB1
 70
     6
  9
$SURFTAB2
 70
     6
  9
$SURFTYPE
 70
     6
  9
$SURFU
 70
     6
  9
$SURFV
 70
     6
  9
$UCSBASE
  2

  9
$UCSNAME
  2

  9
$UCSORG
 10
0.0
 20
0.0
 30
0.0
  9
$UCSXDIR
 10
1.0
 20
0.0
 30
0.0
  9
$UCSYDIR
 10
0.0
 20
1.0
 30
0.0
  9
$UCSORTHOREF
  2

  9
$UCSORTHOVIEW
 70
     1
  9
$UCSORGTOP
 10
0.0
 20
0.0
 30
0.0
  9
$UCSORGBOTTOM
 10
0.0
 20
0.0
 30
0.0
  9
$UCSORGLEFT
 10
0.0
 20
0.0
 30
0.0
  9
$UCSORGRIGHT
 10
0.0
 20
0.0
 30
0.0
  9
$UCSORGFRONT
 10
0.0
 20
0.0
 30
0.0
  9
$UCSORGBACK
 10
0.0
 20
0.0
 30
0.0
  9
$PUCSBASE
  2

  9
$PUCSNAME
  2

  9
$PUCSORG
 10
0.0
 20
0.0
 30
0.0
  9
$PUCSXDIR
 10
1.0
 20
0.0
 30
0.0
  9
$PUCSYDIR
 10
0.0
 20
1.0
 30
0.0
  9
$PUCSORTHOREF
  2

  9
$PUCSORTHOVIEW
 70
     0
  9
$PUCSORGTOP
 10
0.0
 20
0.0
 30
0.0
  9
$PUCSORGBOTTOM
 10
0.0
 20
0.0
 30
0.0
  9
$PUCSORGLEFT
 10
0.0
 20
0.0
 30
0.0
  9
$PUCSORGRIGHT
 10
0.0
 20
0.0
 30
0.0
  9
$PUCSORGFRONT
 10
0.0
 20
0.0
 30
0.0
  9
$PUCSORGBACK
 10
0.0
 20
0.0
 30
0.0
  9
$USERI1
 70
     0
  9
$USERI2
 70
     0
  9
$USERI3
 70
     0
  9
$USERI4
 70
     0
  9
$USERI5
 70
     0
  9
$USERR1
 40
0.0
  9
$USERR2
 40
0.0
  9
$USERR3
 40
0.0
  9
$USERR4
 40
0.0
  9
$USERR5
 40
0.0
  9
$WORLDVIEW
 70
     1
  9
$SHADEDGE
 70
     3
  9
$SHADEDIF
 70
    70
  9
$TILEMODE
 70
     1
  9
$MAXACTVP
 70
    64
  9
$PINSBASE
 10
0.0
 20
0.0
 30
0.0
  9
$PLIMCHECK
 70
     0
  9
$PEXTMIN
 10
1.000000000000E+20
 20
1.000000000000E+20
 30
1.000000000000E+20
  9
$PEXTMAX
 10
-1.000000000000E+20
 20
-1.000000000000E+20
 30
-1.000000000000E+20
  9
$PLIMMIN
 10
0.0
 20
0.0
  9
$PLIMMAX
 10
12.0
 20
9.0
  9
$UNITMODE
 70
     0
  9
$VISRETAIN
 70
     1
  9
$PLINEGEN
 70
     0
  9
$PSLTSCALE
 70
     1
  9
$TREEDEPTH
 70
  3020
  9
$CMLSTYLE
  2
Standard
  9
$CMLJUST
 70
     0
  9
$CMLSCALE
 40
1.0
  9
$PROXYGRAPHICS
 70
     1
  9
$MEASUREMENT
 70
     0
  9
$CELWEIGHT
370
    -1
  9
$ENDCAPS
280
     0
  9
$JOINSTYLE
280
     0
  9
$LWDISPLAY
290
     0
  9
$INSUNITS
 70
     0
  9
$HYPERLINKBASE
  1

  9
$STYLESHEET
  1

  9
$XEDIT
290
     1
  9
$CEPSNTYPE
380
     0
  9
$PSTYLEMODE
290
     1
  9
$FINGERPRINTGUID
  2
{218F8859-87A7-4D4E-89E8-67893BC40677}
  9
$VERSIONGUID
  2
{2E4394B4-A389-4FF7-A295-9FF5FE4A39D9}
  9
$EXTNAMES
290
     1
  9
$PSVPSCALE
 40
0.0
  9
$OLESTARTUP
290
     0
  0
ENDSEC
  0
SECTION
  2
CLASSES
  0
CLASS
  1
ACDBDICTIONARYWDFLT
  2
AcDbDictionaryWithDefault
  3
ObjectDBX Classes
 90
        0
280
     0
281
     0
  0
CLASS
  1
ACDBPLACEHOLDER
  2
AcDbPlaceHolder
  3
ObjectDBX Classes
 90
        0
280
     0
281
     0
  0
CLASS
  1
LAYOUT
  2
AcDbLayout
  3
ObjectDBX Classes
 90
        0
280
     0
281
     0
  0
CLASS
  1
DICTIONARYVAR
  2
AcDbDictionaryVar
  3
ObjectDBX Classes
 90
        0
280
     0
281
     0
  0
CLASS
  1
SCALE
  2
AcDbScale
  3
ObjectDBX Classes
 90
     1153
280
     0
281
     0
  0
ENDSEC
  0
SECTION
  2
TABLES
  0
TABLE
  2
VPORT
  5
8
330
0
100
AcDbSymbolTable
 70
     1
  0
VPORT
  5
32A
330
8
100
AcDbSymbolTableRecord
100
AcDbViewportTableRecord
  2
*Active
 70
     0
 10
0.0
 20
0.0
 11
1.0
 21
1.0
 12
124.53185
 22
100.864
 13
0.0
 23
0.0
 14
1.0
 24
1.0
 15
0.0
 25
0.0
 16
0.0
 26
0.0
 36
1.0
 17
0.0
 27
0.0
 37
0.0
 40
206.10936
 41
1.860689655172
 42
50.0
 43
0.0
 44
0.0
 50
0.0
 51
0.0
 71
    16
 72
   100
 73
     1
 74
     3
 75
     0
 76
     0
 77
     0
 78
     0
281
     0
 65
     1
110
0.0
120
0.0
130
0.0
111
1.0
121
0.0
131
0.0
112
0.0
122
1.0
132
0.0
 79
     1
146
0.0
  0
ENDTAB
  0
TABLE
  2
LTYPE
  5
5
330
0
100
AcDbSymbolTable
 70
     1
  0
LTYPE
  5
13
330
5
100
AcDbSymbolTableRecord
100
AcDbLinetypeTableRecord
  2
ByBlock
 70
     0
  3

 72
    65
 73
     0
 40
0.0
  0
LTYPE
  5
14
330
5
100
AcDbSymbolTableRecord
100
AcDbLinetypeTableRecord
  2
ByLayer
 70
     0
  3

 72
    65
 73
     0
 40
0.0
  0
LTYPE
  5
15
330
5
100
AcDbSymbolTableRecord
100
AcDbLinetypeTableRecord
  2
Continuous
 70
     0
  3
Solid line
 72
    65
 73
     0
 40
0.0
  0
ENDTAB
  0
TABLE
  2
LAYER
  5
2
330
0
100
AcDbSymbolTable
 70
     1
  0
LAYER
  5
10
330
2
100
AcDbSymbolTableRecord
100
AcDbLayerTableRecord
  2
0
 70
     0
 62
     7
  6
Continuous
370
    -3
390
F
  0
ENDTAB
  0
TABLE
  2
STYLE
  5
3
330
0
100
AcDbSymbolTable
 70
     1
  0
STYLE
  5
11
330
3
100
AcDbSymbolTableRecord
100
AcDbTextStyleTableRecord
  2
Standard
 70
     0
 40
0.0
 41
1.0
 50
0.0
 71
     0
 42
0.2
  3
txt
  4

  0
ENDTAB
  0
TABLE
  2
VIEW
  5
6
330
0
100
AcDbSymbolTable
 70
     0
  0
ENDTAB
  0
TABLE
  2
UCS
  5
7
330
0
100
AcDbSymbolTable
 70
     0
  0
ENDTAB
  0
TABLE
  2
APPID
  5
9
330
0
100
AcDbSymbolTable
 70
     1
  0
APPID
  5
12
330
9
100
AcDbSymbolTableRecord
100
AcDbRegAppTableRecord
  2
ACAD
 70
     0
  0
ENDTAB
  0
TABLE
  2
DIMSTYLE
  5
A
330
0
100
AcDbSymbolTable
 70
     1
100
AcDbDimStyleTable
  0
DIMSTYLE
105
321
330
A
100
AcDbSymbolTableRecord
100
AcDbDimStyleTableRecord
  2
Standard
 70
     0
340
11
  0
ENDTAB
  0
TABLE
  2
BLOCK_RECORD
  5
1
330
0
100
AcDbSymbolTable
 70
     1
  0
BLOCK_RECORD
  5
1E
330
1
100
AcDbSymbolTableRecord
100
AcDbBlockTableRecord
  2
*Model_Space
340
21
  0
BLOCK_RECORD
  5
1A
330
1
100
AcDbSymbolTableRecord
100
AcDbBlockTableRecord
  2
*Paper_Space
340
1D
  0
ENDTAB
  0
ENDSEC
  0
SECTION
  2
BLOCKS
  0
BLOCK
  5
1F
330
1E
100
AcDbEntity
  8
0
100
AcDbBlockBegin
  2
*Model_Space
 70
     0
 10
0.0
 20
0.0
 30
0.0
  3
*Model_Space
  1
*Model_Space
  0
ENDBLK
  5
20
330
1E
100
AcDbEntity
  8
0
100
AcDbBlockEnd
  0
BLOCK
  5
1B
330
1A
100
AcDbEntity
 67
     1
  8
0
100
AcDbBlockBegin
  2
*Paper_Space
 70
     0
 10
0.0
 20
0.0
 30
0.0
  3
*Paper_Space
  1
*Paper_Space
  0
ENDBLK
  5
1C
330
1A
100
AcDbEntity
 67
     1
  8
0
100
AcDbBlockEnd
  0
ENDSEC
  0
SECTION
  2
ENTITIES
  0
LINE
  5
25
330
1E
100
AcDbEntity
  8
0
100
AcDbLine
 10
0.4095
 20
106.13
 30
0.0
 11
0.9095
 21
106.13
 31
0.0
  0
LINE
  5
26
330
1E
100
AcDbEntity
  8
0
100
AcDbLine
 10
0.4095
 20
106.13
 30
0.0
 11
1.1095
 21
105.83
 31
0.0
  0
LINE
  5
27
330
1E
100
AcDbEntity
  8
0
100
AcDbLine
 10
2.1095
 20
105.83
 30
0.0
 11
109.496976797794
 21
105.83
 31
0.0
  0
LINE
  5
28
330
1E
100
AcDbEntity
  8
0
100
AcDbLine
 10
1.1095
 20
105.83
 30
0.0
 11
1.4095
 21
105.83
 31
0.0
  0
LINE
  5
29
330
1E
100
AcDbEntity
  8
0
100
AcDbLine
 10
1.4095
 20
105.83
 30
0.0
 11
2.1095
 21
105.83
 31
0.0
  0
LINE
  5
2A
330
1E
100
AcDbEntity
  8
0
100
AcDbLine
 10
0.9095
 20
106.13
 30
0.0
 11
2.1095
 21
106.13
 31
0.0
  0
LINE
  5
2B
330
1E
100
AcDbEntity
  8
0
100
AcDbLine
 10
2.1095
 20
106.13
 30
0.0
 11
109.245209855887
 21
106.13
 31
0.0
  0
LINE
  5
2C
330
1E
100
AcDbEntity
  8
0
100
AcDbLine
 10
2.1095
 20
105.83
 30
0.0
 11
109.496976797794
 21
105.83
 31
0.0
  0
LINE
  5
2D
330
1E
100
AcDbEntity
  8
0
100
AcDbLine
 10
0.4095
 20
117.53
 30
0.0
 11
1.1095
 21
117.83
 31
0.0
  0
LINE
  5
2E
330
1E
100
AcDbEntity
  8
0
100
AcDbLine
 10
0.4095
 20
117.53
 30
0.0
 11
0.9095
 21
117.53
 31
0.0
  0
LINE
  5
2F
330
1E
100
AcDbEntity
  8
0
100
AcDbLine
 10
0.4095
 20
117.53
 30
0.0
 11
1.1095
 21
117.83
 31
0.0
  0
LINE
  5
30
330
1E
100
AcDbEntity
  8
0
100
AcDbLine
 10
0.4095
 20
117.53
 30
0.0
 11
0.9095
 21
117.53
 31
0.0
  0
LINE
  5
31
330
1E
100
AcDbEntity
  8
0
100
AcDbLine
 10
0.1095
 20
116.83
 30
0.0
 11
0.4095
 21
117.53
 31
0.0
  0
LINE
  5
32
330
1E
100
AcDbEntity
  8
0
100
AcDbLine
 10
0.1095
 20
106.83
 30
0.0
 11
0.4095
 21
106.13
 31
0.0
  0
LINE
  5
33
330
1E
100
AcDbEntity
  8
0
100
AcDbLine
 10
0.1095
 20
106.83
 30
0.0
 11
0.1095
 21
116.83
 31
0.0
  0
LINE
  5
34
330
1E
100
AcDbEntity
  8
0
100
AcDbLine
 10
1.1095
 20
117.83
 30
0.0
 11
1.4095
 21
117.83
 31
0.0
  0
LINE
  5
35
330
1E
100
AcDbEntity
  8
0
100
AcDbLine
 10
1.4095
 20
117.83
 30
0.0
 11
2.1095
 21
117.83
 31
0.0
  0
LINE
  5
36
330
1E
100
AcDbEntity
  8
0
100
AcDbLine
 10
0.9095
 20
117.53
 30
0.0
 11
2.1095
 21
117.53
 31
0.0
  0
LINE
  5
37
330
1E
100
AcDbEntity
  8
0
100
AcDbLine
 10
0.9095
 20
117.53
 30
0.0
 11
2.1095
 21
117.53
 31
0.0
  0
LINE
  5
3B
330
1E
100
AcDbEntity
  8
0
100
AcDbLine
 10
2.1095
 20
117.83
 30
0.0
 11
99.426299121517
 21
117.83
 31
0.0
  0
LINE
  5
3C
330
1E
100
AcDbEntity
  8
0
100
AcDbLine
 10
2.1095
 20
117.83
 30
0.0
 11
99.426299121517
 21
117.83
 31
0.0
  0
LINE
  5
3D
330
1E
100
AcDbEntity
  8
0
100
AcDbLine
 10
2.1095
 20
117.53
 30
0.0
 11
99.678066063424
 21
117.53
 31
0.0
  0
LINE
  5
3E
330
1E
100
AcDbEntity
  8
0
100
AcDbLine
 10
2.1095
 20
117.53
 30
0.0
 11
99.678066063424
 21
117.53
 31
0.0
  0
LINE
  5
3F
330
1E
100
AcDbEntity
  8
0
100
AcDbLine
 10
2.1095
 20
106.13
 30
0.0
 11
109.245209855887
 21
106.13
 31
0.0
  0
LINE
  5
21B
330
1E
100
AcDbEntity
  8
0
100
AcDbLine
 10
160.1095
 20
105.83
 30
0.0
 11
180.1095
 21
105.83
 31
0.0
  0
LINE
  5
21C
330
1E
100
AcDbEntity
  8
0
100
AcDbLine
 10
142.1095
 20
105.83
 30
0.0
 11
160.1095
 21
105.83
 31
0.0
  0
LINE
  5
21D
330
1E
100
AcDbEntity
  8
0
100
AcDbLine
 10
140.822298679113
 20
105.83
 30
0.0
 11
142.1095
 21
105.83
 31
0.0
  0
LINE
  5
21E
330
1E
100
AcDbEntity
  8
0
100
AcDbLine
 10
140.822298679113
 20
105.83
 30
0.0
 11
240.1095
 21
105.83
 31
0.0
  0
LINE
  5
22B
330
1E
100
AcDbEntity
  8
0
100
AcDbLine
 10
131.003956515917
 20
117.53
 30
0.0
 11
240.1095
 21
117.53
 31
0.0
  0
LINE
  5
23C
330
1E
100
AcDbEntity
  8
0
100
AcDbLine
 10
130.752204152758
 20
117.83
 30
0.0
 11
240.1095
 21
117.83
 31
0.0
  0
LINE
  5
23D
330
1E
100
AcDbEntity
  8
0
100
AcDbLine
 10
130.752204152758
 20
117.83
 30
0.0
 11
240.1095
 21
117.83
 31
0.0
  0
LINE
  5
23E
330
1E
100
AcDbEntity
  8
0
100
AcDbLine
 10
131.003956515917
 20
117.53
 30
0.0
 11
240.1095
 21
117.53
 31
0.0
  0
LINE
  5
23F
330
1E
100
AcDbEntity
  8
0
100
AcDbLine
 10
140.570546315955
 20
106.13
 30
0.0
 11
240.1095
 21
106.13
 31
0.0
  0
LINE
  5
241
330
1E
100
AcDbEntity
  8
0
100
AcDbLine
 10
108.1095
 20
105.83
 30
0.0
 11
110.680562815992
 21
104.419664700337
 31
0.0
  0
LINE
  5
243
330
1E
100
AcDbEntity
  8
0
100
AcDbLine
 10
108.1095
 20
105.83
 30
0.0
 11
110.680562815992
 21
104.419664700337
 31
0.0
  0
LINE
  5
244
330
1E
100
AcDbEntity
  8
0
100
AcDbLine
 10
4.1095
 20
102.83
 30
0.0
 11
10.1095
 21
105.83
 31
0.0
  0
LINE
  5
245
330
1E
100
AcDbEntity
  8
0
100
AcDbLine
 10
3.1095
 20
105.83
 30
0.0
 11
4.1095
 21
102.83
 31
0.0
  0
LINE
  5
249
330
1E
100
AcDbEntity
  8
0
100
AcDbLine
 10
175.4095
 20
-0.17
 30
0.0
 11
178.8095
 21
-0.17
 31
0.0
  0
LINE
  5
26E
330
1E
100
AcDbEntity
  8
0
100
AcDbLine
 10
174.7985
 20
23.655574458321
 30
0.0
 11
175.7765
 21
8.72360851577
 31
0.0
  0
LINE
  5
26F
330
1E
100
AcDbEntity
  8
0
100
AcDbLine
 10
180.1095
 20
105.83
 30
0.0
 11
197.2875
 21
105.83
 31
0.0
  0
LINE
  5
27F
330
1E
100
AcDbEntity
  8
0
100
AcDbLine
 10
191.3095
 20
56.33
 30
0.0
 11
194.6095
 21
56.33
 31
0.0
  0
LINE
  5
280
330
1E
100
AcDbEntity
  8
0
100
AcDbLine
 10
189.8095
 20
56.83
 30
0.0
 11
191.8095
 21
56.83
 31
0.0
  0
LINE
  5
281
330
1E
100
AcDbEntity
  8
0
100
AcDbLine
 10
189.1095
 20
56.83
 30
0.0
 11
189.8095
 21
56.83
 31
0.0
  0
LINE
  5
282
330
1E
100
AcDbEntity
  8
0
100
AcDbLine
 10
189.3095
 20
56.33
 30
0.0
 11
191.3095
 21
56.33
 31
0.0
  0
LINE
  5
285
330
1E
100
AcDbEntity
  8
0
100
AcDbLine
 10
174.1095
 20
-0.17
 30
0.0
 11
175.4095
 21
-0.17
 31
0.0
  0
LINE
  5
2B1
330
1E
100
AcDbEntity
  8
0
100
AcDbLine
 10
194.6095
 20
56.33
 30
0.0
 11
198.9095
 21
56.33
 31
0.0
  0
LINE
  5
2B2
330
1E
100
AcDbEntity
  8
0
100
AcDbLine
 10
198.9095
 20
56.33
 30
0.0
 11
203.8095
 21
56.33
 31
0.0
  0
LINE
  5
2B8
330
1E
100
AcDbEntity
  8
0
100
AcDbLine
 10
219.3095
 20
56.33
 30
0.0
 11
223.6095
 21
56.33
 31
0.0
  0
LINE
  5
2B9
330
1E
100
AcDbEntity
  8
0
100
AcDbLine
 10
214.4095
 20
56.33
 30
0.0
 11
219.3095
 21
56.33
 31
0.0
  0
LINE
  5
2BA
330
1E
100
AcDbEntity
  8
0
100
AcDbLine
 10
209.1095
 20
56.33
 30
0.0
 11
214.4095
 21
56.33
 31
0.0
  0
LINE
  5
2BB
330
1E
100
AcDbEntity
  8
0
100
AcDbLine
 10
203.8095
 20
56.33
 30
0.0
 11
209.1095
 21
56.33
 31
0.0
  0
LINE
  5
2BC
330
1E
100
AcDbEntity
  8
0
100
AcDbLine
 10
223.6095
 20
56.33
 30
0.0
 11
226.9095
 21
56.33
 31
0.0
  0
LINE
  5
2BE
330
1E
100
AcDbEntity
  8
0
100
AcDbLine
 10
229.6095
 20
56.33
 30
0.0
 11
229.6095
 21
10.16077467128
 31
0.0
  0
LINE
  5
2BF
330
1E
100
AcDbEntity
  8
0
100
AcDbLine
 10
226.9095
 20
56.33
 30
0.0
 11
228.9095
 21
56.33
 31
0.0
  0
LINE
  5
2C0
330
1E
100
AcDbEntity
  8
0
100
AcDbLine
 10
191.8095
 20
56.83
 30
0.0
 11
195.0095
 21
56.83
 31
0.0
  0
LINE
  5
2C1
330
1E
100
AcDbEntity
  8
0
100
AcDbLine
 10
195.0095
 20
56.83
 30
0.0
 11
199.2095
 21
56.83
 31
0.0
  0
LINE
  5
2C2
330
1E
100
AcDbEntity
  8
0
100
AcDbLine
 10
199.2095
 20
56.83
 30
0.0
 11
204.0095
 21
56.83
 31
0.0
  0
LINE
  5
2C3
330
1E
100
AcDbEntity
  8
0
100
AcDbLine
 10
219.0095
 20
56.83
 30
0.0
 11
223.2095
 21
56.83
 31
0.0
  0
LINE
  5
2C4
330
1E
100
AcDbEntity
  8
0
100
AcDbLine
 10
214.2095
 20
56.83
 30
0.0
 11
219.0095
 21
56.83
 31
0.0
  0
LINE
  5
2C5
330
1E
100
AcDbEntity
  8
0
100
AcDbLine
 10
209.1095
 20
56.83
 30
0.0
 11
214.2095
 21
56.83
 31
0.0
  0
LINE
  5
2C6
330
1E
100
AcDbEntity
  8
0
100
AcDbLine
 10
204.0095
 20
56.83
 30
0.0
 11
209.1095
 21
56.83
 31
0.0
  0
LINE
  5
2C7
330
1E
100
AcDbEntity
  8
0
100
AcDbLine
 10
223.2095
 20
56.83
 30
0.0
 11
226.4095
 21
56.83
 31
0.0
  0
LINE
  5
2C8
330
1E
100
AcDbEntity
  8
0
100
AcDbLine
 10
226.4095
 20
56.83
 30
0.0
 11
228.4095
 21
56.83
 31
0.0
  0
LINE
  5
2C9
330
1E
100
AcDbEntity
  8
0
100
AcDbLine
 10
221.8535
 20
105.83
 30
0.0
 11
230.6535
 21
105.83
 31
0.0
  0
LINE
  5
2CA
330
1E
100
AcDbEntity
  8
0
100
AcDbLine
 10
210.4875
 20
105.83
 30
0.0
 11
221.8535
 21
105.83
 31
0.0
  0
LINE
  5
2CB
330
1E
100
AcDbEntity
  8
0
100
AcDbLine
 10
197.2875
 20
105.83
 30
0.0
 11
210.4875
 21
105.83
 31
0.0
  0
LINE
  5
2CC
330
1E
100
AcDbEntity
  8
0
100
AcDbLine
 10
228.4095
 20
56.83
 30
0.0
 11
229.1095
 21
56.83
 31
0.0
  0
LINE
  5
2CD
330
1E
100
AcDbEntity
  8
0
100
AcDbLine
 10
229.1095
 20
56.83
 30
0.0
 11
229.6095
 21
56.33
 31
0.0
  0
LINE
  5
2CE
330
1E
100
AcDbEntity
  8
0
100
AcDbLine
 10
228.9095
 20
56.33
 30
0.0
 11
229.6095
 21
56.33
 31
0.0
  0
LINE
  5
2D0
330
1E
100
AcDbEntity
  8
0
100
AcDbLine
 10
232.7315
 20
36.1314
 30
0.0
 11
232.756381000065
 21
37.466920683903
 31
0.0
  0
LINE
  5
2D1
330
1E
100
AcDbEntity
  8
0
100
AcDbLine
 10
232.3655
 20
22.9807
 30
0.0
 11
232.7315
 21
36.1314
 31
0.0
  0
LINE
  5
2D2
330
1E
100
AcDbEntity
  8
0
100
AcDbLine
 10
232.191560727787
 20
9.301296463331
 30
0.0
 11
232.3655
 21
22.9807
 31
0.0
  0
LINE
  5
2D3
330
1E
100
AcDbEntity
  8
0
100
AcDbLine
 10
232.9765
 20
49.2821
 30
0.0
 11
233.9535
 21
62.4327
 31
0.0
  0
LINE
  5
2D5
330
1E
100
AcDbEntity
  8
0
100
AcDbLine
 10
232.947935085869
 20
47.748840341777
 30
0.0
 11
235.6965
 21
52.4822
 31
0.0
  0
LINE
  5
2D6
330
1E
100
AcDbEntity
  8
0
100
AcDbLine
 10
232.947935085869
 20
47.748840341777
 30
0.0
 11
232.9765
 21
49.2821
 31
0.0
  0
LINE
  5
2D7
330
1E
100
AcDbEntity
  8
0
100
AcDbLine
 10
232.756381000065
 20
37.466920683903
 30
0.0
 11
239.9955
 21
49.9982
 31
0.0
  0
LINE
  5
2DA
330
1E
100
AcDbEntity
  8
0
100
AcDbLine
 10
239.9955
 20
49.9982
 30
0.0
 11
254.8885
 21
49.9981
 31
0.0
  0
LINE
  5
2DB
330
1E
100
AcDbEntity
  8
0
100
AcDbLine
 10
254.8885
 20
49.9981
 30
0.0
 11
254.8895
 21
50.1856
 31
0.0
  0
LINE
  5
2DC
330
1E
100
AcDbEntity
  8
0
100
AcDbLine
 10
254.8875
 20
50.1887
 30
0.0
 11
254.8885
 21
49.9981
 31
0.0
  0
LINE
  5
2DD
330
1E
100
AcDbEntity
  8
0
100
AcDbLine
 10
254.8875
 20
50.1887
 30
0.0
 11
254.8875
 21
50.7285
 31
0.0
  0
LINE
  5
2DE
330
1E
100
AcDbEntity
  8
0
100
AcDbLine
 10
254.8895
 20
50.1856
 30
0.0
 11
254.8905
 21
50.7228
 31
0.0
  0
LINE
  5
2E0
330
1E
100
AcDbEntity
  8
0
100
AcDbLine
 10
254.8875
 20
50.7285
 30
0.0
 11
254.8875
 21
50.1887
 31
0.0
  0
LINE
  5
2E1
330
1E
100
AcDbEntity
  8
0
100
AcDbLine
 10
254.8905
 20
50.7228
 30
0.0
 11
254.8905
 21
51.5279
 31
0.0
  0
LINE
  5
2E5
330
1E
100
AcDbEntity
  8
0
100
AcDbLine
 10
230.6535
 20
105.83
 30
0.0
 11
236.1535
 21
105.83
 31
0.0
  0
LINE
  5
2E6
330
1E
100
AcDbEntity
  8
0
100
AcDbLine
 10
234.8095
 20
75.5834
 30
0.0
 11
236.0315
 21
88.7341
 31
0.0
  0
LINE
  5
2E7
330
1E
100
AcDbEntity
  8
0
100
AcDbLine
 10
233.9535
 20
62.4327
 30
0.0
 11
234.8095
 21
75.5834
 31
0.0
  0
LINE
  5
2E9
330
1E
100
AcDbEntity
  8
0
100
AcDbLine
 10
254.8865
 20
51.5351
 30
0.0
 11
254.8875
 21
50.7285
 31
0.0
  0
LINE
  5
2EA
330
1E
100
AcDbEntity
  8
0
100
AcDbLine
 10
254.8865
 20
51.5351
 30
0.0
 11
254.8865
 21
52.4861
 31
0.0
  0
LINE
  5
2EB
330
1E
100
AcDbEntity
  8
0
100
AcDbLine
 10
254.8905
 20
51.5279
 30
0.0
 11
254.8905
 21
50.7228
 31
0.0
  0
LINE
  5
2EC
330
1E
100
AcDbEntity
  8
0
100
AcDbLine
 10
254.8905
 20
51.5279
 30
0.0
 11
254.8905
 21
52.4781
 31
0.0
  0
LINE
  5
2F1
330
1E
100
AcDbEntity
  8
0
100
AcDbLine
 10
254.8865
 20
53.4364
 30
0.0
 11
254.8875
 21
54.2414
 31
0.0
  0
LINE
  5
2F2
330
1E
100
AcDbEntity
  8
0
100
AcDbLine
 10
254.8865
 20
53.4364
 30
0.0
 11
254.8865
 21
52.4861
 31
0.0
  0
LINE
  5
2F3
330
1E
100
AcDbEntity
  8
0
100
AcDbLine
 10
254.8865
 20
52.4861
 30
0.0
 11
254.8865
 21
53.4364
 31
0.0
  0
LINE
  5
2F4
330
1E
100
AcDbEntity
  8
0
100
AcDbLine
 10
254.8865
 20
52.4861
 30
0.0
 11
254.8865
 21
51.5351
 31
0.0
  0
LINE
  5
2F5
330
1E
100
AcDbEntity
  8
0
100
AcDbLine
 10
254.8905
 20
52.4781
 30
0.0
 11
254.8905
 21
51.5279
 31
0.0
  0
LINE
  5
2F6
330
1E
100
AcDbEntity
  8
0
100
AcDbLine
 10
254.8905
 20
52.4781
 30
0.0
 11
254.8905
 21
53.4291
 31
0.0
  0
LINE
  5
2F7
330
1E
100
AcDbEntity
  8
0
100
AcDbLine
 10
254.8905
 20
53.4291
 30
0.0
 11
254.8905
 21
52.4781
 31
0.0
  0
LINE
  5
2F8
330
1E
100
AcDbEntity
  8
0
100
AcDbLine
 10
254.8905
 20
53.4291
 30
0.0
 11
254.8905
 21
54.2357
 31
0.0
  0
LINE
  5
2F9
330
1E
100
AcDbEntity
  8
0
100
AcDbLine
 10
236.1535
 20
105.83
 30
0.0
 11
238.1095
 21
105.83
 31
0.0
  0
LINE
  5
2FA
330
1E
100
AcDbEntity
  8
0
100
AcDbLine
 10
236.0315
 20
88.7341
 30
0.0
 11
238.1095
 21
105.83
 31
0.0
  0
LINE
  5
2FB
330
1E
100
AcDbEntity
  8
0
100
AcDbLine
 10
254.8875
 20
54.2414
 30
0.0
 11
254.8875
 21
54.7786
 31
0.0
  0
LINE
  5
2FC
330
1E
100
AcDbEntity
  8
0
100
AcDbLine
 10
254.8905
 20
54.2357
 30
0.0
 11
254.8905
 21
53.4291
 31
0.0
  0
LINE
  5
2FD
330
1E
100
AcDbEntity
  8
0
100
AcDbLine
 10
254.8875
 20
54.7786
 30
0.0
 11
254.8885
 21
54.9661
 31
0.0
  0
LINE
  5
2FE
330
1E
100
AcDbEntity
  8
0
100
AcDbLine
 10
254.8875
 20
54.7786
 30
0.0
 11
254.8875
 21
54.2414
 31
0.0
  0
LINE
  5
2FF
330
1E
100
AcDbEntity
  8
0
100
AcDbLine
 10
254.8895
 20
54.7755
 30
0.0
 11
254.8905
 21
54.2357
 31
0.0
  0
LINE
  5
300
330
1E
100
AcDbEntity
  8
0
100
AcDbLine
 10
254.8885
 20
54.9661
 30
0.0
 11
254.8895
 21
54.7755
 31
0.0
  0
LINE
  5
301
330
1E
100
AcDbEntity
  8
0
100
AcDbLine
 10
240.1095
 20
117.83
 30
0.0
 11
240.8095
 21
117.83
 31
0.0
  0
LINE
  5
302
330
1E
100
AcDbEntity
  8
0
100
AcDbLine
 10
240.1095
 20
117.53
 30
0.0
 11
241.3095
 21
117.53
 31
0.0
  0
LINE
  5
303
330
1E
100
AcDbEntity
  8
0
100
AcDbLine
 10
240.1095
 20
105.83
 30
0.0
 11
240.8095
 21
105.83
 31
0.0
  0
LINE
  5
304
330
1E
100
AcDbEntity
  8
0
100
AcDbLine
 10
240.8095
 20
105.83
 30
0.0
 11
241.1095
 21
105.83
 31
0.0
  0
LINE
  5
305
330
1E
100
AcDbEntity
  8
0
100
AcDbLine
 10
241.1095
 20
105.83
 30
0.0
 11
241.8095
 21
106.13
 31
0.0
  0
LINE
  5
306
330
1E
100
AcDbEntity
  8
0
100
AcDbLine
 10
241.1095
 20
117.83
 30
0.0
 11
241.8095
 21
117.53
 31
0.0
  0
LINE
  5
307
330
1E
100
AcDbEntity
  8
0
100
AcDbLine
 10
240.8095
 20
117.83
 30
0.0
 11
241.1095
 21
117.83
 31
0.0
  0
LINE
  5
309
330
1E
100
AcDbEntity
  8
0
100
AcDbLine
 10
241.3095
 20
117.53
 30
0.0
 11
241.8095
 21
117.53
 31
0.0
  0
LINE
  5
30B
330
1E
100
AcDbEntity
  8
0
100
AcDbLine
 10
242.1095
 20
116.83
 30
0.0
 11
242.1095
 21
106.83
 31
0.0
  0
LINE
  5
30C
330
1E
100
AcDbEntity
  8
0
100
AcDbLine
 10
242.1095
 20
106.83
 30
0.0
 11
242.1095
 21
116.83
 31
0.0
  0
LINE
  5
30E
330
1E
100
AcDbEntity
  8
0
100
AcDbLine
 10
241.3095
 20
106.13
 30
0.0
 11
241.8095
 21
106.13
 31
0.0
  0
LINE
  5
310
330
1E
100
AcDbEntity
  8
0
100
AcDbLine
 10
240.1095
 20
106.13
 30
0.0
 11
241.3095
 21
106.13
 31
0.0
  0
LINE
  5
311
330
1E
100
AcDbEntity
  8
0
100
AcDbLine
 10
239.9955
 20
54.9661
 30
0.0
 11
254.8885
 21
54.9661
 31
0.0
  0
LINE
  5
312
330
1E
100
AcDbEntity
  8
0
100
AcDbLine
 10
239.0095
 20
54.8671
 30
0.0
 11
239.9955
 21
54.9661
 31
0.0
  0
LINE
  5
313
330
1E
100
AcDbEntity
  8
0
100
AcDbLine
 10
238.0625
 20
54.574
 30
0.0
 11
239.0095
 21
54.8671
 31
0.0
  0
LINE
  5
314
330
1E
100
AcDbEntity
  8
0
100
AcDbLine
 10
237.1925
 20
54.0984
 30
0.0
 11
238.0625
 21
54.574
 31
0.0
  0
LINE
  5
315
330
1E
100
AcDbEntity
  8
0
100
AcDbLine
 10
236.4345
 20
53.4594
 30
0.0
 11
237.1925
 21
54.0984
 31
0.0
  0
LINE
  5
316
330
1E
100
AcDbEntity
  8
0
100
AcDbLine
 10
235.6965
 20
52.4822
 30
0.0
 11
236.4345
 21
53.4594
 31
0.0
  0
LINE
  5
31C
330
1E
100
AcDbEntity
  8
0
100
AcDbLine
 10
229.6095
 20
10.16077467128
 30
0.0
 11
229.6095
 21
56.33
 31
0.0
  0
LINE
  5
325
330
1E
100
AcDbEntity
  8
0
100
AcDbLine
 10
232.947935085869
 20
47.748840341777
 30
0.0
 11
232.756381000065
 21
37.466920683903
 31
0.0
  0
LINE
  5
326
330
1E
100
AcDbEntity
  8
0
100
AcDbLine
 10
241.8095
 20
117.53
 30
0.0
 11
242.1095
 21
116.83
 31
0.0
  0
LINE
  5
327
330
1E
100
AcDbEntity
  8
0
100
AcDbLine
 10
241.8095
 20
106.13
 30
0.0
 11
242.1095
 21
106.83
 31
0.0
  0
LINE
  5
581
330
1E
100
AcDbEntity
  8
0
100
AcDbLine
 10
-5.1253
 20
180.837
 30
0.0
 11
-4.0004
 21
180.313
 31
0.0
  0
LINE
  5
582
330
1E
100
AcDbEntity
  8
0
100
AcDbLine
 10
-5.588
 20
181.054
 30
0.0
 11
-5.1253
 21
180.837
 31
0.0
  0
LINE
  5
583
330
1E
100
AcDbEntity
  8
0
100
AcDbLine
 10
-2.6313
 20
178.571
 30
0.0
 11
-2.242464434094
 21
179.405073451239
 31
0.0
  0
LINE
  5
584
330
1E
100
AcDbEntity
  8
0
100
AcDbLine
 10
-2.6313
 20
178.571
 30
0.0
 11
-1.9699
 21
178.262
 31
0.0
  0
LINE
  5
585
330
1E
100
AcDbEntity
  8
0
100
AcDbLine
 10
-3.603388642761
 20
180.127770805021
 30
0.0
 11
-2.255626082978
 21
179.376840998061
 31
0.0
  0
LINE
  5
586
330
1E
100
AcDbEntity
  8
0
100
AcDbLine
 10
-3.603388642761
 20
180.127770805021
 30
0.0
 11
-2.255626082978
 21
179.376840998061
 31
0.0
  0
LINE
  5
587
330
1E
100
AcDbEntity
  8
0
100
AcDbLine
 10
-0.57706
 20
177.613
 30
0.0
 11
-0.516943393377
 21
177.584961125723
 31
0.0
  0
LINE
  5
588
330
1E
100
AcDbEntity
  8
0
100
AcDbLine
 10
-0.57706
 20
177.613
 30
0.0
 11
-0.516943393377
 21
177.584961125723
 31
0.0
  0
LINE
  5
589
330
1E
100
AcDbEntity
  8
0
100
AcDbLine
 10
-0.823982087106
 20
177.728059871842
 30
0.0
 11
-0.74654
 21
177.692
 31
0.0
  0
LINE
  5
58A
330
1E
100
AcDbEntity
  8
0
100
AcDbLine
 10
-0.823971758408
 20
177.728082026414
 30
0.0
 11
-0.74654
 21
177.692
 31
0.0
  0
LINE
  5
58B
330
1E
100
AcDbEntity
  8
0
100
AcDbLine
 10
-0.20238
 20
177.438
 30
0.0
 11
0.201736906299
 21
178.304801480178
 31
0.0
  0
LINE
  5
58C
330
1E
100
AcDbEntity
  8
0
100
AcDbLine
 10
-0.20238
 20
177.438
 30
0.0
 11
0.94354
 21
176.904
 31
0.0
  0
LINE
  5
58D
330
1E
100
AcDbEntity
  8
0
100
AcDbLine
 10
-1.577370761524
 20
178.079076147496
 30
0.0
 11
-1.408
 21
178.0
 31
0.0
  0
LINE
  5
58E
330
1E
100
AcDbEntity
  8
0
100
AcDbLine
 10
-1.577370761525
 20
178.079076147496
 30
0.0
 11
-1.408
 21
178.0
 31
0.0
  0
LINE
  5
58F
330
1E
100
AcDbEntity
  8
0
100
AcDbLine
 10
-1.9699
 20
178.262
 30
0.0
 11
-1.603197362511
 21
179.048587808673
 31
0.0
  0
LINE
  5
590
330
1E
100
AcDbEntity
  8
0
100
AcDbLine
 10
-1.9699
 20
178.262
 30
0.0
 11
-0.82401
 21
177.728
 31
0.0
  0
LINE
  5
591
330
1E
100
AcDbEntity
  8
0
100
AcDbLine
 10
-1.408
 20
178.0
 30
0.0
 11
-1.017453184317
 21
177.818147100005
 31
0.0
  0
LINE
  5
592
330
1E
100
AcDbEntity
  8
0
100
AcDbLine
 10
-1.408
 20
178.0
 30
0.0
 11
-1.017453184317
 21
177.818147100005
 31
0.0
  0
LINE
  5
593
330
1E
100
AcDbEntity
  8
0
100
AcDbLine
 10
-0.86378
 20
177.747
 30
0.0
 11
-0.493114183266
 21
178.541622190055
 31
0.0
  0
LINE
  5
594
330
1E
100
AcDbEntity
  8
0
100
AcDbLine
 10
-0.86378
 20
177.747
 30
0.0
 11
-0.20238
 21
177.438
 31
0.0
  0
LINE
  5
595
330
1E
100
AcDbEntity
  8
0
100
AcDbLine
 10
-2.0821
 20
179.418
 30
0.0
 11
0.36569
 21
178.277
 31
0.0
  0
LINE
  5
596
330
1E
100
AcDbEntity
  8
0
100
AcDbLine
 10
-4.0004
 20
180.313
 30
0.0
 11
-2.0821
 21
179.418
 31
0.0
  0
LINE
  5
597
330
1E
100
AcDbEntity
  8
0
100
AcDbLine
 10
-4.0004
 20
180.313
 30
0.0
 11
-3.603388642761
 21
180.127770805021
 31
0.0
  0
LINE
  5
598
330
1E
100
AcDbEntity
  8
0
100
AcDbLine
 10
-4.0004
 20
180.313
 30
0.0
 11
-3.603388642761
 21
180.127770805021
 31
0.0
  0
LINE
  5
599
330
1E
100
AcDbEntity
  8
0
100
AcDbLine
 10
0.402511253886
 20
177.156120000022
 30
0.0
 11
0.56786
 21
177.079
 31
0.0
  0
LINE
  5
59A
330
1E
100
AcDbEntity
  8
0
100
AcDbLine
 10
0.402511253886
 20
177.156120000022
 30
0.0
 11
0.56786
 21
177.079
 31
0.0
  0
LINE
  5
59B
330
1E
100
AcDbEntity
  8
0
100
AcDbLine
 10
0.56786
 20
177.079
 30
0.0
 11
0.633054439891
 21
177.048686617825
 31
0.0
  0
LINE
  5
59C
330
1E
100
AcDbEntity
  8
0
100
AcDbLine
 10
0.56786
 20
177.079
 30
0.0
 11
0.633054439891
 21
177.048686617825
 31
0.0
  0
LINE
  5
59D
330
1E
100
AcDbEntity
  8
0
100
AcDbLine
 10
0.94366280501
 20
176.904263410964
 30
0.0
 11
1.23027
 21
176.771
 31
0.0
  0
LINE
  5
59E
330
1E
100
AcDbEntity
  8
0
100
AcDbLine
 10
0.943776120695
 20
176.904506467772
 30
0.0
 11
1.23027
 21
176.771
 31
0.0
  0
LINE
  5
59F
330
1E
100
AcDbEntity
  8
0
100
AcDbLine
 10
0.94354
 20
176.904
 30
0.0
 11
1.305679992574
 21
177.680773231906
 31
0.0
  0
LINE
  5
5A0
330
1E
100
AcDbEntity
  8
0
100
AcDbLine
 10
1.199031512984
 20
177.452017264966
 30
0.0
 11
2.708816670734
 21
176.610813694774
 31
0.0
  0
LINE
  5
5A1
330
1E
100
AcDbEntity
  8
0
100
AcDbLine
 10
1.23027
 20
176.771
 30
0.0
 11
1.47596697609
 21
177.297717761435
 31
0.0
  0
LINE
  5
5A2
330
1E
100
AcDbEntity
  8
0
100
AcDbLine
 10
1.199031512984
 20
177.452017264966
 30
0.0
 11
2.708816670734
 21
176.610813694774
 31
0.0
  0
LINE
  5
5A3
330
1E
100
AcDbEntity
  8
0
100
AcDbLine
 10
0.36569
 20
178.277
 30
0.0
 11
3.67372
 21
176.735
 31
0.0
  0
LINE
  5
5A4
330
1E
100
AcDbEntity
  8
0
100
AcDbLine
 10
0.25878
 20
179.43
 30
0.0
 11
3.56682
 21
177.888
 31
0.0
  0
LINE
  5
5A5
330
1E
100
AcDbEntity
  8
0
100
AcDbLine
 10
-2.3209
 20
180.633
 30
0.0
 11
0.25878
 21
179.43
 31
0.0
  0
LINE
  5
5A6
330
1E
100
AcDbEntity
  8
0
100
AcDbLine
 10
-4.1732
 20
181.497
 30
0.0
 11
-2.3209
 21
180.633
 31
0.0
  0
LINE
  5
5A7
330
1E
100
AcDbEntity
  8
0
100
AcDbLine
 10
-5.3641
 20
182.052
 30
0.0
 11
-4.1732
 21
181.497
 31
0.0
  0
LINE
  5
5A8
330
1E
100
AcDbEntity
  8
0
100
AcDbLine
 10
-5.8268
 20
182.269
 30
0.0
 11
-5.3641
 21
182.052
 31
0.0
  0
LINE
  5
5A9
330
1E
100
AcDbEntity
  8
0
100
AcDbLine
 10
-5.8268
 20
182.269
 30
0.0
 11
3.04827
 21
201.301
 31
0.0
  0
LINE
  5
5AA
330
1E
100
AcDbEntity
  8
0
100
AcDbLine
 10
-5.8268
 20
182.269
 30
0.0
 11
-5.588
 21
181.054
 31
0.0
  0
LINE
  5
5AB
330
1E
100
AcDbEntity
  8
0
100
AcDbLine
 10
1.980483472668
 20
177.524282662233
 30
0.0
 11
2.928734305409
 21
177.082266482184
 31
0.0
  0
LINE
  5
5AC
330
1E
100
AcDbEntity
  8
0
100
AcDbLine
 10
2.50599
 20
176.176
 30
0.0
 11
2.896041169576
 21
177.012179924367
 31
0.0
  0
LINE
  5
5AD
330
1E
100
AcDbEntity
  8
0
100
AcDbLine
 10
2.50599
 20
176.176
 30
0.0
 11
3.16739
 21
175.867
 31
0.0
  0
LINE
  5
5AE
330
1E
100
AcDbEntity
  8
0
100
AcDbLine
 10
2.50599
 20
176.176
 30
0.0
 11
3.65091
 21
175.641
 31
0.0
  0
LINE
  5
5AF
330
1E
100
AcDbEntity
  8
0
100
AcDbLine
 10
2.08614
 20
177.475
 30
0.0
 11
5.26129
 21
175.994
 31
0.0
  0
LINE
  5
5B0
330
1E
100
AcDbEntity
  8
0
100
AcDbLine
 10
1.980483472668
 20
177.524282662233
 30
0.0
 11
2.08614
 21
177.475
 31
0.0
  0
LINE
  5
5B1
330
1E
100
AcDbEntity
  8
0
100
AcDbLine
 10
1.980483472668
 20
177.524282662233
 30
0.0
 11
2.928734305409
 21
177.082266482184
 31
0.0
  0
LINE
  5
5B2
330
1E
100
AcDbEntity
  8
0
100
AcDbLine
 10
1.980483472668
 20
177.524282662233
 30
0.0
 11
2.08614
 21
177.475
 31
0.0
  0
LINE
  5
5B3
330
1E
100
AcDbEntity
  8
0
100
AcDbLine
 10
152.7535
 20
51.4864
 30
0.0
 11
153.1895
 21
51.9408
 31
0.0
  0
LINE
  5
5B4
330
1E
100
AcDbEntity
  8
0
100
AcDbLine
 10
153.1895
 20
51.9408
 30
0.0
 11
154.1345
 21
52.7325
 31
0.0
  0
LINE
  5
5B5
330
1E
100
AcDbEntity
  8
0
100
AcDbLine
 10
152.7065
 20
50.6373
 30
0.0
 11
153.1045
 21
49.4298
 31
0.0
  0
LINE
  5
5B6
330
1E
100
AcDbEntity
  8
0
100
AcDbLine
 10
152.7065
 20
50.6373
 30
0.0
 11
152.7535
 21
51.4864
 31
0.0
  0
LINE
  5
5B7
330
1E
100
AcDbEntity
  8
0
100
AcDbLine
 10
153.1045
 20
49.4298
 30
0.0
 11
165.1685
 21
35.1364
 31
0.0
  0
LINE
  5
5B8
330
1E
100
AcDbEntity
  8
0
100
AcDbLine
 10
153.6595
 20
53.2069
 30
0.0
 11
154.0355
 21
53.5614
 31
0.0
  0
LINE
  5
5B9
330
1E
100
AcDbEntity
  8
0
100
AcDbLine
 10
153.6595
 20
53.2069
 30
0.0
 11
154.602828535095
 21
53.121937959753
 31
0.0
  0
LINE
  5
5BA
330
1E
100
AcDbEntity
  8
0
100
AcDbLine
 10
154.0355
 20
53.5614
 30
0.0
 11
154.9155
 21
54.3155
 31
0.0
  0
LINE
  5
5BB
330
1E
100
AcDbEntity
  8
0
100
AcDbLine
 10
154.9155
 20
54.3155
 30
0.0
 11
156.3395
 21
55.5572
 31
0.0
  0
LINE
  5
5BC
330
1E
100
AcDbEntity
  8
0
100
AcDbLine
 10
156.3395
 20
55.5572
 30
0.0
 11
158.2295
 21
57.1102
 31
0.0
  0
LINE
  5
5BD
330
1E
100
AcDbEntity
  8
0
100
AcDbLine
 10
158.2295
 20
57.1102
 30
0.0
 11
160.4955
 21
59.0177
 31
0.0
  0
LINE
  5
5BE
330
1E
100
AcDbEntity
  8
0
100
AcDbLine
 10
160.4955
 20
59.0177
 30
0.0
 11
162.7995
 21
61.0135
 31
0.0
  0
LINE
  5
5BF
330
1E
100
AcDbEntity
  8
0
100
AcDbLine
 10
162.7995
 20
61.0135
 30
0.0
 11
165.1935
 21
62.966
 31
0.0
  0
LINE
  5
5C0
330
1E
100
AcDbEntity
  8
0
100
AcDbLine
 10
165.6725
 20
34.5157
 30
0.0
 11
182.8875
 21
14.0295
 31
0.0
  0
LINE
  5
5C1
330
1E
100
AcDbEntity
  8
0
100
AcDbLine
 10
165.1935
 20
62.966
 30
0.0
 11
167.4195
 21
64.7853
 31
0.0
  0
LINE
  5
5C2
330
1E
100
AcDbEntity
  8
0
100
AcDbLine
 10
167.4195
 20
64.7853
 30
0.0
 11
169.3495
 21
66.4265
 31
0.0
  0
LINE
  5
5C3
330
1E
100
AcDbEntity
  8
0
100
AcDbLine
 10
169.427088653744
 20
65.48076344926
 30
0.0
 11
169.7335
 21
65.7337
 31
0.0
  0
LINE
  5
5C4
330
1E
100
AcDbEntity
  8
0
100
AcDbLine
 10
169.3495
 20
66.4265
 30
0.0
 11
170.7735
 21
67.6682
 31
0.0
  0
LINE
  5
5C5
330
1E
100
AcDbEntity
  8
0
100
AcDbLine
 10
170.7735
 20
67.6682
 30
0.0
 11
171.6535
 21
68.4222
 31
0.0
  0
LINE
  5
5C6
330
1E
100
AcDbEntity
  8
0
100
AcDbLine
 10
171.938813101317
 20
67.636093027107
 30
0.0
 11
171.9905
 21
68.6885
 31
0.0
  0
LINE
  5
5C7
330
1E
100
AcDbEntity
  8
0
100
AcDbLine
 10
171.6535
 20
68.4222
 30
0.0
 11
171.9905
 21
68.6885
 31
0.0
  0
LINE
  5
5C8
330
1E
100
AcDbEntity
  8
0
100
AcDbLine
 10
3.16739
 20
175.867
 30
0.0
 11
3.541819233982
 21
176.67013307606
 31
0.0
  0
LINE
  5
5C9
330
1E
100
AcDbEntity
  8
0
100
AcDbLine
 10
3.16739
 20
175.867
 30
0.0
 11
3.541819233982
 21
176.67013307606
 31
0.0
  0
LINE
  5
5CA
330
1E
100
AcDbEntity
  8
0
100
AcDbLine
 10
3.16739
 20
175.867
 30
0.0
 11
4.31331
 21
175.333
 31
0.0
  0
LINE
  5
5CB
330
1E
100
AcDbEntity
  8
0
100
AcDbLine
 10
3.65091
 20
175.641
 30
0.0
 11
4.31331
 21
175.333
 31
0.0
  0
LINE
  5
5CC
330
1E
100
AcDbEntity
  8
0
100
AcDbLine
 10
3.67372
 20
176.735
 30
0.0
 11
7.51028
 21
174.945
 31
0.0
  0
LINE
  5
5CD
330
1E
100
AcDbEntity
  8
0
100
AcDbLine
 10
3.56682
 20
177.888
 30
0.0
 11
7.47027
 21
176.068
 31
0.0
  0
LINE
  5
5CE
330
1E
100
AcDbEntity
  8
0
100
AcDbLine
 10
3.04827
 20
201.301
 30
0.0
 11
4.1323
 21
201.898
 31
0.0
  0
LINE
  5
5CF
330
1E
100
AcDbEntity
  8
0
100
AcDbLine
 10
4.31331
 20
175.333
 30
0.0
 11
4.650822531345
 21
176.056948487208
 31
0.0
  0
LINE
  5
5D0
330
1E
100
AcDbEntity
  8
0
100
AcDbLine
 10
4.31331
 20
175.333
 30
0.0
 11
4.455362054006
 21
175.637694967008
 31
0.0
  0
LINE
  5
5D1
330
1E
100
AcDbEntity
  8
0
100
AcDbLine
 10
5.12444
 20
174.403
 30
0.0
 11
5.451533806526
 21
175.104600813061
 31
0.0
  0
LINE
  5
5D2
330
1E
100
AcDbEntity
  8
0
100
AcDbLine
 10
5.12444
 20
174.403
 30
0.0
 11
5.78584
 21
174.095
 31
0.0
  0
LINE
  5
5D3
330
1E
100
AcDbEntity
  8
0
100
AcDbLine
 10
5.12444
 20
174.403
 30
0.0
 11
6.001551838029
 21
173.994261336835
 31
0.0
  0
LINE
  5
5D4
330
1E
100
AcDbEntity
  8
0
100
AcDbLine
 10
4.455362054006
 20
175.637694967008
 30
0.0
 11
6.290934393489
 21
174.614973292078
 31
0.0
  0
LINE
  5
5D5
330
1E
100
AcDbEntity
  8
0
100
AcDbLine
 10
4.455362054006
 20
175.637694967008
 30
0.0
 11
6.290934393489
 21
174.614973292078
 31
0.0
  0
LINE
  5
5D6
330
1E
100
AcDbEntity
  8
0
100
AcDbLine
 10
4.735896023373
 20
176.239427121735
 30
0.0
 11
5.758227470235
 21
175.762444280366
 31
0.0
  0
LINE
  5
5D7
330
1E
100
AcDbEntity
  8
0
100
AcDbLine
 10
5.26129
 20
175.994
 30
0.0
 11
8.96597
 21
174.266
 31
0.0
  0
LINE
  5
5D8
330
1E
100
AcDbEntity
  8
0
100
AcDbLine
 10
5.78584
 20
174.095
 30
0.0
 11
6.091247351285
 21
174.749723061531
 31
0.0
  0
LINE
  5
5D9
330
1E
100
AcDbEntity
  8
0
100
AcDbLine
 10
5.78584
 20
174.095
 30
0.0
 11
6.091247351285
 21
174.749723061531
 31
0.0
  0
LINE
  5
5DA
330
1E
100
AcDbEntity
  8
0
100
AcDbLine
 10
5.78584
 20
174.095
 30
0.0
 11
6.001562735508
 21
173.994284711414
 31
0.0
  0
LINE
  5
5DB
330
1E
100
AcDbEntity
  8
0
100
AcDbLine
 10
6.66284
 20
173.685
 30
0.0
 11
6.874308167268
 21
174.138589261342
 31
0.0
  0
LINE
  5
5DC
330
1E
100
AcDbEntity
  8
0
100
AcDbLine
 10
6.66284
 20
173.685
 30
0.0
 11
7.80776
 21
173.151
 31
0.0
  0
LINE
  5
5DD
330
1E
100
AcDbEntity
  8
0
100
AcDbLine
 10
6.00143
 20
173.994
 30
0.0
 11
6.330666743571
 21
174.700197312117
 31
0.0
  0
LINE
  5
5DE
330
1E
100
AcDbEntity
  8
0
100
AcDbLine
 10
6.00143
 20
173.994
 30
0.0
 11
6.66284
 21
173.685
 31
0.0
  0
LINE
  5
5DF
330
1E
100
AcDbEntity
  8
0
100
AcDbLine
 10
6.85842
 20
174.146
 30
0.0
 11
7.28083134147
 21
175.052052437279
 31
0.0
  0
LINE
  5
5E0
330
1E
100
AcDbEntity
  8
0
100
AcDbLine
 10
6.85842
 20
174.146
 30
0.0
 11
8.18123
 21
173.529
 31
0.0
  0
LINE
  5
5E1
330
1E
100
AcDbEntity
  8
0
100
AcDbLine
 10
6.85842
 20
174.146
 30
0.0
 11
7.213026419493
 21
174.906614072382
 31
0.0
  0
LINE
  5
5E2
330
1E
100
AcDbEntity
  8
0
100
AcDbLine
 10
6.85842
 20
174.146
 30
0.0
 11
7.28083134147
 21
175.052052437279
 31
0.0
  0
LINE
  5
5E3
330
1E
100
AcDbEntity
  8
0
100
AcDbLine
 10
7.808224987035
 20
173.151997375294
 30
0.0
 11
8.11745
 21
173.008
 31
0.0
  0
LINE
  5
5E4
330
1E
100
AcDbEntity
  8
0
100
AcDbLine
 10
8.11745
 20
173.008
 30
0.0
 11
8.335632659217
 21
173.475733399391
 31
0.0
  0
LINE
  5
5E5
330
1E
100
AcDbEntity
  8
0
100
AcDbLine
 10
8.11745
 20
173.008
 30
0.0
 11
8.335632659217
 21
173.475733399391
 31
0.0
  0
LINE
  5
5E6
330
1E
100
AcDbEntity
  8
0
100
AcDbLine
 10
7.808263986631
 20
173.152081027593
 30
0.0
 11
8.11745
 21
173.008
 31
0.0
  0
LINE
  5
5E7
330
1E
100
AcDbEntity
  8
0
100
AcDbLine
 10
7.80776
 20
173.151
 30
0.0
 11
8.019218006211
 21
173.604567466354
 31
0.0
  0
LINE
  5
5E8
330
1E
100
AcDbEntity
  8
0
100
AcDbLine
 10
8.18123
 20
173.529
 30
0.0
 11
8.603750288444
 21
174.435275401301
 31
0.0
  0
LINE
  5
5E9
330
1E
100
AcDbEntity
  8
0
100
AcDbLine
 10
8.18123
 20
173.529
 30
0.0
 11
8.491433970327
 21
174.194365037802
 31
0.0
  0
LINE
  5
5EA
330
1E
100
AcDbEntity
  8
0
100
AcDbLine
 10
8.54335
 20
173.36
 30
0.0
 11
9.361486922777
 21
172.928593934635
 31
0.0
  0
LINE
  5
5EB
330
1E
100
AcDbEntity
  8
0
100
AcDbLine
 10
8.54335
 20
173.36
 30
0.0
 11
9.361486922777
 21
172.928593934635
 31
0.0
  0
LINE
  5
5EC
330
1E
100
AcDbEntity
  8
0
100
AcDbLine
 10
8.193354509096
 20
173.555006193423
 30
0.0
 11
8.54335
 21
173.36
 31
0.0
  0
LINE
  5
5ED
330
1E
100
AcDbEntity
  8
0
100
AcDbLine
 10
8.751172081609
 20
174.366554270828
 30
0.0
 11
9.802995494106
 21
173.876243493751
 31
0.0
  0
LINE
  5
5EE
330
1E
100
AcDbEntity
  8
0
100
AcDbLine
 10
8.751172081609
 20
174.366554270828
 30
0.0
 11
9.802995494106
 21
173.876243493751
 31
0.0
  0
LINE
  5
5EF
330
1E
100
AcDbEntity
  8
0
100
AcDbLine
 10
8.96597
 20
174.266
 30
0.0
 11
13.1332
 21
172.323
 31
0.0
  0
LINE
  5
5F0
330
1E
100
AcDbEntity
  8
0
100
AcDbLine
 10
7.51028
 20
174.945
 30
0.0
 11
11.9423
 21
172.879
 31
0.0
  0
LINE
  5
5F1
330
1E
100
AcDbEntity
  8
0
100
AcDbLine
 10
7.47027
 20
176.068
 30
0.0
 11
11.9682
 21
173.97
 31
0.0
  0
LINE
  5
5F2
330
1E
100
AcDbEntity
  8
0
100
AcDbLine
 10
9.8306
 20
172.209
 30
0.0
 11
10.140105888934
 21
172.872540784132
 31
0.0
  0
LINE
  5
5F3
330
1E
100
AcDbEntity
  8
0
100
AcDbLine
 10
9.8306
 20
172.209
 30
0.0
 11
10.9766
 21
171.674
 31
0.0
  0
LINE
  5
5F4
330
1E
100
AcDbEntity
  8
0
100
AcDbLine
 10
9.16926
 20
172.516
 30
0.0
 11
9.504574917539
 21
173.235716568162
 31
0.0
  0
LINE
  5
5F5
330
1E
100
AcDbEntity
  8
0
100
AcDbLine
 10
9.16926
 20
172.516
 30
0.0
 11
9.8306
 21
172.209
 31
0.0
  0
LINE
  5
5F6
330
1E
100
AcDbEntity
  8
0
100
AcDbLine
 10
9.16926
 20
172.516
 30
0.0
 11
10.3152
 21
171.982
 31
0.0
  0
LINE
  5
5F7
330
1E
100
AcDbEntity
  8
0
100
AcDbLine
 10
9.16926
 20
172.516
 30
0.0
 11
9.361486922777
 21
172.928593934635
 31
0.0
  0
LINE
  5
5F8
330
1E
100
AcDbEntity
  8
0
100
AcDbLine
 10
10.3152
 20
171.982
 30
0.0
 11
10.9766
 21
171.674
 31
0.0
  0
LINE
  5
5F9
330
1E
100
AcDbEntity
  8
0
100
AcDbLine
 10
10.9766
 20
171.674
 30
0.0
 11
11.241954762782
 21
172.242886453102
 31
0.0
  0
LINE
  5
5FA
330
1E
100
AcDbEntity
  8
0
100
AcDbLine
 10
11.12744749159
 20
171.997397603836
 30
0.0
 11
13.804384058796
 21
170.585840883268
 31
0.0
  0
LINE
  5
5FB
330
1E
100
AcDbEntity
  8
0
100
AcDbLine
 10
11.12744749159
 20
171.997397603836
 30
0.0
 11
13.804384058796
 21
170.585840883268
 31
0.0
  0
LINE
  5
5FC
330
1E
100
AcDbEntity
  8
0
100
AcDbLine
 10
11.610756552732
 20
173.033550016032
 30
0.0
 11
11.9423
 21
172.879
 31
0.0
  0
LINE
  5
5FD
330
1E
100
AcDbEntity
  8
0
100
AcDbLine
 10
11.610756552732
 20
173.033550016032
 30
0.0
 11
11.9423
 21
172.879
 31
0.0
  0
LINE
  5
5FE
330
1E
100
AcDbEntity
  8
0
100
AcDbLine
 10
11.9423
 20
172.879
 30
0.0
 11
16.8379
 21
170.596
 31
0.0
  0
LINE
  5
5FF
330
1E
100
AcDbEntity
  8
0
100
AcDbLine
 10
11.9682
 20
173.97
 30
0.0
 11
16.9297
 21
171.657
 31
0.0
  0
LINE
  5
600
330
1E
100
AcDbEntity
  8
0
100
AcDbLine
 10
26.9103
 20
162.447
 30
0.0
 11
27.374
 21
162.231
 31
0.0
  0
LINE
  5
601
330
1E
100
AcDbEntity
  8
0
100
AcDbLine
 10
26.5253
 20
162.626
 30
0.0
 11
26.9103
 21
162.447
 31
0.0
  0
LINE
  5
602
330
1E
100
AcDbEntity
  8
0
100
AcDbLine
 10
26.294
 20
162.735
 30
0.0
 11
26.5253
 21
162.626
 31
0.0
  0
LINE
  5
603
330
1E
100
AcDbEntity
  8
0
100
AcDbLine
 10
26.2134
 20
162.772
 30
0.0
 11
26.294
 21
162.735
 31
0.0
  0
LINE
  5
604
330
1E
100
AcDbEntity
  8
0
100
AcDbLine
 10
29.6941
 20
161.149
 30
0.0
 11
30.1577
 21
160.933
 31
0.0
  0
LINE
  5
605
330
1E
100
AcDbEntity
  8
0
100
AcDbLine
 10
29.1499
 20
161.403
 30
0.0
 11
29.6941
 21
161.149
 31
0.0
  0
LINE
  5
606
330
1E
100
AcDbEntity
  8
0
100
AcDbLine
 10
30.1577
 20
160.933
 30
0.0
 11
30.5418
 21
160.753
 31
0.0
  0
LINE
  5
607
330
1E
100
AcDbEntity
  8
0
100
AcDbLine
 10
30.5418
 20
160.753
 30
0.0
 11
30.7741
 21
160.645
 31
0.0
  0
LINE
  5
608
330
1E
100
AcDbEntity
  8
0
100
AcDbLine
 10
30.8537
 20
160.608
 30
0.0
 11
31.821647969856
 21
161.401831707244
 31
0.0
  0
LINE
  5
609
330
1E
100
AcDbEntity
  8
0
100
AcDbLine
 10
30.7741
 20
160.645
 30
0.0
 11
30.8537
 21
160.608
 31
0.0
  0
LINE
  5
60A
330
1E
100
AcDbEntity
  8
0
100
AcDbLine
 10
30.062
 20
161.671
 30
0.0
 11
30.27326833096
 21
162.124182068187
 31
0.0
  0
LINE
  5
60B
330
1E
100
AcDbEntity
  8
0
100
AcDbLine
 10
32.4945
 20
160.395
 30
0.0
 11
32.6902
 21
160.304
 31
0.0
  0
LINE
  5
60C
330
1E
100
AcDbEntity
  8
0
100
AcDbLine
 10
32.4945
 20
160.395
 30
0.0
 11
32.759944043887
 21
160.964391920926
 31
0.0
  0
LINE
  5
60D
330
1E
100
AcDbEntity
  8
0
100
AcDbLine
 10
32.6902
 20
160.304
 30
0.0
 11
33.2124
 21
160.061
 31
0.0
  0
LINE
  5
60E
330
1E
100
AcDbEntity
  8
0
100
AcDbLine
 10
33.2124
 20
160.061
 30
0.0
 11
34.082
 21
159.655
 31
0.0
  0
LINE
  5
60F
330
1E
100
AcDbEntity
  8
0
100
AcDbLine
 10
31.821647969856
 20
161.401831707244
 30
0.0
 11
32.4647
 21
161.102
 31
0.0
  0
LINE
  5
610
330
1E
100
AcDbEntity
  8
0
100
AcDbLine
 10
27.9181
 20
161.977
 30
0.0
 11
28.5345
 21
161.69
 31
0.0
  0
LINE
  5
611
330
1E
100
AcDbEntity
  8
0
100
AcDbLine
 10
27.374
 20
162.231
 30
0.0
 11
27.9181
 21
161.977
 31
0.0
  0
LINE
  5
612
330
1E
100
AcDbEntity
  8
0
100
AcDbLine
 10
28.5345
 20
161.69
 30
0.0
 11
29.1499
 21
161.403
 31
0.0
  0
LINE
  5
613
330
1E
100
AcDbEntity
  8
0
100
AcDbLine
 10
29.4654
 20
162.501
 30
0.0
 11
29.676706494778
 21
162.954263931653
 31
0.0
  0
LINE
  5
614
330
1E
100
AcDbEntity
  8
0
100
AcDbLine
 10
29.4654
 20
162.501
 30
0.0
 11
30.7882
 21
161.884
 31
0.0
  0
LINE
  5
615
330
1E
100
AcDbEntity
  8
0
100
AcDbLine
 10
28.7392
 20
162.288
 30
0.0
 11
29.110695382726
 21
163.08487781458
 31
0.0
  0
LINE
  5
616
330
1E
100
AcDbEntity
  8
0
100
AcDbLine
 10
28.7392
 20
162.288
 30
0.0
 11
30.062
 21
161.671
 31
0.0
  0
LINE
  5
617
330
1E
100
AcDbEntity
  8
0
100
AcDbLine
 10
28.7392
 20
162.288
 30
0.0
 11
29.068524344668
 21
162.994418642787
 31
0.0
  0
LINE
  5
618
330
1E
100
AcDbEntity
  8
0
100
AcDbLine
 10
30.3381
 20
162.646
 30
0.0
 11
30.607327991133
 21
163.223190156097
 31
0.0
  0
LINE
  5
619
330
1E
100
AcDbEntity
  8
0
100
AcDbLine
 10
29.0143
 20
163.263
 30
0.0
 11
29.225472542398
 21
163.715726747309
 31
0.0
  0
LINE
  5
61A
330
1E
100
AcDbEntity
  8
0
100
AcDbLine
 10
29.0143
 20
163.263
 30
0.0
 11
30.3381
 21
162.646
 31
0.0
  0
LINE
  5
61B
330
1E
100
AcDbEntity
  8
0
100
AcDbLine
 10
30.7882
 20
161.884
 30
0.0
 11
31.183512040474
 21
162.731965841671
 31
0.0
  0
LINE
  5
61C
330
1E
100
AcDbEntity
  8
0
100
AcDbLine
 10
30.4019
 20
163.167
 30
0.0
 11
30.824681295192
 21
164.073888888054
 31
0.0
  0
LINE
  5
61D
330
1E
100
AcDbEntity
  8
0
100
AcDbLine
 10
31.2079
 20
161.688
 30
0.0
 11
32.4647
 21
161.102
 31
0.0
  0
LINE
  5
61E
330
1E
100
AcDbEntity
  8
0
100
AcDbLine
 10
27.0407
 20
163.631
 30
0.0
 11
27.5692
 21
163.384
 31
0.0
  0
LINE
  5
61F
330
1E
100
AcDbEntity
  8
0
100
AcDbLine
 10
29.0791
 20
163.784
 30
0.0
 11
29.45200708645
 21
164.583905995899
 31
0.0
  0
LINE
  5
620
330
1E
100
AcDbEntity
  8
0
100
AcDbLine
 10
29.0791
 20
163.784
 30
0.0
 11
30.4019
 21
163.167
 31
0.0
  0
LINE
  5
621
330
1E
100
AcDbEntity
  8
0
100
AcDbLine
 10
26.7759
 20
163.755
 30
0.0
 11
27.0407
 21
163.631
 31
0.0
  0
LINE
  5
622
330
1E
100
AcDbEntity
  8
0
100
AcDbLine
 10
31.633318934547
 20
163.696826110191
 30
0.0
 11
33.31
 21
162.915
 31
0.0
  0
LINE
  5
623
330
1E
100
AcDbEntity
  8
0
100
AcDbLine
 10
34.082
 20
159.655
 30
0.0
 11
35.2353
 21
159.117
 31
0.0
  0
LINE
  5
624
330
1E
100
AcDbEntity
  8
0
100
AcDbLine
 10
36.5403
 20
158.509
 30
0.0
 11
37.9321
 21
157.86
 31
0.0
  0
LINE
  5
625
330
1E
100
AcDbEntity
  8
0
100
AcDbLine
 10
35.2353
 20
159.117
 30
0.0
 11
36.5403
 21
158.509
 31
0.0
  0
LINE
  5
626
330
1E
100
AcDbEntity
  8
0
100
AcDbLine
 10
37.9321
 20
157.86
 30
0.0
 11
39.324
 21
157.21
 31
0.0
  0
LINE
  5
627
330
1E
100
AcDbEntity
  8
0
100
AcDbLine
 10
39.324
 20
157.21
 30
0.0
 11
39.988565427228
 21
156.900378712832
 31
0.0
  0
LINE
  5
628
330
1E
100
AcDbEntity
  8
0
100
AcDbLine
 10
38.8819
 20
158.11
 30
0.0
 11
39.093124794227
 21
158.563035078592
 31
0.0
  0
LINE
  5
629
330
1E
100
AcDbEntity
  8
0
100
AcDbLine
 10
38.6706
 20
157.657
 30
0.0
 11
38.881804269183
 21
158.110044652188
 31
0.0
  0
LINE
  5
62A
330
1E
100
AcDbEntity
  8
0
100
AcDbLine
 10
37.5591
 20
158.727
 30
0.0
 11
37.981655763783
 21
159.633405110907
 31
0.0
  0
LINE
  5
62B
330
1E
100
AcDbEntity
  8
0
100
AcDbLine
 10
37.3479
 20
158.273
 30
0.0
 11
38.6706
 21
157.657
 31
0.0
  0
LINE
  5
62C
330
1E
100
AcDbEntity
  8
0
100
AcDbLine
 10
37.3479
 20
158.273
 30
0.0
 11
37.559352968041
 21
158.726882006894
 31
0.0
  0
LINE
  5
62D
330
1E
100
AcDbEntity
  8
0
100
AcDbLine
 10
37.7704
 20
159.18
 30
0.0
 11
39.0932
 21
158.563
 31
0.0
  0
LINE
  5
62E
330
1E
100
AcDbEntity
  8
0
100
AcDbLine
 10
37.7704
 20
159.18
 30
0.0
 11
37.98198719245
 21
159.633866043437
 31
0.0
  0
LINE
  5
62F
330
1E
100
AcDbEntity
  8
0
100
AcDbLine
 10
39.0932
 20
158.563
 30
0.0
 11
39.354302434163
 21
159.12301267377
 31
0.0
  0
LINE
  5
630
330
1E
100
AcDbEntity
  8
0
100
AcDbLine
 10
39.3045
 20
159.017
 30
0.0
 11
39.726982610513
 21
159.922641180942
 31
0.0
  0
LINE
  5
631
330
1E
100
AcDbEntity
  8
0
100
AcDbLine
 10
37.9817
 20
159.634
 30
0.0
 11
39.3045
 21
159.017
 31
0.0
  0
LINE
  5
632
330
1E
100
AcDbEntity
  8
0
100
AcDbLine
 10
37.9817
 20
159.634
 30
0.0
 11
38.404120476942
 21
160.539507990321
 31
0.0
  0
LINE
  5
633
330
1E
100
AcDbEntity
  8
0
100
AcDbLine
 10
39.0657
 20
160.231
 30
0.0
 11
44.8216
 21
157.547
 31
0.0
  0
LINE
  5
634
330
1E
100
AcDbEntity
  8
0
100
AcDbLine
 10
39.0657
 20
160.231
 30
0.0
 11
44.6887
 21
157.608
 31
0.0
  0
LINE
  5
635
330
1E
100
AcDbEntity
  8
0
100
AcDbLine
 10
40.3089
 20
156.199
 30
0.0
 11
40.43769805985
 21
156.139323906609
 31
0.0
  0
LINE
  5
636
330
1E
100
AcDbEntity
  8
0
100
AcDbLine
 10
40.250971803853
 20
156.226180385289
 30
0.0
 11
40.3089
 21
156.199
 31
0.0
  0
LINE
  5
637
330
1E
100
AcDbEntity
  8
0
100
AcDbLine
 10
40.0996
 20
156.296
 30
0.0
 11
40.3099
 21
156.199
 31
0.0
  0
LINE
  5
638
330
1E
100
AcDbEntity
  8
0
100
AcDbLine
 10
40.0619
 20
156.314
 30
0.0
 11
40.3016
 21
156.203
 31
0.0
  0
LINE
  5
639
330
1E
100
AcDbEntity
  8
0
100
AcDbLine
 10
39.9918
 20
156.347
 30
0.0
 11
40.0619
 21
156.314
 31
0.0
  0
LINE
  5
63A
330
1E
100
AcDbEntity
  8
0
100
AcDbLine
 10
39.9844995371
 20
157.595981255966
 30
0.0
 11
39.9918
 21
156.347
 31
0.0
  0
LINE
  5
63B
330
1E
100
AcDbEntity
  8
0
100
AcDbLine
 10
40.3016
 20
156.203
 30
0.0
 11
40.6564
 21
156.037
 31
0.0
  0
LINE
  5
63C
330
1E
100
AcDbEntity
  8
0
100
AcDbLine
 10
40.3016
 20
156.203
 30
0.0
 11
40.6783
 21
156.027
 31
0.0
  0
LINE
  5
63D
330
1E
100
AcDbEntity
  8
0
100
AcDbLine
 10
41.286795958728
 20
155.743214617368
 30
0.0
 11
41.7238
 21
155.539
 31
0.0
  0
LINE
  5
63E
330
1E
100
AcDbEntity
  8
0
100
AcDbLine
 10
40.6783
 20
156.027
 30
0.0
 11
41.1514
 21
155.806
 31
0.0
  0
LINE
  5
63F
330
1E
100
AcDbEntity
  8
0
100
AcDbLine
 10
41.1514
 20
155.806
 30
0.0
 11
41.7164
 21
155.544
 31
0.0
  0
LINE
  5
640
330
1E
100
AcDbEntity
  8
0
100
AcDbLine
 10
41.7238
 20
155.539
 30
0.0
 11
42.173414918338
 21
155.329894595049
 31
0.0
  0
LINE
  5
641
330
1E
100
AcDbEntity
  8
0
100
AcDbLine
 10
41.7164
 20
155.544
 30
0.0
 11
42.3098
 21
155.266
 31
0.0
  0
LINE
  5
642
330
1E
100
AcDbEntity
  8
0
100
AcDbLine
 10
42.3098
 20
155.266
 30
0.0
 11
42.8969
 21
154.992
 31
0.0
  0
LINE
  5
643
330
1E
100
AcDbEntity
  8
0
100
AcDbLine
 10
40.6564
 20
156.037
 30
0.0
 11
40.815106727656
 21
155.963093242841
 31
0.0
  0
LINE
  5
644
330
1E
100
AcDbEntity
  8
0
100
AcDbLine
 10
39.4884
 20
161.138
 30
0.0
 11
45.3101
 21
158.423
 31
0.0
  0
LINE
  5
645
330
1E
100
AcDbEntity
  8
0
100
AcDbLine
 10
33.4428
 20
162.853
 30
0.0
 11
39.065699999996
 21
160.231000000002
 31
0.0
  0
LINE
  5
646
330
1E
100
AcDbEntity
  8
0
100
AcDbLine
 10
33.4428
 20
162.853
 30
0.0
 11
39.0657
 21
160.231
 31
0.0
  0
LINE
  5
647
330
1E
100
AcDbEntity
  8
0
100
AcDbLine
 10
33.31
 20
162.915
 30
0.0
 11
39.0657
 21
160.231
 31
0.0
  0
LINE
  5
648
330
1E
100
AcDbEntity
  8
0
100
AcDbLine
 10
33.31
 20
162.915
 30
0.0
 11
38.404079531862
 21
160.539527083844
 31
0.0
  0
LINE
  5
649
330
1E
100
AcDbEntity
  8
0
100
AcDbLine
 10
16.9784
 20
168.324
 30
0.0
 11
17.6398
 21
168.016
 31
0.0
  0
LINE
  5
64A
330
1E
100
AcDbEntity
  8
0
100
AcDbLine
 10
17.6398
 20
168.016
 30
0.0
 11
17.924986996522
 21
168.627404209297
 31
0.0
  0
LINE
  5
64B
330
1E
100
AcDbEntity
  8
0
100
AcDbLine
 10
21.3362
 20
165.74
 30
0.0
 11
21.547331928297
 21
166.192889477049
 31
0.0
  0
LINE
  5
64C
330
1E
100
AcDbEntity
  8
0
100
AcDbLine
 10
21.3362
 20
165.74
 30
0.0
 11
22.4822
 21
165.205
 31
0.0
  0
LINE
  5
64D
330
1E
100
AcDbEntity
  8
0
100
AcDbLine
 10
20.6748
 20
166.049
 30
0.0
 11
21.021746263959
 21
166.792808128601
 31
0.0
  0
LINE
  5
64E
330
1E
100
AcDbEntity
  8
0
100
AcDbLine
 10
20.6748
 20
166.049
 30
0.0
 11
21.3362
 21
165.74
 31
0.0
  0
LINE
  5
64F
330
1E
100
AcDbEntity
  8
0
100
AcDbLine
 10
20.6748
 20
166.049
 30
0.0
 11
21.8208
 21
165.513
 31
0.0
  0
LINE
  5
650
330
1E
100
AcDbEntity
  8
0
100
AcDbLine
 10
21.2984
 20
166.309
 30
0.0
 11
21.509518805543
 21
166.761807753992
 31
0.0
  0
LINE
  5
651
330
1E
100
AcDbEntity
  8
0
100
AcDbLine
 10
21.2984
 20
166.309
 30
0.0
 11
22.6212
 21
165.692
 31
0.0
  0
LINE
  5
652
330
1E
100
AcDbEntity
  8
0
100
AcDbLine
 10
21.582
 20
166.728
 30
0.0
 11
21.864479963889
 21
167.33393489651
 31
0.0
  0
LINE
  5
653
330
1E
100
AcDbEntity
  8
0
100
AcDbLine
 10
20.2592
 20
167.345
 30
0.0
 11
20.470846246235
 21
167.798992717019
 31
0.0
  0
LINE
  5
654
330
1E
100
AcDbEntity
  8
0
100
AcDbLine
 10
20.2592
 20
167.345
 30
0.0
 11
21.582
 21
166.728
 31
0.0
  0
LINE
  5
655
330
1E
100
AcDbEntity
  8
0
100
AcDbLine
 10
21.8208
 20
165.513
 30
0.0
 11
22.4822
 21
165.205
 31
0.0
  0
LINE
  5
656
330
1E
100
AcDbEntity
  8
0
100
AcDbLine
 10
21.6457
 20
167.251
 30
0.0
 11
22.068400446232
 21
168.157215343791
 31
0.0
  0
LINE
  5
657
330
1E
100
AcDbEntity
  8
0
100
AcDbLine
 10
20.3229
 20
167.868
 30
0.0
 11
20.745514760033
 21
168.774031643611
 31
0.0
  0
LINE
  5
658
330
1E
100
AcDbEntity
  8
0
100
AcDbLine
 10
20.3229
 20
167.868
 30
0.0
 11
21.6457
 21
167.251
 31
0.0
  0
LINE
  5
659
330
1E
100
AcDbEntity
  8
0
100
AcDbLine
 10
20.3229
 20
167.868
 30
0.0
 11
20.618590411864
 21
168.501922179718
 31
0.0
  0
LINE
  5
65A
330
1E
100
AcDbEntity
  8
0
100
AcDbLine
 10
17.844734024554
 20
168.455352168117
 30
0.0
 11
21.408652985773
 21
166.576086957692
 31
0.0
  0
LINE
  5
65B
330
1E
100
AcDbEntity
  8
0
100
AcDbLine
 10
15.3667
 20
169.076
 30
0.0
 11
15.623550376536
 21
169.62658900069
 31
0.0
  0
LINE
  5
65C
330
1E
100
AcDbEntity
  8
0
100
AcDbLine
 10
15.312427593835
 20
169.101273512396
 30
0.0
 11
15.3667
 21
169.076
 31
0.0
  0
LINE
  5
65D
330
1E
100
AcDbEntity
  8
0
100
AcDbLine
 10
15.3124344649
 20
169.101288241333
 30
0.0
 11
15.3667
 21
169.076
 31
0.0
  0
LINE
  5
65E
330
1E
100
AcDbEntity
  8
0
100
AcDbLine
 10
15.3123
 20
169.101
 30
0.0
 11
15.523526000402
 21
169.553787782714
 31
0.0
  0
LINE
  5
65F
330
1E
100
AcDbEntity
  8
0
100
AcDbLine
 10
16.4939
 20
168.55
 30
0.0
 11
16.807922066565
 21
169.22322288762
 31
0.0
  0
LINE
  5
660
330
1E
100
AcDbEntity
  8
0
100
AcDbLine
 10
16.4939
 20
168.55
 30
0.0
 11
17.6398
 21
168.016
 31
0.0
  0
LINE
  5
661
330
1E
100
AcDbEntity
  8
0
100
AcDbLine
 10
15.8324
 20
168.858
 30
0.0
 11
16.158009002278
 21
169.556366403797
 31
0.0
  0
LINE
  5
662
330
1E
100
AcDbEntity
  8
0
100
AcDbLine
 10
15.8324
 20
168.858
 30
0.0
 11
16.4939
 21
168.55
 31
0.0
  0
LINE
  5
663
330
1E
100
AcDbEntity
  8
0
100
AcDbLine
 10
15.8324
 20
168.858
 30
0.0
 11
16.9784
 21
168.324
 31
0.0
  0
LINE
  5
664
330
1E
100
AcDbEntity
  8
0
100
AcDbLine
 10
15.8324
 20
168.858
 30
0.0
 11
16.078820814616
 21
169.386523526439
 31
0.0
  0
LINE
  5
665
330
1E
100
AcDbEntity
  8
0
100
AcDbLine
 10
17.844734024554
 20
168.455352168117
 30
0.0
 11
21.408652985773
 21
166.576086957692
 31
0.0
  0
LINE
  5
666
330
1E
100
AcDbEntity
  8
0
100
AcDbLine
 10
22.4822
 20
165.205
 30
0.0
 11
22.787741543808
 21
165.860480793898
 31
0.0
  0
LINE
  5
667
330
1E
100
AcDbEntity
  8
0
100
AcDbLine
 10
23.6416
 20
164.665
 30
0.0
 11
24.303
 21
164.356
 31
0.0
  0
LINE
  5
668
330
1E
100
AcDbEntity
  8
0
100
AcDbLine
 10
24.303
 20
164.356
 30
0.0
 11
24.627663727934
 21
165.052338978759
 31
0.0
  0
LINE
  5
669
330
1E
100
AcDbEntity
  8
0
100
AcDbLine
 10
22.6212
 20
165.692
 30
0.0
 11
22.942380471665
 21
166.380488128069
 31
0.0
  0
LINE
  5
66A
330
1E
100
AcDbEntity
  8
0
100
AcDbLine
 10
22.6212
 20
165.692
 30
0.0
 11
22.876506162115
 21
166.239278795401
 31
0.0
  0
LINE
  5
66B
330
1E
100
AcDbEntity
  8
0
100
AcDbLine
 10
23.1581
 20
164.891
 30
0.0
 11
23.511172206277
 21
165.647851813289
 31
0.0
  0
LINE
  5
66C
330
1E
100
AcDbEntity
  8
0
100
AcDbLine
 10
23.1581
 20
164.891
 30
0.0
 11
24.303
 21
164.356
 31
0.0
  0
LINE
  5
66D
330
1E
100
AcDbEntity
  8
0
100
AcDbLine
 10
22.4967
 20
165.199
 30
0.0
 11
22.851860900155
 21
165.960749333943
 31
0.0
  0
LINE
  5
66E
330
1E
100
AcDbEntity
  8
0
100
AcDbLine
 10
22.4967
 20
165.199
 30
0.0
 11
23.1581
 21
164.891
 31
0.0
  0
LINE
  5
66F
330
1E
100
AcDbEntity
  8
0
100
AcDbLine
 10
22.4967
 20
165.199
 30
0.0
 11
23.6416
 21
164.665
 31
0.0
  0
LINE
  5
670
330
1E
100
AcDbEntity
  8
0
100
AcDbLine
 10
22.71281906811
 20
165.888396251527
 30
0.0
 11
22.797345702703
 21
165.843825102331
 31
0.0
  0
LINE
  5
671
330
1E
100
AcDbEntity
  8
0
100
AcDbLine
 10
22.71281906811
 20
165.888396251527
 30
0.0
 11
22.797345702703
 21
165.843825102331
 31
0.0
  0
LINE
  5
672
330
1E
100
AcDbEntity
  8
0
100
AcDbLine
 10
26.199042375552
 20
164.059542224797
 30
0.0
 11
26.2134
 21
162.772
 31
0.0
  0
LINE
  5
673
330
1E
100
AcDbEntity
  8
0
100
AcDbLine
 10
24.562678941042
 20
164.912959564781
 30
0.0
 11
26.199148288182
 21
164.050044345476
 31
0.0
  0
LINE
  5
674
330
1E
100
AcDbEntity
  8
0
100
AcDbLine
 10
24.562678941042
 20
164.912959564781
 30
0.0
 11
26.199148288182
 21
164.050044345476
 31
0.0
  0
LINE
  5
675
330
1E
100
AcDbEntity
  8
0
100
AcDbLine
 10
22.7914
 20
167.82
 30
0.0
 11
28.7461
 21
165.043
 31
0.0
  0
LINE
  5
676
330
1E
100
AcDbEntity
  8
0
100
AcDbLine
 10
21.9981
 20
168.19
 30
0.0
 11
27.8199
 21
165.475
 31
0.0
  0
LINE
  5
677
330
1E
100
AcDbEntity
  8
0
100
AcDbLine
 10
13.5594
 20
169.918
 30
0.0
 11
13.946199999994
 21
169.737875415787
 31
0.0
  0
LINE
  5
678
330
1E
100
AcDbEntity
  8
0
100
AcDbLine
 10
13.5594
 20
169.918
 30
0.0
 11
13.946199999994
 21
169.737875415787
 31
0.0
  0
LINE
  5
679
330
1E
100
AcDbEntity
  8
0
100
AcDbLine
 10
13.5594
 20
169.918
 30
0.0
 11
14.054357141256
 21
169.687345393637
 31
0.0
  0
LINE
  5
67A
330
1E
100
AcDbEntity
  8
0
100
AcDbLine
 10
14.400499999976
 20
169.525907234499
 30
0.0
 11
14.6509
 21
169.409
 31
0.0
  0
LINE
  5
67B
330
1E
100
AcDbEntity
  8
0
100
AcDbLine
 10
14.400499999977
 20
169.525907234499
 30
0.0
 11
14.6509
 21
169.409
 31
0.0
  0
LINE
  5
67C
330
1E
100
AcDbEntity
  8
0
100
AcDbLine
 10
14.6509
 20
169.409
 30
0.0
 11
15.3123
 21
169.101
 31
0.0
  0
LINE
  5
67D
330
1E
100
AcDbEntity
  8
0
100
AcDbLine
 10
14.1664
 20
169.635
 30
0.0
 11
14.377701594774
 21
170.088199800457
 31
0.0
  0
LINE
  5
67E
330
1E
100
AcDbEntity
  8
0
100
AcDbLine
 10
14.1664
 20
169.635
 30
0.0
 11
15.3123
 21
169.101
 31
0.0
  0
LINE
  5
67F
330
1E
100
AcDbEntity
  8
0
100
AcDbLine
 10
13.505
 20
169.944
 30
0.0
 11
13.824756599372
 21
170.629516987769
 31
0.0
  0
LINE
  5
680
330
1E
100
AcDbEntity
  8
0
100
AcDbLine
 10
13.505
 20
169.944
 30
0.0
 11
14.1664
 21
169.635
 31
0.0
  0
LINE
  5
681
330
1E
100
AcDbEntity
  8
0
100
AcDbLine
 10
15.5488
 20
169.542
 30
0.0
 11
15.838523063294
 21
170.16347173894
 31
0.0
  0
LINE
  5
682
330
1E
100
AcDbEntity
  8
0
100
AcDbLine
 10
14.2259
 20
170.159
 30
0.0
 11
14.578637882819
 21
170.915552444754
 31
0.0
  0
LINE
  5
683
330
1E
100
AcDbEntity
  8
0
100
AcDbLine
 10
14.2259
 20
170.159
 30
0.0
 11
15.5488
 21
169.542
 31
0.0
  0
LINE
  5
684
330
1E
100
AcDbEntity
  8
0
100
AcDbLine
 10
14.2259
 20
170.159
 30
0.0
 11
14.536964779489
 21
170.826171945124
 31
0.0
  0
LINE
  5
685
330
1E
100
AcDbEntity
  8
0
100
AcDbLine
 10
15.595202886728
 20
169.641536717509
 30
0.0
 11
16.078820814616
 21
169.386523526439
 31
0.0
  0
LINE
  5
686
330
1E
100
AcDbEntity
  8
0
100
AcDbLine
 10
12.9648
 20
171.299
 30
0.0
 11
13.373132576731
 21
172.17430891877
 31
0.0
  0
LINE
  5
687
330
1E
100
AcDbEntity
  8
0
100
AcDbLine
 10
12.9648
 20
171.299
 30
0.0
 11
14.2887
 21
170.682
 31
0.0
  0
LINE
  5
688
330
1E
100
AcDbEntity
  8
0
100
AcDbLine
 10
14.2887
 20
170.682
 30
0.0
 11
14.649896051296
 21
171.456357838321
 31
0.0
  0
LINE
  5
689
330
1E
100
AcDbEntity
  8
0
100
AcDbLine
 10
16.211770964574
 20
170.887509035617
 30
0.0
 11
16.677414061711
 21
170.670386719368
 31
0.0
  0
LINE
  5
68A
330
1E
100
AcDbEntity
  8
0
100
AcDbLine
 10
13.1332
 20
172.323
 30
0.0
 11
17.8299
 21
170.133
 31
0.0
  0
LINE
  5
68B
330
1E
100
AcDbEntity
  8
0
100
AcDbLine
 10
13.1332
 20
172.323
 30
0.0
 11
13.38723814529
 21
172.204545864504
 31
0.0
  0
LINE
  5
68C
330
1E
100
AcDbEntity
  8
0
100
AcDbLine
 10
13.1332
 20
172.323
 30
0.0
 11
13.38723814529
 21
172.204545864504
 31
0.0
  0
LINE
  5
68D
330
1E
100
AcDbEntity
  8
0
100
AcDbLine
 10
16.8379
 20
170.596
 30
0.0
 11
21.9981
 21
168.19
 31
0.0
  0
LINE
  5
68E
330
1E
100
AcDbEntity
  8
0
100
AcDbLine
 10
18.461865380995
 20
169.838808281331
 30
0.0
 11
20.745514760033
 21
168.774031643611
 31
0.0
  0
LINE
  5
68F
330
1E
100
AcDbEntity
  8
0
100
AcDbLine
 10
18.461865380995
 20
169.838808281331
 30
0.0
 11
20.745514760033
 21
168.774031643611
 31
0.0
  0
LINE
  5
690
330
1E
100
AcDbEntity
  8
0
100
AcDbLine
 10
17.00571138213
 20
170.517756097553
 30
0.0
 11
17.3391
 21
170.362
 31
0.0
  0
LINE
  5
691
330
1E
100
AcDbEntity
  8
0
100
AcDbLine
 10
17.00571138213
 20
170.517756097553
 30
0.0
 11
17.3391
 21
170.362
 31
0.0
  0
LINE
  5
692
330
1E
100
AcDbEntity
  8
0
100
AcDbLine
 10
17.3391
 20
170.362
 30
0.0
 11
18.485
 21
169.828
 31
0.0
  0
LINE
  5
693
330
1E
100
AcDbEntity
  8
0
100
AcDbLine
 10
17.8299
 20
170.133
 30
0.0
 11
22.7914
 21
167.82
 31
0.0
  0
LINE
  5
694
330
1E
100
AcDbEntity
  8
0
100
AcDbLine
 10
16.9297
 20
171.657
 30
0.0
 11
22.156
 21
169.22
 31
0.0
  0
LINE
  5
695
330
1E
100
AcDbEntity
  8
0
100
AcDbLine
 10
22.156
 20
169.22
 30
0.0
 11
27.779
 21
166.597
 31
0.0
  0
LINE
  5
696
330
1E
100
AcDbEntity
  8
0
100
AcDbLine
 10
30.859271875216
 20
165.160896547469
 30
0.0
 11
33.6667
 21
163.852
 31
0.0
  0
LINE
  5
697
330
1E
100
AcDbEntity
  8
0
100
AcDbLine
 10
30.859271875217
 20
165.160896547468
 30
0.0
 11
33.6667
 21
163.852
 31
0.0
  0
LINE
  5
698
330
1E
100
AcDbEntity
  8
0
100
AcDbLine
 10
28.7461
 20
165.043
 30
0.0
 11
33.4428
 21
162.853
 31
0.0
  0
LINE
  5
699
330
1E
100
AcDbEntity
  8
0
100
AcDbLine
 10
27.8199
 20
165.475
 30
0.0
 11
33.31
 21
162.915
 31
0.0
  0
LINE
  5
69A
330
1E
100
AcDbEntity
  8
0
100
AcDbLine
 10
27.8199
 20
165.475
 30
0.0
 11
29.501809890353
 21
164.690735720788
 31
0.0
  0
LINE
  5
69B
330
1E
100
AcDbEntity
  8
0
100
AcDbLine
 10
27.779
 20
166.597
 30
0.0
 11
33.6667
 21
163.852
 31
0.0
  0
LINE
  5
69C
330
1E
100
AcDbEntity
  8
0
100
AcDbLine
 10
27.779
 20
166.597
 30
0.0
 11
29.924225298077
 21
165.59683976031
 31
0.0
  0
LINE
  5
69D
330
1E
100
AcDbEntity
  8
0
100
AcDbLine
 10
33.6667
 20
163.852
 30
0.0
 11
39.4884
 21
161.138
 31
0.0
  0
LINE
  5
69E
330
1E
100
AcDbEntity
  8
0
100
AcDbLine
 10
43.425090563277
 20
154.746094367228
 30
0.0
 11
43.4788
 21
154.721
 31
0.0
  0
LINE
  5
69F
330
1E
100
AcDbEntity
  8
0
100
AcDbLine
 10
44.06122170133
 20
154.449233270318
 30
0.0
 11
44.3275
 21
154.325
 31
0.0
  0
LINE
  5
6A0
330
1E
100
AcDbEntity
  8
0
100
AcDbLine
 10
44.091463417723
 20
154.435250632911
 30
0.0
 11
44.3275
 21
154.325
 31
0.0
  0
LINE
  5
6A1
330
1E
100
AcDbEntity
  8
0
100
AcDbLine
 10
44.187791909718
 20
154.39071194476
 30
0.0
 11
44.3192
 21
154.329
 31
0.0
  0
LINE
  5
6A2
330
1E
100
AcDbEntity
  8
0
100
AcDbLine
 10
44.6373
 20
154.181
 30
0.0
 11
45.597817924951
 21
154.977609582376
 31
0.0
  0
LINE
  5
6A3
330
1E
100
AcDbEntity
  8
0
100
AcDbLine
 10
44.3275
 20
154.325
 30
0.0
 11
44.5661
 21
154.214
 31
0.0
  0
LINE
  5
6A4
330
1E
100
AcDbEntity
  8
0
100
AcDbLine
 10
44.3192
 20
154.329
 30
0.0
 11
44.5587
 21
154.218
 31
0.0
  0
LINE
  5
6A5
330
1E
100
AcDbEntity
  8
0
100
AcDbLine
 10
44.5587
 20
154.218
 30
0.0
 11
44.63
 21
154.184
 31
0.0
  0
LINE
  5
6A6
330
1E
100
AcDbEntity
  8
0
100
AcDbLine
 10
44.5294
 20
154.232
 30
0.0
 11
44.63
 21
154.184
 31
0.0
  0
LINE
  5
6A7
330
1E
100
AcDbEntity
  8
0
100
AcDbLine
 10
44.63
 20
154.184
 30
0.0
 11
45.590828294337
 21
154.980866988532
 31
0.0
  0
LINE
  5
6A8
330
1E
100
AcDbEntity
  8
0
100
AcDbLine
 10
44.3191
 20
154.33
 30
0.0
 11
44.5294
 21
154.232
 31
0.0
  0
LINE
  5
6A9
330
1E
100
AcDbEntity
  8
0
100
AcDbLine
 10
43.4788
 20
154.721
 30
0.0
 11
43.551943976652
 21
154.686869112133
 31
0.0
  0
LINE
  5
6AA
330
1E
100
AcDbEntity
  8
0
100
AcDbLine
 10
43.9644
 20
154.494
 30
0.0
 11
44.3191
 21
154.33
 31
0.0
  0
LINE
  5
6AB
330
1E
100
AcDbEntity
  8
0
100
AcDbLine
 10
43.4704
 20
154.725
 30
0.0
 11
43.9644
 21
154.494
 31
0.0
  0
LINE
  5
6AC
330
1E
100
AcDbEntity
  8
0
100
AcDbLine
 10
42.8969
 20
154.992
 30
0.0
 11
43.4704
 21
154.725
 31
0.0
  0
LINE
  5
6AD
330
1E
100
AcDbEntity
  8
0
100
AcDbLine
 10
47.2793
 20
153.642
 30
0.0
 11
47.650956243721
 21
154.439222870169
 31
0.0
  0
LINE
  5
6AE
330
1E
100
AcDbEntity
  8
0
100
AcDbLine
 10
46.9756
 20
154.336
 30
0.0
 11
47.186740387154
 21
154.788854042246
 31
0.0
  0
LINE
  5
6AF
330
1E
100
AcDbEntity
  8
0
100
AcDbLine
 10
47.8494
 20
154.48
 30
0.0
 11
48.060770069075
 21
154.933346664182
 31
0.0
  0
LINE
  5
6B0
330
1E
100
AcDbEntity
  8
0
100
AcDbLine
 10
46.5256
 20
155.097
 30
0.0
 11
47.8494
 21
154.48
 31
0.0
  0
LINE
  5
6B1
330
1E
100
AcDbEntity
  8
0
100
AcDbLine
 10
46.5256
 20
155.097
 30
0.0
 11
46.795137254986
 21
155.675103683058
 31
0.0
  0
LINE
  5
6B2
330
1E
100
AcDbEntity
  8
0
100
AcDbLine
 10
48.2073
 20
154.865
 30
0.0
 11
48.57985311763
 21
155.66370592658
 31
0.0
  0
LINE
  5
6B3
330
1E
100
AcDbEntity
  8
0
100
AcDbLine
 10
45.6519
 20
154.952
 30
0.0
 11
46.167673437542
 21
154.711978516639
 31
0.0
  0
LINE
  5
6B4
330
1E
100
AcDbEntity
  8
0
100
AcDbLine
 10
45.6519
 20
154.952
 30
0.0
 11
46.9756
 21
154.336
 31
0.0
  0
LINE
  5
6B5
330
1E
100
AcDbEntity
  8
0
100
AcDbLine
 10
45.6519
 20
154.952
 30
0.0
 11
46.047497502085
 21
155.801046224304
 31
0.0
  0
LINE
  5
6B6
330
1E
100
AcDbEntity
  8
0
100
AcDbLine
 10
45.6519
 20
154.952
 30
0.0
 11
45.872726688362
 21
155.425946536547
 31
0.0
  0
LINE
  5
6B7
330
1E
100
AcDbEntity
  8
0
100
AcDbLine
 10
45.9565
 20
154.259
 30
0.0
 11
47.2793
 21
153.642
 31
0.0
  0
LINE
  5
6B8
330
1E
100
AcDbEntity
  8
0
100
AcDbLine
 10
45.9565
 20
154.259
 30
0.0
 11
46.167673437542
 21
154.711978516639
 31
0.0
  0
LINE
  5
6B9
330
1E
100
AcDbEntity
  8
0
100
AcDbLine
 10
45.597817924951
 20
154.977609582376
 30
0.0
 11
45.652055225679
 21
154.952333151186
 31
0.0
  0
LINE
  5
6BA
330
1E
100
AcDbEntity
  8
0
100
AcDbLine
 10
48.2755
 20
153.729
 30
0.0
 11
49.7971
 21
153.02
 31
0.0
  0
LINE
  5
6BB
330
1E
100
AcDbEntity
  8
0
100
AcDbLine
 10
49.7971
 20
153.02
 30
0.0
 11
51.974479325247
 21
152.13151063214
 31
0.0
  0
LINE
  5
6BC
330
1E
100
AcDbEntity
  8
0
100
AcDbLine
 10
45.2322
 20
155.148
 30
0.0
 11
45.652055225679
 21
154.952333151186
 31
0.0
  0
LINE
  5
6BD
330
1E
100
AcDbEntity
  8
0
100
AcDbLine
 10
46.8845
 20
155.482
 30
0.0
 11
48.2073
 21
154.865
 31
0.0
  0
LINE
  5
6BE
330
1E
100
AcDbEntity
  8
0
100
AcDbLine
 10
46.8845
 20
155.482
 30
0.0
 11
47.307110181389
 21
156.388021827588
 31
0.0
  0
LINE
  5
6BF
330
1E
100
AcDbEntity
  8
0
100
AcDbLine
 10
49.3855
 20
155.418
 30
0.0
 11
55.3395
 21
152.643
 31
0.0
  0
LINE
  5
6C0
330
1E
100
AcDbEntity
  8
0
100
AcDbLine
 10
50.3117
 20
154.987
 30
0.0
 11
56.1333
 21
152.273
 31
0.0
  0
LINE
  5
6C1
330
1E
100
AcDbEntity
  8
0
100
AcDbLine
 10
50.3117
 20
154.987
 30
0.0
 11
55.915685319895
 21
152.374450845439
 31
0.0
  0
LINE
  5
6C2
330
1E
100
AcDbEntity
  8
0
100
AcDbLine
 10
44.6887
 20
157.608
 30
0.0
 11
49.3855
 21
155.418
 31
0.0
  0
LINE
  5
6C3
330
1E
100
AcDbEntity
  8
0
100
AcDbLine
 10
44.8216
 20
157.547
 30
0.0
 11
50.3117
 21
154.987
 31
0.0
  0
LINE
  5
6C4
330
1E
100
AcDbEntity
  8
0
100
AcDbLine
 10
53.5363
 20
150.725
 30
0.0
 11
54.6823
 21
150.19
 31
0.0
  0
LINE
  5
6C5
330
1E
100
AcDbEntity
  8
0
100
AcDbLine
 10
53.8198
 20
151.145
 30
0.0
 11
55.1425
 21
150.528
 31
0.0
  0
LINE
  5
6C6
330
1E
100
AcDbEntity
  8
0
100
AcDbLine
 10
53.8198
 20
151.145
 30
0.0
 11
54.140435193401
 21
151.832319259957
 31
0.0
  0
LINE
  5
6C7
330
1E
100
AcDbEntity
  8
0
100
AcDbLine
 10
53.8198
 20
151.145
 30
0.0
 11
54.074541775298
 21
151.691068965858
 31
0.0
  0
LINE
  5
6C8
330
1E
100
AcDbEntity
  8
0
100
AcDbLine
 10
52.3758
 20
151.265
 30
0.0
 11
53.5218
 21
150.731
 31
0.0
  0
LINE
  5
6C9
330
1E
100
AcDbEntity
  8
0
100
AcDbLine
 10
52.8603
 20
151.04
 30
0.0
 11
53.5218
 21
150.731
 31
0.0
  0
LINE
  5
6CA
330
1E
100
AcDbEntity
  8
0
100
AcDbLine
 10
51.7144
 20
151.574
 30
0.0
 11
52.8603
 21
151.04
 31
0.0
  0
LINE
  5
6CB
330
1E
100
AcDbEntity
  8
0
100
AcDbLine
 10
51.7144
 20
151.574
 30
0.0
 11
52.039071015981
 21
152.269970520476
 31
0.0
  0
LINE
  5
6CC
330
1E
100
AcDbEntity
  8
0
100
AcDbLine
 10
51.7144
 20
151.574
 30
0.0
 11
52.3758
 21
151.265
 31
0.0
  0
LINE
  5
6CD
330
1E
100
AcDbEntity
  8
0
100
AcDbLine
 10
51.7144
 20
151.574
 30
0.0
 11
51.974479325247
 21
152.13151063214
 31
0.0
  0
LINE
  5
6CE
330
1E
100
AcDbEntity
  8
0
100
AcDbLine
 10
51.1978
 20
155.677
 30
0.0
 11
56.8205
 21
153.055
 31
0.0
  0
LINE
  5
6CF
330
1E
100
AcDbEntity
  8
0
100
AcDbLine
 10
45.3101
 20
158.423
 30
0.0
 11
51.1978
 21
155.677
 31
0.0
  0
LINE
  5
6D0
330
1E
100
AcDbEntity
  8
0
100
AcDbLine
 10
60.6082
 20
147.978
 30
0.0
 11
60.933613996383
 21
148.676415747088
 31
0.0
  0
LINE
  5
6D1
330
1E
100
AcDbEntity
  8
0
100
AcDbLine
 10
59.4623
 20
148.513
 30
0.0
 11
60.6082
 21
147.978
 31
0.0
  0
LINE
  5
6D2
330
1E
100
AcDbEntity
  8
0
100
AcDbLine
 10
55.3433
 20
149.882
 30
0.0
 11
55.690527350804
 21
150.62682156532
 31
0.0
  0
LINE
  5
6D3
330
1E
100
AcDbEntity
  8
0
100
AcDbLine
 10
54.6823
 20
150.19
 30
0.0
 11
55.3433
 21
149.882
 31
0.0
  0
LINE
  5
6D4
330
1E
100
AcDbEntity
  8
0
100
AcDbLine
 10
54.6823
 20
150.19
 30
0.0
 11
54.893844896002
 21
150.643990170989
 31
0.0
  0
LINE
  5
6D5
330
1E
100
AcDbEntity
  8
0
100
AcDbLine
 10
58.8008
 20
148.822
 30
0.0
 11
59.9466
 21
148.287
 31
0.0
  0
LINE
  5
6D6
330
1E
100
AcDbEntity
  8
0
100
AcDbLine
 10
58.8008
 20
148.822
 30
0.0
 11
59.085760820573
 21
149.433184156748
 31
0.0
  0
LINE
  5
6D7
330
1E
100
AcDbEntity
  8
0
100
AcDbLine
 10
58.8008
 20
148.822
 30
0.0
 11
59.4623
 21
148.513
 31
0.0
  0
LINE
  5
6D8
330
1E
100
AcDbEntity
  8
0
100
AcDbLine
 10
58.8008
 20
148.822
 30
0.0
 11
59.006060359768
 21
149.262242555613
 31
0.0
  0
LINE
  5
6D9
330
1E
100
AcDbEntity
  8
0
100
AcDbLine
 10
59.9466
 20
148.287
 30
0.0
 11
60.6082
 21
147.978
 31
0.0
  0
LINE
  5
6DA
330
1E
100
AcDbEntity
  8
0
100
AcDbLine
 10
59.9466
 20
148.287
 30
0.0
 11
60.260475171543
 21
148.960279325612
 31
0.0
  0
LINE
  5
6DB
330
1E
100
AcDbEntity
  8
0
100
AcDbLine
 10
61.0738
 20
147.762
 30
0.0
 11
61.128841025285
 21
147.736302340058
 31
0.0
  0
LINE
  5
6DC
330
1E
100
AcDbEntity
  8
0
100
AcDbLine
 10
61.0738
 20
147.762
 30
0.0
 11
61.330934410723
 21
148.313567305537
 31
0.0
  0
LINE
  5
6DD
330
1E
100
AcDbEntity
  8
0
100
AcDbLine
 10
61.1287
 20
147.736
 30
0.0
 11
62.2744
 21
147.202
 31
0.0
  0
LINE
  5
6DE
330
1E
100
AcDbEntity
  8
0
100
AcDbLine
 10
61.1287
 20
147.736
 30
0.0
 11
61.340095547751
 21
148.189204842078
 31
0.0
  0
LINE
  5
6DF
330
1E
100
AcDbEntity
  8
0
100
AcDbLine
 10
61.1287
 20
147.736
 30
0.0
 11
61.7902
 21
147.427
 31
0.0
  0
LINE
  5
6E0
330
1E
100
AcDbEntity
  8
0
100
AcDbLine
 10
60.85503250825
 20
148.507761204408
 30
0.0
 11
61.361495272083
 21
148.301096809434
 31
0.0
  0
LINE
  5
6E1
330
1E
100
AcDbEntity
  8
0
100
AcDbLine
 10
60.85503250825
 20
148.507761204408
 30
0.0
 11
61.361495272083
 21
148.301096809434
 31
0.0
  0
LINE
  5
6E2
330
1E
100
AcDbEntity
  8
0
100
AcDbLine
 10
55.1425
 20
150.528
 30
0.0
 11
55.353909937821
 21
150.981235692537
 31
0.0
  0
LINE
  5
6E3
330
1E
100
AcDbEntity
  8
0
100
AcDbLine
 10
56.6047
 20
150.398
 30
0.0
 11
56.815829730142
 21
150.850634963343
 31
0.0
  0
LINE
  5
6E4
330
1E
100
AcDbEntity
  8
0
100
AcDbLine
 10
55.2815
 20
151.015
 30
0.0
 11
56.6047
 21
150.398
 31
0.0
  0
LINE
  5
6E5
330
1E
100
AcDbEntity
  8
0
100
AcDbLine
 10
55.2815
 20
151.015
 30
0.0
 11
55.563475653505
 21
151.619447987876
 31
0.0
  0
LINE
  5
6E6
330
1E
100
AcDbEntity
  8
0
100
AcDbLine
 10
56.963
 20
150.782
 30
0.0
 11
57.385728670733
 21
151.688776005726
 31
0.0
  0
LINE
  5
6E7
330
1E
100
AcDbEntity
  8
0
100
AcDbLine
 10
56.963
 20
150.782
 30
0.0
 11
57.258606997984
 21
151.416093099082
 31
0.0
  0
LINE
  5
6E8
330
1E
100
AcDbEntity
  8
0
100
AcDbLine
 10
55.64
 20
151.399
 30
0.0
 11
56.963
 21
150.782
 31
0.0
  0
LINE
  5
6E9
330
1E
100
AcDbEntity
  8
0
100
AcDbLine
 10
55.64
 20
151.399
 30
0.0
 11
56.062776151944
 21
152.305877855508
 31
0.0
  0
LINE
  5
6EA
330
1E
100
AcDbEntity
  8
0
100
AcDbLine
 10
55.416522716987
 20
150.726969438139
 30
0.0
 11
59.006060359768
 21
149.262242555613
 31
0.0
  0
LINE
  5
6EB
330
1E
100
AcDbEntity
  8
0
100
AcDbLine
 10
57.385728670733
 20
151.688776005726
 30
0.0
 11
59.645860311792
 21
150.634485916573
 31
0.0
  0
LINE
  5
6EC
330
1E
100
AcDbEntity
  8
0
100
AcDbLine
 10
60.3011
 20
150.328
 30
0.0
 11
64.998
 21
148.138
 31
0.0
  0
LINE
  5
6ED
330
1E
100
AcDbEntity
  8
0
100
AcDbLine
 10
61.3148
 20
148.201
 30
0.0
 11
62.638
 21
147.584
 31
0.0
  0
LINE
  5
6EE
330
1E
100
AcDbEntity
  8
0
100
AcDbLine
 10
61.3148
 20
148.201
 30
0.0
 11
61.604606416471
 21
148.822234149587
 31
0.0
  0
LINE
  5
6EF
330
1E
100
AcDbEntity
  8
0
100
AcDbLine
 10
61.3148
 20
148.201
 30
0.0
 11
61.581465766011
 21
148.772629442816
 31
0.0
  0
LINE
  5
6F0
330
1E
100
AcDbEntity
  8
0
100
AcDbLine
 10
61.7902
 20
147.427
 30
0.0
 11
62.936
 21
146.893
 31
0.0
  0
LINE
  5
6F1
330
1E
100
AcDbEntity
  8
0
100
AcDbLine
 10
61.45291114297
 20
149.790950796673
 30
0.0
 11
61.918475316403
 21
149.573874525129
 31
0.0
  0
LINE
  5
6F2
330
1E
100
AcDbEntity
  8
0
100
AcDbLine
 10
61.453145990744
 20
149.791454835791
 30
0.0
 11
61.91869401355
 21
149.574343642412
 31
0.0
  0
LINE
  5
6F3
330
1E
100
AcDbEntity
  8
0
100
AcDbLine
 10
61.2933
 20
149.866
 30
0.0
 11
66.1887
 21
147.583
 31
0.0
  0
LINE
  5
6F4
330
1E
100
AcDbEntity
  8
0
100
AcDbLine
 10
55.3395
 20
152.643
 30
0.0
 11
60.3011
 21
150.328
 31
0.0
  0
LINE
  5
6F5
330
1E
100
AcDbEntity
  8
0
100
AcDbLine
 10
56.1333
 20
152.273
 30
0.0
 11
61.2933
 21
149.866
 31
0.0
  0
LINE
  5
6F6
330
1E
100
AcDbEntity
  8
0
100
AcDbLine
 10
62.936
 20
146.893
 30
0.0
 11
63.256481350213
 21
147.580449938401
 31
0.0
  0
LINE
  5
6F7
330
1E
100
AcDbEntity
  8
0
100
AcDbLine
 10
62.638
 20
147.584
 30
0.0
 11
62.990887972878
 21
148.340546387665
 31
0.0
  0
LINE
  5
6F8
330
1E
100
AcDbEntity
  8
0
100
AcDbLine
 10
62.9978
 20
147.967
 30
0.0
 11
64.3209
 21
147.35
 31
0.0
  0
LINE
  5
6F9
330
1E
100
AcDbEntity
  8
0
100
AcDbLine
 10
62.9978
 20
147.967
 30
0.0
 11
63.359404202371
 21
148.742660694391
 31
0.0
  0
LINE
  5
6FA
330
1E
100
AcDbEntity
  8
0
100
AcDbLine
 10
62.9978
 20
147.967
 30
0.0
 11
63.332906730766
 21
148.685822175674
 31
0.0
  0
LINE
  5
6FB
330
1E
100
AcDbEntity
  8
0
100
AcDbLine
 10
62.2744
 20
147.202
 30
0.0
 11
62.936
 21
146.893
 31
0.0
  0
LINE
  5
6FC
330
1E
100
AcDbEntity
  8
0
100
AcDbLine
 10
62.2744
 20
147.202
 30
0.0
 11
62.485706340896
 21
147.655013594065
 31
0.0
  0
LINE
  5
6FD
330
1E
100
AcDbEntity
  8
0
100
AcDbLine
 10
64.3209
 20
147.35
 30
0.0
 11
64.729446771058
 21
148.226355059072
 31
0.0
  0
LINE
  5
6FE
330
1E
100
AcDbEntity
  8
0
100
AcDbLine
 10
63.235874837908
 20
147.536247847996
 30
0.0
 11
66.037985603721
 21
146.392834022888
 31
0.0
  0
LINE
  5
6FF
330
1E
100
AcDbEntity
  8
0
100
AcDbLine
 10
63.235874837908
 20
147.536247847996
 30
0.0
 11
66.037985603721
 21
146.392834022888
 31
0.0
  0
LINE
  5
700
330
1E
100
AcDbEntity
  8
0
100
AcDbLine
 10
63.271937766773
 20
148.943080967101
 30
0.0
 11
63.420578558194
 21
148.873883017044
 31
0.0
  0
LINE
  5
701
330
1E
100
AcDbEntity
  8
0
100
AcDbLine
 10
64.743562971326
 20
148.256635076922
 30
0.0
 11
64.998
 21
148.138
 31
0.0
  0
LINE
  5
702
330
1E
100
AcDbEntity
  8
0
100
AcDbLine
 10
64.743683019275
 20
148.256892586305
 30
0.0
 11
66.1887
 21
147.583
 31
0.0
  0
LINE
  5
703
330
1E
100
AcDbEntity
  8
0
100
AcDbLine
 10
64.998
 20
148.138
 30
0.0
 11
66.944691101849
 21
147.230444079254
 31
0.0
  0
LINE
  5
704
330
1E
100
AcDbEntity
  8
0
100
AcDbLine
 10
62.0468
 20
150.618
 30
0.0
 11
67.0084
 21
148.304
 31
0.0
  0
LINE
  5
705
330
1E
100
AcDbEntity
  8
0
100
AcDbLine
 10
56.8205
 20
153.055
 30
0.0
 11
62.0468
 21
150.618
 31
0.0
  0
LINE
  5
706
330
1E
100
AcDbEntity
  8
0
100
AcDbLine
 10
65.887
 20
146.069
 30
0.0
 11
67.0328
 21
145.535
 31
0.0
  0
LINE
  5
707
330
1E
100
AcDbEntity
  8
0
100
AcDbLine
 10
65.887
 20
146.069
 30
0.0
 11
66.151896927568
 21
146.637151105739
 31
0.0
  0
LINE
  5
708
330
1E
100
AcDbEntity
  8
0
100
AcDbLine
 10
65.887
 20
146.069
 30
0.0
 11
66.899486946205
 21
145.59713053825
 31
0.0
  0
LINE
  5
709
330
1E
100
AcDbEntity
  8
0
100
AcDbLine
 10
65.887
 20
146.069
 30
0.0
 11
66.037985603721
 21
146.392834022888
 31
0.0
  0
LINE
  5
70A
330
1E
100
AcDbEntity
  8
0
100
AcDbLine
 10
65.887
 20
146.069
 30
0.0
 11
66.899486946205
 21
145.59713053825
 31
0.0
  0
LINE
  5
70B
330
1E
100
AcDbEntity
  8
0
100
AcDbLine
 10
73.933322605326
 20
142.868613026838
 30
0.0
 11
74.7806
 21
142.473
 31
0.0
  0
LINE
  5
70C
330
1E
100
AcDbEntity
  8
0
100
AcDbLine
 10
73.933322605326
 20
142.868613026838
 30
0.0
 11
74.7806
 21
142.473
 31
0.0
  0
LINE
  5
70D
330
1E
100
AcDbEntity
  8
0
100
AcDbLine
 10
69.892
 20
144.201
 30
0.0
 11
70.13990477865
 21
144.085573436396
 31
0.0
  0
LINE
  5
70E
330
1E
100
AcDbEntity
  8
0
100
AcDbLine
 10
69.892
 20
144.201
 30
0.0
 11
70.13990477865
 21
144.085573436396
 31
0.0
  0
LINE
  5
70F
330
1E
100
AcDbEntity
  8
0
100
AcDbLine
 10
69.7168
 20
144.283
 30
0.0
 11
69.866500000006
 21
144.213232326756
 31
0.0
  0
LINE
  5
710
330
1E
100
AcDbEntity
  8
0
100
AcDbLine
 10
69.7168
 20
144.283
 30
0.0
 11
69.866500000006
 21
144.213232326756
 31
0.0
  0
LINE
  5
711
330
1E
100
AcDbEntity
  8
0
100
AcDbLine
 10
71.7388
 20
143.34
 30
0.0
 11
72.058037713733
 21
144.024701259906
 31
0.0
  0
LINE
  5
712
330
1E
100
AcDbEntity
  8
0
100
AcDbLine
 10
71.0772
 20
143.649
 30
0.0
 11
71.7388
 21
143.34
 31
0.0
  0
LINE
  5
713
330
1E
100
AcDbEntity
  8
0
100
AcDbLine
 10
70.593
 20
143.874
 30
0.0
 11
71.7388
 21
143.34
 31
0.0
  0
LINE
  5
714
330
1E
100
AcDbEntity
  8
0
100
AcDbLine
 10
70.243699999991
 20
144.037165079369
 30
0.0
 11
70.593
 21
143.874
 31
0.0
  0
LINE
  5
715
330
1E
100
AcDbEntity
  8
0
100
AcDbLine
 10
70.862608828742
 20
143.749018927687
 30
0.0
 11
71.0772
 21
143.649
 31
0.0
  0
LINE
  5
716
330
1E
100
AcDbEntity
  8
0
100
AcDbLine
 10
70.2011
 20
144.057
 30
0.0
 11
70.8626
 21
143.749
 31
0.0
  0
LINE
  5
717
330
1E
100
AcDbEntity
  8
0
100
AcDbLine
 10
72.9732
 20
143.316
 30
0.0
 11
74.1192
 21
142.782
 31
0.0
  0
LINE
  5
718
330
1E
100
AcDbEntity
  8
0
100
AcDbLine
 10
72.9732
 20
143.316
 30
0.0
 11
73.310815253302
 21
144.040117418948
 31
0.0
  0
LINE
  5
719
330
1E
100
AcDbEntity
  8
0
100
AcDbLine
 10
72.9732
 20
143.316
 30
0.0
 11
73.115573593837
 21
143.621362978382
 31
0.0
  0
LINE
  5
71A
330
1E
100
AcDbEntity
  8
0
100
AcDbLine
 10
74.1192
 20
142.782
 30
0.0
 11
74.7806
 21
142.473
 31
0.0
  0
LINE
  5
71B
330
1E
100
AcDbEntity
  8
0
100
AcDbLine
 10
71.152325763746
 20
144.370134741963
 30
0.0
 11
73.115573593837
 21
143.621362978382
 31
0.0
  0
LINE
  5
71C
330
1E
100
AcDbEntity
  8
0
100
AcDbLine
 10
74.497683506517
 20
142.605100125688
 30
0.0
 11
77.8016
 21
137.746
 31
0.0
  0
LINE
  5
71D
330
1E
100
AcDbEntity
  8
0
100
AcDbLine
 10
74.7806
 20
142.473
 30
0.0
 11
75.170751594427
 21
143.309797398198
 31
0.0
  0
LINE
  5
71E
330
1E
100
AcDbEntity
  8
0
100
AcDbLine
 10
74.4579
 20
143.727
 30
0.0
 11
77.7657
 21
142.185
 31
0.0
  0
LINE
  5
71F
330
1E
100
AcDbEntity
  8
0
100
AcDbLine
 10
67.6944
 20
145.226
 30
0.0
 11
68.029354219225
 21
145.944495030118
 31
0.0
  0
LINE
  5
720
330
1E
100
AcDbEntity
  8
0
100
AcDbLine
 10
70.4277
 20
144.503
 30
0.0
 11
70.850374081655
 21
145.409051621861
 31
0.0
  0
LINE
  5
721
330
1E
100
AcDbEntity
  8
0
100
AcDbLine
 10
69.4077
 20
144.427
 30
0.0
 11
69.541013053828
 21
144.364869461735
 31
0.0
  0
LINE
  5
722
330
1E
100
AcDbEntity
  8
0
100
AcDbLine
 10
69.1046
 20
145.12
 30
0.0
 11
70.4277
 21
144.503
 31
0.0
  0
LINE
  5
723
330
1E
100
AcDbEntity
  8
0
100
AcDbLine
 10
69.1046
 20
145.12
 30
0.0
 11
69.527235576974
 21
146.026076272453
 31
0.0
  0
LINE
  5
724
330
1E
100
AcDbEntity
  8
0
100
AcDbLine
 10
69.1046
 20
145.12
 30
0.0
 11
69.415042978708
 21
145.785549783978
 31
0.0
  0
LINE
  5
725
330
1E
100
AcDbEntity
  8
0
100
AcDbLine
 10
68.7461
 20
144.736
 30
0.0
 11
69.892
 21
144.201
 31
0.0
  0
LINE
  5
726
330
1E
100
AcDbEntity
  8
0
100
AcDbLine
 10
68.7461
 20
144.736
 30
0.0
 11
68.964531423329
 21
145.204547291169
 31
0.0
  0
LINE
  5
727
330
1E
100
AcDbEntity
  8
0
100
AcDbLine
 10
68.7461
 20
144.736
 30
0.0
 11
69.4077
 21
144.427
 31
0.0
  0
LINE
  5
728
330
1E
100
AcDbEntity
  8
0
100
AcDbLine
 10
69.0553
 20
144.592
 30
0.0
 11
70.2011
 21
144.057
 31
0.0
  0
LINE
  5
729
330
1E
100
AcDbEntity
  8
0
100
AcDbLine
 10
69.0553
 20
144.592
 30
0.0
 11
69.7168
 21
144.283
 31
0.0
  0
LINE
  5
72A
330
1E
100
AcDbEntity
  8
0
100
AcDbLine
 10
68.7431
 20
145.289
 30
0.0
 11
69.11692579922
 21
145.146424926866
 31
0.0
  0
LINE
  5
72B
330
1E
100
AcDbEntity
  8
0
100
AcDbLine
 10
66.899486946205
 20
145.59713053825
 30
0.0
 11
67.6944
 21
145.226
 31
0.0
  0
LINE
  5
72C
330
1E
100
AcDbEntity
  8
0
100
AcDbLine
 10
66.899486946205
 20
145.59713053825
 30
0.0
 11
67.6944
 21
145.226
 31
0.0
  0
LINE
  5
72D
330
1E
100
AcDbEntity
  8
0
100
AcDbLine
 10
67.0328
 20
145.535
 30
0.0
 11
67.6944
 21
145.226
 31
0.0
  0
LINE
  5
72E
330
1E
100
AcDbEntity
  8
0
100
AcDbLine
 10
67.886685853599
 20
145.638463621125
 30
0.0
 11
68.7431
 21
145.289
 31
0.0
  0
LINE
  5
72F
330
1E
100
AcDbEntity
  8
0
100
AcDbLine
 10
70.621
 20
145.516
 30
0.0
 11
74.4579
 21
143.727
 31
0.0
  0
LINE
  5
730
330
1E
100
AcDbEntity
  8
0
100
AcDbLine
 10
71.5068
 20
146.206
 30
0.0
 11
75.4098
 21
144.387
 31
0.0
  0
LINE
  5
731
330
1E
100
AcDbEntity
  8
0
100
AcDbLine
 10
75.4098
 20
144.387
 30
0.0
 11
78.7175
 21
142.844
 31
0.0
  0
LINE
  5
732
330
1E
100
AcDbEntity
  8
0
100
AcDbLine
 10
66.1887
 20
147.583
 30
0.0
 11
70.621
 21
145.516
 31
0.0
  0
LINE
  5
733
330
1E
100
AcDbEntity
  8
0
100
AcDbLine
 10
66.1887
 20
147.583
 30
0.0
 11
66.520704539288
 21
147.428169915685
 31
0.0
  0
LINE
  5
734
330
1E
100
AcDbEntity
  8
0
100
AcDbLine
 10
67.0084
 20
148.304
 30
0.0
 11
71.5068
 21
146.206
 31
0.0
  0
LINE
  5
735
330
1E
100
AcDbEntity
  8
0
100
AcDbLine
 10
82.0129
 20
135.755
 30
0.0
 11
82.2543
 21
136.746
 31
0.0
  0
LINE
  5
736
330
1E
100
AcDbEntity
  8
0
100
AcDbLine
 10
81.4513
 20
135.024
 30
0.0
 11
82.0129
 21
135.755
 31
0.0
  0
LINE
  5
737
330
1E
100
AcDbEntity
  8
0
100
AcDbLine
 10
80.7868
 20
134.782
 30
0.0
 11
81.4513
 21
135.024
 31
0.0
  0
LINE
  5
738
330
1E
100
AcDbEntity
  8
0
100
AcDbLine
 10
79.8382
 20
135.114
 30
0.0
 11
80.7868
 21
134.782
 31
0.0
  0
LINE
  5
739
330
1E
100
AcDbEntity
  8
0
100
AcDbLine
 10
79.1494
 20
135.766
 30
0.0
 11
79.8382
 21
135.114
 31
0.0
  0
LINE
  5
73A
330
1E
100
AcDbEntity
  8
0
100
AcDbLine
 10
77.8016
 20
137.746
 30
0.0
 11
79.1494
 21
135.766
 31
0.0
  0
LINE
  5
73B
330
1E
100
AcDbEntity
  8
0
100
AcDbLine
 10
81.989923190457
 20
140.215116486516
 30
0.0
 11
82.2543
 21
136.746
 31
0.0
  0
LINE
  5
73C
330
1E
100
AcDbEntity
  8
0
100
AcDbLine
 10
79.9173
 20
140.078
 30
0.0
 11
80.306126312405
 21
140.912053601977
 31
0.0
  0
LINE
  5
73D
330
1E
100
AcDbEntity
  8
0
100
AcDbLine
 10
82.1318
 20
140.149
 30
0.0
 11
83.2564
 21
139.625
 31
0.0
  0
LINE
  5
73E
330
1E
100
AcDbEntity
  8
0
100
AcDbLine
 10
83.2564
 20
139.625
 30
0.0
 11
83.7195
 21
139.409
 31
0.0
  0
LINE
  5
73F
330
1E
100
AcDbEntity
  8
0
100
AcDbLine
 10
83.7195
 20
139.409
 30
0.0
 11
84.8037
 21
140.006
 31
0.0
  0
LINE
  5
740
330
1E
100
AcDbEntity
  8
0
100
AcDbLine
 10
78.14985642782
 20
140.902335546188
 30
0.0
 11
78.7714
 21
140.612
 31
0.0
  0
LINE
  5
741
330
1E
100
AcDbEntity
  8
0
100
AcDbLine
 10
78.7714
 20
140.612
 30
0.0
 11
79.9173
 21
140.078
 31
0.0
  0
LINE
  5
742
330
1E
100
AcDbEntity
  8
0
100
AcDbLine
 10
79.2558
 20
140.387
 30
0.0
 11
79.9173
 21
140.078
 31
0.0
  0
LINE
  5
743
330
1E
100
AcDbEntity
  8
0
100
AcDbLine
 10
77.338499999981
 20
141.28076767325
 30
0.0
 11
78.1497
 21
140.902
 31
0.0
  0
LINE
  5
744
330
1E
100
AcDbEntity
  8
0
100
AcDbLine
 10
77.338499999981
 20
141.28076767325
 30
0.0
 11
78.1497
 21
140.902
 31
0.0
  0
LINE
  5
745
330
1E
100
AcDbEntity
  8
0
100
AcDbLine
 10
77.4882
 20
141.211
 30
0.0
 11
78.1497
 21
140.902
 31
0.0
  0
LINE
  5
746
330
1E
100
AcDbEntity
  8
0
100
AcDbLine
 10
80.2134
 20
141.043
 30
0.0
 11
82.1318
 21
140.149
 31
0.0
  0
LINE
  5
747
330
1E
100
AcDbEntity
  8
0
100
AcDbLine
 10
76.3424
 20
141.745
 30
0.0
 11
77.4882
 21
141.211
 31
0.0
  0
LINE
  5
748
330
1E
100
AcDbEntity
  8
0
100
AcDbLine
 10
76.3424
 20
141.745
 30
0.0
 11
76.704167112133
 21
142.521010144696
 31
0.0
  0
LINE
  5
749
330
1E
100
AcDbEntity
  8
0
100
AcDbLine
 10
78.4272
 20
141.876
 30
0.0
 11
80.2134
 21
141.043
 31
0.0
  0
LINE
  5
74A
330
1E
100
AcDbEntity
  8
0
100
AcDbLine
 10
76.59013382344
 20
142.733014705924
 30
0.0
 11
78.4272
 21
141.876
 31
0.0
  0
LINE
  5
74B
330
1E
100
AcDbEntity
  8
0
100
AcDbLine
 10
76.590133823441
 20
142.733014705924
 30
0.0
 11
78.4272
 21
141.876
 31
0.0
  0
LINE
  5
74C
330
1E
100
AcDbEntity
  8
0
100
AcDbLine
 10
80.76229294193
 20
141.89055584917
 30
0.0
 11
81.2975
 21
141.641
 31
0.0
  0
LINE
  5
74D
330
1E
100
AcDbEntity
  8
0
100
AcDbLine
 10
78.7175
 20
142.844
 30
0.0
 11
81.2975
 21
141.641
 31
0.0
  0
LINE
  5
74E
330
1E
100
AcDbEntity
  8
0
100
AcDbLine
 10
81.2975
 20
141.641
 30
0.0
 11
83.1498
 21
140.778
 31
0.0
  0
LINE
  5
74F
330
1E
100
AcDbEntity
  8
0
100
AcDbLine
 10
83.1498
 20
140.778
 30
0.0
 11
84.3406
 21
140.222
 31
0.0
  0
LINE
  5
750
330
1E
100
AcDbEntity
  8
0
100
AcDbLine
 10
84.3406
 20
140.222
 30
0.0
 11
84.8037
 21
140.006
 31
0.0
  0
LINE
  5
751
330
1E
100
AcDbEntity
  8
0
100
AcDbLine
 10
85.010459564881
 20
140.449408991366
 30
0.0
 11
98.414
 21
124.311
 31
0.0
  0
LINE
  5
752
330
1E
100
AcDbEntity
  8
0
100
AcDbLine
 10
93.040960048768
 20
157.753904245797
 30
0.0
 11
106.262308615507
 21
141.87422986486
 31
0.0
  0
LINE
  5
753
330
1E
100
AcDbEntity
  8
0
100
AcDbLine
 10
93.065642418702
 20
157.724259161144
 30
0.0
 11
93.6787
 21
159.039
 31
0.0
  0
LINE
  5
754
330
1E
100
AcDbEntity
  8
0
100
AcDbLine
 10
84.8037
 20
140.006
 30
0.0
 11
85.013744603247
 21
140.45645396435
 31
0.0
  0
LINE
  5
755
330
1E
100
AcDbEntity
  8
0
100
AcDbLine
 10
96.8759
 20
120.869
 30
0.0
 11
97.0731
 21
121.31
 31
0.0
  0
LINE
  5
756
330
1E
100
AcDbEntity
  8
0
100
AcDbLine
 10
96.8759
 20
120.869
 30
0.0
 11
153.6595
 21
53.2069
 31
0.0
  0
LINE
  5
757
330
1E
100
AcDbEntity
  8
0
100
AcDbLine
 10
97.0731
 20
121.31
 30
0.0
 11
97.6252
 21
122.546
 31
0.0
  0
LINE
  5
758
330
1E
100
AcDbEntity
  8
0
100
AcDbLine
 10
97.6252
 20
122.546
 30
0.0
 11
98.864308904114
 21
125.318415525124
 31
0.0
  0
LINE
  5
759
330
1E
100
AcDbEntity
  8
0
100
AcDbLine
 10
106.262308615507
 20
141.87422986486
 30
0.0
 11
107.0515
 21
143.639
 31
0.0
  0
LINE
  5
75A
330
1E
100
AcDbEntity
  8
0
100
AcDbLine
 10
106.262308615507
 20
141.87422986486
 30
0.0
 11
107.0515
 21
143.639
 31
0.0
  0
LINE
  5
75B
330
1E
100
AcDbEntity
  8
0
100
AcDbLine
 10
107.0515
 20
143.639
 30
0.0
 11
107.5635
 21
144.787
 31
0.0
  0
LINE
  5
75C
330
1E
100
AcDbEntity
  8
0
100
AcDbLine
 10
107.5635
 20
144.787
 30
0.0
 11
107.7605
 21
145.228
 31
0.0
  0
LINE
  5
75D
330
1E
100
AcDbEntity
  8
0
100
AcDbLine
 10
93.4397
 20
160.253
 30
0.0
 11
93.6787
 21
159.039
 31
0.0
  0
LINE
  5
75E
330
1E
100
AcDbEntity
  8
0
100
AcDbLine
 10
80.3413
 20
166.361
 30
0.0
 11
84.1781
 21
164.573
 31
0.0
  0
LINE
  5
75F
330
1E
100
AcDbEntity
  8
0
100
AcDbLine
 10
84.1781
 20
164.573
 30
0.0
 11
87.4859
 21
163.03
 31
0.0
  0
LINE
  5
760
330
1E
100
AcDbEntity
  8
0
100
AcDbLine
 10
87.4859
 20
163.03
 30
0.0
 11
89.9336
 21
161.888
 31
0.0
  0
LINE
  5
761
330
1E
100
AcDbEntity
  8
0
100
AcDbLine
 10
89.9336
 20
161.888
 30
0.0
 11
91.8521
 21
160.994
 31
0.0
  0
LINE
  5
762
330
1E
100
AcDbEntity
  8
0
100
AcDbLine
 10
91.8521
 20
160.994
 30
0.0
 11
92.9766
 21
160.47
 31
0.0
  0
LINE
  5
763
330
1E
100
AcDbEntity
  8
0
100
AcDbLine
 10
92.9766
 20
160.47
 30
0.0
 11
93.4397
 21
160.253
 31
0.0
  0
LINE
  5
764
330
1E
100
AcDbEntity
  8
0
100
AcDbLine
 10
75.9089
 20
168.429
 30
0.0
 11
80.3413
 21
166.361
 31
0.0
  0
LINE
  5
765
330
1E
100
AcDbEntity
  8
0
100
AcDbLine
 10
71.0136
 20
170.711
 30
0.0
 11
75.9089
 21
168.429
 31
0.0
  0
LINE
  5
766
330
1E
100
AcDbEntity
  8
0
100
AcDbLine
 10
65.8536
 20
173.117
 30
0.0
 11
71.0136
 21
170.711
 31
0.0
  0
LINE
  5
767
330
1E
100
AcDbEntity
  8
0
100
AcDbLine
 10
60.032
 20
175.832
 30
0.0
 11
65.8536
 21
173.117
 31
0.0
  0
LINE
  5
768
330
1E
100
AcDbEntity
  8
0
100
AcDbLine
 10
54.5413
 20
178.392
 30
0.0
 11
60.032
 21
175.832
 31
0.0
  0
LINE
  5
769
330
1E
100
AcDbEntity
  8
0
100
AcDbLine
 10
49.6313
 20
182.888
 30
0.0
 11
93.4397
 21
160.253
 31
0.0
  0
LINE
  5
76A
330
1E
100
AcDbEntity
  8
0
100
AcDbLine
 10
48.786
 20
181.076
 30
0.0
 11
54.5413
 21
178.392
 31
0.0
  0
LINE
  5
76B
330
1E
100
AcDbEntity
  8
0
100
AcDbLine
 10
17.2305
 20
195.791
 30
0.0
 11
21.6624
 21
193.724
 31
0.0
  0
LINE
  5
76C
330
1E
100
AcDbEntity
  8
0
100
AcDbLine
 10
21.6624
 20
193.724
 30
0.0
 11
26.558
 21
191.441
 31
0.0
  0
LINE
  5
76D
330
1E
100
AcDbEntity
  8
0
100
AcDbLine
 10
26.558
 20
191.441
 30
0.0
 11
31.7184
 21
189.035
 31
0.0
  0
LINE
  5
76E
330
1E
100
AcDbEntity
  8
0
100
AcDbLine
 10
31.7184
 20
189.035
 30
0.0
 11
37.5401
 21
186.321
 31
0.0
  0
LINE
  5
76F
330
1E
100
AcDbEntity
  8
0
100
AcDbLine
 10
37.5401
 20
186.321
 30
0.0
 11
43.0302
 21
183.759
 31
0.0
  0
LINE
  5
770
330
1E
100
AcDbEntity
  8
0
100
AcDbLine
 10
43.0302
 20
183.759
 30
0.0
 11
48.786
 21
181.076
 31
0.0
  0
LINE
  5
771
330
1E
100
AcDbEntity
  8
0
100
AcDbLine
 10
13.3939
 20
197.58
 30
0.0
 11
17.2305
 21
195.791
 31
0.0
  0
LINE
  5
772
330
1E
100
AcDbEntity
  8
0
100
AcDbLine
 10
10.0859
 20
199.123
 30
0.0
 11
13.3939
 21
197.58
 31
0.0
  0
LINE
  5
773
330
1E
100
AcDbEntity
  8
0
100
AcDbLine
 10
7.63811
 20
200.264
 30
0.0
 11
10.0859
 21
199.123
 31
0.0
  0
LINE
  5
774
330
1E
100
AcDbEntity
  8
0
100
AcDbLine
 10
5.71988
 20
201.158
 30
0.0
 11
7.63811
 21
200.264
 31
0.0
  0
LINE
  5
775
330
1E
100
AcDbEntity
  8
0
100
AcDbLine
 10
4.59484
 20
201.683
 30
0.0
 11
5.71988
 21
201.158
 31
0.0
  0
LINE
  5
776
330
1E
100
AcDbEntity
  8
0
100
AcDbLine
 10
4.1323
 20
201.898
 30
0.0
 11
4.59484
 21
201.683
 31
0.0
  0
LINE
  5
777
330
1E
100
AcDbEntity
  8
0
100
AcDbLine
 10
4.1323
 20
201.898
 30
0.0
 11
49.6313
 21
182.888
 31
0.0
  0
LINE
  5
778
330
1E
100
AcDbEntity
  8
0
100
AcDbLine
 10
4.1323
 20
201.898
 30
0.0
 11
49.6313
 21
182.888
 31
0.0
  0
LINE
  5
779
330
1E
100
AcDbEntity
  8
0
100
AcDbLine
 10
107.7605
 20
145.228
 30
0.0
 11
171.9905
 21
68.6885
 31
0.0
  0
LINE
  5
77A
330
1E
100
AcDbEntity
  8
0
100
AcDbLine
 10
243.2215
 20
-0.17
 30
0.0
 11
243.3785
 21
-0.17
 31
0.0
  0
LINE
  5
77B
330
1E
100
AcDbEntity
  8
0
100
AcDbLine
 10
243.2215
 20
-0.17
 30
0.0
 11
243.4565
 21
-0.17
 31
0.0
  0
LINE
  5
77C
330
1E
100
AcDbEntity
  8
0
100
AcDbLine
 10
243.2205
 20
-0.17
 30
0.0
 11
243.4575
 21
-0.17
 31
0.0
  0
LINE
  5
77D
330
1E
100
AcDbEntity
  8
0
100
AcDbLine
 10
243.4565
 20
-0.17
 30
0.0
 11
243.7435
 21
0.027346
 31
0.0
  0
LINE
  5
77E
330
1E
100
AcDbEntity
  8
0
100
AcDbLine
 10
243.4565
 20
-0.17
 30
0.0
 11
243.7435
 21
0.027346
 31
0.0
  0
LINE
  5
77F
330
1E
100
AcDbEntity
  8
0
100
AcDbLine
 10
173.8835
 20
-0.032388
 30
0.0
 11
174.1645
 21
6.91278
 31
0.0
  0
LINE
  5
780
330
1E
100
AcDbEntity
  8
0
100
AcDbLine
 10
173.8835
 20
-0.032388
 30
0.0
 11
174.1645
 21
6.91278
 31
0.0
  0
LINE
  5
781
330
1E
100
AcDbEntity
  8
0
100
AcDbLine
 10
173.8835
 20
-0.032388
 30
0.0
 11
174.1095
 21
-0.17
 31
0.0
  0
LINE
  5
782
330
1E
100
AcDbEntity
  8
0
100
AcDbLine
 10
173.8835
 20
-0.032388
 30
0.0
 11
174.1095
 21
-0.17
 31
0.0
  0
LINE
  5
783
330
1E
100
AcDbEntity
  8
0
100
AcDbLine
 10
174.1095
 20
-0.17
 30
0.0
 11
174.1875
 21
-0.17
 31
0.0
  0
LINE
  5
784
330
1E
100
AcDbEntity
  8
0
100
AcDbLine
 10
174.1645
 20
6.91278
 30
0.0
 11
174.2955
 21
7.62186
 31
0.0
  0
LINE
  5
785
330
1E
100
AcDbEntity
  8
0
100
AcDbLine
 10
174.9705
 20
8.48133
 30
0.0
 11
176.0485
 21
8.80537
 31
0.0
  0
LINE
  5
786
330
1E
100
AcDbEntity
  8
0
100
AcDbLine
 10
176.1765
 20
8.80537
 30
0.0
 11
180.3335
 21
9.03
 31
0.0
  0
LINE
  5
787
330
1E
100
AcDbEntity
  8
0
100
AcDbLine
 10
176.0485
 20
8.80537
 30
0.0
 11
176.1775
 21
8.80537
 31
0.0
  0
LINE
  5
788
330
1E
100
AcDbEntity
  8
0
100
AcDbLine
 10
176.0485
 20
8.80537
 30
0.0
 11
176.1765
 21
8.80537
 31
0.0
  0
LINE
  5
789
330
1E
100
AcDbEntity
  8
0
100
AcDbLine
 10
174.2955
 20
7.62186
 30
0.0
 11
174.9705
 21
8.48133
 31
0.0
  0
LINE
  5
78A
330
1E
100
AcDbEntity
  8
0
100
AcDbLine
 10
180.3335
 20
9.03
 30
0.0
 11
180.4755
 21
9.03
 31
0.0
  0
LINE
  5
78B
330
1E
100
AcDbEntity
  8
0
100
AcDbLine
 10
180.4875
 20
9.03
 30
0.0
 11
180.6365
 21
9.03
 31
0.0
  0
LINE
  5
78C
330
1E
100
AcDbEntity
  8
0
100
AcDbLine
 10
180.6365
 20
9.03
 30
0.0
 11
181.1965
 21
9.03
 31
0.0
  0
LINE
  5
78D
330
1E
100
AcDbEntity
  8
0
100
AcDbLine
 10
181.77053157751
 20
9.03
 30
0.0
 11
182.515156785869
 21
9.208496777647
 31
0.0
  0
LINE
  5
78E
330
1E
100
AcDbEntity
  8
0
100
AcDbLine
 10
180.8995
 20
9.03
 30
0.0
 11
181.6045
 21
9.03
 31
0.0
  0
LINE
  5
78F
330
1E
100
AcDbEntity
  8
0
100
AcDbLine
 10
182.515156785869
 20
9.208496777647
 30
0.0
 11
183.1655
 21
9.9023
 31
0.0
  0
LINE
  5
790
330
1E
100
AcDbEntity
  8
0
100
AcDbLine
 10
180.4755
 20
9.03
 30
0.0
 11
180.8995
 21
9.03
 31
0.0
  0
LINE
  5
791
330
1E
100
AcDbEntity
  8
0
100
AcDbLine
 10
183.1655
 20
9.9023
 30
0.0
 11
183.635124425727
 21
10.799497990046
 31
0.0
  0
LINE
  5
792
330
1E
100
AcDbEntity
  8
0
100
AcDbLine
 10
231.5565
 20
9.41036
 30
0.0
 11
233.771279621111
 21
9.03
 31
0.0
  0
LINE
  5
793
330
1E
100
AcDbEntity
  8
0
100
AcDbLine
 10
183.635124425727
 20
10.799497990046
 30
0.0
 11
183.7735
 21
12.0811
 31
0.0
  0
LINE
  5
794
330
1E
100
AcDbEntity
  8
0
100
AcDbLine
 10
183.3785
 20
13.3435
 30
0.0
 11
183.7735
 21
12.0811
 31
0.0
  0
LINE
  5
795
330
1E
100
AcDbEntity
  8
0
100
AcDbLine
 10
229.22417058259
 20
10.309288717557
 30
0.0
 11
231.5565
 21
9.41036
 31
0.0
  0
LINE
  5
796
330
1E
100
AcDbEntity
  8
0
100
AcDbLine
 10
226.5675
 20
12.0152
 30
0.0
 11
227.1895
 21
11.5479
 31
0.0
  0
LINE
  5
797
330
1E
100
AcDbEntity
  8
0
100
AcDbLine
 10
227.1895
 20
11.5479
 30
0.0
 11
229.22417058259
 21
10.309288717557
 31
0.0
  0
LINE
  5
798
330
1E
100
AcDbEntity
  8
0
100
AcDbLine
 10
183.635124425727
 20
10.799497990046
 30
0.0
 11
183.7735
 21
12.0811
 31
0.0
  0
LINE
  5
799
330
1E
100
AcDbEntity
  8
0
100
AcDbLine
 10
182.8875
 20
14.0295
 30
0.0
 11
183.3785
 21
13.3435
 31
0.0
  0
LINE
  5
79A
330
1E
100
AcDbEntity
  8
0
100
AcDbLine
 10
224.6295
 20
14.03
 30
0.0
 11
225.048727285216
 21
13.487019420048
 31
0.0
  0
LINE
  5
79B
330
1E
100
AcDbEntity
  8
0
100
AcDbLine
 10
190.1855
 20
55.0843
 30
0.0
 11
224.6295
 21
14.03
 31
0.0
  0
LINE
  5
79C
330
1E
100
AcDbEntity
  8
0
100
AcDbLine
 10
176.7585
 20
70.6837
 30
0.0
 11
177.6235
 21
70.0004
 31
0.0
  0
LINE
  5
79D
330
1E
100
AcDbEntity
  8
0
100
AcDbLine
 10
175.4925
 20
70.665
 30
0.0
 11
176.7585
 21
70.6837
 31
0.0
  0
LINE
  5
79E
330
1E
100
AcDbEntity
  8
0
100
AcDbLine
 10
175.2135
 20
70.4082
 30
0.0
 11
175.4925
 21
70.665
 31
0.0
  0
LINE
  5
79F
330
1E
100
AcDbEntity
  8
0
100
AcDbLine
 10
177.624381746159
 20
69.999703471503
 30
0.0
 11
189.6765
 21
55.7017
 31
0.0
  0
LINE
  5
7A0
330
1E
100
AcDbEntity
  8
0
100
AcDbLine
 10
241.3515
 20
8.89237
 30
0.0
 11
242.7795
 21
8.2229
 31
0.0
  0
LINE
  5
7A1
330
1E
100
AcDbEntity
  8
0
100
AcDbLine
 10
243.4015
 20
6.91278
 30
0.0
 11
243.7435
 21
0.027346
 31
0.0
  0
LINE
  5
7A2
330
1E
100
AcDbEntity
  8
0
100
AcDbLine
 10
243.4015
 20
6.91278
 30
0.0
 11
243.7435
 21
0.027346
 31
0.0
  0
LINE
  5
7A3
330
1E
100
AcDbEntity
  8
0
100
AcDbLine
 10
242.7795
 20
8.2229
 30
0.0
 11
243.1915
 21
7.62388
 31
0.0
  0
LINE
  5
7A4
330
1E
100
AcDbEntity
  8
0
100
AcDbLine
 10
243.1915
 20
7.62388
 30
0.0
 11
243.4015
 21
6.91278
 31
0.0
  0
LINE
  5
7A5
330
1E
100
AcDbEntity
  8
0
100
AcDbLine
 10
225.048727285216
 20
13.487019420048
 30
0.0
 11
226.5675
 21
12.0152
 31
0.0
  0
LINE
  5
7A6
330
1E
100
AcDbEntity
  8
0
100
AcDbLine
 10
174.1875
 20
-0.17
 30
0.0
 11
243.2205
 21
-0.17
 31
0.0
  0
LINE
  5
7A7
330
1E
100
AcDbEntity
  8
0
100
AcDbLine
 10
233.771279621111
 20
9.03
 30
0.0
 11
241.3515
 21
8.89237
 31
0.0
  0
LINE
  5
7A8
330
1E
100
AcDbEntity
  8
0
100
AcDbLine
 10
233.771279621111
 20
9.03
 30
0.0
 11
181.6045
 21
9.03
 31
0.0
  0
LINE
  5
7A9
330
1E
100
AcDbEntity
  8
0
100
AcDbLine
 10
154.1345
 20
52.7325
 30
0.0
 11
169.427088653744
 21
65.48076344926
 31
0.0
  0
LINE
  5
7AA
330
1E
100
AcDbEntity
  8
0
100
AcDbLine
 10
169.7335
 20
65.7337
 30
0.0
 11
171.938813101317
 21
67.636093027107
 31
0.0
  0
LINE
  5
7AB
330
1E
100
AcDbEntity
  8
0
100
AcDbLine
 10
171.938813101317
 20
67.636093027107
 30
0.0
 11
175.2135
 21
70.4082
 31
0.0
  0
LINE
  5
7AC
330
1E
100
AcDbEntity
  8
0
100
AcDbLine
 10
165.1685
 20
35.1364
 30
0.0
 11
189.6765
 21
55.7017
 31
0.0
  0
LINE
  5
7AD
330
1E
100
AcDbEntity
  8
0
100
AcDbLine
 10
189.6765
 20
55.7017
 30
0.0
 11
190.1855
 21
55.0843
 31
0.0
  0
LINE
  5
7AE
330
1E
100
AcDbEntity
  8
0
100
AcDbLine
 10
190.1855
 20
55.0843
 30
0.0
 11
165.6725
 21
34.5157
 31
0.0
  0
LINE
  5
7AF
330
1E
100
AcDbEntity
  8
0
100
AcDbLine
 10
165.6725
 20
34.5157
 30
0.0
 11
165.1685
 21
35.1364
 31
0.0
  0
LINE
  5
7B0
330
1E
100
AcDbEntity
  8
0
100
AcDbLine
 10
106.262308615507
 20
141.87422986486
 30
0.0
 11
98.864308904114
 21
125.318415525124
 31
0.0
  0
LINE
  5
7B1
330
1E
100
AcDbEntity
  8
0
100
AcDbLine
 10
93.065642418702
 20
157.724259161144
 30
0.0
 11
85.013744603247
 21
140.45645396435
 31
0.0
  0
ENDSEC
  0
SECTION
  2
OBJECTS
  0
DICTIONARY
  5
C
330
0
100
AcDbDictionary
281
     1
  3
ACAD_GROUP
350
D
  3
ACAD_LAYOUT
350
19
  3
ACAD_MLEADERSTYLE
350
7B4
  3
ACAD_MLINESTYLE
350
16
  3
ACAD_PLOTSETTINGS
350
18
  3
ACAD_PLOTSTYLENAME
350
E
  3
ACAD_SCALELIST
350
32B
  3
AcDbVariableDictionary
350
328
  3
DWGPROPS
350
7B7
  0
DICTIONARY
  5
D
102
{ACAD_REACTORS
330
C
102
}
330
C
100
AcDbDictionary
281
     1
  0
DICTIONARY
  5
19
102
{ACAD_REACTORS
330
C
102
}
330
C
100
AcDbDictionary
281
     1
  3
Layout1
350
1D
  3
Model
350
21
  0
DICTIONARY
  5
7B4
102
{ACAD_REACTORS
330
C
102
}
330
C
100
AcDbDictionary
281
     1
  0
DICTIONARY
  5
16
102
{ACAD_REACTORS
330
C
102
}
330
C
100
AcDbDictionary
281
     1
  3
Standard
350
17
  0
DICTIONARY
  5
18
102
{ACAD_REACTORS
330
C
102
}
330
C
100
AcDbDictionary
281
     1
  0
ACDBDICTIONARYWDFLT
  5
E
102
{ACAD_REACTORS
330
C
102
}
330
C
100
AcDbDictionary
281
     1
  3
Normal
350
F
100
AcDbDictionaryWithDefault
340
F
  0
DICTIONARY
  5
32B
102
{ACAD_REACTORS
330
C
102
}
330
C
100
AcDbDictionary
281
     1
  3
A0
350
32C
  3
A1
350
32D
  3
A2
350
32E
  3
A3
350
32F
  3
A4
350
330
  3
A5
350
331
  3
A6
350
332
  3
A7
350
333
  3
A8
350
334
  3
A9
350
335
  3
B0
350
336
  3
B1
350
337
  3
B2
350
338
  3
B3
350
339
  3
B4
350
33A
  3
B5
350
33B
  3
B6
350
33C
  3
B7
350
33D
  3
B8
350
33E
  3
B9
350
33F
  3
C0
350
340
  3
C1
350
341
  3
C2
350
342
  3
C3
350
343
  3
C4
350
344
  3
C5
350
345
  3
C6
350
346
  3
C7
350
347
  3
C8
350
348
  3
C9
350
349
  3
D0
350
34A
  3
D1
350
34B
  3
D2
350
34C
  0
DICTIONARY
  5
328
102
{ACAD_REACTORS
330
C
102
}
330
C
100
AcDbDictionary
281
     1
  3
CANNOSCALE
350
7B5
  3
DIMASSOC
350
329
  0
XRECORD
  5
7B7
102
{ACAD_REACTORS
330
C
102
}
330
C
100
AcDbXrecord
280
     1
  1
DWGPROPS COOKIE
  2

  3

  4

  6

  7

  8
MARTIN
  9

300
=
301
=
302
=
303
=
304
=
305
=
306
=
307
=
308
=
309
=
 40
0.0
 41
2454745.573002199
 42
2456209.510470012
  1

 90
        0
  0
LAYOUT
  5
1D
102
{ACAD_REACTORS
330
19
102
}
330
19
100
AcDbPlotSettings
  1

  2
hp deskjet 980c series
  4

  6

 40
0.0
 41
0.0
 42
0.0
 43
0.0
 44
0.0
 45
0.0
 46
0.0
 47
0.0
 48
0.0
 49
0.0
140
0.0
141
0.0
142
1.0
143
1.0
 70
   688
 72
     0
 73
     0
 74
     5
  7

 75
    16
147
1.0
148
0.0
149
0.0
100
AcDbLayout
  1
Layout1
 70
     1
 71
     1
 10
0.0
 20
0.0
 11
12.0
 21
9.0
 12
0.0
 22
0.0
 32
0.0
 14
1.000000000000E+20
 24
1.000000000000E+20
 34
1.000000000000E+20
 15
-1.000000000000E+20
 25
-1.000000000000E+20
 35
-1.000000000000E+20
146
0.0
 13
0.0
 23
0.0
 33
0.0
 16
1.0
 26
0.0
 36
0.0
 17
0.0
 27
1.0
 37
0.0
 76
     0
330
1A
  0
LAYOUT
  5
21
102
{ACAD_REACTORS
330
19
102
}
330
19
100
AcDbPlotSettings
  1

  2
hp deskjet 980c series
  4

  6

 40
0.0
 41
0.0
 42
0.0
 43
0.0
 44
0.0
 45
0.0
 46
0.0
 47
0.0
 48
0.0
 49
0.0
140
0.0
141
0.0
142
1.0
143
1.0
 70
  1712
 72
     0
 73
     0
 74
     0
  7

 75
     0
147
1.0
148
0.0
149
0.0
100
AcDbLayout
  1
Model
 70
     1
 71
     0
 10
0.0
 20
0.0
 11
12.0
 21
9.0
 12
0.0
 22
0.0
 32
0.0
 14
-5.8268
 24
-0.17
 34
0.0
 15
254.8905
 25
201.898
 35
0.0
146
0.0
 13
0.0
 23
0.0
 33
0.0
 16
1.0
 26
0.0
 36
0.0
 17
0.0
 27
1.0
 37
0.0
 76
     0
330
1E
331
32A
  0
MLINESTYLE
  5
17
102
{ACAD_REACTORS
330
16
102
}
330
16
100
AcDbMlineStyle
  2
STANDARD
 70
     0
  3

 62
   256
 51
90.0
 52
90.0
 71
     2
 49
0.5
 62
   256
  6
BYLAYER
 49
-0.5
 62
   256
  6
BYLAYER
  0
ACDBPLACEHOLDER
  5
F
102
{ACAD_REACTORS
330
E
102
}
330
E
  0
SCALE
  5
32C
102
{ACAD_REACTORS
330
32B
102
}
330
32B
100
AcDbScale
 70
     0
300
1:1
140
1.0
141
1.0
290
     1
  0
SCALE
  5
32D
102
{ACAD_REACTORS
330
32B
102
}
330
32B
100
AcDbScale
 70
     0
300
1:2
140
1.0
141
2.0
290
     0
  0
SCALE
  5
32E
102
{ACAD_REACTORS
330
32B
102
}
330
32B
100
AcDbScale
 70
     0
300
1:4
140
1.0
141
4.0
290
     0
  0
SCALE
  5
32F
102
{ACAD_REACTORS
330
32B
102
}
330
32B
100
AcDbScale
 70
     0
300
1:5
140
1.0
141
5.0
290
     0
  0
SCALE
  5
330
102
{ACAD_REACTORS
330
32B
102
}
330
32B
100
AcDbScale
 70
     0
300
1:8
140
1.0
141
8.0
290
     0
  0
SCALE
  5
331
102
{ACAD_REACTORS
330
32B
102
}
330
32B
100
AcDbScale
 70
     0
300
1:10
140
1.0
141
10.0
290
     0
  0
SCALE
  5
332
102
{ACAD_REACTORS
330
32B
102
}
330
32B
100
AcDbScale
 70
     0
300
1:16
140
1.0
141
16.0
290
     0
  0
SCALE
  5
333
102
{ACAD_REACTORS
330
32B
102
}
330
32B
100
AcDbScale
 70
     0
300
1:20
140
1.0
141
20.0
290
     0
  0
SCALE
  5
334
102
{ACAD_REACTORS
330
32B
102
}
330
32B
100
AcDbScale
 70
     0
300
1:30
140
1.0
141
30.0
290
     0
  0
SCALE
  5
335
102
{ACAD_REACTORS
330
32B
102
}
330
32B
100
AcDbScale
 70
     0
300
1:40
140
1.0
141
40.0
290
     0
  0
SCALE
  5
336
102
{ACAD_REACTORS
330
32B
102
}
330
32B
100
AcDbScale
 70
     0
300
1:50
140
1.0
141
50.0
290
     0
  0
SCALE
  5
337
102
{ACAD_REACTORS
330
32B
102
}
330
32B
100
AcDbScale
 70
     0
300
1:100
140
1.0
141
100.0
290
     0
  0
SCALE
  5
338
102
{ACAD_REACTORS
330
32B
102
}
330
32B
100
AcDbScale
 70
     0
300
2:1
140
2.0
141
1.0
290
     0
  0
SCALE
  5
339
102
{ACAD_REACTORS
330
32B
102
}
330
32B
100
AcDbScale
 70
     0
300
4:1
140
4.0
141
1.0
290
     0
  0
SCALE
  5
33A
102
{ACAD_REACTORS
330
32B
102
}
330
32B
100
AcDbScale
 70
     0
300
8:1
140
8.0
141
1.0
290
     0
  0
SCALE
  5
33B
102
{ACAD_REACTORS
330
32B
102
}
330
32B
100
AcDbScale
 70
     0
300
10:1
140
10.0
141
1.0
290
     0
  0
SCALE
  5
33C
102
{ACAD_REACTORS
330
32B
102
}
330
32B
100
AcDbScale
 70
     0
300
100:1
140
100.0
141
1.0
290
     0
  0
SCALE
  5
33D
102
{ACAD_REACTORS
330
32B
102
}
330
32B
100
AcDbScale
 70
     0
300
1/128" = 1'-0"
140
0.0078125
141
12.0
290
     0
  0
SCALE
  5
33E
102
{ACAD_REACTORS
330
32B
102
}
330
32B
100
AcDbScale
 70
     0
300
1/64" = 1'-0"
140
0.015625
141
12.0
290
     0
  0
SCALE
  5
33F
102
{ACAD_REACTORS
330
32B
102
}
330
32B
100
AcDbScale
 70
     0
300
1/32" = 1'-0"
140
0.03125
141
12.0
290
     0
  0
SCALE
  5
340
102
{ACAD_REACTORS
330
32B
102
}
330
32B
100
AcDbScale
 70
     0
300
1/16" = 1'-0"
140
0.0625
141
12.0
290
     0
  0
SCALE
  5
341
102
{ACAD_REACTORS
330
32B
102
}
330
32B
100
AcDbScale
 70
     0
300
3/32" = 1'-0"
140
0.09375
141
12.0
290
     0
  0
SCALE
  5
342
102
{ACAD_REACTORS
330
32B
102
}
330
32B
100
AcDbScale
 70
     0
300
1/8" = 1'-0"
140
0.125
141
12.0
290
     0
  0
SCALE
  5
343
102
{ACAD_REACTORS
330
32B
102
}
330
32B
100
AcDbScale
 70
     0
300
3/16" = 1'-0"
140
0.1875
141
12.0
290
     0
  0
SCALE
  5
344
102
{ACAD_REACTORS
330
32B
102
}
330
32B
100
AcDbScale
 70
     0
300
1/4" = 1'-0"
140
0.25
141
12.0
290
     0
  0
SCALE
  5
345
102
{ACAD_REACTORS
330
32B
102
}
330
32B
100
AcDbScale
 70
     0
300
3/8" = 1'-0"
140
0.375
141
12.0
290
     0
  0
SCALE
  5
346
102
{ACAD_REACTORS
330
32B
102
}
330
32B
100
AcDbScale
 70
     0
300
1/2" = 1'-0"
140
0.5
141
12.0
290
     0
  0
SCALE
  5
347
102
{ACAD_REACTORS
330
32B
102
}
330
32B
100
AcDbScale
 70
     0
300
3/4" = 1'-0"
140
0.75
141
12.0
290
     0
  0
SCALE
  5
348
102
{ACAD_REACTORS
330
32B
102
}
330
32B
100
AcDbScale
 70
     0
300
1" = 1'-0"
140
1.0
141
12.0
290
     0
  0
SCALE
  5
349
102
{ACAD_REACTORS
330
32B
102
}
330
32B
100
AcDbScale
 70
     0
300
1-1/2" = 1'-0"
140
1.5
141
12.0
290
     0
  0
SCALE
  5
34A
102
{ACAD_REACTORS
330
32B
102
}
330
32B
100
AcDbScale
 70
     0
300
3" = 1'-0"
140
3.0
141
12.0
290
     0
  0
SCALE
  5
34B
102
{ACAD_REACTORS
330
32B
102
}
330
32B
100
AcDbScale
 70
     0
300
6" = 1'-0"
140
6.0
141
12.0
290
     0
  0
SCALE
  5
34C
102
{ACAD_REACTORS
330
32B
102
}
330
32B
100
AcDbScale
 70
     0
300
1'-0" = 1'-0"
140
12.0
141
12.0
290
     0
  0
DICTIONARYVAR
  5
7B5
102
{ACAD_REACTORS
330
328
102
}
330
328
100
DictionaryVariables
280
     0
  1
1:1
  0
DICTIONARYVAR
  5
329
102
{ACAD_REACTORS
330
328
102
}
330
328
100
DictionaryVariables
280
     0
  1
1
  0
ENDSEC
  0
SECTION
  2
THUMBNAILIMAGE
 90
    16364
310
28000000B40000005500000001000800000000000000000000000000000000000000000000000000FFFFFF000000FF0000FFFF0000FF0000FFFF0000FF000000FF00FF000000000080808000C0C0C0000000FF007F7FFF000000A5005252A50000007F003F3F7F0000004C0026264C000000260013132600003FFF007F9FFF
310
000029A5005267A500001F7F003F4F7F0000134C00262F4C000009260013172600007FFF007FBFFF000052A500527CA500003F7F003F5F7F0000264C0026394C0000132600131C260000BFFF007FDFFF00007CA5005291A500005F7F003F6F7F0000394C0026424C00001C26001321260000FFFF007FFFFF0000A5A50052A5
310
A500007F7F003F7F7F00004C4C00264C4C00002626001326260000FFBF007FFFDF0000A57C0052A59100007F5F003F7F6F00004C3900264C420000261C001326210000FF7F007FFFBF0000A5520052A57C00007F3F003F7F5F00004C2600264C39000026130013261C0000FF3F007FFF9F0000A5290052A56700007F1F003F
310
7F4F00004C1300264C2F00002609001326170000FF00007FFF7F0000A5000052A55200007F00003F7F3F00004C0000264C260000260000132613003FFF00009FFF7F0029A5000067A552001F7F00004F7F3F00134C00002F4C260009260000172613007FFF0000BFFF7F0052A500007CA552003F7F00005F7F3F00264C0000
310
394C2600132600001C261300BFFF0000DFFF7F007CA5000091A552005F7F00006F7F3F00394C0000424C26001C26000021261300FFFF0000FFFF7F00A5A50000A5A552007F7F00007F7F3F004C4C00004C4C26002626000026261300FFBF0000FFDF7F00A57C0000A59152007F5F00007F6F3F004C3900004C422600261C00
310
0026211300FF7F0000FFBF7F00A5520000A57C52007F3F00007F5F3F004C2600004C39260026130000261C1300FF3F0000FF9F7F00A5290000A56752007F1F00007F4F3F004C1300004C2F26002609000026171300FF000000FF7F7F00A5000000A55252007F0000007F3F3F004C0000004C2626002600000026131300FF00
310
3F00FF7F9F00A5002900A55267007F001F007F3F4F004C0013004C262F002600090026131700FF007F00FF7FBF00A5005200A5527C007F003F007F3F5F004C0026004C2639002600130026131C00FF00BF00FF7FDF00A5007C00A55291007F005F007F3F6F004C0039004C26420026001C0026132100FF00FF00FF7FFF00A5
310
00A500A552A5007F007F007F3F7F004C004C004C264C002600260026132600BF00FF00DF7FFF007C00A5009152A5005F007F006F3F7F0039004C0042264C001C002600211326007F00FF00BF7FFF005200A5007C52A5003F007F005F3F7F0026004C0039264C00130026001C1326003F00FF009F7FFF002900A5006752A500
310
1F007F004F3F7F0013004C002F264C000900260017132600000000002D2D2D005B5B5B0089898900B7B7B700B3B3B30000000000000000000000000000000000000000000000000000000000000000000000000000000000000000000000000000000000000000000000000000000000000000000000000000000000000000
310
00000000000000000000000000000000000000000000000000000000000000070707070707070707070707070707070707070707070707070707070707000000000000000000000000000000000000000000000000000000000000000000000000000000000000000000000000000000000000000000000000000000000000
310
00000000000000000000000000000000000000000000000000000000000000000000000000000000000000000000000000000000000000000000000000000000000000000000000000000000000000000000000007000000000000000000000000000000000000000000000000000000000700000000000000000000000000
310
00000000000000000000000000000000000000000000000000000000000000000000000000000000000000000000000000000000000000000000000000000000000000000000000000000000000000000000000000000000000000000000000000000000000000000000000000000000000000000000000000000000000000
310
00000000000000000000070000000000000000000000000000000000000000000000000000000007000000000000000000000000000000000000000000000000000000000000000000000000000000000000000000000000000000000000000000000000000000000000000000000000000000000000000000000000000000
310
00000000000000000000000000000000000000000000000000000000000000000000000000000000000000000000000000000000000000000000000000000007070000000000000000000000000000000000000000000000000000000700000000000000000000000000000000000000000000000000000000000000000000
310
00000000000000000000000000000000000000000000000000000000000000000000000000000000000000000000000000000000000000000000000000000000000000000000000000000000000000000000000000000000000000000000000000000000000000000000000000000000000000000007070707070707070707
310
07070707070707070707070707070707070700000000000000000000000000000000000000000000000000000000000000000000000000000000000000000000000000000000000000000000000000000000000000000000000000000000000000000000000000000000000000000000000000000000000000000000000000
310
00000000000000000000000000000000000000000000000000000000000000000000000000000000000000070000070000000000000000000000000000000007070707000000000000000000000000000000000000000000000000000000000000000000000000000000000000000000000000000000000000000000000000
310
00000000000000000000000000000000000000000000000000000000000000000000000000000000000000000000000000000000000000000000000000000000000000000000000000000000000000000000000000000000000000000000000007000007000000000000000000000000000000000700070700000000000000
310
00000000000000000000000000000000000000000000000000000000000000000000000000000000000000000000000000000000000000000000000000000000000000000000000000000000000000000000000000000000000000000000000000000000000000000000000000000000000000000000000000000000000000
310
00000000000000000000000000000000000000000000070007000000000000000000000000000000000700000707000000000000000000000000000000000000000000000000000000000000000000000000000000000000000000000000000000000000000000000000000000000000000000000000000000000000000000
310
00000000000000000000000000000000000000000000000000000000000000000000000000000000000000000000000000000000000000000000000000000000000000000000000000000007070000000000000000000000000000000007000000070700000000000000000000000000000000000000000000000000000000
310
00000000000000000000000000000000000000000000000000000000000000000000000000000000000000000000000000000000000000000000000000000000000000000000000000000000000000000000000000000000000000000000000000000000000000000000000000000000000000000000000000000000000000
310
00070000000000000000000000000000000000070000000707000000000000000000000000000000000000000000000000000000000000000000000000000000000000000000000000000000000000000000000000000000000000000000000000000000000000000000000000000000000000000000000000000000000000
310
00000000000000000000000000000000000000000000000000000000000000000000000000000000000000000000000000000000000707000000000000000000000000000000000700000000070700000000000000000000000000000000000000000000000000000000000000000000000000000000000000000000000000
310
00000000000000000000000000000000000000000000000000000000000000000000000000000000000000000000000000000000000000000000000000000000000000000000000000000000000000000000000000000000000000000000000000000000000000000000070000000000000000000000000000000007000000
310
00000707000000000000000000000000000000000000000000000000000000000000000000000000000000000000000000000000000000000000000000000000000000000000000000000000000000000000000000000000000000000000000000000000000000000000000000000000000000000000000000000000000000
310
00000000000000000000000000000000000000000000000000000000000000070000000000000000000000000000000007000000000000070700000000000000000000000000000000000000000000000000000000000000000000000000000000000000000000000000000000000000000000000000000000000000000000
310
00000000000000000000000000000000000000000000000000000000000000000000000000000000000000000000000000000000000000000000000000000000000000000000000000000000000000000000000700000000000000000000000000000000070000000000000007000700000000000000000000000000000000
310
00000000000000000000000000000000000000000000000000000000000000000000000000000000000000000000000000000000000000000000000000000000000000000000000000000000000000000000000000000000000000000000000000000000000000000000000000000000000000000000000000000000000000
310
00000000000000000700000000000000000000000000000000070000000000000000070007000000000000000000000000000000000000000000000000000000000000000000000000000000000000000000000000000000000000000000000000000000000000000000000000000000000000000000000000000000000000
310
00000000000000000000000000000000000000000000000000000000000000000000000000000000000000000000000000000000000000000000000007000700000000000000000000000000000007000000000000000007000700000000000000000000000000000000000000000000000000000000000000000000000000
310
00000000000000000000000000000000000000000000000000000000000000000000000000000000000000000000000000000000000000000000000000000000000000000000000000000000000000000000000000000000000000000000000000000000000000000000000000000000070000000700000000000000000000
310
00000007000000000000000000070007000000000000000000000000000000000000000000000000000000000000000000000000000000000000000000000000000000000000000000000000000000000000000000000000000000000000000000000000000000000000000000000000000000000000000000000000000000
310
00000000000000000000000000000000000000000000000000000000000000000000000000070000000000070000000000000000000000070000000000000000000007000707000000000000000000000000000000000000000000000000000000000000000000000000000000000000000000000000000000000000000000
310
00000000000000000000000000000000000000000000000000000000000000000000000000000000000000000000000000000000000000000000000000000000000000000000000000000000000000000000000000000000000007000000000000070000000000000000000700000000000000000000000700070700000000
310
00000000000000000000000000000000000000000000000000000000000000000000000000000000000000000000000000000000000000000000000000000000000000000000000000000000000000000000000000000000000000000000000000000000000000000000000000000000000000000000000000000000000000
310
00000000000000000000000000000007000000000000000007070000000000000700000000000000000000000007000700070000000000000000000000000000000000000000000000000000000000000000000000000000000000000000000000000000000000000000000000000000000000000000000000000000000000
310
00000000000000000000000000000000000000000000000000000000000000000000000000000000000000000000000000000000000000000000000000000000000000070000000000000000000000070000000007000000000000000000000000000700070007000000000000000000000000000000000000000000000000
310
00000000000000000000000000000000000000000000000000000000000000000000000000000000000000000000000000000000000000000000000000000000000000000000000000000000000000000000000000000000000000000000000000000000000000000000000000000000000000000000000007000000000000
310
00000000000007000000070000000000000000000000000007000700000707070707070700000000000000000000000000000000000000000000000000000000000000000000000000000000000000000000000000000000000000000000000000000000000000000000000000000000000000000000000000000000000000
310
00000000000000000000000000000000000000000000000000000000000000000000000000000000000000000000070700000000000000000000000007000700000000000000000000000000000700070707000000000000070000000000000000000000000000000000000000000000000000000000000000000000000000
310
00000000000000000000000000000000000000000000000000000000000000000000000000000000000000000000000000000000000000000000000000000000000000000000000000000000000000000000000000000000000000000000000000000700070700000000000000000000000007070707070707070707070707
310
07070707000700070707070707070700000000000000000000000000000000000000000000000000000000000000000000000000000000000000000000000000000000000000000000000000000000000000000000000000000000000000000000000000000000000000000000000000000000000000000000000000000000
310
00000000000000000000000000000000000000000000000700000000070000000000000000000007000000000000000000000000000000000000070000000000000000000000000000000000000000000000000000000000000000000000000000000000000000000000000000000000000000000000000000000000000000
310
00000000000000000000000000000000000000000000000000000000000000000000000000000000000000000000000000000000000000000000000000000000000000000000000000000000070000000000070000000000000000070000000000000000000000000000000000000007000000000000000000000000000000
310
00000000000000000000000000000000000000000000000000000000000000000000000000000000000000000000000000000000000000000000000000000000000000000000000000000000000000000000000000000000000000000000000000000000000000000000000000000000000000000000000000000000000000
310
00070000000000000007070000000000070000000000000000000000000000000000000000070000000000000000000000000000000000000000000000000000000000000000000000000000000000000000000000000000000000000000000000000000000000000000000000000000000000000000000000000000000000
310
00000000000000000000000000000000000000000000000000000000000000000000000000000000000000000000000000000000000700000000000000000007070000000007000000000000000000000000000000000000000007000000000000000000000000000000000000000000000000000000000000000000000000
310
00000000000000000000000000000000000000000000000000000000000000000000000000000000000000000000000000000000000000000000000000000000000000000000000000000000000000000000000000000000000000000000000000000000000000000007000000000000000000000007070000070000000000
310
00000000000000000000000000000000070000000000000000000000000000000000000000000000000000000000000000000000000000000000000000000000000000000000000000000000000000000000000000000000000000000000000000000000000000000000000000000000000000000000000000000000000000
310
00000000000000000000000000000000000000000000000000000000000007000000000000000000000000070007070000000000000000000000000000000000000000000007000000000000000000000000000000000000000000000000000000000000000000000000000000000000000000000000000000000000000000
310
00000000000000000000000000000000000000000000000000000000000000000000000000000000000000000000000000000000000000000000000000000000000000000000000000000000000000000000070000000000000000000000000700000000000000000000000000000000000000000000000000000700000000
310
00000000000000000000000000000000000000000000000000000000000000000000000000000000000000000000000000000000000000000000000000000000000000000000000000000000000000000000000000000000000000000000000000000000000000000000000000000000000000000000000000000000000000
310
00000000000000000700000000000000000000000700000000000000000000000000000000000000000000000000000007000000000000000000000000000000000000000000000000000000000000000000000000000000000000000000000000000000000000000000000000000000000000000000000000000000000000
310
00000000000000000000000000000000000000000000000000000000000000000000000000000000000000000000000000000000000000000000000007000000000000000000000000070000000000000000000000000000000000000000000000000000000700000000000000000000000000000000000000000000000000
310
00000000000000000000000000000000000000000000000000000000000000000000000000000000000000000000000000000000000000000000000000000000000000000000000000000000000000000000000000000000000000000000000000000000000000000000000000000000070000000000000000000000000700
310
00000000000000000000000000000000000000000000000000000007000000000000000000000000000000000000000000000000000000000000000000000000000000000000000000000000000000000000000000000000000000000000000000000000000000000000000000000000000000000000000000000000000000
310
00000000000000000000000000000000000000000000000000000000000000000000000000070000000000000000000000000700000000000000000000000000000000000000000000000000000000000007000000000000000000000000000000000000000000000000000000000000000000000000000000000000000000
310
00000000000000000000000000000000000000000000000000000000000000000000000000000000000000000000000000000000000000000000000000000000000000000000000000000000000000000000000000000000000700000000000000000000000007000000000000000000000000000000000000000000000000
310
00000000000000070000000000000000000000000000000000000000000000000000000000000000000000000000000000000000000000000000000000000000000000000000000000000000000000000000000000000000000000000000000000000000000000000000000000000000000000000000000000000000000000
310
00000000000000000000000000000700000000000000000000000007000000000000000000000000000000000000000000000000000000000000000007000000000000000000000000000000000000000000000000000000000000000000000000000000000000000000000000000000000000000000000000000000000000
310
00000000000000000000000000000000000000000000000000000000000000000000000000000000000000000000000000000000000000000000000000000000000000070000000000000000000000070000000000000000000000000000000000000000000000000000000000000000000700000000000000000000000000
310
00000000000000000000000000000000000000000000000000000000000000000000000000000000000000000000000000000000000000000000000000000000000000000000000000000000000000000000000000000000000000000000000000000000000000000000000000000000000000000000000700000000000000
310
00000000000700000000000000000000000000000000000000000000000000000000000000000007000000000000000000000000000000000000000000000000000000000000000000000000000000000000000000000000000000000000000000000000000000000000000000000000000000000000000000000000000000
310
00000000000000000000000000000000000000000000000000000000000000000000000000000000000000000700000000000000000000000007000000000000000000000000000000000000000000000000000000000000000000000700000000000000000000000000000000000000000000000000000000000000000000
310
00000000000000000000000000000000000000000000000000000000000000000000000000000000000000000000000000000000000000000000000000000000000000000000000000000000000000000000000000000000000000000000000007000000000000000000000000070000000000000000000000000000000000
310
00000000000000000000000000000000000007000000000000000000000000000000000000000000000000000000000000000000000000000000000000000000000000000000000000000000000000000000000000000000000000000000000000000000000000000000000000000000000000000000000000000000000000
310
00000000000000000000000000000000000000000007000000000000000000000000070000000000000000000000000000000000000000000000000000000000000000000000000007000000000000000000000000000000000000000000000000000000000000000000000000000000000000000000000000000000000000
310
00000000000000000000000000000000000000000000000000000000070000000000000000000000000000000000000000000000000000000000000000000000000000000000000000000700000000000000000000000700000000000000000000000000000000000000000000000000000000000000000000000000000700
310
00000000000000000000000000000000000000000000000000000000000000000000000000000000000000000000000000000000000000000000000000000000000000000000000000000000000000000007070700000000000000000000000000000000000000000000000000000000000000000000000000000000000007
310
00000000000000000000000700000000000000000000000000000000000000000000000000000000000000000000000000000007000000000000000000000000000000000000000000000000000000000000000000000000000000000000000000000000000000000000000000000000000000000000000000000000000000
310
00000000000007070707070707070707070707070707070707070707070707070707070707070707070707070707070707070707000000000000000000000007070707070707070707070707070707070707070707070707070707070707070707070707070707070707000000000000000000000000000000000000000000
310
00000000000000000000000000000000000000000000000000000000000000000000000000000000000000000000000000000000000000000000000700000000000000000000000000000000000000000000000000000000000000000000000000000000000000070000000000000000000000000700000000000000000000
310
00000000000000000000000000000000000000000000000000000000000000070000000000000000000000000000000000000000000000000000000000000000000000000000000000000000000000000000000000000000000000000000000000000000000000000000000000000000070000000000000000000000000000
310
00000000000000000000000000000000000000000000000000000000070000000000000000000000000700000000000000000000000000000000000000000000000000000000000000000000000000000000000007000000000000000000000000000000000000000000000000000000000000000000000000000000000000
310
00000000000000000000000000000000000000000000000000000000000000000000000000000700000000000000000000000000000000000000000000000000000000000000000000000000000000000700000000000000000000000007000000000000000000000000000000000000000000000000000000000000000000
310
00000000000000000000070000000000000000000000000000000000000000000000000000000000000000000000000000000000000000000000000000000000000000000000000000000000000000000000000000000000000000070707070707070707070707070707070707070707070707070707070707070707070707
310
07070707070007000000000000000000000007070707070707070707070707070707070707070707070707070707070707070707070707070707070707070707000000000000000000000000000000000000000000000000000000000000000000000000000000000000000000000000000000000000000000000000000000
310
00000000000000000000000000000000000000000000000000000000000000000000000000000000000000000000000000000000000000000000070000000000000000000000070000000000000000000000000000000000000000000000000000000000000000000000000000000000000000000000000000000000000000
310
00000000000000000000000000000000000000000000000000000000000000000000000000000000000000000000000000000000000000000000000000000000000000000000000000000000000000000000000000000000000000000000000000000000000000000000000000000700000000000000000000000700000000
310
00000000000000000000000000000000000000000000000000000000000000000000000000000000000000000000000000000000000000000000000000000000000000000000000000000000000000000000000000000000000000000000000000000000000000000000000000000000000000000000000000000000000000
310
00000000000000000000000000000000000000000000000000000000000000000000000007000000000000000000000007000000000000000000000000000000000000000000000000000000000000000000000000000000000000000000000000000000000000000000000000000000000000000000000000000000000000
310
00000000000000000000000000000000000000000000000000000000000000000000000000000000000000000000000000000000000000000000000000000000000000000000000000000000000000000000000000000000070000000000000000000000070000000000000000000000000000000000000000000000000000
310
00000000000000000000000000000000000000000000000000000000000000000000000000000000000000000000000000000000000000000000000000000000000000000000000000000000000000000000000000000000000000000000000000000000000000000000000000000000000000000000000000000000000000
310
00000000000000000000000000000707000000000000000000070000000000000000000000000000000000000000000000000000000000000000000000000000000000000000000000000000000000000000000000000000000000000000000000000000000000000000000000000000000000000000000000000000000000
310
00000000000000000000000000000000000000000000000000000000000000000000000000000000000000000000000000000000000000000000000000000000000007000007000000000000000700000000000000000000000000000000000000000000000000000000000000000000000000000000000000000000000000
310
00000000000000000000000000000000000000000000000000000000000000000000000000000000000000000000000000000000000000000000000000000000000000000000000000000000000000000000000000000000000000000000000000000000000000000000000000000000000007000000070000000700000000
310
00000700000000000000000000000000000000000000000000000000000000000000000000000000000000000000000000000000000000000000000000000000000000000000000000000000000000000000000000000000000000000000000000000000000000000000000000000000000000000000000000000000000000
310
00000000000000000000000000000000000000000000000000000000000000000000000000000007070000070000000000070000000007000000000000000000000000000000000000000000000000000000000000000000000000000000000000000000000000000000000000000000000000000000000000000000000000
310
00000000000000000000000000000000000000000000000000000000000000000000000000000000000000000000000000000000000000000000000000000000000000000000000000000000000000000000000000000000000000000707070007000000000007000000000700000000000000000000000000000000000000
310
00000000000000000000000000000000000000000000000000000000000000000000000000000000000000000000000000000000000000000000000000000000000000000000000000000000000000000000000000000000000000000000000000000000000000000000000000000000000000000000000000000000000000
310
00000000000000000000000000000000000707070707000000000000000700000700000000000000000000000000000000000000000000000000000000000000000000000000000000000000000000000000000000000000000000000000000000000000000000000000000000000000000000000000000000000000000000
310
00000000000000000000000000000000000000000000000000000000000000000000000000000000000000000000000000000000000000000000000000000000000000070707070700000700000000000007000707000000000000000000000000000000000000000000000000000000000000000000000000000000000000
310
00000000000000000000000000000000000000000000000000000000000000000000000000000000000000000000000000000000000000000000000000000000000000000000000000000000000000000000000000000000000000000000000000000000000000000000000000000000000000000000070707070700000000
310
00070000000000070007000000000000000000000000000000000000000000000000000000000000000000000000000000000000000000000000000000000000000000000000000000000000000000000000000000000000000000000000000000000000000000000000000000000000000000000000000000000000000000
310
00000000000000000000000000000000000000000000000000000000000000000000000000000000000007070707070000000000000007000000000700000000000000000000000000000000000000000000000000000000000000000000000000000000000000000000000000000000000000000000000000000000000000
310
00000000000000000000000000000000000000000000000000000000000000000000000000000000000000000000000000000000000000000000000000000000000000000000000000000000000000000000000000000000000000000707070707070000000000000000000007000007000000000000000000000000000000
310
00000000000000000000000000000000000000000000000000000000000000000000000000000000000000000000000000000000000000000000000000000000000000000000000000000000000000000000000000000000000000000000000000000000000000000000000000000000000000000000000000000000000000
310
00000000000000000000000000000007070700070707000000000000000000000000070007000000000000000000000000000000000000000000000000000000000000000000000000000000000000000000000000000000000000000000000000000000000000000000000000000000000000000000000000000000000000
310
00000000000000000000000000000000000000000000000000000000000000000000000000000000000000000000000000000000000000000000000000000000000007070707070707000000000000000000000000000000070700000000000000000000000000000000000000000000000000000000000000000000000000
310
00000000000000000000000000000000000000000000000000000000000000000000000000000000000000000000000000000000000000000000000000000000000000000000000000000000000000000000000000000000000000000000000000000000000000000000000000000000000000000000070700070700000000
310
00000000000000000000000000000700000000000000000000000000000000000000000000000000000000000000000000000000000000000000000000000000000000000000000000000000000000000000000000000000000000000000000000000000000000000000000000000000000000000000000000000000000000
310
00000000000000000000000000000000000000000000000000000000000000000000000000000000000707070707070000000000000000000000000000000000000000070000000000000000000000000000000000000000000000000000000000000000000000000000000000000000000000000000000000000000000000
310
00000000000000000000000000000000000000000000000000000000000000000000000000000000000000000000000000000000000000000000000000000000000000000000000000000000000000000000000000000000000000000707070707070000000000000000000000000000000000000000070700000000000000
310
00000000000000000000000000000000000000000000000000000000000000000000000000000000000000000000000000000000000000000000000000000000000000000000000000000000000000000000000000000000000000000000000000000000000000000000000000000000000000000000000000000000000000
310
00000000000000000000000000000000070707070707000000000000000000000000000000000000000007070000000000000000000000000000000000000000000000000000000000000000000000000000000000000000000000000000000000000000000000000000000000000000000000000000000000000000000000
310
00000000000000000000000000000000000000000000000000000000000000000000000000000000000000000000000000000000000000000000000000000000000000070707070707000000000000000000000000000000000000000707070000000000000000000000000000000000000000000000000000000000000000
310
00000000000000000000000000000000000000000000000000000000000000000000000000000000000000000000000000000000000000000000000000000000000000000000000000000000000000000000000000000000000000000000000000000000000000000000000000000000000000000000000707070707070000
310
00000000000000000000000000000000070707000000000000000000000000000000000000000000000000000000000000000000000000000000000000000000000000000000000000000000000000000000000000000000000000000000000000000000000000000000000000000000000000000000000000000000000000
310
00000000000000000000000000000000000000000000000000000000000000000000000000000000000000070707070707000000000000000000000000000000000007070707000000000000000000000000000000000000000000000000000000000000000000000000000000000000000000000000000000000000000000
310
00000000000000000000000000000000000000000000000000000000000000000000000000000000000000000000000000000000000000000000000000000000000000000000000000000000000000000000000000000000000000000000070707070707000000000000000000000000000000000007070707000000000000
310
00000000000000000000000000000000000000000000000000000000000000000000000000000000000000000000000000000000000000000000000000000000000000000000000000000000000000000000000000000000000000000000000000000000000000000000000000000000000000000000000000000000000000
310
00000000000000000000000000000000000007070707070700000000000000000000000000000000000707070700000000000000000000000000000000000000000000000000000000000000000000000000000000000000000000000000000000000000000000000000000000000000000000000000000000000000000000
310
00000000000000000000000000000000000000000000000000000000000000000000000000000000000000000000000000000000000000000000000000000000000000000000070707000000000000000000000000000000000000000007070700000000000000000000000000000000000000000000000000000000000000
310
00000000000000000000000000000000000000000000000000000000000000000000000000000000000000000000000000000000000000000000000000000000000000000000000000000000000000000000000000000000000000000000000000000000000000000000000000000000000000000000000000000707000000
310
00000000000000000000000000000000000707070000000000000000000000000000000000000000000000000000000000000000000000000000000000000000000000000000000000000000000000000000000000000000000000000000000000000000000000000000000000000000000000000000000000000000000000
310
00000000000000000000000000000000000000000000000000000000000000000000000000000000000000000000000007000000000000000000000000000000000000000707000000000000000000000000000000000000000000000000000000000000000000000000000000000000000000000000000000000000000000
310
00000000000000000000000000000000000000000000000000000000000000000000000000000000000000000000000000000000000000000000000000000000000000000000000000000000000000000000000000000000000000000000000000000000000007000000000000000000000000000000000707000000000000
310
00000000000000000000000000000000000000000000000000000000000000000000000000000000000000000000000000000000000000000000000000000000000000000000000000000000000000000000000000000000000000000000000000000000000000000000000000000000000000000000000000000000000000
310
00000000000000000000000000000000000000000000000000000000070000000000000000000000000007070700000000000000000000000000000000000000000000000000000000000000000000000000000000000000000000000000000000000000000000000000000000000000000000000000000000000000000000
310
00000000000000000000000000000000000000000000000000000000000000000000000000000000000000000000000000000000000000000000000000000000000000000000000000000000000000000000070000000000000000000007070700000000000000000000000000000000000000000000000000000000000000
310
00000000000000000000000000000000000000000000000000000000000000000000000000000000000000000000000000000000000000000000000000000000000000000000000000000000000000000000000000000000000000000000000000000000000000000000000000000000000000000000000000000000000000
310
00000000000000000700000000000000070707070000000000000000000000000000000000000000000000000000000000000000000000000000000000000000000000000000000000000000000000000000000000000000000000000000000000000000000000000000000000000000000000000000000000000000000000
310
00000000000000000000000000000000000000000000000000000000000000000000000000000000000000000000000000000000000000000000000000000700000000070707070000000000000000000000000000000000000000000000000000000000000000000000000000000000000000000000000000000000000000
310
00000000000000000000000000000000000000000000000000000000000000000000000000000000000000000000000000000000000000000000000000000000000000000000000000000000000000000000000000000000000000000000000000000000000000000000000000000000000000070000070700000000000000
310
00000000000000000000000000000000000000000000000000000000000000000000000000000000000000000000000000000000000000000000000000000000000000000000000000000000000000000000000000000000000000000000000000000000000000000000000000000000000000000000000000000000000000
310
00000000000000000000000000000000000000000000000000000000000000000000000000000000000007070000000000000000000000000000000000000000000000000000000000000000000000000000000000000000000000000000000000000000000000000000000000000000000000000000000000000000000000
310
00000000000000000000000000000000000000000000000000000000000000000000000000000000000000000000000000000000000000000000000000000000000000000000000000000000000000000000000000000000000000000000000000000000000000000000000000000000000000000000000000000000000000
310
000000000000000000000000000000000000000000000000000000000000000000000000000000000000000000000000000000000000000000000000000000000000000000000000000000000000000000000000000000000000000000000000000000000000000000000000
  0
ENDSEC
  0
EOF
