  0
SECTION
  2
HEADER
  9
$ACADVER
  1
AC1015
  9
$ACADMAINTVER
 70
     6
  9
$DWGCODEPAGE
  3
ANSI_1252
  9
$INSBASE
 10
0.0
 20
0.0
 30
0.0
  9
$EXTMIN
 10
0.0
 20
-0.194916
 30
0.0
  9
$EXTMAX
 10
415.352
 20
201.898
 30
0.0
  9
$LIMMIN
 10
0.0
 20
0.0
  9
$LIMMAX
 10
12.0
 20
9.0
  9
$ORTHOMODE
 70
     0
  9
$REGENMODE
 70
     1
  9
$FILLMODE
 70
     1
  9
$QTEXTMODE
 70
     0
  9
$MIRRTEXT
 70
     1
  9
$LTSCALE
 40
1.0
  9
$ATTMODE
 70
     1
  9
$TEXTSIZE
 40
0.2
  9
$TRACEWID
 40
0.05
  9
$TEXTSTYLE
  7
Standard
  9
$CLAYER
  8
0
  9
$CELTYPE
  6
Continuous
  9
$CECOLOR
 62
   256
  9
$CELTSCALE
 40
1.0
  9
$DISPSILH
 70
     0
  9
$DIMSCALE
 40
1.0
  9
$DIMASZ
 40
0.18
  9
$DIMEXO
 40
0.0625
  9
$DIMDLI
 40
0.38
  9
$DIMRND
 40
0.0
  9
$DIMDLE
 40
0.0
  9
$DIMEXE
 40
0.18
  9
$DIMTP
 40
0.0
  9
$DIMTM
 40
0.0
  9
$DIMTXT
 40
0.18
  9
$DIMCEN
 40
0.09
  9
$DIMTSZ
 40
0.0
  9
$DIMTOL
 70
     0
  9
$DIMLIM
 70
     0
  9
$DIMTIH
 70
     1
  9
$DIMTOH
 70
     1
  9
$DIMSE1
 70
     0
  9
$DIMSE2
 70
     0
  9
$DIMTAD
 70
     0
  9
$DIMZIN
 70
     0
  9
$DIMBLK
  1

  9
$DIMASO
 70
     1
  9
$DIMSHO
 70
     1
  9
$DIMPOST
  1

  9
$DIMAPOST
  1

  9
$DIMALT
 70
     0
  9
$DIMALTD
 70
     2
  9
$DIMALTF
 40
25.4
  9
$DIMLFAC
 40
1.0
  9
$DIMTOFL
 70
     0
  9
$DIMTVP
 40
0.0
  9
$DIMTIX
 70
     0
  9
$DIMSOXD
 70
     0
  9
$DIMSAH
 70
     0
  9
$DIMBLK1
  1

  9
$DIMBLK2
  1

  9
$DIMSTYLE
  2
Standard
  9
$DIMCLRD
 70
     0
  9
$DIMCLRE
 70
     0
  9
$DIMCLRT
 70
     0
  9
$DIMTFAC
 40
1.0
  9
$DIMGAP
 40
0.09
  9
$DIMJUST
 70
     0
  9
$DIMSD1
 70
     0
  9
$DIMSD2
 70
     0
  9
$DIMTOLJ
 70
     1
  9
$DIMTZIN
 70
     0
  9
$DIMALTZ
 70
     0
  9
$DIMALTTZ
 70
     0
  9
$DIMUPT
 70
     0
  9
$DIMDEC
 70
     4
  9
$DIMTDEC
 70
     4
  9
$DIMALTU
 70
     2
  9
$DIMALTTD
 70
     2
  9
$DIMTXSTY
  7
Standard
  9
$DIMAUNIT
 70
     0
  9
$DIMADEC
 70
     0
  9
$DIMALTRND
 40
0.0
  9
$DIMAZIN
 70
     0
  9
$DIMDSEP
 70
    46
  9
$DIMATFIT
 70
     3
  9
$DIMFRAC
 70
     0
  9
$DIMLDRBLK
  1

  9
$DIMLUNIT
 70
     2
  9
$DIMLWD
 70
    -2
  9
$DIMLWE
 70
    -2
  9
$DIMTMOVE
 70
     0
  9
$LUNITS
 70
     2
  9
$LUPREC
 70
     4
  9
$SKETCHINC
 40
0.1
  9
$FILLETRAD
 40
0.0
  9
$AUNITS
 70
     0
  9
$AUPREC
 70
     0
  9
$MENU
  1
.
  9
$ELEVATION
 40
0.0
  9
$PELEVATION
 40
0.0
  9
$THICKNESS
 40
0.0
  9
$LIMCHECK
 70
     0
  9
$CHAMFERA
 40
0.0
  9
$CHAMFERB
 40
0.0
  9
$CHAMFERC
 40
0.0
  9
$CHAMFERD
 40
0.0
  9
$SKPOLY
 70
     0
  9
$TDCREATE
 40
2454745.656332639
  9
$TDUCREATE
 40
2454745.572999306
  9
$TDUPDATE
 40
2456209.600567488
  9
$TDUUPDATE
 40
2456209.517234155
  9
$TDINDWG
 40
0.0114369907
  9
$TDUSRTIMER
 40
0.0114369907
  9
$USRTIMER
 70
     1
  9
$ANGBASE
 50
0.0
  9
$ANGDIR
 70
     0
  9
$PDMODE
 70
     0
  9
$PDSIZE
 40
0.0
  9
$PLINEWID
 40
0.0
  9
$SPLFRAME
 70
     0
  9
$SPLINETYPE
 70
     6
  9
$SPLINESEGS
 70
     8
  9
$HANDSEED
  5
108D
  9
$SURFTAB1
 70
     6
  9
$SURFTAB2
 70
     6
  9
$SURFTYPE
 70
     6
  9
$SURFU
 70
     6
  9
$SURFV
 70
     6
  9
$UCSBASE
  2

  9
$UCSNAME
  2

  9
$UCSORG
 10
0.0
 20
0.0
 30
0.0
  9
$UCSXDIR
 10
1.0
 20
0.0
 30
0.0
  9
$UCSYDIR
 10
0.0
 20
1.0
 30
0.0
  9
$UCSORTHOREF
  2

  9
$UCSORTHOVIEW
 70
     1
  9
$UCSORGTOP
 10
0.0
 20
0.0
 30
0.0
  9
$UCSORGBOTTOM
 10
0.0
 20
0.0
 30
0.0
  9
$UCSORGLEFT
 10
0.0
 20
0.0
 30
0.0
  9
$UCSORGRIGHT
 10
0.0
 20
0.0
 30
0.0
  9
$UCSORGFRONT
 10
0.0
 20
0.0
 30
0.0
  9
$UCSORGBACK
 10
0.0
 20
0.0
 30
0.0
  9
$PUCSBASE
  2

  9
$PUCSNAME
  2

  9
$PUCSORG
 10
0.0
 20
0.0
 30
0.0
  9
$PUCSXDIR
 10
1.0
 20
0.0
 30
0.0
  9
$PUCSYDIR
 10
0.0
 20
1.0
 30
0.0
  9
$PUCSORTHOREF
  2

  9
$PUCSORTHOVIEW
 70
     0
  9
$PUCSORGTOP
 10
0.0
 20
0.0
 30
0.0
  9
$PUCSORGBOTTOM
 10
0.0
 20
0.0
 30
0.0
  9
$PUCSORGLEFT
 10
0.0
 20
0.0
 30
0.0
  9
$PUCSORGRIGHT
 10
0.0
 20
0.0
 30
0.0
  9
$PUCSORGFRONT
 10
0.0
 20
0.0
 30
0.0
  9
$PUCSORGBACK
 10
0.0
 20
0.0
 30
0.0
  9
$USERI1
 70
     0
  9
$USERI2
 70
     0
  9
$USERI3
 70
     0
  9
$USERI4
 70
     0
  9
$USERI5
 70
     0
  9
$USERR1
 40
0.0
  9
$USERR2
 40
0.0
  9
$USERR3
 40
0.0
  9
$USERR4
 40
0.0
  9
$USERR5
 40
0.0
  9
$WORLDVIEW
 70
     1
  9
$SHADEDGE
 70
     3
  9
$SHADEDIF
 70
    70
  9
$TILEMODE
 70
     1
  9
$MAXACTVP
 70
    64
  9
$PINSBASE
 10
0.0
 20
0.0
 30
0.0
  9
$PLIMCHECK
 70
     0
  9
$PEXTMIN
 10
1.000000000000E+20
 20
1.000000000000E+20
 30
1.000000000000E+20
  9
$PEXTMAX
 10
-1.000000000000E+20
 20
-1.000000000000E+20
 30
-1.000000000000E+20
  9
$PLIMMIN
 10
0.0
 20
0.0
  9
$PLIMMAX
 10
12.0
 20
9.0
  9
$UNITMODE
 70
     0
  9
$VISRETAIN
 70
     1
  9
$PLINEGEN
 70
     0
  9
$PSLTSCALE
 70
     1
  9
$TREEDEPTH
 70
  3020
  9
$CMLSTYLE
  2
Standard
  9
$CMLJUST
 70
     0
  9
$CMLSCALE
 40
1.0
  9
$PROXYGRAPHICS
 70
     1
  9
$MEASUREMENT
 70
     0
  9
$CELWEIGHT
370
    -1
  9
$ENDCAPS
280
     0
  9
$JOINSTYLE
280
     0
  9
$LWDISPLAY
290
     0
  9
$INSUNITS
 70
     0
  9
$HYPERLINKBASE
  1

  9
$STYLESHEET
  1

  9
$XEDIT
290
     1
  9
$CEPSNTYPE
380
     0
  9
$PSTYLEMODE
290
     1
  9
$FINGERPRINTGUID
  2
{D3135706-2768-45BD-80A2-E114B0CE1B70}
  9
$VERSIONGUID
  2
{A8259E4B-3B4F-4A0F-807F-B09CD30D92F9}
  9
$EXTNAMES
290
     1
  9
$PSVPSCALE
 40
0.0
  9
$OLESTARTUP
290
     0
  0
ENDSEC
  0
SECTION
  2
CLASSES
  0
CLASS
  1
ACDBDICTIONARYWDFLT
  2
AcDbDictionaryWithDefault
  3
ObjectDBX Classes
 90
        0
280
     0
281
     0
  0
CLASS
  1
ACDBPLACEHOLDER
  2
AcDbPlaceHolder
  3
ObjectDBX Classes
 90
        0
280
     0
281
     0
  0
CLASS
  1
LAYOUT
  2
AcDbLayout
  3
ObjectDBX Classes
 90
        0
280
     0
281
     0
  0
CLASS
  1
DICTIONARYVAR
  2
AcDbDictionaryVar
  3
ObjectDBX Classes
 90
        0
280
     0
281
     0
  0
CLASS
  1
SCALE
  2
AcDbScale
  3
ObjectDBX Classes
 90
     1153
280
     0
281
     0
  0
ENDSEC
  0
SECTION
  2
TABLES
  0
TABLE
  2
VPORT
  5
8
330
0
100
AcDbSymbolTable
 70
     1
  0
VPORT
  5
665
330
8
100
AcDbSymbolTableRecord
100
AcDbViewportTableRecord
  2
*Active
 70
     0
 10
0.0
 20
0.0
 11
1.0
 21
1.0
 12
207.676
 22
100.851542
 13
0.0
 23
0.0
 14
1.0
 24
1.0
 15
0.0
 25
0.0
 16
0.0
 26
0.0
 36
1.0
 17
0.0
 27
0.0
 37
0.0
 40
206.13477432
 41
2.271724137931
 42
50.0
 43
0.0
 44
0.0
 50
0.0
 51
0.0
 71
    16
 72
   100
 73
     1
 74
     3
 75
     0
 76
     0
 77
     0
 78
     0
281
     0
 65
     1
110
0.0
120
0.0
130
0.0
111
1.0
121
0.0
131
0.0
112
0.0
122
1.0
132
0.0
 79
     1
146
0.0
  0
ENDTAB
  0
TABLE
  2
LTYPE
  5
5
330
0
100
AcDbSymbolTable
 70
     1
  0
LTYPE
  5
13
330
5
100
AcDbSymbolTableRecord
100
AcDbLinetypeTableRecord
  2
ByBlock
 70
     0
  3

 72
    65
 73
     0
 40
0.0
  0
LTYPE
  5
14
330
5
100
AcDbSymbolTableRecord
100
AcDbLinetypeTableRecord
  2
ByLayer
 70
     0
  3

 72
    65
 73
     0
 40
0.0
  0
LTYPE
  5
15
330
5
100
AcDbSymbolTableRecord
100
AcDbLinetypeTableRecord
  2
Continuous
 70
     0
  3
Solid line
 72
    65
 73
     0
 40
0.0
  0
ENDTAB
  0
TABLE
  2
LAYER
  5
2
330
0
100
AcDbSymbolTable
 70
     1
  0
LAYER
  5
10
330
2
100
AcDbSymbolTableRecord
100
AcDbLayerTableRecord
  2
0
 70
     0
 62
     7
  6
Continuous
370
    -3
390
F
  0
ENDTAB
  0
TABLE
  2
STYLE
  5
3
330
0
100
AcDbSymbolTable
 70
     1
  0
STYLE
  5
11
330
3
100
AcDbSymbolTableRecord
100
AcDbTextStyleTableRecord
  2
Standard
 70
     0
 40
0.0
 41
1.0
 50
0.0
 71
     0
 42
0.2
  3
txt
  4

  0
ENDTAB
  0
TABLE
  2
VIEW
  5
6
330
0
100
AcDbSymbolTable
 70
     0
  0
ENDTAB
  0
TABLE
  2
UCS
  5
7
330
0
100
AcDbSymbolTable
 70
     0
  0
ENDTAB
  0
TABLE
  2
APPID
  5
9
330
0
100
AcDbSymbolTable
 70
     1
  0
APPID
  5
12
330
9
100
AcDbSymbolTableRecord
100
AcDbRegAppTableRecord
  2
ACAD
 70
     0
  0
ENDTAB
  0
TABLE
  2
DIMSTYLE
  5
A
330
0
100
AcDbSymbolTable
 70
     1
100
AcDbDimStyleTable
  0
DIMSTYLE
105
65F
330
A
100
AcDbSymbolTableRecord
100
AcDbDimStyleTableRecord
  2
Standard
 70
     0
340
11
  0
ENDTAB
  0
TABLE
  2
BLOCK_RECORD
  5
1
330
0
100
AcDbSymbolTable
 70
     1
  0
BLOCK_RECORD
  5
1E
330
1
100
AcDbSymbolTableRecord
100
AcDbBlockTableRecord
  2
*Model_Space
340
21
  0
BLOCK_RECORD
  5
1A
330
1
100
AcDbSymbolTableRecord
100
AcDbBlockTableRecord
  2
*Paper_Space
340
1D
  0
ENDTAB
  0
ENDSEC
  0
SECTION
  2
BLOCKS
  0
BLOCK
  5
1F
330
1E
100
AcDbEntity
  8
0
100
AcDbBlockBegin
  2
*Model_Space
 70
     0
 10
0.0
 20
0.0
 30
0.0
  3
*Model_Space
  1
*Model_Space
  0
ENDBLK
  5
20
330
1E
100
AcDbEntity
  8
0
100
AcDbBlockEnd
  0
BLOCK
  5
1B
330
1A
100
AcDbEntity
 67
     1
  8
0
100
AcDbBlockBegin
  2
*Paper_Space
 70
     0
 10
0.0
 20
0.0
 30
0.0
  3
*Paper_Space
  1
*Paper_Space
  0
ENDBLK
  5
1C
330
1A
100
AcDbEntity
 67
     1
  8
0
100
AcDbBlockEnd
  0
ENDSEC
  0
SECTION
  2
ENTITIES
  0
LINE
  5
23
330
1E
100
AcDbEntity
  8
0
100
AcDbLine
 10
0.0
 20
9.33
 30
0.0
 11
0.5
 21
9.83
 31
0.0
  0
LINE
  5
24
330
1E
100
AcDbEntity
  8
0
100
AcDbLine
 10
0.0
 20
9.33
 30
0.0
 11
0.0
 21
-0.17
 31
0.0
  0
LINE
  5
25
330
1E
100
AcDbEntity
  8
0
100
AcDbLine
 10
10.3
 20
-0.17
 30
0.0
 11
17.6
 21
-0.17
 31
0.0
  0
LINE
  5
26
330
1E
100
AcDbEntity
  8
0
100
AcDbLine
 10
17.6
 20
-0.17
 30
0.0
 11
26.0
 21
-0.17
 31
0.0
  0
LINE
  5
27
330
1E
100
AcDbEntity
  8
0
100
AcDbLine
 10
26.0
 20
-0.17
 30
0.0
 11
35.0
 21
-0.17
 31
0.0
  0
LINE
  5
28
330
1E
100
AcDbEntity
  8
0
100
AcDbLine
 10
4.7
 20
-0.17
 30
0.0
 11
10.3
 21
-0.17
 31
0.0
  0
LINE
  5
29
330
1E
100
AcDbEntity
  8
0
100
AcDbLine
 10
1.3
 20
-0.17
 30
0.0
 11
4.7
 21
-0.17
 31
0.0
  0
LINE
  5
2A
330
1E
100
AcDbEntity
  8
0
100
AcDbLine
 10
59.7
 20
-0.17
 30
0.0
 11
65.3
 21
-0.17
 31
0.0
  0
LINE
  5
2B
330
1E
100
AcDbEntity
  8
0
100
AcDbLine
 10
65.3
 20
-0.17
 30
0.0
 11
68.7
 21
-0.17
 31
0.0
  0
LINE
  5
2C
330
1E
100
AcDbEntity
  8
0
100
AcDbLine
 10
68.7
 20
-0.17
 30
0.0
 11
70.0
 21
-0.17
 31
0.0
  0
LINE
  5
2D
330
1E
100
AcDbEntity
  8
0
100
AcDbLine
 10
52.4
 20
-0.17
 30
0.0
 11
59.7
 21
-0.17
 31
0.0
  0
LINE
  5
2E
330
1E
100
AcDbEntity
  8
0
100
AcDbLine
 10
44.0
 20
-0.17
 30
0.0
 11
52.4
 21
-0.17
 31
0.0
  0
LINE
  5
2F
330
1E
100
AcDbEntity
  8
0
100
AcDbLine
 10
35.0
 20
-0.17
 30
0.0
 11
44.0
 21
-0.17
 31
0.0
  0
LINE
  5
30
330
1E
100
AcDbEntity
  8
0
100
AcDbLine
 10
114.7
 20
-0.17
 30
0.0
 11
120.3
 21
-0.17
 31
0.0
  0
LINE
  5
31
330
1E
100
AcDbEntity
  8
0
100
AcDbLine
 10
120.3
 20
-0.17
 30
0.0
 11
127.6
 21
-0.17
 31
0.0
  0
LINE
  5
32
330
1E
100
AcDbEntity
  8
0
100
AcDbLine
 10
127.6
 20
-0.17
 30
0.0
 11
136.0
 21
-0.17
 31
0.0
  0
LINE
  5
33
330
1E
100
AcDbEntity
  8
0
100
AcDbLine
 10
136.0
 20
-0.17
 30
0.0
 11
145.0
 21
-0.17
 31
0.0
  0
LINE
  5
34
330
1E
100
AcDbEntity
  8
0
100
AcDbLine
 10
162.4
 20
-0.17
 30
0.0
 11
169.7
 21
-0.17
 31
0.0
  0
LINE
  5
35
330
1E
100
AcDbEntity
  8
0
100
AcDbLine
 10
154.0
 20
-0.17
 30
0.0
 11
162.4
 21
-0.17
 31
0.0
  0
LINE
  5
36
330
1E
100
AcDbEntity
  8
0
100
AcDbLine
 10
145.0
 20
-0.17
 30
0.0
 11
154.0
 21
-0.17
 31
0.0
  0
LINE
  5
37
330
1E
100
AcDbEntity
  8
0
100
AcDbLine
 10
169.7
 20
-0.17
 30
0.0
 11
175.3
 21
-0.17
 31
0.0
  0
LINE
  5
38
330
1E
100
AcDbEntity
  8
0
100
AcDbLine
 10
111.3
 20
-0.17
 30
0.0
 11
114.7
 21
-0.17
 31
0.0
  0
LINE
  5
39
330
1E
100
AcDbEntity
  8
0
100
AcDbLine
 10
175.3
 20
-0.17
 30
0.0
 11
178.7
 21
-0.17
 31
0.0
  0
LINE
  5
3A
330
1E
100
AcDbEntity
  8
0
100
AcDbLine
 10
180.0
 20
-0.17
 30
0.0
 11
180.0
 21
9.33
 31
0.0
  0
LINE
  5
3B
330
1E
100
AcDbEntity
  8
0
100
AcDbLine
 10
178.7
 20
-0.17
 30
0.0
 11
180.0
 21
-0.17
 31
0.0
  0
LINE
  5
3C
330
1E
100
AcDbEntity
  8
0
100
AcDbLine
 10
110.0
 20
-0.17
 30
0.0
 11
111.3
 21
-0.17
 31
0.0
  0
LINE
  5
3D
330
1E
100
AcDbEntity
  8
0
100
AcDbLine
 10
110.0
 20
-0.17
 30
0.0
 11
110.0
 21
9.33
 31
0.0
  0
LINE
  5
3E
330
1E
100
AcDbEntity
  8
0
100
AcDbLine
 10
110.0
 20
-0.17
 30
0.0
 11
111.3
 21
-0.17
 31
0.0
  0
LINE
  5
3F
330
1E
100
AcDbEntity
  8
0
100
AcDbLine
 10
230.3
 20
-0.17
 30
0.0
 11
237.6
 21
-0.17
 31
0.0
  0
LINE
  5
40
330
1E
100
AcDbEntity
  8
0
100
AcDbLine
 10
237.6
 20
-0.17
 30
0.0
 11
246.0
 21
-0.17
 31
0.0
  0
LINE
  5
41
330
1E
100
AcDbEntity
  8
0
100
AcDbLine
 10
246.0
 20
-0.17
 30
0.0
 11
255.0
 21
-0.17
 31
0.0
  0
LINE
  5
42
330
1E
100
AcDbEntity
  8
0
100
AcDbLine
 10
224.7
 20
-0.17
 30
0.0
 11
230.3
 21
-0.17
 31
0.0
  0
LINE
  5
43
330
1E
100
AcDbEntity
  8
0
100
AcDbLine
 10
221.3
 20
-0.17
 30
0.0
 11
224.7
 21
-0.17
 31
0.0
  0
LINE
  5
44
330
1E
100
AcDbEntity
  8
0
100
AcDbLine
 10
220.0
 20
-0.17
 30
0.0
 11
221.3
 21
-0.17
 31
0.0
  0
LINE
  5
45
330
1E
100
AcDbEntity
  8
0
100
AcDbLine
 10
220.0
 20
-0.17
 30
0.0
 11
220.0
 21
9.33
 31
0.0
  0
LINE
  5
46
330
1E
100
AcDbEntity
  8
0
100
AcDbLine
 10
220.0
 20
-0.17
 30
0.0
 11
221.3
 21
-0.17
 31
0.0
  0
LINE
  5
47
330
1E
100
AcDbEntity
  8
0
100
AcDbLine
 10
365.0
 20
-0.17
 30
0.0
 11
374.0
 21
-0.17
 31
0.0
  0
LINE
  5
48
330
1E
100
AcDbEntity
  8
0
100
AcDbLine
 10
374.0
 20
-0.17
 30
0.0
 11
382.4
 21
-0.17
 31
0.0
  0
LINE
  5
4A
330
1E
100
AcDbEntity
  8
0
100
AcDbLine
 10
279.7
 20
-0.17
 30
0.0
 11
285.3
 21
-0.17
 31
0.0
  0
LINE
  5
4B
330
1E
100
AcDbEntity
  8
0
100
AcDbLine
 10
382.4
 20
-0.17
 30
0.0
 11
389.7
 21
-0.17
 31
0.0
  0
LINE
  5
4C
330
1E
100
AcDbEntity
  8
0
100
AcDbLine
 10
389.7
 20
-0.17
 30
0.0
 11
395.3
 21
-0.17
 31
0.0
  0
LINE
  5
4E
330
1E
100
AcDbEntity
  8
0
100
AcDbLine
 10
395.3
 20
-0.17
 30
0.0
 11
398.7
 21
-0.17
 31
0.0
  0
LINE
  5
4F
330
1E
100
AcDbEntity
  8
0
100
AcDbLine
 10
398.7
 20
-0.17
 30
0.0
 11
400.0
 21
-0.17
 31
0.0
  0
LINE
  5
53
330
1E
100
AcDbEntity
  8
0
100
AcDbLine
 10
285.3
 20
-0.17
 30
0.0
 11
288.7
 21
-0.17
 31
0.0
  0
LINE
  5
58
330
1E
100
AcDbEntity
  8
0
100
AcDbLine
 10
290.0
 20
-0.17
 30
0.0
 11
290.0
 21
9.33
 31
0.0
  0
LINE
  5
59
330
1E
100
AcDbEntity
  8
0
100
AcDbLine
 10
288.7
 20
-0.17
 30
0.0
 11
290.0
 21
-0.17
 31
0.0
  0
LINE
  5
5A
330
1E
100
AcDbEntity
  8
0
100
AcDbLine
 10
272.4
 20
-0.17
 30
0.0
 11
279.7
 21
-0.17
 31
0.0
  0
LINE
  5
5B
330
1E
100
AcDbEntity
  8
0
100
AcDbLine
 10
264.0
 20
-0.17
 30
0.0
 11
272.4
 21
-0.17
 31
0.0
  0
LINE
  5
5C
330
1E
100
AcDbEntity
  8
0
100
AcDbLine
 10
255.0
 20
-0.17
 30
0.0
 11
264.0
 21
-0.17
 31
0.0
  0
LINE
  5
5D
330
1E
100
AcDbEntity
  8
0
100
AcDbLine
 10
178.7
 20
-0.17
 30
0.0
 11
180.0
 21
-0.17
 31
0.0
  0
LINE
  5
5E
330
1E
100
AcDbEntity
  8
0
100
AcDbLine
 10
111.3
 20
-0.17
 30
0.0
 11
114.7
 21
-0.17
 31
0.0
  0
LINE
  5
5F
330
1E
100
AcDbEntity
  8
0
100
AcDbLine
 10
398.7
 20
-0.17
 30
0.0
 11
400.0
 21
-0.17
 31
0.0
  0
LINE
  5
61
330
1E
100
AcDbEntity
  8
0
100
AcDbLine
 10
288.7
 20
-0.17
 30
0.0
 11
290.0
 21
-0.17
 31
0.0
  0
LINE
  5
62
330
1E
100
AcDbEntity
  8
0
100
AcDbLine
 10
221.3
 20
-0.17
 30
0.0
 11
224.7
 21
-0.17
 31
0.0
  0
LINE
  5
63
330
1E
100
AcDbEntity
  8
0
100
AcDbLine
 10
70.0
 20
-0.17
 30
0.0
 11
70.0
 21
9.33
 31
0.0
  0
LINE
  5
64
330
1E
100
AcDbEntity
  8
0
100
AcDbLine
 10
68.7
 20
-0.17
 30
0.0
 11
70.0
 21
-0.17
 31
0.0
  0
LINE
  5
65
330
1E
100
AcDbEntity
  8
0
100
AcDbLine
 10
1.7
 20
9.83
 30
0.0
 11
5.1
 21
9.83
 31
0.0
  0
LINE
  5
66
330
1E
100
AcDbEntity
  8
0
100
AcDbLine
 10
0.5
 20
9.83
 30
0.0
 11
1.7
 21
9.83
 31
0.0
  0
LINE
  5
68
330
1E
100
AcDbEntity
  8
0
100
AcDbLine
 10
10.3
 20
-0.17
 30
0.0
 11
17.6
 21
-0.17
 31
0.0
  0
LINE
  5
6B
330
1E
100
AcDbEntity
  8
0
100
AcDbLine
 10
17.6
 20
-0.17
 30
0.0
 11
26.0
 21
-0.17
 31
0.0
  0
LINE
  5
6C
330
1E
100
AcDbEntity
  8
0
100
AcDbLine
 10
175.3
 20
-0.17
 30
0.0
 11
178.7
 21
-0.17
 31
0.0
  0
LINE
  5
6D
330
1E
100
AcDbEntity
  8
0
100
AcDbLine
 10
114.7
 20
-0.17
 30
0.0
 11
120.3
 21
-0.17
 31
0.0
  0
LINE
  5
6E
330
1E
100
AcDbEntity
  8
0
100
AcDbLine
 10
395.3
 20
-0.17
 30
0.0
 11
398.7
 21
-0.17
 31
0.0
  0
LINE
  5
70
330
1E
100
AcDbEntity
  8
0
100
AcDbLine
 10
285.3
 20
-0.17
 30
0.0
 11
288.7
 21
-0.17
 31
0.0
  0
LINE
  5
71
330
1E
100
AcDbEntity
  8
0
100
AcDbLine
 10
224.7
 20
-0.17
 30
0.0
 11
230.3
 21
-0.17
 31
0.0
  0
LINE
  5
72
330
1E
100
AcDbEntity
  8
0
100
AcDbLine
 10
52.4
 20
-0.17
 30
0.0
 11
59.7
 21
-0.17
 31
0.0
  0
LINE
  5
73
330
1E
100
AcDbEntity
  8
0
100
AcDbLine
 10
44.0
 20
-0.17
 30
0.0
 11
52.4
 21
-0.17
 31
0.0
  0
LINE
  5
76
330
1E
100
AcDbEntity
  8
0
100
AcDbLine
 10
35.0
 20
-0.17
 30
0.0
 11
44.0
 21
-0.17
 31
0.0
  0
LINE
  5
77
330
1E
100
AcDbEntity
  8
0
100
AcDbLine
 10
169.7
 20
-0.17
 30
0.0
 11
175.3
 21
-0.17
 31
0.0
  0
LINE
  5
78
330
1E
100
AcDbEntity
  8
0
100
AcDbLine
 10
162.4
 20
-0.17
 30
0.0
 11
169.7
 21
-0.17
 31
0.0
  0
LINE
  5
79
330
1E
100
AcDbEntity
  8
0
100
AcDbLine
 10
120.3
 20
-0.17
 30
0.0
 11
127.6
 21
-0.17
 31
0.0
  0
LINE
  5
7A
330
1E
100
AcDbEntity
  8
0
100
AcDbLine
 10
127.6
 20
-0.17
 30
0.0
 11
136.0
 21
-0.17
 31
0.0
  0
LINE
  5
7B
330
1E
100
AcDbEntity
  8
0
100
AcDbLine
 10
230.3
 20
-0.17
 30
0.0
 11
237.6
 21
-0.17
 31
0.0
  0
LINE
  5
7C
330
1E
100
AcDbEntity
  8
0
100
AcDbLine
 10
154.0
 20
-0.17
 30
0.0
 11
162.4
 21
-0.17
 31
0.0
  0
LINE
  5
7D
330
1E
100
AcDbEntity
  8
0
100
AcDbLine
 10
145.0
 20
-0.17
 30
0.0
 11
154.0
 21
-0.17
 31
0.0
  0
LINE
  5
7E
330
1E
100
AcDbEntity
  8
0
100
AcDbLine
 10
136.0
 20
-0.17
 30
0.0
 11
145.0
 21
-0.17
 31
0.0
  0
LINE
  5
7F
330
1E
100
AcDbEntity
  8
0
100
AcDbLine
 10
237.6
 20
-0.17
 30
0.0
 11
246.0
 21
-0.17
 31
0.0
  0
LINE
  5
80
330
1E
100
AcDbEntity
  8
0
100
AcDbLine
 10
264.0
 20
-0.17
 30
0.0
 11
272.4
 21
-0.17
 31
0.0
  0
LINE
  5
81
330
1E
100
AcDbEntity
  8
0
100
AcDbLine
 10
255.0
 20
-0.17
 30
0.0
 11
264.0
 21
-0.17
 31
0.0
  0
LINE
  5
82
330
1E
100
AcDbEntity
  8
0
100
AcDbLine
 10
246.0
 20
-0.17
 30
0.0
 11
255.0
 21
-0.17
 31
0.0
  0
LINE
  5
83
330
1E
100
AcDbEntity
  8
0
100
AcDbLine
 10
389.7
 20
-0.17
 30
0.0
 11
395.3
 21
-0.17
 31
0.0
  0
LINE
  5
84
330
1E
100
AcDbEntity
  8
0
100
AcDbLine
 10
382.4
 20
-0.17
 30
0.0
 11
389.7
 21
-0.17
 31
0.0
  0
LINE
  5
87
330
1E
100
AcDbEntity
  8
0
100
AcDbLine
 10
279.7
 20
-0.17
 30
0.0
 11
285.3
 21
-0.17
 31
0.0
  0
LINE
  5
88
330
1E
100
AcDbEntity
  8
0
100
AcDbLine
 10
374.0
 20
-0.17
 30
0.0
 11
382.4
 21
-0.17
 31
0.0
  0
LINE
  5
89
330
1E
100
AcDbEntity
  8
0
100
AcDbLine
 10
365.0
 20
-0.17
 30
0.0
 11
374.0
 21
-0.17
 31
0.0
  0
LINE
  5
9A
330
1E
100
AcDbEntity
  8
0
100
AcDbLine
 10
272.4
 20
-0.17
 30
0.0
 11
279.7
 21
-0.17
 31
0.0
  0
LINE
  5
9C
330
1E
100
AcDbEntity
  8
0
100
AcDbLine
 10
180.0
 20
9.33
 30
0.0
 11
180.0
 21
-0.17
 31
0.0
  0
LINE
  5
9F
330
1E
100
AcDbEntity
  8
0
100
AcDbLine
 10
110.0
 20
9.33
 30
0.0
 11
110.5
 21
9.83
 31
0.0
  0
LINE
  5
A0
330
1E
100
AcDbEntity
  8
0
100
AcDbLine
 10
110.0
 20
9.33
 30
0.0
 11
110.0
 21
-0.17
 31
0.0
  0
LINE
  5
A3
330
1E
100
AcDbEntity
  8
0
100
AcDbLine
 10
220.0
 20
9.33
 30
0.0
 11
220.5
 21
9.83
 31
0.0
  0
LINE
  5
A4
330
1E
100
AcDbEntity
  8
0
100
AcDbLine
 10
220.0
 20
9.33
 30
0.0
 11
220.0
 21
-0.17
 31
0.0
  0
LINE
  5
A6
330
1E
100
AcDbEntity
  8
0
100
AcDbLine
 10
290.0
 20
9.33
 30
0.0
 11
290.0
 21
-0.17
 31
0.0
  0
LINE
  5
A8
330
1E
100
AcDbEntity
  8
0
100
AcDbLine
 10
64.9
 20
9.83
 30
0.0
 11
68.3
 21
9.83
 31
0.0
  0
LINE
  5
AD
330
1E
100
AcDbEntity
  8
0
100
AcDbLine
 10
168.0
 20
9.83
 30
0.0
 11
168.4
 21
22.9807
 31
0.0
  0
LINE
  5
AE
330
1E
100
AcDbEntity
  8
0
100
AcDbLine
 10
179.5
 20
9.83
 30
0.0
 11
180.0
 21
9.33
 31
0.0
  0
LINE
  5
B0
330
1E
100
AcDbEntity
  8
0
100
AcDbLine
 10
110.5
 20
9.83
 30
0.0
 11
111.7
 21
9.83
 31
0.0
  0
LINE
  5
B1
330
1E
100
AcDbEntity
  8
0
100
AcDbLine
 10
220.5
 20
9.83
 30
0.0
 11
221.7
 21
9.83
 31
0.0
  0
LINE
  5
B9
330
1E
100
AcDbEntity
  8
0
100
AcDbLine
 10
289.5
 20
9.83
 30
0.0
 11
290.0
 21
9.33
 31
0.0
  0
LINE
  5
BA
330
1E
100
AcDbEntity
  8
0
100
AcDbLine
 10
174.9
 20
9.83
 30
0.0
 11
178.3
 21
9.83
 31
0.0
  0
LINE
  5
BB
330
1E
100
AcDbEntity
  8
0
100
AcDbLine
 10
178.3
 20
9.83
 30
0.0
 11
179.5
 21
9.83
 31
0.0
  0
LINE
  5
BC
330
1E
100
AcDbEntity
  8
0
100
AcDbLine
 10
115.1
 20
9.83
 30
0.0
 11
120.3
 21
9.83
 31
0.0
  0
LINE
  5
BD
330
1E
100
AcDbEntity
  8
0
100
AcDbLine
 10
111.7
 20
9.83
 30
0.0
 11
115.1
 21
9.83
 31
0.0
  0
LINE
  5
C3
330
1E
100
AcDbEntity
  8
0
100
AcDbLine
 10
284.9
 20
9.83
 30
0.0
 11
288.3
 21
9.83
 31
0.0
  0
LINE
  5
C4
330
1E
100
AcDbEntity
  8
0
100
AcDbLine
 10
288.3
 20
9.83
 30
0.0
 11
289.5
 21
9.83
 31
0.0
  0
LINE
  5
C5
330
1E
100
AcDbEntity
  8
0
100
AcDbLine
 10
225.1
 20
9.83
 30
0.0
 11
230.3
 21
9.83
 31
0.0
  0
LINE
  5
C6
330
1E
100
AcDbEntity
  8
0
100
AcDbLine
 10
221.7
 20
9.83
 30
0.0
 11
225.1
 21
9.83
 31
0.0
  0
LINE
  5
C7
330
1E
100
AcDbEntity
  8
0
100
AcDbLine
 10
68.3
 20
9.83
 30
0.0
 11
69.5
 21
9.83
 31
0.0
  0
LINE
  5
C8
330
1E
100
AcDbEntity
  8
0
100
AcDbLine
 10
69.5
 20
9.83
 30
0.0
 11
70.0
 21
9.33
 31
0.0
  0
LINE
  5
CA
330
1E
100
AcDbEntity
  8
0
100
AcDbLine
 10
70.0
 20
9.33
 30
0.0
 11
70.0
 21
-0.17
 31
0.0
  0
LINE
  5
CB
330
1E
100
AcDbEntity
  8
0
100
AcDbLine
 10
59.7
 20
-0.17
 30
0.0
 11
65.3
 21
-0.17
 31
0.0
  0
LINE
  5
CC
330
1E
100
AcDbEntity
  8
0
100
AcDbLine
 10
65.3
 20
-0.17
 30
0.0
 11
68.7
 21
-0.17
 31
0.0
  0
LINE
  5
CD
330
1E
100
AcDbEntity
  8
0
100
AcDbLine
 10
26.0
 20
-0.17
 30
0.0
 11
35.0
 21
-0.17
 31
0.0
  0
LINE
  5
CE
330
1E
100
AcDbEntity
  8
0
100
AcDbLine
 10
10.3
 20
9.83
 30
0.0
 11
17.9
 21
9.83
 31
0.0
  0
LINE
  5
CF
330
1E
100
AcDbEntity
  8
0
100
AcDbLine
 10
11.5
 20
9.83
 30
0.0
 11
13.0
 21
10.33
 31
0.0
  0
LINE
  5
D0
330
1E
100
AcDbEntity
  8
0
100
AcDbLine
 10
120.3
 20
9.83
 30
0.0
 11
127.9
 21
9.83
 31
0.0
  0
LINE
  5
D1
330
1E
100
AcDbEntity
  8
0
100
AcDbLine
 10
169.7
 20
9.83
 30
0.0
 11
174.9
 21
9.83
 31
0.0
  0
LINE
  5
D2
330
1E
100
AcDbEntity
  8
0
100
AcDbLine
 10
162.1
 20
9.83
 30
0.0
 11
169.7
 21
9.83
 31
0.0
  0
LINE
  5
D3
330
1E
100
AcDbEntity
  8
0
100
AcDbLine
 10
153.9
 20
9.83
 30
0.0
 11
162.1
 21
9.83
 31
0.0
  0
LINE
  5
D4
330
1E
100
AcDbEntity
  8
0
100
AcDbLine
 10
145.0
 20
9.83
 30
0.0
 11
153.9
 21
9.83
 31
0.0
  0
LINE
  5
D5
330
1E
100
AcDbEntity
  8
0
100
AcDbLine
 10
127.9
 20
9.83
 30
0.0
 11
136.1
 21
9.83
 31
0.0
  0
LINE
  5
D6
330
1E
100
AcDbEntity
  8
0
100
AcDbLine
 10
136.1
 20
9.83
 30
0.0
 11
145.0
 21
9.83
 31
0.0
  0
LINE
  5
D7
330
1E
100
AcDbEntity
  8
0
100
AcDbLine
 10
230.3
 20
9.83
 30
0.0
 11
237.9
 21
9.83
 31
0.0
  0
LINE
  5
D8
330
1E
100
AcDbEntity
  8
0
100
AcDbLine
 10
237.9
 20
9.83
 30
0.0
 11
246.1
 21
9.83
 31
0.0
  0
LINE
  5
E0
330
1E
100
AcDbEntity
  8
0
100
AcDbLine
 10
279.7
 20
9.83
 30
0.0
 11
284.9
 21
9.83
 31
0.0
  0
LINE
  5
E1
330
1E
100
AcDbEntity
  8
0
100
AcDbLine
 10
272.1
 20
9.83
 30
0.0
 11
279.7
 21
9.83
 31
0.0
  0
LINE
  5
E2
330
1E
100
AcDbEntity
  8
0
100
AcDbLine
 10
263.9
 20
9.83
 30
0.0
 11
272.1
 21
9.83
 31
0.0
  0
LINE
  5
E3
330
1E
100
AcDbEntity
  8
0
100
AcDbLine
 10
255.0
 20
9.83
 30
0.0
 11
263.9
 21
9.83
 31
0.0
  0
LINE
  5
E4
330
1E
100
AcDbEntity
  8
0
100
AcDbLine
 10
246.1
 20
9.83
 30
0.0
 11
255.0
 21
9.83
 31
0.0
  0
LINE
  5
E5
330
1E
100
AcDbEntity
  8
0
100
AcDbLine
 10
231.5
 20
9.83
 30
0.0
 11
233.0
 21
10.33
 31
0.0
  0
LINE
  5
E6
330
1E
100
AcDbEntity
  8
0
100
AcDbLine
 10
52.1
 20
9.83
 30
0.0
 11
59.7
 21
9.83
 31
0.0
  0
LINE
  5
E7
330
1E
100
AcDbEntity
  8
0
100
AcDbLine
 10
43.9
 20
9.83
 30
0.0
 11
52.1
 21
9.83
 31
0.0
  0
LINE
  5
E8
330
1E
100
AcDbEntity
  8
0
100
AcDbLine
 10
35.0
 20
9.83
 30
0.0
 11
43.9
 21
9.83
 31
0.0
  0
LINE
  5
E9
330
1E
100
AcDbEntity
  8
0
100
AcDbLine
 10
59.7
 20
9.83
 30
0.0
 11
64.9
 21
9.83
 31
0.0
  0
LINE
  5
EA
330
1E
100
AcDbEntity
  8
0
100
AcDbLine
 10
17.9
 20
9.83
 30
0.0
 11
26.1
 21
9.83
 31
0.0
  0
LINE
  5
EB
330
1E
100
AcDbEntity
  8
0
100
AcDbLine
 10
54.1
 20
10.33
 30
0.0
 11
56.2
 21
10.33
 31
0.0
  0
LINE
  5
EC
330
1E
100
AcDbEntity
  8
0
100
AcDbLine
 10
56.2
 20
10.33
 30
0.0
 11
57.0
 21
10.33
 31
0.0
  0
LINE
  5
ED
330
1E
100
AcDbEntity
  8
0
100
AcDbLine
 10
274.1
 20
10.33
 30
0.0
 11
276.2
 21
10.33
 31
0.0
  0
LINE
  5
EE
330
1E
100
AcDbEntity
  8
0
100
AcDbLine
 10
276.2
 20
10.33
 30
0.0
 11
277.0
 21
10.33
 31
0.0
  0
LINE
  5
EF
330
1E
100
AcDbEntity
  8
0
100
AcDbLine
 10
235.9
 20
10.33
 30
0.0
 11
239.5
 21
10.33
 31
0.0
  0
LINE
  5
F0
330
1E
100
AcDbEntity
  8
0
100
AcDbLine
 10
233.8
 20
10.33
 30
0.0
 11
235.9
 21
10.33
 31
0.0
  0
LINE
  5
F1
330
1E
100
AcDbEntity
  8
0
100
AcDbLine
 10
233.0
 20
10.33
 30
0.0
 11
234.0
 21
11.83
 31
0.0
  0
LINE
  5
F2
330
1E
100
AcDbEntity
  8
0
100
AcDbLine
 10
233.0
 20
10.33
 30
0.0
 11
233.8
 21
10.33
 31
0.0
  0
LINE
  5
F3
330
1E
100
AcDbEntity
  8
0
100
AcDbLine
 10
277.0
 20
10.33
 30
0.0
 11
278.5
 21
9.83
 31
0.0
  0
LINE
  5
F4
330
1E
100
AcDbEntity
  8
0
100
AcDbLine
 10
57.0
 20
10.33
 30
0.0
 11
58.5
 21
9.83
 31
0.0
  0
LINE
  5
F5
330
1E
100
AcDbEntity
  8
0
100
AcDbLine
 10
26.1
 20
9.83
 30
0.0
 11
35.0
 21
9.83
 31
0.0
  0
LINE
  5
F6
330
1E
100
AcDbEntity
  8
0
100
AcDbLine
 10
15.9
 20
10.33
 30
0.0
 11
19.5
 21
10.33
 31
0.0
  0
LINE
  5
F7
330
1E
100
AcDbEntity
  8
0
100
AcDbLine
 10
19.5
 20
10.33
 30
0.0
 11
24.1
 21
10.33
 31
0.0
  0
LINE
  5
F8
330
1E
100
AcDbEntity
  8
0
100
AcDbLine
 10
24.1
 20
10.33
 30
0.0
 11
29.3
 21
10.33
 31
0.0
  0
LINE
  5
F9
330
1E
100
AcDbEntity
  8
0
100
AcDbLine
 10
239.5
 20
10.33
 30
0.0
 11
244.1
 21
10.33
 31
0.0
  0
LINE
  5
FA
330
1E
100
AcDbEntity
  8
0
100
AcDbLine
 10
270.5
 20
10.33
 30
0.0
 11
274.1
 21
10.33
 31
0.0
  0
LINE
  5
FB
330
1E
100
AcDbEntity
  8
0
100
AcDbLine
 10
265.9
 20
10.33
 30
0.0
 11
270.5
 21
10.33
 31
0.0
  0
LINE
  5
FC
330
1E
100
AcDbEntity
  8
0
100
AcDbLine
 10
260.7
 20
10.33
 30
0.0
 11
265.9
 21
10.33
 31
0.0
  0
LINE
  5
FD
330
1E
100
AcDbEntity
  8
0
100
AcDbLine
 10
255.0
 20
10.33
 30
0.0
 11
260.7
 21
10.33
 31
0.0
  0
LINE
  5
FE
330
1E
100
AcDbEntity
  8
0
100
AcDbLine
 10
244.1
 20
10.33
 30
0.0
 11
249.3
 21
10.33
 31
0.0
  0
LINE
  5
FF
330
1E
100
AcDbEntity
  8
0
100
AcDbLine
 10
249.3
 20
10.33
 30
0.0
 11
255.0
 21
10.33
 31
0.0
  0
LINE
  5
100
330
1E
100
AcDbEntity
  8
0
100
AcDbLine
 10
45.9
 20
10.33
 30
0.0
 11
50.5
 21
10.33
 31
0.0
  0
LINE
  5
101
330
1E
100
AcDbEntity
  8
0
100
AcDbLine
 10
40.7
 20
10.33
 30
0.0
 11
45.9
 21
10.33
 31
0.0
  0
LINE
  5
102
330
1E
100
AcDbEntity
  8
0
100
AcDbLine
 10
35.0
 20
10.33
 30
0.0
 11
40.7
 21
10.33
 31
0.0
  0
LINE
  5
103
330
1E
100
AcDbEntity
  8
0
100
AcDbLine
 10
55.5
 20
13.83
 30
0.0
 11
56.0
 21
11.83
 31
0.0
  0
LINE
  5
104
330
1E
100
AcDbEntity
  8
0
100
AcDbLine
 10
55.5
 20
13.83
 30
0.0
 11
55.5
 21
16.33
 31
0.0
  0
LINE
  5
105
330
1E
100
AcDbEntity
  8
0
100
AcDbLine
 10
234.0
 20
11.83
 30
0.0
 11
234.5
 21
13.83
 31
0.0
  0
LINE
  5
106
330
1E
100
AcDbEntity
  8
0
100
AcDbLine
 10
234.5
 20
13.83
 30
0.0
 11
234.5
 21
16.33
 31
0.0
  0
LINE
  5
107
330
1E
100
AcDbEntity
  8
0
100
AcDbLine
 10
275.5
 20
13.83
 30
0.0
 11
276.0
 21
11.83
 31
0.0
  0
LINE
  5
108
330
1E
100
AcDbEntity
  8
0
100
AcDbLine
 10
275.5
 20
13.83
 30
0.0
 11
275.5
 21
16.33
 31
0.0
  0
LINE
  5
109
330
1E
100
AcDbEntity
  8
0
100
AcDbLine
 10
276.0
 20
11.83
 30
0.0
 11
277.0
 21
10.33
 31
0.0
  0
LINE
  5
10A
330
1E
100
AcDbEntity
  8
0
100
AcDbLine
 10
56.0
 20
11.83
 30
0.0
 11
57.0
 21
10.33
 31
0.0
  0
LINE
  5
10B
330
1E
100
AcDbEntity
  8
0
100
AcDbLine
 10
50.5
 20
10.33
 30
0.0
 11
54.1
 21
10.33
 31
0.0
  0
LINE
  5
10C
330
1E
100
AcDbEntity
  8
0
100
AcDbLine
 10
29.3
 20
10.33
 30
0.0
 11
35.0
 21
10.33
 31
0.0
  0
LINE
  5
10D
330
1E
100
AcDbEntity
  8
0
100
AcDbLine
 10
14.5
 20
56.33
 30
0.0
 11
15.2
 21
56.33
 31
0.0
  0
LINE
  5
10E
330
1E
100
AcDbEntity
  8
0
100
AcDbLine
 10
14.5
 20
56.33
 30
0.0
 11
15.0
 21
56.83
 31
0.0
  0
LINE
  5
10F
330
1E
100
AcDbEntity
  8
0
100
AcDbLine
 10
14.5
 20
56.33
 30
0.0
 11
14.5
 21
17.83
 31
0.0
  0
LINE
  5
110
330
1E
100
AcDbEntity
  8
0
100
AcDbLine
 10
14.5
 20
17.83
 30
0.0
 11
14.5
 21
56.33
 31
0.0
  0
LINE
  5
111
330
1E
100
AcDbEntity
  8
0
100
AcDbLine
 10
14.5
 20
17.83
 30
0.0
 11
15.2
 21
17.83
 31
0.0
  0
LINE
  5
112
330
1E
100
AcDbEntity
  8
0
100
AcDbLine
 10
14.5
 20
17.83
 30
0.0
 11
14.5
 21
16.33
 31
0.0
  0
LINE
  5
113
330
1E
100
AcDbEntity
  8
0
100
AcDbLine
 10
49.5
 20
16.33
 30
0.0
 11
52.8
 21
16.33
 31
0.0
  0
LINE
  5
114
330
1E
100
AcDbEntity
  8
0
100
AcDbLine
 10
52.8
 20
16.33
 30
0.0
 11
54.8
 21
16.33
 31
0.0
  0
LINE
  5
115
330
1E
100
AcDbEntity
  8
0
100
AcDbLine
 10
54.8
 20
16.33
 30
0.0
 11
55.5
 21
16.33
 31
0.0
  0
LINE
  5
116
330
1E
100
AcDbEntity
  8
0
100
AcDbLine
 10
237.2
 20
16.33
 30
0.0
 11
240.5
 21
16.33
 31
0.0
  0
LINE
  5
117
330
1E
100
AcDbEntity
  8
0
100
AcDbLine
 10
235.2
 20
16.33
 30
0.0
 11
237.2
 21
16.33
 31
0.0
  0
LINE
  5
118
330
1E
100
AcDbEntity
  8
0
100
AcDbLine
 10
234.5
 20
16.33
 30
0.0
 11
234.5
 21
13.83
 31
0.0
  0
LINE
  5
119
330
1E
100
AcDbEntity
  8
0
100
AcDbLine
 10
234.5
 20
16.33
 30
0.0
 11
235.2
 21
16.33
 31
0.0
  0
LINE
  5
11A
330
1E
100
AcDbEntity
  8
0
100
AcDbLine
 10
234.5
 20
16.33
 30
0.0
 11
234.5
 21
17.83
 31
0.0
  0
LINE
  5
11B
330
1E
100
AcDbEntity
  8
0
100
AcDbLine
 10
240.5
 20
16.33
 30
0.0
 11
244.8
 21
16.33
 31
0.0
  0
LINE
  5
11C
330
1E
100
AcDbEntity
  8
0
100
AcDbLine
 10
269.5
 20
16.33
 30
0.0
 11
272.8
 21
16.33
 31
0.0
  0
LINE
  5
11D
330
1E
100
AcDbEntity
  8
0
100
AcDbLine
 10
272.8
 20
16.33
 30
0.0
 11
274.8
 21
16.33
 31
0.0
  0
LINE
  5
125
330
1E
100
AcDbEntity
  8
0
100
AcDbLine
 10
274.8
 20
16.33
 30
0.0
 11
275.5
 21
16.33
 31
0.0
  0
LINE
  5
126
330
1E
100
AcDbEntity
  8
0
100
AcDbLine
 10
275.5
 20
16.33
 30
0.0
 11
275.5
 21
13.83
 31
0.0
  0
LINE
  5
127
330
1E
100
AcDbEntity
  8
0
100
AcDbLine
 10
275.5
 20
16.33
 30
0.0
 11
275.5
 21
17.83
 31
0.0
  0
LINE
  5
128
330
1E
100
AcDbEntity
  8
0
100
AcDbLine
 10
55.5
 20
16.33
 30
0.0
 11
55.5
 21
13.83
 31
0.0
  0
LINE
  5
129
330
1E
100
AcDbEntity
  8
0
100
AcDbLine
 10
55.5
 20
16.33
 30
0.0
 11
55.5
 21
17.83
 31
0.0
  0
LINE
  5
12A
330
1E
100
AcDbEntity
  8
0
100
AcDbLine
 10
20.5
 20
16.33
 30
0.0
 11
24.8
 21
16.33
 31
0.0
  0
LINE
  5
12B
330
1E
100
AcDbEntity
  8
0
100
AcDbLine
 10
17.2
 20
16.33
 30
0.0
 11
20.5
 21
16.33
 31
0.0
  0
LINE
  5
12C
330
1E
100
AcDbEntity
  8
0
100
AcDbLine
 10
15.0
 20
56.83
 30
0.0
 11
15.7
 21
56.83
 31
0.0
  0
LINE
  5
12D
330
1E
100
AcDbEntity
  8
0
100
AcDbLine
 10
15.2
 20
56.33
 30
0.0
 11
17.2
 21
56.33
 31
0.0
  0
LINE
  5
12E
330
1E
100
AcDbEntity
  8
0
100
AcDbLine
 10
24.8
 20
16.33
 30
0.0
 11
29.7
 21
16.33
 31
0.0
  0
LINE
  5
12F
330
1E
100
AcDbEntity
  8
0
100
AcDbLine
 10
29.7
 20
16.33
 30
0.0
 11
35.0
 21
16.33
 31
0.0
  0
LINE
  5
130
330
1E
100
AcDbEntity
  8
0
100
AcDbLine
 10
20.5
 20
17.83
 30
0.0
 11
24.8
 21
17.83
 31
0.0
  0
LINE
  5
131
330
1E
100
AcDbEntity
  8
0
100
AcDbLine
 10
24.8
 20
17.83
 30
0.0
 11
29.7
 21
17.83
 31
0.0
  0
LINE
  5
132
330
1E
100
AcDbEntity
  8
0
100
AcDbLine
 10
40.3
 20
16.33
 30
0.0
 11
45.2
 21
16.33
 31
0.0
  0
LINE
  5
133
330
1E
100
AcDbEntity
  8
0
100
AcDbLine
 10
35.0
 20
16.33
 30
0.0
 11
40.3
 21
16.33
 31
0.0
  0
LINE
  5
134
330
1E
100
AcDbEntity
  8
0
100
AcDbLine
 10
45.2
 20
16.33
 30
0.0
 11
49.5
 21
16.33
 31
0.0
  0
LINE
  5
135
330
1E
100
AcDbEntity
  8
0
100
AcDbLine
 10
49.5
 20
17.83
 30
0.0
 11
52.8
 21
17.83
 31
0.0
  0
LINE
  5
136
330
1E
100
AcDbEntity
  8
0
100
AcDbLine
 10
52.8
 20
17.83
 30
0.0
 11
54.8
 21
17.83
 31
0.0
  0
LINE
  5
137
330
1E
100
AcDbEntity
  8
0
100
AcDbLine
 10
244.8
 20
16.33
 30
0.0
 11
249.7
 21
16.33
 31
0.0
  0
LINE
  5
138
330
1E
100
AcDbEntity
  8
0
100
AcDbLine
 10
255.0
 20
16.33
 30
0.0
 11
260.3
 21
16.33
 31
0.0
  0
LINE
  5
139
330
1E
100
AcDbEntity
  8
0
100
AcDbLine
 10
249.7
 20
16.33
 30
0.0
 11
255.0
 21
16.33
 31
0.0
  0
LINE
  5
13A
330
1E
100
AcDbEntity
  8
0
100
AcDbLine
 10
240.5
 20
17.83
 30
0.0
 11
244.8
 21
17.83
 31
0.0
  0
LINE
  5
13B
330
1E
100
AcDbEntity
  8
0
100
AcDbLine
 10
255.0
 20
17.83
 30
0.0
 11
260.3
 21
17.83
 31
0.0
  0
LINE
  5
13C
330
1E
100
AcDbEntity
  8
0
100
AcDbLine
 10
244.8
 20
17.83
 30
0.0
 11
249.7
 21
17.83
 31
0.0
  0
LINE
  5
13D
330
1E
100
AcDbEntity
  8
0
100
AcDbLine
 10
249.7
 20
17.83
 30
0.0
 11
255.0
 21
17.83
 31
0.0
  0
LINE
  5
13E
330
1E
100
AcDbEntity
  8
0
100
AcDbLine
 10
237.2
 20
17.83
 30
0.0
 11
240.5
 21
17.83
 31
0.0
  0
LINE
  5
13F
330
1E
100
AcDbEntity
  8
0
100
AcDbLine
 10
235.2
 20
17.83
 30
0.0
 11
237.2
 21
17.83
 31
0.0
  0
LINE
  5
140
330
1E
100
AcDbEntity
  8
0
100
AcDbLine
 10
234.5
 20
17.83
 30
0.0
 11
234.5
 21
56.33
 31
0.0
  0
LINE
  5
141
330
1E
100
AcDbEntity
  8
0
100
AcDbLine
 10
234.5
 20
17.83
 30
0.0
 11
235.2
 21
17.83
 31
0.0
  0
LINE
  5
142
330
1E
100
AcDbEntity
  8
0
100
AcDbLine
 10
234.5
 20
17.83
 30
0.0
 11
234.5
 21
16.33
 31
0.0
  0
LINE
  5
145
330
1E
100
AcDbEntity
  8
0
100
AcDbLine
 10
265.2
 20
16.33
 30
0.0
 11
269.5
 21
16.33
 31
0.0
  0
LINE
  5
146
330
1E
100
AcDbEntity
  8
0
100
AcDbLine
 10
260.3
 20
16.33
 30
0.0
 11
265.2
 21
16.33
 31
0.0
  0
LINE
  5
147
330
1E
100
AcDbEntity
  8
0
100
AcDbLine
 10
265.2
 20
17.83
 30
0.0
 11
269.5
 21
17.83
 31
0.0
  0
LINE
  5
148
330
1E
100
AcDbEntity
  8
0
100
AcDbLine
 10
260.3
 20
17.83
 30
0.0
 11
265.2
 21
17.83
 31
0.0
  0
LINE
  5
149
330
1E
100
AcDbEntity
  8
0
100
AcDbLine
 10
269.5
 20
17.83
 30
0.0
 11
272.8
 21
17.83
 31
0.0
  0
LINE
  5
14A
330
1E
100
AcDbEntity
  8
0
100
AcDbLine
 10
272.8
 20
17.83
 30
0.0
 11
274.8
 21
17.83
 31
0.0
  0
LINE
  5
14B
330
1E
100
AcDbEntity
  8
0
100
AcDbLine
 10
274.8
 20
17.83
 30
0.0
 11
275.5
 21
17.83
 31
0.0
  0
LINE
  5
14C
330
1E
100
AcDbEntity
  8
0
100
AcDbLine
 10
275.5
 20
17.83
 30
0.0
 11
275.5
 21
56.33
 31
0.0
  0
LINE
  5
14D
330
1E
100
AcDbEntity
  8
0
100
AcDbLine
 10
275.5
 20
17.83
 30
0.0
 11
275.5
 21
16.33
 31
0.0
  0
LINE
  5
14E
330
1E
100
AcDbEntity
  8
0
100
AcDbLine
 10
55.5
 20
17.83
 30
0.0
 11
55.5
 21
56.33
 31
0.0
  0
LINE
  5
14F
330
1E
100
AcDbEntity
  8
0
100
AcDbLine
 10
55.5
 20
17.83
 30
0.0
 11
55.5
 21
16.33
 31
0.0
  0
LINE
  5
150
330
1E
100
AcDbEntity
  8
0
100
AcDbLine
 10
54.8
 20
17.83
 30
0.0
 11
55.5
 21
17.83
 31
0.0
  0
LINE
  5
151
330
1E
100
AcDbEntity
  8
0
100
AcDbLine
 10
45.2
 20
17.83
 30
0.0
 11
49.5
 21
17.83
 31
0.0
  0
LINE
  5
152
330
1E
100
AcDbEntity
  8
0
100
AcDbLine
 10
40.3
 20
17.83
 30
0.0
 11
45.2
 21
17.83
 31
0.0
  0
LINE
  5
153
330
1E
100
AcDbEntity
  8
0
100
AcDbLine
 10
35.0
 20
17.83
 30
0.0
 11
40.3
 21
17.83
 31
0.0
  0
LINE
  5
154
330
1E
100
AcDbEntity
  8
0
100
AcDbLine
 10
29.7
 20
17.83
 30
0.0
 11
35.0
 21
17.83
 31
0.0
  0
LINE
  5
155
330
1E
100
AcDbEntity
  8
0
100
AcDbLine
 10
15.7
 20
56.83
 30
0.0
 11
17.7
 21
56.83
 31
0.0
  0
LINE
  5
156
330
1E
100
AcDbEntity
  8
0
100
AcDbLine
 10
20.5
 20
56.33
 30
0.0
 11
24.8
 21
56.33
 31
0.0
  0
LINE
  5
157
330
1E
100
AcDbEntity
  8
0
100
AcDbLine
 10
20.9
 20
56.83
 30
0.0
 11
25.1
 21
56.83
 31
0.0
  0
LINE
  5
158
330
1E
100
AcDbEntity
  8
0
100
AcDbLine
 10
25.1
 20
56.83
 30
0.0
 11
29.9
 21
56.83
 31
0.0
  0
LINE
  5
159
330
1E
100
AcDbEntity
  8
0
100
AcDbLine
 10
24.8
 20
56.33
 30
0.0
 11
29.7
 21
56.33
 31
0.0
  0
LINE
  5
15A
330
1E
100
AcDbEntity
  8
0
100
AcDbLine
 10
35.0
 20
56.83
 30
0.0
 11
40.1
 21
56.83
 31
0.0
  0
LINE
  5
15B
330
1E
100
AcDbEntity
  8
0
100
AcDbLine
 10
49.5
 20
56.33
 30
0.0
 11
52.8
 21
56.33
 31
0.0
  0
LINE
  5
15C
330
1E
100
AcDbEntity
  8
0
100
AcDbLine
 10
52.8
 20
56.33
 30
0.0
 11
54.8
 21
56.33
 31
0.0
  0
LINE
  5
15D
330
1E
100
AcDbEntity
  8
0
100
AcDbLine
 10
168.4
 20
22.9807
 30
0.0
 11
169.5
 21
36.1314
 31
0.0
  0
LINE
  5
15E
330
1E
100
AcDbEntity
  8
0
100
AcDbLine
 10
118.9
 20
49.2821
 30
0.0
 11
120.5
 21
36.1314
 31
0.0
  0
LINE
  5
15F
330
1E
100
AcDbEntity
  8
0
100
AcDbLine
 10
171.1
 20
49.2821
 30
0.0
 11
173.6
 21
62.4327
 31
0.0
  0
LINE
  5
160
330
1E
100
AcDbEntity
  8
0
100
AcDbLine
 10
169.5
 20
36.1314
 30
0.0
 11
171.1
 21
49.2821
 31
0.0
  0
LINE
  5
161
330
1E
100
AcDbEntity
  8
0
100
AcDbLine
 10
120.5
 20
36.1314
 30
0.0
 11
121.6
 21
22.9807
 31
0.0
  0
LINE
  5
162
330
1E
100
AcDbEntity
  8
0
100
AcDbLine
 10
121.6
 20
22.9807
 30
0.0
 11
122.0
 21
9.83
 31
0.0
  0
LINE
  5
163
330
1E
100
AcDbEntity
  8
0
100
AcDbLine
 10
240.5
 20
56.33
 30
0.0
 11
244.8
 21
56.33
 31
0.0
  0
LINE
  5
164
330
1E
100
AcDbEntity
  8
0
100
AcDbLine
 10
237.2
 20
56.33
 30
0.0
 11
240.5
 21
56.33
 31
0.0
  0
LINE
  5
165
330
1E
100
AcDbEntity
  8
0
100
AcDbLine
 10
235.2
 20
56.33
 30
0.0
 11
237.2
 21
56.33
 31
0.0
  0
LINE
  5
166
330
1E
100
AcDbEntity
  8
0
100
AcDbLine
 10
234.5
 20
56.33
 30
0.0
 11
235.0
 21
56.83
 31
0.0
  0
LINE
  5
167
330
1E
100
AcDbEntity
  8
0
100
AcDbLine
 10
234.5
 20
56.33
 30
0.0
 11
234.5
 21
17.83
 31
0.0
  0
LINE
  5
168
330
1E
100
AcDbEntity
  8
0
100
AcDbLine
 10
234.5
 20
56.33
 30
0.0
 11
235.2
 21
56.33
 31
0.0
  0
LINE
  5
169
330
1E
100
AcDbEntity
  8
0
100
AcDbLine
 10
269.5
 20
56.33
 30
0.0
 11
272.8
 21
56.33
 31
0.0
  0
LINE
  5
19C
330
1E
100
AcDbEntity
  8
0
100
AcDbLine
 10
275.5
 20
56.33
 30
0.0
 11
275.5
 21
17.83
 31
0.0
  0
LINE
  5
19D
330
1E
100
AcDbEntity
  8
0
100
AcDbLine
 10
272.8
 20
56.33
 30
0.0
 11
274.8
 21
56.33
 31
0.0
  0
LINE
  5
19E
330
1E
100
AcDbEntity
  8
0
100
AcDbLine
 10
274.8
 20
56.33
 30
0.0
 11
275.5
 21
56.33
 31
0.0
  0
LINE
  5
19F
330
1E
100
AcDbEntity
  8
0
100
AcDbLine
 10
54.8
 20
56.33
 30
0.0
 11
55.5
 21
56.33
 31
0.0
  0
LINE
  5
1A0
330
1E
100
AcDbEntity
  8
0
100
AcDbLine
 10
244.8
 20
56.33
 30
0.0
 11
249.7
 21
56.33
 31
0.0
  0
LINE
  5
1A1
330
1E
100
AcDbEntity
  8
0
100
AcDbLine
 10
265.2
 20
56.33
 30
0.0
 11
269.5
 21
56.33
 31
0.0
  0
LINE
  5
1A2
330
1E
100
AcDbEntity
  8
0
100
AcDbLine
 10
260.3
 20
56.33
 30
0.0
 11
265.2
 21
56.33
 31
0.0
  0
LINE
  5
1A3
330
1E
100
AcDbEntity
  8
0
100
AcDbLine
 10
255.0
 20
56.33
 30
0.0
 11
260.3
 21
56.33
 31
0.0
  0
LINE
  5
1A4
330
1E
100
AcDbEntity
  8
0
100
AcDbLine
 10
249.7
 20
56.33
 30
0.0
 11
255.0
 21
56.33
 31
0.0
  0
LINE
  5
1A5
330
1E
100
AcDbEntity
  8
0
100
AcDbLine
 10
55.5
 20
56.33
 30
0.0
 11
55.5
 21
17.83
 31
0.0
  0
LINE
  5
1A6
330
1E
100
AcDbEntity
  8
0
100
AcDbLine
 10
45.2
 20
56.33
 30
0.0
 11
49.5
 21
56.33
 31
0.0
  0
LINE
  5
1A7
330
1E
100
AcDbEntity
  8
0
100
AcDbLine
 10
49.1
 20
56.83
 30
0.0
 11
52.3
 21
56.83
 31
0.0
  0
LINE
  5
1A8
330
1E
100
AcDbEntity
  8
0
100
AcDbLine
 10
52.3
 20
56.83
 30
0.0
 11
54.3
 21
56.83
 31
0.0
  0
LINE
  5
1A9
330
1E
100
AcDbEntity
  8
0
100
AcDbLine
 10
54.3
 20
56.83
 30
0.0
 11
55.0
 21
56.83
 31
0.0
  0
LINE
  5
1AA
330
1E
100
AcDbEntity
  8
0
100
AcDbLine
 10
240.9
 20
56.83
 30
0.0
 11
245.1
 21
56.83
 31
0.0
  0
LINE
  5
1AB
330
1E
100
AcDbEntity
  8
0
100
AcDbLine
 10
245.1
 20
56.83
 30
0.0
 11
249.9
 21
56.83
 31
0.0
  0
LINE
  5
1AC
330
1E
100
AcDbEntity
  8
0
100
AcDbLine
 10
264.9
 20
56.83
 30
0.0
 11
269.1
 21
56.83
 31
0.0
  0
LINE
  5
1AD
330
1E
100
AcDbEntity
  8
0
100
AcDbLine
 10
260.1
 20
56.83
 30
0.0
 11
264.9
 21
56.83
 31
0.0
  0
LINE
  5
1AE
330
1E
100
AcDbEntity
  8
0
100
AcDbLine
 10
255.0
 20
56.83
 30
0.0
 11
260.1
 21
56.83
 31
0.0
  0
LINE
  5
1AF
330
1E
100
AcDbEntity
  8
0
100
AcDbLine
 10
269.1
 20
56.83
 30
0.0
 11
272.3
 21
56.83
 31
0.0
  0
LINE
  5
1B0
330
1E
100
AcDbEntity
  8
0
100
AcDbLine
 10
272.3
 20
56.83
 30
0.0
 11
274.3
 21
56.83
 31
0.0
  0
LINE
  5
1B1
330
1E
100
AcDbEntity
  8
0
100
AcDbLine
 10
274.3
 20
56.83
 30
0.0
 11
275.0
 21
56.83
 31
0.0
  0
LINE
  5
1B2
330
1E
100
AcDbEntity
  8
0
100
AcDbLine
 10
275.0
 20
56.83
 30
0.0
 11
275.5
 21
56.33
 31
0.0
  0
LINE
  5
1B3
330
1E
100
AcDbEntity
  8
0
100
AcDbLine
 10
249.9
 20
56.83
 30
0.0
 11
255.0
 21
56.83
 31
0.0
  0
LINE
  5
1B4
330
1E
100
AcDbEntity
  8
0
100
AcDbLine
 10
237.7
 20
56.83
 30
0.0
 11
240.9
 21
56.83
 31
0.0
  0
LINE
  5
1B5
330
1E
100
AcDbEntity
  8
0
100
AcDbLine
 10
235.7
 20
56.83
 30
0.0
 11
237.7
 21
56.83
 31
0.0
  0
LINE
  5
1B6
330
1E
100
AcDbEntity
  8
0
100
AcDbLine
 10
235.0
 20
56.83
 30
0.0
 11
235.7
 21
56.83
 31
0.0
  0
LINE
  5
1B7
330
1E
100
AcDbEntity
  8
0
100
AcDbLine
 10
55.0
 20
56.83
 30
0.0
 11
55.5
 21
56.33
 31
0.0
  0
LINE
  5
1B8
330
1E
100
AcDbEntity
  8
0
100
AcDbLine
 10
44.9
 20
56.83
 30
0.0
 11
49.1
 21
56.83
 31
0.0
  0
LINE
  5
1B9
330
1E
100
AcDbEntity
  8
0
100
AcDbLine
 10
40.1
 20
56.83
 30
0.0
 11
44.9
 21
56.83
 31
0.0
  0
LINE
  5
1BA
330
1E
100
AcDbEntity
  8
0
100
AcDbLine
 10
40.3
 20
56.33
 30
0.0
 11
45.2
 21
56.33
 31
0.0
  0
LINE
  5
1BB
330
1E
100
AcDbEntity
  8
0
100
AcDbLine
 10
35.0
 20
56.33
 30
0.0
 11
40.3
 21
56.33
 31
0.0
  0
LINE
  5
1BC
330
1E
100
AcDbEntity
  8
0
100
AcDbLine
 10
29.9
 20
56.83
 30
0.0
 11
35.0
 21
56.83
 31
0.0
  0
LINE
  5
1BD
330
1E
100
AcDbEntity
  8
0
100
AcDbLine
 10
29.7
 20
56.33
 30
0.0
 11
35.0
 21
56.33
 31
0.0
  0
LINE
  5
1BE
330
1E
100
AcDbEntity
  8
0
100
AcDbLine
 10
46.0
 20
105.83
 30
0.0
 11
47.0
 21
105.83
 31
0.0
  0
LINE
  5
1BF
330
1E
100
AcDbEntity
  8
0
100
AcDbLine
 10
47.0
 20
105.83
 30
0.0
 11
90.0
 21
105.83
 31
0.0
  0
LINE
  5
1C0
330
1E
100
AcDbEntity
  8
0
100
AcDbLine
 10
47.0
 20
105.83
 30
0.0
 11
243.0
 21
105.83
 31
0.0
  0
LINE
  5
1C1
330
1E
100
AcDbEntity
  8
0
100
AcDbLine
 10
47.0
 20
105.83
 30
0.0
 11
243.0
 21
105.83
 31
0.0
  0
LINE
  5
1C2
330
1E
100
AcDbEntity
  8
0
100
AcDbLine
 10
47.0
 20
105.83
 30
0.0
 11
90.0
 21
105.83
 31
0.0
  0
LINE
  5
1C3
330
1E
100
AcDbEntity
  8
0
100
AcDbLine
 10
46.0
 20
105.83
 30
0.0
 11
47.0
 21
105.83
 31
0.0
  0
LINE
  5
1C4
330
1E
100
AcDbEntity
  8
0
100
AcDbLine
 10
45.0
 20
106.83
 30
0.0
 11
45.3
 21
106.13
 31
0.0
  0
LINE
  5
1C5
330
1E
100
AcDbEntity
  8
0
100
AcDbLine
 10
45.0
 20
106.83
 30
0.0
 11
45.0
 21
116.83
 31
0.0
  0
LINE
  5
1C6
330
1E
100
AcDbEntity
  8
0
100
AcDbLine
 10
45.3
 20
106.13
 30
0.0
 11
46.0
 21
105.83
 31
0.0
  0
LINE
  5
1C7
330
1E
100
AcDbEntity
  8
0
100
AcDbLine
 10
45.3
 20
117.53
 30
0.0
 11
45.8
 21
117.53
 31
0.0
  0
LINE
  5
1C8
330
1E
100
AcDbEntity
  8
0
100
AcDbLine
 10
45.3
 20
117.53
 30
0.0
 11
46.0
 21
117.83
 31
0.0
  0
LINE
  5
1C9
330
1E
100
AcDbEntity
  8
0
100
AcDbLine
 10
45.0
 20
116.83
 30
0.0
 11
45.0
 21
106.83
 31
0.0
  0
LINE
  5
1CA
330
1E
100
AcDbEntity
  8
0
100
AcDbLine
 10
45.0
 20
116.83
 30
0.0
 11
45.3
 21
117.53
 31
0.0
  0
LINE
  5
1CB
330
1E
100
AcDbEntity
  8
0
100
AcDbLine
 10
47.0
 20
106.13
 30
0.0
 11
243.0
 21
106.13
 31
0.0
  0
LINE
  5
1CC
330
1E
100
AcDbEntity
  8
0
100
AcDbLine
 10
47.0
 20
106.13
 30
0.0
 11
243.0
 21
106.13
 31
0.0
  0
LINE
  5
1CF
330
1E
100
AcDbEntity
  8
0
100
AcDbLine
 10
47.0
 20
117.53
 30
0.0
 11
243.0
 21
117.53
 31
0.0
  0
LINE
  5
1D0
330
1E
100
AcDbEntity
  8
0
100
AcDbLine
 10
47.0
 20
117.53
 30
0.0
 11
243.0
 21
117.53
 31
0.0
  0
LINE
  5
1D1
330
1E
100
AcDbEntity
  8
0
100
AcDbLine
 10
46.0
 20
117.83
 30
0.0
 11
243.7
 21
117.83
 31
0.0
  0
LINE
  5
1D2
330
1E
100
AcDbEntity
  8
0
100
AcDbLine
 10
45.8
 20
117.53
 30
0.0
 11
47.0
 21
117.53
 31
0.0
  0
LINE
  5
1D5
330
1E
100
AcDbEntity
  8
0
100
AcDbLine
 10
45.8
 20
106.13
 30
0.0
 11
47.0
 21
106.13
 31
0.0
  0
LINE
  5
1D6
330
1E
100
AcDbEntity
  8
0
100
AcDbLine
 10
45.3
 20
106.13
 30
0.0
 11
45.8
 21
106.13
 31
0.0
  0
LINE
  5
1D7
330
1E
100
AcDbEntity
  8
0
100
AcDbLine
 10
90.0
 20
105.83
 30
0.0
 11
90.0
 21
102.83
 31
0.0
  0
LINE
  5
1D8
330
1E
100
AcDbEntity
  8
0
100
AcDbLine
 10
90.0
 20
105.83
 30
0.0
 11
200.0
 21
105.83
 31
0.0
  0
LINE
  5
1D9
330
1E
100
AcDbEntity
  8
0
100
AcDbLine
 10
101.544103454932
 20
102.83
 30
0.0
 11
108.8
 21
88.7327
 31
0.0
  0
LINE
  5
1DA
330
1E
100
AcDbEntity
  8
0
100
AcDbLine
 10
108.8
 20
88.7327
 30
0.0
 11
113.2
 21
75.5834
 31
0.0
  0
LINE
  5
1DB
330
1E
100
AcDbEntity
  8
0
100
AcDbLine
 10
113.2
 20
75.5834
 30
0.0
 11
116.4
 21
62.4327
 31
0.0
  0
LINE
  5
1E8
330
1E
100
AcDbEntity
  8
0
100
AcDbLine
 10
181.2
 20
88.7327
 30
0.0
 11
188.455896545069
 21
102.83
 31
0.0
  0
LINE
  5
1E9
330
1E
100
AcDbEntity
  8
0
100
AcDbLine
 10
176.8
 20
75.5834
 30
0.0
 11
181.2
 21
88.7327
 31
0.0
  0
LINE
  5
1EA
330
1E
100
AcDbEntity
  8
0
100
AcDbLine
 10
173.6
 20
62.4327
 30
0.0
 11
176.8
 21
75.5834
 31
0.0
  0
LINE
  5
1EB
330
1E
100
AcDbEntity
  8
0
100
AcDbLine
 10
116.4
 20
62.4327
 30
0.0
 11
118.9
 21
49.2821
 31
0.0
  0
LINE
  5
1EC
330
1E
100
AcDbEntity
  8
0
100
AcDbLine
 10
200.0
 20
105.83
 30
0.0
 11
243.0
 21
105.83
 31
0.0
  0
LINE
  5
1ED
330
1E
100
AcDbEntity
  8
0
100
AcDbLine
 10
243.0
 20
105.83
 30
0.0
 11
244.0
 21
105.83
 31
0.0
  0
LINE
  5
1EE
330
1E
100
AcDbEntity
  8
0
100
AcDbLine
 10
243.0
 20
105.83
 30
0.0
 11
244.0
 21
105.83
 31
0.0
  0
LINE
  5
1F6
330
1E
100
AcDbEntity
  8
0
100
AcDbLine
 10
244.0
 20
105.83
 30
0.0
 11
244.7
 21
106.13
 31
0.0
  0
LINE
  5
1F7
330
1E
100
AcDbEntity
  8
0
100
AcDbLine
 10
243.0
 20
106.13
 30
0.0
 11
244.2
 21
106.13
 31
0.0
  0
LINE
  5
1F8
330
1E
100
AcDbEntity
  8
0
100
AcDbLine
 10
243.0
 20
117.53
 30
0.0
 11
244.2
 21
117.53
 31
0.0
  0
LINE
  5
1FB
330
1E
100
AcDbEntity
  8
0
100
AcDbLine
 10
243.7
 20
117.83
 30
0.0
 11
244.0
 21
117.83
 31
0.0
  0
LINE
  5
1FC
330
1E
100
AcDbEntity
  8
0
100
AcDbLine
 10
244.0
 20
117.83
 30
0.0
 11
244.7
 21
117.53
 31
0.0
  0
LINE
  5
1FE
330
1E
100
AcDbEntity
  8
0
100
AcDbLine
 10
244.2
 20
117.53
 30
0.0
 11
244.7
 21
117.53
 31
0.0
  0
LINE
  5
1FF
330
1E
100
AcDbEntity
  8
0
100
AcDbLine
 10
244.7
 20
117.53
 30
0.0
 11
245.0
 21
116.83
 31
0.0
  0
LINE
  5
201
330
1E
100
AcDbEntity
  8
0
100
AcDbLine
 10
244.2
 20
106.13
 30
0.0
 11
244.7
 21
106.13
 31
0.0
  0
LINE
  5
212
330
1E
100
AcDbEntity
  8
0
100
AcDbLine
 10
245.0
 20
106.83
 30
0.0
 11
245.0
 21
116.83
 31
0.0
  0
LINE
  5
646
330
1E
100
AcDbEntity
  8
0
100
AcDbLine
 10
245.0
 20
116.83
 30
0.0
 11
245.0
 21
106.83
 31
0.0
  0
LINE
  5
647
330
1E
100
AcDbEntity
  8
0
100
AcDbLine
 10
244.7
 20
106.13
 30
0.0
 11
245.0
 21
106.83
 31
0.0
  0
LINE
  5
648
330
1E
100
AcDbEntity
  8
0
100
AcDbLine
 10
200.0
 20
105.83
 30
0.0
 11
200.0
 21
102.83
 31
0.0
  0
LINE
  5
649
330
1E
100
AcDbEntity
  8
0
100
AcDbLine
 10
200.0
 20
102.83
 30
0.0
 11
200.0
 21
105.83
 31
0.0
  0
LINE
  5
64A
330
1E
100
AcDbEntity
  8
0
100
AcDbLine
 10
90.0
 20
102.83
 30
0.0
 11
200.0
 21
102.83
 31
0.0
  0
LINE
  5
64B
330
1E
100
AcDbEntity
  8
0
100
AcDbLine
 10
90.0
 20
102.83
 30
0.0
 11
90.0
 21
105.83
 31
0.0
  0
LINE
  5
64C
330
1E
100
AcDbEntity
  8
0
100
AcDbLine
 10
17.7
 20
56.83
 30
0.0
 11
20.9
 21
56.83
 31
0.0
  0
LINE
  5
64D
330
1E
100
AcDbEntity
  8
0
100
AcDbLine
 10
17.2
 20
56.33
 30
0.0
 11
20.5
 21
56.33
 31
0.0
  0
LINE
  5
64E
330
1E
100
AcDbEntity
  8
0
100
AcDbLine
 10
17.2
 20
17.83
 30
0.0
 11
20.5
 21
17.83
 31
0.0
  0
LINE
  5
64F
330
1E
100
AcDbEntity
  8
0
100
AcDbLine
 10
15.2
 20
17.83
 30
0.0
 11
17.2
 21
17.83
 31
0.0
  0
LINE
  5
650
330
1E
100
AcDbEntity
  8
0
100
AcDbLine
 10
15.2
 20
16.33
 30
0.0
 11
17.2
 21
16.33
 31
0.0
  0
LINE
  5
651
330
1E
100
AcDbEntity
  8
0
100
AcDbLine
 10
14.5
 20
16.33
 30
0.0
 11
15.2
 21
16.33
 31
0.0
  0
LINE
  5
652
330
1E
100
AcDbEntity
  8
0
100
AcDbLine
 10
14.5
 20
16.33
 30
0.0
 11
14.5
 21
13.83
 31
0.0
  0
LINE
  5
653
330
1E
100
AcDbEntity
  8
0
100
AcDbLine
 10
14.5
 20
16.33
 30
0.0
 11
14.5
 21
17.83
 31
0.0
  0
LINE
  5
654
330
1E
100
AcDbEntity
  8
0
100
AcDbLine
 10
14.5
 20
13.83
 30
0.0
 11
14.5
 21
16.33
 31
0.0
  0
LINE
  5
655
330
1E
100
AcDbEntity
  8
0
100
AcDbLine
 10
14.0
 20
11.83
 30
0.0
 11
14.5
 21
13.83
 31
0.0
  0
LINE
  5
656
330
1E
100
AcDbEntity
  8
0
100
AcDbLine
 10
13.8
 20
10.33
 30
0.0
 11
15.9
 21
10.33
 31
0.0
  0
LINE
  5
657
330
1E
100
AcDbEntity
  8
0
100
AcDbLine
 10
13.0
 20
10.33
 30
0.0
 11
13.8
 21
10.33
 31
0.0
  0
LINE
  5
658
330
1E
100
AcDbEntity
  8
0
100
AcDbLine
 10
13.0
 20
10.33
 30
0.0
 11
14.0
 21
11.83
 31
0.0
  0
LINE
  5
659
330
1E
100
AcDbEntity
  8
0
100
AcDbLine
 10
5.1
 20
9.83
 30
0.0
 11
10.3
 21
9.83
 31
0.0
  0
LINE
  5
65A
330
1E
100
AcDbEntity
  8
0
100
AcDbLine
 10
4.7
 20
-0.17
 30
0.0
 11
10.3
 21
-0.17
 31
0.0
  0
LINE
  5
65B
330
1E
100
AcDbEntity
  8
0
100
AcDbLine
 10
1.3
 20
-0.17
 30
0.0
 11
4.7
 21
-0.17
 31
0.0
  0
LINE
  5
65C
330
1E
100
AcDbEntity
  8
0
100
AcDbLine
 10
0.0
 20
-0.17
 30
0.0
 11
1.3
 21
-0.17
 31
0.0
  0
LINE
  5
65D
330
1E
100
AcDbEntity
  8
0
100
AcDbLine
 10
0.0
 20
-0.17
 30
0.0
 11
0.0
 21
9.33
 31
0.0
  0
LINE
  5
65E
330
1E
100
AcDbEntity
  8
0
100
AcDbLine
 10
0.0
 20
-0.17
 30
0.0
 11
1.3
 21
-0.17
 31
0.0
  0
LINE
  5
B86
330
1E
100
AcDbEntity
  8
0
100
AcDbLine
 10
400.0
 20
-0.17
 30
0.0
 11
400.265
 21
-0.048714
 31
0.0
  0
LINE
  5
B87
330
1E
100
AcDbEntity
  8
0
100
AcDbLine
 10
400.0
 20
-0.17
 30
0.0
 11
400.265
 21
-0.048714
 31
0.0
  0
LINE
  5
B88
330
1E
100
AcDbEntity
  8
0
100
AcDbLine
 10
330.404
 20
0.026205
 30
0.0
 11
330.706996551922
 21
6.91277
 31
0.0
  0
LINE
  5
B89
330
1E
100
AcDbEntity
  8
0
100
AcDbLine
 10
330.404
 20
0.026205
 30
0.0
 11
330.644
 21
-0.194916
 31
0.0
  0
LINE
  5
B8A
330
1E
100
AcDbEntity
  8
0
100
AcDbLine
 10
330.404
 20
0.026205
 30
0.0
 11
330.644
 21
-0.194916
 31
0.0
  0
LINE
  5
B8B
330
1E
100
AcDbEntity
  8
0
100
AcDbLine
 10
330.707
 20
6.91278
 30
0.0
 11
331.067
 21
7.95684
 31
0.0
  0
LINE
  5
B8C
330
1E
100
AcDbEntity
  8
0
100
AcDbLine
 10
331.067
 20
7.95684
 30
0.0
 11
331.853
 21
8.63583
 31
0.0
  0
LINE
  5
B8D
330
1E
100
AcDbEntity
  8
0
100
AcDbLine
 10
332.591
 20
8.80537
 30
0.0
 11
336.912
 21
9.03
 31
0.0
  0
LINE
  5
B8E
330
1E
100
AcDbEntity
  8
0
100
AcDbLine
 10
331.853
 20
8.63583
 30
0.0
 11
332.591
 21
8.80537
 31
0.0
  0
LINE
  5
B8F
330
1E
100
AcDbEntity
  8
0
100
AcDbLine
 10
337.179
 20
9.03
 30
0.0
 11
337.739
 21
9.03
 31
0.0
  0
LINE
  5
B90
330
1E
100
AcDbEntity
  8
0
100
AcDbLine
 10
337.03
 20
9.03
 30
0.0
 11
337.179
 21
9.03
 31
0.0
  0
LINE
  5
B91
330
1E
100
AcDbEntity
  8
0
100
AcDbLine
 10
337.739
 20
9.03
 30
0.0
 11
338.701
 21
9.03
 31
0.0
  0
LINE
  5
B92
330
1E
100
AcDbEntity
  8
0
100
AcDbLine
 10
336.912
 20
9.03
 30
0.0
 11
337.208
 21
9.03
 31
0.0
  0
LINE
  5
B93
330
1E
100
AcDbEntity
  8
0
100
AcDbLine
 10
337.208
 20
9.03
 30
0.0
 11
337.795
 21
9.03
 31
0.0
  0
LINE
  5
B94
330
1E
100
AcDbEntity
  8
0
100
AcDbLine
 10
337.795
 20
9.03
 30
0.0
 11
338.669
 21
9.03
 31
0.0
  0
LINE
  5
B95
330
1E
100
AcDbEntity
  8
0
100
AcDbLine
 10
338.669
 20
9.03
 30
0.0
 11
339.819
 21
9.03
 31
0.0
  0
LINE
  5
B96
330
1E
100
AcDbEntity
  8
0
100
AcDbLine
 10
338.701
 20
9.03
 30
0.0
 11
340.051
 21
9.03
 31
0.0
  0
LINE
  5
B97
330
1E
100
AcDbEntity
  8
0
100
AcDbLine
 10
340.051
 20
9.03
 30
0.0
 11
341.77
 21
9.03
 31
0.0
  0
LINE
  5
B98
330
1E
100
AcDbEntity
  8
0
100
AcDbLine
 10
341.77
 20
9.03
 30
0.0
 11
343.833
 21
9.03
 31
0.0
  0
LINE
  5
B99
330
1E
100
AcDbEntity
  8
0
100
AcDbLine
 10
339.819
 20
9.03
 30
0.0
 11
341.235
 21
9.03
 31
0.0
  0
LINE
  5
B9A
330
1E
100
AcDbEntity
  8
0
100
AcDbLine
 10
341.235
 20
9.03
 30
0.0
 11
342.9
 21
9.03
 31
0.0
  0
LINE
  5
B9B
330
1E
100
AcDbEntity
  8
0
100
AcDbLine
 10
343.84
 20
9.03
 30
0.0
 11
345.338
 21
9.24828
 31
0.0
  0
LINE
  5
B9C
330
1E
100
AcDbEntity
  8
0
100
AcDbLine
 10
342.9
 20
9.03
 30
0.0
 11
385.852
 21
9.03
 31
0.0
  0
LINE
  5
B9D
330
1E
100
AcDbEntity
  8
0
100
AcDbLine
 10
345.338
 20
9.24828
 30
0.0
 11
347.580107834354
 21
10.521392268645
 31
0.0
  0
LINE
  5
B9E
330
1E
100
AcDbEntity
  8
0
100
AcDbLine
 10
399.904921649406
 20
6.91278
 30
0.0
 11
400.265
 21
-0.048714
 31
0.0
  0
LINE
  5
B9F
330
1E
100
AcDbEntity
  8
0
100
AcDbLine
 10
385.852
 20
9.03
 30
0.0
 11
387.751
 21
9.03
 31
0.0
  0
LINE
  5
BA0
330
1E
100
AcDbEntity
  8
0
100
AcDbLine
 10
386.193
 20
9.03
 30
0.0
 11
388.345
 21
9.03
 31
0.0
  0
LINE
  5
BA1
330
1E
100
AcDbEntity
  8
0
100
AcDbLine
 10
387.751
 20
9.03
 30
0.0
 11
389.417
 21
9.03
 31
0.0
  0
LINE
  5
BA2
330
1E
100
AcDbEntity
  8
0
100
AcDbLine
 10
388.345
 20
9.03
 30
0.0
 11
390.162
 21
9.03
 31
0.0
  0
LINE
  5
BA3
330
1E
100
AcDbEntity
  8
0
100
AcDbLine
 10
389.417
 20
9.03
 30
0.0
 11
390.832
 21
9.03
 31
0.0
  0
LINE
  5
BA4
330
1E
100
AcDbEntity
  8
0
100
AcDbLine
 10
385.495
 20
9.15692
 30
0.0
 11
386.826
 21
9.03
 31
0.0
  0
LINE
  5
BA5
330
1E
100
AcDbEntity
  8
0
100
AcDbLine
 10
398.798
 20
8.63584
 30
0.0
 11
399.623
 21
7.95626
 31
0.0
  0
LINE
  5
BA6
330
1E
100
AcDbEntity
  8
0
100
AcDbLine
 10
399.623
 20
7.95626
 30
0.0
 11
399.904921649406
 21
6.91278
 31
0.0
  0
LINE
  5
BA7
330
1E
100
AcDbEntity
  8
0
100
AcDbLine
 10
398.06
 20
8.80537
 30
0.0
 11
398.798
 21
8.63584
 31
0.0
  0
LINE
  5
BA8
330
1E
100
AcDbEntity
  8
0
100
AcDbLine
 10
391.616
 20
9.03
 30
0.0
 11
392.687
 21
9.03
 31
0.0
  0
LINE
  5
BA9
330
1E
100
AcDbEntity
  8
0
100
AcDbLine
 10
390.162
 20
9.03
 30
0.0
 11
391.616
 21
9.03
 31
0.0
  0
LINE
  5
BAA
330
1E
100
AcDbEntity
  8
0
100
AcDbLine
 10
390.832
 20
9.03
 30
0.0
 11
391.982
 21
9.03
 31
0.0
  0
LINE
  5
BAB
330
1E
100
AcDbEntity
  8
0
100
AcDbLine
 10
393.358
 20
9.03
 30
0.0
 11
393.622
 21
9.03
 31
0.0
  0
LINE
  5
BAC
330
1E
100
AcDbEntity
  8
0
100
AcDbLine
 10
392.687
 20
9.03
 30
0.0
 11
393.358
 21
9.03
 31
0.0
  0
LINE
  5
BAD
330
1E
100
AcDbEntity
  8
0
100
AcDbLine
 10
391.982
 20
9.03
 30
0.0
 11
392.856
 21
9.03
 31
0.0
  0
LINE
  5
BAE
330
1E
100
AcDbEntity
  8
0
100
AcDbLine
 10
392.856
 20
9.03
 30
0.0
 11
393.443
 21
9.03
 31
0.0
  0
LINE
  5
BAF
330
1E
100
AcDbEntity
  8
0
100
AcDbLine
 10
393.739
 20
9.03
 30
0.0
 11
398.06
 21
8.80537
 31
0.0
  0
LINE
  5
BB0
330
1E
100
AcDbEntity
  8
0
100
AcDbLine
 10
393.443
 20
9.03
 30
0.0
 11
393.739
 21
9.03
 31
0.0
  0
LINE
  5
BB1
330
1E
100
AcDbEntity
  8
0
100
AcDbLine
 10
383.373
 20
10.1203
 30
0.0
 11
385.495
 21
9.15692
 31
0.0
  0
LINE
  5
BB2
330
1E
100
AcDbEntity
  8
0
100
AcDbLine
 10
347.580107834354
 20
10.521392268644
 30
0.0
 11
348.695
 21
11.7471
 31
0.0
  0
LINE
  5
BB3
330
1E
100
AcDbEntity
  8
0
100
AcDbLine
 10
382.059175682719
 20
11.547575511561
 30
0.0
 11
383.373
 21
10.1203
 31
0.0
  0
LINE
  5
BB4
330
1E
100
AcDbEntity
  8
0
100
AcDbLine
 10
348.695
 20
11.7471
 30
0.0
 11
349.27
 21
13.2605
 31
0.0
  0
LINE
  5
BB5
330
1E
100
AcDbEntity
  8
0
100
AcDbLine
 10
381.705186137138
 20
12.288651934747
 30
0.0
 11
382.059175682719
 21
11.547575511561
 31
0.0
  0
LINE
  5
BB6
330
1E
100
AcDbEntity
  8
0
100
AcDbLine
 10
349.27
 20
13.2605
 30
0.0
 11
349.326
 21
14.03
 31
0.0
  0
LINE
  5
BB7
330
1E
100
AcDbEntity
  8
0
100
AcDbLine
 10
349.27
 20
13.2604
 30
0.0
 11
349.326
 21
14.03
 31
0.0
  0
LINE
  5
BB8
330
1E
100
AcDbEntity
  8
0
100
AcDbLine
 10
349.326
 20
14.03
 30
0.0
 11
349.326
 21
44.766848606811
 31
0.0
  0
LINE
  5
BB9
330
1E
100
AcDbEntity
  8
0
100
AcDbLine
 10
381.326
 20
14.03
 30
0.0
 11
381.343351854483
 21
13.740731238196
 31
0.0
  0
LINE
  5
BBA
330
1E
100
AcDbEntity
  8
0
100
AcDbLine
 10
351.069
 20
40.1309
 30
0.0
 11
352.381
 21
38.7549
 31
0.0
  0
LINE
  5
BBB
330
1E
100
AcDbEntity
  8
0
100
AcDbLine
 10
349.317
 20
44.8087
 30
0.0
 11
349.335343998511
 21
45.375978794785
 31
0.0
  0
LINE
  5
BBC
330
1E
100
AcDbEntity
  8
0
100
AcDbLine
 10
349.317
 20
44.8087
 30
0.0
 11
349.64
 21
43.3067
 31
0.0
  0
LINE
  5
BBD
330
1E
100
AcDbEntity
  8
0
100
AcDbLine
 10
349.64
 20
43.3067
 30
0.0
 11
350.292
 21
41.8555
 31
0.0
  0
LINE
  5
BBE
330
1E
100
AcDbEntity
  8
0
100
AcDbLine
 10
350.292
 20
41.8555
 30
0.0
 11
351.264
 21
40.4705
 31
0.0
  0
LINE
  5
BBF
330
1E
100
AcDbEntity
  8
0
100
AcDbLine
 10
350.109
 20
41.6221
 30
0.0
 11
351.069
 21
40.1309
 31
0.0
  0
LINE
  5
BC0
330
1E
100
AcDbEntity
  8
0
100
AcDbLine
 10
349.523
 20
43.1914
 30
0.0
 11
350.109
 21
41.6221
 31
0.0
  0
LINE
  5
BC1
330
1E
100
AcDbEntity
  8
0
100
AcDbLine
 10
349.335511747885
 20
44.722617506738
 30
0.0
 11
349.523
 21
43.1914
 31
0.0
  0
LINE
  5
BC2
330
1E
100
AcDbEntity
  8
0
100
AcDbLine
 10
349.326
 20
44.766848606811
 30
0.0
 11
349.326
 21
14.03
 31
0.0
  0
LINE
  5
BC3
330
1E
100
AcDbEntity
  8
0
100
AcDbLine
 10
351.264
 20
40.4705
 30
0.0
 11
354.079
 21
38.0516
 31
0.0
  0
LINE
  5
BC4
330
1E
100
AcDbEntity
  8
0
100
AcDbLine
 10
360.382
 20
35.019
 30
0.0
 11
362.823
 21
34.642
 31
0.0
  0
LINE
  5
BC5
330
1E
100
AcDbEntity
  8
0
100
AcDbLine
 10
362.823
 20
34.642
 30
0.0
 11
365.326
 21
34.5155
 31
0.0
  0
LINE
  5
BC6
330
1E
100
AcDbEntity
  8
0
100
AcDbLine
 10
354.012
 20
37.5277
 30
0.0
 11
355.921
 21
36.4797
 31
0.0
  0
LINE
  5
BC7
330
1E
100
AcDbEntity
  8
0
100
AcDbLine
 10
363.898
 20
35.1364
 30
0.0
 11
367.821
 21
35.2418
 31
0.0
  0
LINE
  5
BC8
330
1E
100
AcDbEntity
  8
0
100
AcDbLine
 10
355.477
 20
37.324
 30
0.0
 11
356.723
 21
36.7414
 31
0.0
  0
LINE
  5
BC9
330
1E
100
AcDbEntity
  8
0
100
AcDbLine
 10
357.003250898714
 20
36.635646933254
 30
0.0
 11
360.066
 21
35.6869
 31
0.0
  0
LINE
  5
BCA
330
1E
100
AcDbEntity
  8
0
100
AcDbLine
 10
360.066
 20
35.6869
 30
0.0
 11
363.898
 21
35.1364
 31
0.0
  0
LINE
  5
BCB
330
1E
100
AcDbEntity
  8
0
100
AcDbLine
 10
356.723
 20
36.7413
 30
0.0
 11
357.003988852678
 21
36.635289608177
 31
0.0
  0
LINE
  5
BCC
330
1E
100
AcDbEntity
  8
0
100
AcDbLine
 10
356.723
 20
36.7414
 30
0.0
 11
357.003250898714
 21
36.635646933254
 31
0.0
  0
LINE
  5
BCD
330
1E
100
AcDbEntity
  8
0
100
AcDbLine
 10
355.921
 20
36.4797
 30
0.0
 11
358.062
 21
35.6363
 31
0.0
  0
LINE
  5
BCE
330
1E
100
AcDbEntity
  8
0
100
AcDbLine
 10
358.062
 20
35.6363
 30
0.0
 11
360.382
 21
35.019
 31
0.0
  0
LINE
  5
BCF
330
1E
100
AcDbEntity
  8
0
100
AcDbLine
 10
365.326
 20
34.5157
 30
0.0
 11
369.072
 21
34.7689
 31
0.0
  0
LINE
  5
BD0
330
1E
100
AcDbEntity
  8
0
100
AcDbLine
 10
367.821
 20
35.2418
 30
0.0
 11
371.605
 21
35.9178
 31
0.0
  0
LINE
  5
BD1
330
1E
100
AcDbEntity
  8
0
100
AcDbLine
 10
352.381
 20
38.7549
 30
0.0
 11
354.012
 21
37.5277
 31
0.0
  0
LINE
  5
BD2
330
1E
100
AcDbEntity
  8
0
100
AcDbLine
 10
353.555
 20
52.7534
 30
0.0
 11
355.289
 21
51.7286
 31
0.0
  0
LINE
  5
BD3
330
1E
100
AcDbEntity
  8
0
100
AcDbLine
 10
361.952
 20
49.6567
 30
0.0
 11
364.895
 21
49.4298
 31
0.0
  0
LINE
  5
BD4
330
1E
100
AcDbEntity
  8
0
100
AcDbLine
 10
358.609
 20
50.3898
 30
0.0
 11
361.952
 21
49.6567
 31
0.0
  0
LINE
  5
BD5
330
1E
100
AcDbEntity
  8
0
100
AcDbLine
 10
364.895
 20
49.4298
 30
0.0
 11
367.044
 21
49.4901
 31
0.0
  0
LINE
  5
BD6
330
1E
100
AcDbEntity
  8
0
100
AcDbLine
 10
367.044
 20
49.4901
 30
0.0
 11
370.506
 21
49.9459
 31
0.0
  0
LINE
  5
BD7
330
1E
100
AcDbEntity
  8
0
100
AcDbLine
 10
355.289
 20
51.7286
 30
0.0
 11
356.558
 21
51.1349
 31
0.0
  0
LINE
  5
BD8
330
1E
100
AcDbEntity
  8
0
100
AcDbLine
 10
356.558
 20
51.1349
 30
0.0
 11
358.609
 21
50.3898
 31
0.0
  0
LINE
  5
BD9
330
1E
100
AcDbEntity
  8
0
100
AcDbLine
 10
359.4
 20
54.3155
 30
0.0
 11
362.28
 21
53.5614
 31
0.0
  0
LINE
  5
BDA
330
1E
100
AcDbEntity
  8
0
100
AcDbLine
 10
362.28
 20
53.5614
 30
0.0
 11
365.352
 21
53.2069
 31
0.0
  0
LINE
  5
BDB
330
1E
100
AcDbEntity
  8
0
100
AcDbLine
 10
365.352
 20
53.2069
 30
0.0
 11
368.424
 21
53.5614
 31
0.0
  0
LINE
  5
BDC
330
1E
100
AcDbEntity
  8
0
100
AcDbLine
 10
372.59
 20
35.6365
 30
0.0
 11
375.746
 21
36.9541
 31
0.0
  0
LINE
  5
BDD
330
1E
100
AcDbEntity
  8
0
100
AcDbLine
 10
371.605
 20
35.9178
 30
0.0
 11
374.986
 21
37.1989
 31
0.0
  0
LINE
  5
BDE
330
1E
100
AcDbEntity
  8
0
100
AcDbLine
 10
369.072
 20
34.7689
 30
0.0
 11
372.59
 21
35.6365
 31
0.0
  0
LINE
  5
BDF
330
1E
100
AcDbEntity
  8
0
100
AcDbLine
 10
370.506
 20
49.9459
 30
0.0
 11
373.703
 21
50.9421
 31
0.0
  0
LINE
  5
BE0
330
1E
100
AcDbEntity
  8
0
100
AcDbLine
 10
373.703
 20
50.9421
 30
0.0
 11
376.191
 21
52.1716
 31
0.0
  0
LINE
  5
BE1
330
1E
100
AcDbEntity
  8
0
100
AcDbLine
 10
368.424
 20
53.5614
 30
0.0
 11
371.304
 21
54.3155
 31
0.0
  0
LINE
  5
BE2
330
1E
100
AcDbEntity
  8
0
100
AcDbLine
 10
351.25
 20
54.7933
 30
0.0
 11
353.555
 21
52.7534
 31
0.0
  0
LINE
  5
BE3
330
1E
100
AcDbEntity
  8
0
100
AcDbLine
 10
356.904
 20
55.5572
 30
0.0
 11
359.4
 21
54.3155
 31
0.0
  0
LINE
  5
BE4
330
1E
100
AcDbEntity
  8
0
100
AcDbLine
 10
356.904
 20
55.5572
 30
0.0
 11
357.576
 21
55.2134
 31
0.0
  0
LINE
  5
BE5
330
1E
100
AcDbEntity
  8
0
100
AcDbLine
 10
373.128
 20
55.2134
 30
0.0
 11
373.8
 21
55.5572
 31
0.0
  0
LINE
  5
BE6
330
1E
100
AcDbEntity
  8
0
100
AcDbLine
 10
371.304
 20
54.3155
 30
0.0
 11
373.8
 21
55.5572
 31
0.0
  0
LINE
  5
BE7
330
1E
100
AcDbEntity
  8
0
100
AcDbLine
 10
375.746
 20
36.9541
 30
0.0
 11
379.012
 21
39.4121
 31
0.0
  0
LINE
  5
BE8
330
1E
100
AcDbEntity
  8
0
100
AcDbLine
 10
374.986
 20
37.1989
 30
0.0
 11
377.827
 21
38.9416
 31
0.0
  0
LINE
  5
BE9
330
1E
100
AcDbEntity
  8
0
100
AcDbLine
 10
376.528
 20
38.1127
 30
0.0
 11
376.822434782115
 21
38.325388875323
 31
0.0
  0
LINE
  5
BEA
330
1E
100
AcDbEntity
  8
0
100
AcDbLine
 10
376.528
 20
38.1126
 30
0.0
 11
376.824740610168
 21
38.326803295086
 31
0.0
  0
LINE
  5
BEB
330
1E
100
AcDbEntity
  8
0
100
AcDbLine
 10
377.827
 20
38.9416
 30
0.0
 11
380.212
 21
41.5534
 31
0.0
  0
LINE
  5
BEC
330
1E
100
AcDbEntity
  8
0
100
AcDbLine
 10
379.012
 20
39.4121
 30
0.0
 11
380.934
 21
42.3972
 31
0.0
  0
LINE
  5
BED
330
1E
100
AcDbEntity
  8
0
100
AcDbLine
 10
376.191
 20
52.1716
 30
0.0
 11
378.969
 21
54.2948
 31
0.0
  0
LINE
  5
BEE
330
1E
100
AcDbEntity
  8
0
100
AcDbLine
 10
378.969
 20
54.2948
 30
0.0
 11
380.35
 21
56.1175
 31
0.0
  0
LINE
  5
BEF
330
1E
100
AcDbEntity
  8
0
100
AcDbLine
 10
380.212
 20
41.5534
 30
0.0
 11
381.313
 21
44.4969
 31
0.0
  0
LINE
  5
BF0
330
1E
100
AcDbEntity
  8
0
100
AcDbLine
 10
380.934
 20
42.3972
 30
0.0
 11
381.248333282945
 21
44.324014912214
 31
0.0
  0
LINE
  5
BF1
330
1E
100
AcDbEntity
  8
0
100
AcDbLine
 10
381.313
 20
44.4969
 30
0.0
 11
381.331637057189
 21
59.04331931571
 31
0.0
  0
LINE
  5
BF2
330
1E
100
AcDbEntity
  8
0
100
AcDbLine
 10
380.35
 20
56.1175
 30
0.0
 11
380.951
 21
57.328
 31
0.0
  0
LINE
  5
BF3
330
1E
100
AcDbEntity
  8
0
100
AcDbLine
 10
373.8
 20
55.5572
 30
0.0
 11
375.72
 21
57.1102
 31
0.0
  0
LINE
  5
BF4
330
1E
100
AcDbEntity
  8
0
100
AcDbLine
 10
350.058
 20
56.6628
 30
0.0
 11
351.248
 21
54.7964
 31
0.0
  0
LINE
  5
BF5
330
1E
100
AcDbEntity
  8
0
100
AcDbLine
 10
354.984
 20
57.1102
 30
0.0
 11
356.904
 21
55.5572
 31
0.0
  0
LINE
  5
BF6
330
1E
100
AcDbEntity
  8
0
100
AcDbLine
 10
349.319
 20
60.1495
 30
0.0
 11
349.596
 21
61.6365
 31
0.0
  0
LINE
  5
BF7
330
1E
100
AcDbEntity
  8
0
100
AcDbLine
 10
349.319
 20
60.1495
 30
0.0
 11
349.502
 21
58.1344
 31
0.0
  0
LINE
  5
BF8
330
1E
100
AcDbEntity
  8
0
100
AcDbLine
 10
349.502
 20
58.1344
 30
0.0
 11
350.058
 21
56.6628
 31
0.0
  0
LINE
  5
BF9
330
1E
100
AcDbEntity
  8
0
100
AcDbLine
 10
349.596
 20
61.6365
 30
0.0
 11
349.842
 21
62.3957
 31
0.0
  0
LINE
  5
BFA
330
1E
100
AcDbEntity
  8
0
100
AcDbLine
 10
349.533600641377
 20
61.301525825731
 30
0.0
 11
349.556
 21
61.6602
 31
0.0
  0
LINE
  5
BFB
330
1E
100
AcDbEntity
  8
0
100
AcDbLine
 10
349.752593749471
 20
62.011714684629
 30
0.0
 11
349.842
 21
62.3957
 31
0.0
  0
LINE
  5
BFC
330
1E
100
AcDbEntity
  8
0
100
AcDbLine
 10
349.842
 20
62.3957
 30
0.0
 11
350.05931624961
 21
62.74665325368
 31
0.0
  0
LINE
  5
BFD
330
1E
100
AcDbEntity
  8
0
100
AcDbLine
 10
349.842
 20
62.3957
 30
0.0
 11
350.571
 21
63.9727
 31
0.0
  0
LINE
  5
BFE
330
1E
100
AcDbEntity
  8
0
100
AcDbLine
 10
349.556
 20
61.6602
 30
0.0
 11
349.685594014034
 21
61.913003152255
 31
0.0
  0
LINE
  5
BFF
330
1E
100
AcDbEntity
  8
0
100
AcDbLine
 10
353.736
 20
59.0177
 30
0.0
 11
354.984
 21
57.1102
 31
0.0
  0
LINE
  5
C00
330
1E
100
AcDbEntity
  8
0
100
AcDbLine
 10
353.352
 20
61.0135
 30
0.0
 11
353.352
 21
133.048
 31
0.0
  0
LINE
  5
C01
330
1E
100
AcDbEntity
  8
0
100
AcDbLine
 10
353.352
 20
61.0135
 30
0.0
 11
353.736
 21
59.0177
 31
0.0
  0
LINE
  5
C02
330
1E
100
AcDbEntity
  8
0
100
AcDbLine
 10
375.72
 20
57.1102
 30
0.0
 11
376.968
 21
59.0177
 31
0.0
  0
LINE
  5
C03
330
1E
100
AcDbEntity
  8
0
100
AcDbLine
 10
380.951
 20
57.328
 30
0.0
 11
381.339
 21
59.0765
 31
0.0
  0
LINE
  5
C04
330
1E
100
AcDbEntity
  8
0
100
AcDbLine
 10
381.11
 20
61.5953
 30
0.0
 11
381.339
 21
59.0765
 31
0.0
  0
LINE
  5
C05
330
1E
100
AcDbEntity
  8
0
100
AcDbLine
 10
381.122415338738
 20
61.408289980986
 30
0.0
 11
381.15
 21
61.3401
 31
0.0
  0
LINE
  5
C06
330
1E
100
AcDbEntity
  8
0
100
AcDbLine
 10
377.352
 20
61.0135
 30
0.0
 11
377.352
 21
133.048
 31
0.0
  0
LINE
  5
C07
330
1E
100
AcDbEntity
  8
0
100
AcDbLine
 10
376.968
 20
59.0177
 30
0.0
 11
377.352
 21
61.0135
 31
0.0
  0
LINE
  5
C08
330
1E
100
AcDbEntity
  8
0
100
AcDbLine
 10
350.571
 20
63.9727
 30
0.0
 11
351.287
 21
65.1238
 31
0.0
  0
LINE
  5
C09
330
1E
100
AcDbEntity
  8
0
100
AcDbLine
 10
377.352
 20
67.006540762463
 30
0.0
 11
379.174
 21
65.3809
 31
0.0
  0
LINE
  5
C0A
330
1E
100
AcDbEntity
  8
0
100
AcDbLine
 10
352.237
 20
65.8422
 30
0.0
 11
353.352
 21
66.826039371981
 31
0.0
  0
LINE
  5
C0B
330
1E
100
AcDbEntity
  8
0
100
AcDbLine
 10
351.287
 20
65.1238
 30
0.0
 11
353.352
 21
66.994016312057
 31
0.0
  0
LINE
  5
C0C
330
1E
100
AcDbEntity
  8
0
100
AcDbLine
 10
379.174
 20
65.3809
 30
0.0
 11
379.984
 21
64.1455
 31
0.0
  0
LINE
  5
C0D
330
1E
100
AcDbEntity
  8
0
100
AcDbLine
 10
379.984
 20
64.1455
 30
0.0
 11
380.533
 21
63.073
 31
0.0
  0
LINE
  5
C0E
330
1E
100
AcDbEntity
  8
0
100
AcDbLine
 10
380.533
 20
63.073
 30
0.0
 11
381.11
 21
61.5953
 31
0.0
  0
LINE
  5
C0F
330
1E
100
AcDbEntity
  8
0
100
AcDbLine
 10
330.682
 20
147.35
 30
0.0
 11
330.682
 21
147.967
 31
0.0
  0
LINE
  5
C10
330
1E
100
AcDbEntity
  8
0
100
AcDbLine
 10
329.222
 20
147.35
 30
0.0
 11
329.222
 21
148.246234496683
 31
0.0
  0
LINE
  5
C11
330
1E
100
AcDbEntity
  8
0
100
AcDbLine
 10
329.222
 20
147.35
 30
0.0
 11
329.222
 21
147.967
 31
0.0
  0
LINE
  5
C12
330
1E
100
AcDbEntity
  8
0
100
AcDbLine
 10
329.222
 20
147.35
 30
0.0
 11
330.682
 21
147.35
 31
0.0
  0
LINE
  5
C13
330
1E
100
AcDbEntity
  8
0
100
AcDbLine
 10
330.682
 20
147.967
 30
0.0
 11
330.682
 21
148.768177644711
 31
0.0
  0
LINE
  5
C14
330
1E
100
AcDbEntity
  8
0
100
AcDbLine
 10
330.682
 20
147.967
 30
0.0
 11
330.682
 21
147.35
 31
0.0
  0
LINE
  5
C15
330
1E
100
AcDbEntity
  8
0
100
AcDbLine
 10
329.222
 20
148.246234496683
 30
0.0
 11
329.222
 21
147.35
 31
0.0
  0
LINE
  5
C16
330
1E
100
AcDbEntity
  8
0
100
AcDbLine
 10
330.682
 20
148.768177644711
 30
0.0
 11
330.682
 21
147.967
 31
0.0
  0
LINE
  5
C17
330
1E
100
AcDbEntity
  8
0
100
AcDbLine
 10
329.222
 20
148.418212121212
 30
0.0
 11
329.222
 21
147.967
 31
0.0
  0
LINE
  5
C18
330
1E
100
AcDbEntity
  8
0
100
AcDbLine
 10
329.222
 20
147.967
 30
0.0
 11
329.222
 21
147.35
 31
0.0
  0
LINE
  5
C19
330
1E
100
AcDbEntity
  8
0
100
AcDbLine
 10
329.222
 20
147.967
 30
0.0
 11
329.222
 21
148.418212121212
 31
0.0
  0
LINE
  5
C1A
330
1E
100
AcDbEntity
  8
0
100
AcDbLine
 10
329.222
 20
147.967
 30
0.0
 11
330.682
 21
147.967
 31
0.0
  0
LINE
  5
C1B
330
1E
100
AcDbEntity
  8
0
100
AcDbLine
 10
328.053
 20
148.138
 30
0.0
 11
329.222
 21
147.582245901639
 31
0.0
  0
LINE
  5
C1C
330
1E
100
AcDbEntity
  8
0
100
AcDbLine
 10
329.710517241379
 20
147.35
 30
0.0
 11
332.14
 21
146.195
 31
0.0
  0
LINE
  5
C1D
330
1E
100
AcDbEntity
  8
0
100
AcDbLine
 10
326.301
 20
147.583
 30
0.0
 11
330.534
 21
145.516
 31
0.0
  0
LINE
  5
C1E
330
1E
100
AcDbEntity
  8
0
100
AcDbLine
 10
324.436
 20
150.782
 30
0.0
 11
324.436
 21
151.399
 31
0.0
  0
LINE
  5
C1F
330
1E
100
AcDbEntity
  8
0
100
AcDbLine
 10
324.436
 20
150.782
 30
0.0
 11
325.896
 21
150.782
 31
0.0
  0
LINE
  5
C20
330
1E
100
AcDbEntity
  8
0
100
AcDbLine
 10
324.436
 20
152.587975804253
 30
0.0
 11
324.436
 21
151.399
 31
0.0
  0
LINE
  5
C21
330
1E
100
AcDbEntity
  8
0
100
AcDbLine
 10
325.896
 20
151.399
 30
0.0
 11
325.896
 21
152.55603332879
 31
0.0
  0
LINE
  5
C22
330
1E
100
AcDbEntity
  8
0
100
AcDbLine
 10
325.896
 20
151.399
 30
0.0
 11
325.896
 21
150.782
 31
0.0
  0
LINE
  5
C23
330
1E
100
AcDbEntity
  8
0
100
AcDbLine
 10
325.896
 20
150.782
 30
0.0
 11
325.896
 21
151.399
 31
0.0
  0
LINE
  5
C24
330
1E
100
AcDbEntity
  8
0
100
AcDbLine
 10
325.896
 20
152.55603332879
 30
0.0
 11
325.896
 21
151.399
 31
0.0
  0
LINE
  5
C25
330
1E
100
AcDbEntity
  8
0
100
AcDbLine
 10
324.436
 20
151.399
 30
0.0
 11
324.436
 21
150.782
 31
0.0
  0
LINE
  5
C26
330
1E
100
AcDbEntity
  8
0
100
AcDbLine
 10
324.436
 20
151.399
 30
0.0
 11
324.436
 21
152.587975804253
 31
0.0
  0
LINE
  5
C27
330
1E
100
AcDbEntity
  8
0
100
AcDbLine
 10
324.436
 20
151.399
 30
0.0
 11
325.896
 21
151.399
 31
0.0
  0
LINE
  5
C28
330
1E
100
AcDbEntity
  8
0
100
AcDbLine
 10
324.549
 20
150.328
 30
0.0
 11
328.053
 21
148.138
 31
0.0
  0
LINE
  5
C29
330
1E
100
AcDbEntity
  8
0
100
AcDbLine
 10
321.921
 20
152.643
 30
0.0
 11
324.549
 21
150.328
 31
0.0
  0
LINE
  5
C2A
330
1E
100
AcDbEntity
  8
0
100
AcDbLine
 10
322.651
 20
149.866
 30
0.0
 11
326.301
 21
147.583
 31
0.0
  0
LINE
  5
C2B
330
1E
100
AcDbEntity
  8
0
100
AcDbLine
 10
319.951
 20
152.273
 30
0.0
 11
322.651
 21
149.866
 31
0.0
  0
LINE
  5
C2C
330
1E
100
AcDbEntity
  8
0
100
AcDbLine
 10
331.492
 20
154.48
 30
0.0
 11
331.492
 21
155.097
 31
0.0
  0
LINE
  5
C2D
330
1E
100
AcDbEntity
  8
0
100
AcDbLine
 10
330.032
 20
154.48
 30
0.0
 11
330.032
 21
155.642911132739
 31
0.0
  0
LINE
  5
C2E
330
1E
100
AcDbEntity
  8
0
100
AcDbLine
 10
330.032
 20
154.48
 30
0.0
 11
330.032
 21
155.097
 31
0.0
  0
LINE
  5
C2F
330
1E
100
AcDbEntity
  8
0
100
AcDbLine
 10
330.032
 20
154.48
 30
0.0
 11
331.492
 21
154.48
 31
0.0
  0
LINE
  5
C30
330
1E
100
AcDbEntity
  8
0
100
AcDbLine
 10
322.57
 20
154.865
 30
0.0
 11
322.57
 21
155.482
 31
0.0
  0
LINE
  5
C31
330
1E
100
AcDbEntity
  8
0
100
AcDbLine
 10
321.111
 20
155.443880062888
 30
0.0
 11
321.111
 21
154.865
 31
0.0
  0
LINE
  5
C32
330
1E
100
AcDbEntity
  8
0
100
AcDbLine
 10
331.492
 20
155.097
 30
0.0
 11
331.492
 21
155.67548431534
 31
0.0
  0
LINE
  5
C33
330
1E
100
AcDbEntity
  8
0
100
AcDbLine
 10
331.492
 20
155.097
 30
0.0
 11
331.492
 21
154.48
 31
0.0
  0
LINE
  5
C34
330
1E
100
AcDbEntity
  8
0
100
AcDbLine
 10
330.032
 20
155.097
 30
0.0
 11
330.032
 21
154.48
 31
0.0
  0
LINE
  5
C35
330
1E
100
AcDbEntity
  8
0
100
AcDbLine
 10
330.032
 20
155.097
 30
0.0
 11
330.032
 21
155.642911132739
 31
0.0
  0
LINE
  5
C36
330
1E
100
AcDbEntity
  8
0
100
AcDbLine
 10
330.032
 20
155.097
 30
0.0
 11
331.492
 21
155.097
 31
0.0
  0
LINE
  5
C37
330
1E
100
AcDbEntity
  8
0
100
AcDbLine
 10
331.492
 20
155.67548431534
 30
0.0
 11
331.492
 21
155.097
 31
0.0
  0
LINE
  5
C38
330
1E
100
AcDbEntity
  8
0
100
AcDbLine
 10
330.032
 20
155.642911132739
 30
0.0
 11
330.032
 21
155.097
 31
0.0
  0
LINE
  5
C39
330
1E
100
AcDbEntity
  8
0
100
AcDbLine
 10
330.032
 20
155.642911132739
 30
0.0
 11
330.032
 21
154.48
 31
0.0
  0
LINE
  5
C3A
330
1E
100
AcDbEntity
  8
0
100
AcDbLine
 10
322.57
 20
155.482
 30
0.0
 11
322.57
 21
154.865
 31
0.0
  0
LINE
  5
C3B
330
1E
100
AcDbEntity
  8
0
100
AcDbLine
 10
321.111
 20
155.482
 30
0.0
 11
321.111
 21
154.865
 31
0.0
  0
LINE
  5
C3C
330
1E
100
AcDbEntity
  8
0
100
AcDbLine
 10
321.111
 20
155.482
 30
0.0
 11
322.57
 21
155.482
 31
0.0
  0
LINE
  5
C3D
330
1E
100
AcDbEntity
  8
0
100
AcDbLine
 10
321.111
 20
154.865
 30
0.0
 11
321.111
 21
155.443880062888
 31
0.0
  0
LINE
  5
C3E
330
1E
100
AcDbEntity
  8
0
100
AcDbLine
 10
321.111
 20
154.865
 30
0.0
 11
321.111
 21
155.482
 31
0.0
  0
LINE
  5
C3F
330
1E
100
AcDbEntity
  8
0
100
AcDbLine
 10
321.111
 20
154.865
 30
0.0
 11
322.57
 21
154.865
 31
0.0
  0
LINE
  5
C40
330
1E
100
AcDbEntity
  8
0
100
AcDbLine
 10
319.951
 20
155.418
 30
0.0
 11
321.921
 21
152.643
 31
0.0
  0
LINE
  5
C41
330
1E
100
AcDbEntity
  8
0
100
AcDbLine
 10
319.221
 20
153.055
 30
0.0
 11
319.951
 21
152.273
 31
0.0
  0
LINE
  5
C42
330
1E
100
AcDbEntity
  8
0
100
AcDbLine
 10
317.834
 20
154.987
 30
0.0
 11
319.951
 21
152.273
 31
0.0
  0
LINE
  5
C43
330
1E
100
AcDbEntity
  8
0
100
AcDbLine
 10
319.732
 20
159.95126839036
 30
0.0
 11
319.732
 21
159.017
 31
0.0
  0
LINE
  5
C44
330
1E
100
AcDbEntity
  8
0
100
AcDbLine
 10
319.732
 20
160.324756762453
 30
0.0
 11
319.732
 21
159.634
 31
0.0
  0
LINE
  5
C45
330
1E
100
AcDbEntity
  8
0
100
AcDbLine
 10
319.732
 20
159.634
 30
0.0
 11
319.732
 21
159.017
 31
0.0
  0
LINE
  5
C46
330
1E
100
AcDbEntity
  8
0
100
AcDbLine
 10
319.732
 20
159.634
 30
0.0
 11
319.732
 21
160.324756762453
 31
0.0
  0
LINE
  5
C47
330
1E
100
AcDbEntity
  8
0
100
AcDbLine
 10
319.732
 20
159.634
 30
0.0
 11
321.191
 21
159.634
 31
0.0
  0
LINE
  5
C48
330
1E
100
AcDbEntity
  8
0
100
AcDbLine
 10
321.191
 20
159.634
 30
0.0
 11
321.191
 21
160.418449307946
 31
0.0
  0
LINE
  5
C49
330
1E
100
AcDbEntity
  8
0
100
AcDbLine
 10
321.191
 20
159.634
 30
0.0
 11
321.191
 21
159.017
 31
0.0
  0
LINE
  5
C4A
330
1E
100
AcDbEntity
  8
0
100
AcDbLine
 10
329.951
 20
158.563
 30
0.0
 11
329.951
 21
159.18
 31
0.0
  0
LINE
  5
C4B
330
1E
100
AcDbEntity
  8
0
100
AcDbLine
 10
328.491
 20
159.563390106721
 30
0.0
 11
328.491
 21
159.18
 31
0.0
  0
LINE
  5
C4C
330
1E
100
AcDbEntity
  8
0
100
AcDbLine
 10
328.491
 20
159.563390106721
 30
0.0
 11
328.491
 21
158.563
 31
0.0
  0
LINE
  5
C4D
330
1E
100
AcDbEntity
  8
0
100
AcDbLine
 10
329.951
 20
159.18
 30
0.0
 11
329.951
 21
159.46800793193
 31
0.0
  0
LINE
  5
C4E
330
1E
100
AcDbEntity
  8
0
100
AcDbLine
 10
329.951
 20
159.18
 30
0.0
 11
329.951
 21
158.563
 31
0.0
  0
LINE
  5
C4F
330
1E
100
AcDbEntity
  8
0
100
AcDbLine
 10
329.951
 20
159.46800793193
 30
0.0
 11
329.951
 21
159.18
 31
0.0
  0
LINE
  5
C50
330
1E
100
AcDbEntity
  8
0
100
AcDbLine
 10
328.491
 20
159.18
 30
0.0
 11
328.491
 21
158.563
 31
0.0
  0
LINE
  5
C51
330
1E
100
AcDbEntity
  8
0
100
AcDbLine
 10
328.491
 20
159.18
 30
0.0
 11
328.491
 21
159.563390106721
 31
0.0
  0
LINE
  5
C52
330
1E
100
AcDbEntity
  8
0
100
AcDbLine
 10
328.491
 20
159.18
 30
0.0
 11
329.951
 21
159.18
 31
0.0
  0
LINE
  5
C53
330
1E
100
AcDbEntity
  8
0
100
AcDbLine
 10
328.491
 20
158.563
 30
0.0
 11
328.491
 21
159.563390106721
 31
0.0
  0
LINE
  5
C54
330
1E
100
AcDbEntity
  8
0
100
AcDbLine
 10
328.491
 20
158.563
 30
0.0
 11
328.491
 21
159.18
 31
0.0
  0
LINE
  5
C55
330
1E
100
AcDbEntity
  8
0
100
AcDbLine
 10
328.491
 20
158.563
 30
0.0
 11
329.951
 21
158.563
 31
0.0
  0
LINE
  5
C56
330
1E
100
AcDbEntity
  8
0
100
AcDbLine
 10
321.191
 20
159.017
 30
0.0
 11
321.191
 21
159.634
 31
0.0
  0
LINE
  5
C57
330
1E
100
AcDbEntity
  8
0
100
AcDbLine
 10
321.191
 20
160.418449307946
 30
0.0
 11
321.191
 21
159.634
 31
0.0
  0
LINE
  5
C58
330
1E
100
AcDbEntity
  8
0
100
AcDbLine
 10
319.732
 20
159.017
 30
0.0
 11
319.732
 21
159.95126839036
 31
0.0
  0
LINE
  5
C59
330
1E
100
AcDbEntity
  8
0
100
AcDbLine
 10
319.732
 20
159.017
 30
0.0
 11
319.732
 21
159.634
 31
0.0
  0
LINE
  5
C5A
330
1E
100
AcDbEntity
  8
0
100
AcDbLine
 10
319.732
 20
159.017
 30
0.0
 11
321.191
 21
159.017
 31
0.0
  0
LINE
  5
C5B
330
1E
100
AcDbEntity
  8
0
100
AcDbLine
 10
318.71
 20
157.608
 30
0.0
 11
319.951
 21
155.418
 31
0.0
  0
LINE
  5
C5C
330
1E
100
AcDbEntity
  8
0
100
AcDbLine
 10
318.272
 20
160.231
 30
0.0
 11
318.71
 21
157.608
 31
0.0
  0
LINE
  5
C5D
330
1E
100
AcDbEntity
  8
0
100
AcDbLine
 10
318.272
 20
160.231
 30
0.0
 11
318.71
 21
162.853
 31
0.0
  0
LINE
  5
C5E
330
1E
100
AcDbEntity
  8
0
100
AcDbLine
 10
316.593
 20
157.547
 30
0.0
 11
317.834
 21
154.987
 31
0.0
  0
LINE
  5
C5F
330
1E
100
AcDbEntity
  8
0
100
AcDbLine
 10
316.082
 20
160.231
 30
0.0
 11
316.593
 21
157.547
 31
0.0
  0
LINE
  5
C60
330
1E
100
AcDbEntity
  8
0
100
AcDbLine
 10
316.082
 20
160.231
 30
0.0
 11
316.593
 21
162.915
 31
0.0
  0
LINE
  5
C61
330
1E
100
AcDbEntity
  8
0
100
AcDbLine
 10
317.177
 20
155.677
 30
0.0
 11
319.221
 21
153.055
 31
0.0
  0
LINE
  5
C62
330
1E
100
AcDbEntity
  8
0
100
AcDbLine
 10
315.863
 20
158.423
 30
0.0
 11
317.177
 21
155.677
 31
0.0
  0
LINE
  5
C63
330
1E
100
AcDbEntity
  8
0
100
AcDbLine
 10
315.352
 20
161.138
 30
0.0
 11
315.863
 21
158.423
 31
0.0
  0
LINE
  5
C64
330
1E
100
AcDbEntity
  8
0
100
AcDbLine
 10
315.352
 20
161.138
 30
0.0
 11
315.352
 21
180.17
 31
0.0
  0
LINE
  5
C65
330
1E
100
AcDbEntity
  8
0
100
AcDbLine
 10
315.352
 20
161.138
 30
0.0
 11
315.863
 21
163.852
 31
0.0
  0
LINE
  5
C66
330
1E
100
AcDbEntity
  8
0
100
AcDbLine
 10
334.493
 20
150.637423654137
 30
0.0
 11
334.493
 21
150.398
 31
0.0
  0
LINE
  5
C67
330
1E
100
AcDbEntity
  8
0
100
AcDbLine
 10
334.493
 20
151.974324809034
 30
0.0
 11
334.493
 21
151.015
 31
0.0
  0
LINE
  5
C68
330
1E
100
AcDbEntity
  8
0
100
AcDbLine
 10
334.493
 20
151.015
 30
0.0
 11
334.493
 21
150.398
 31
0.0
  0
LINE
  5
C69
330
1E
100
AcDbEntity
  8
0
100
AcDbLine
 10
334.493
 20
151.015
 30
0.0
 11
334.493
 21
151.974324809034
 31
0.0
  0
LINE
  5
C6A
330
1E
100
AcDbEntity
  8
0
100
AcDbLine
 10
334.493
 20
151.015
 30
0.0
 11
335.953
 21
151.015
 31
0.0
  0
LINE
  5
C6B
330
1E
100
AcDbEntity
  8
0
100
AcDbLine
 10
334.493
 20
150.398
 30
0.0
 11
334.493
 21
150.637423654137
 31
0.0
  0
LINE
  5
C6C
330
1E
100
AcDbEntity
  8
0
100
AcDbLine
 10
334.493
 20
150.398
 30
0.0
 11
334.493
 21
151.015
 31
0.0
  0
LINE
  5
C6D
330
1E
100
AcDbEntity
  8
0
100
AcDbLine
 10
334.493
 20
150.398
 30
0.0
 11
335.953
 21
150.398
 31
0.0
  0
LINE
  5
C6E
330
1E
100
AcDbEntity
  8
0
100
AcDbLine
 10
332.14
 20
146.195
 30
0.0
 11
335.63
 21
144.884447706023
 31
0.0
  0
LINE
  5
C6F
330
1E
100
AcDbEntity
  8
0
100
AcDbLine
 10
330.534
 20
145.516
 30
0.0
 11
335.425
 21
143.727
 31
0.0
  0
LINE
  5
C70
330
1E
100
AcDbEntity
  8
0
100
AcDbLine
 10
341.91
 20
142.990143766885
 30
0.0
 11
341.91
 21
142.782
 31
0.0
  0
LINE
  5
C71
330
1E
100
AcDbEntity
  8
0
100
AcDbLine
 10
341.91
 20
142.782
 30
0.0
 11
343.174
 21
142.473
 31
0.0
  0
LINE
  5
C72
330
1E
100
AcDbEntity
  8
0
100
AcDbLine
 10
341.91
 20
142.782
 30
0.0
 11
341.91
 21
142.990143766885
 31
0.0
  0
LINE
  5
C73
330
1E
100
AcDbEntity
  8
0
100
AcDbLine
 10
341.91
 20
142.782
 30
0.0
 11
342.64
 21
143.316
 31
0.0
  0
LINE
  5
C74
330
1E
100
AcDbEntity
  8
0
100
AcDbLine
 10
335.63
 20
144.884447706023
 30
0.0
 11
335.63
 21
144.503
 31
0.0
  0
LINE
  5
C75
330
1E
100
AcDbEntity
  8
0
100
AcDbLine
 10
335.63
 20
145.12
 30
0.0
 11
335.63
 21
144.503
 31
0.0
  0
LINE
  5
C76
330
1E
100
AcDbEntity
  8
0
100
AcDbLine
 10
335.63
 20
145.12
 30
0.0
 11
337.09
 21
145.12
 31
0.0
  0
LINE
  5
C77
330
1E
100
AcDbEntity
  8
0
100
AcDbLine
 10
335.63
 20
144.503
 30
0.0
 11
335.63
 21
144.884447706023
 31
0.0
  0
LINE
  5
C78
330
1E
100
AcDbEntity
  8
0
100
AcDbLine
 10
335.63
 20
144.503
 30
0.0
 11
335.63
 21
145.12
 31
0.0
  0
LINE
  5
C79
330
1E
100
AcDbEntity
  8
0
100
AcDbLine
 10
335.63
 20
144.503
 30
0.0
 11
337.09
 21
144.503
 31
0.0
  0
LINE
  5
C7A
330
1E
100
AcDbEntity
  8
0
100
AcDbLine
 10
335.953
 20
151.015
 30
0.0
 11
335.953
 21
150.398
 31
0.0
  0
LINE
  5
C7B
330
1E
100
AcDbEntity
  8
0
100
AcDbLine
 10
335.953
 20
150.398
 30
0.0
 11
335.953
 21
151.015
 31
0.0
  0
LINE
  5
C7C
330
1E
100
AcDbEntity
  8
0
100
AcDbLine
 10
337.09
 20
145.12
 30
0.0
 11
337.09
 21
144.503
 31
0.0
  0
LINE
  5
C7D
330
1E
100
AcDbEntity
  8
0
100
AcDbLine
 10
337.09
 20
144.503
 30
0.0
 11
337.09
 21
145.12
 31
0.0
  0
LINE
  5
C7E
330
1E
100
AcDbEntity
  8
0
100
AcDbLine
 10
339.847
 20
148.737734791944
 30
0.0
 11
339.847
 21
148.201
 31
0.0
  0
LINE
  5
C7F
330
1E
100
AcDbEntity
  8
0
100
AcDbLine
 10
339.847
 20
148.737734791944
 30
0.0
 11
339.847
 21
147.584
 31
0.0
  0
LINE
  5
C80
330
1E
100
AcDbEntity
  8
0
100
AcDbLine
 10
339.847
 20
148.201
 30
0.0
 11
339.847
 21
147.584
 31
0.0
  0
LINE
  5
C81
330
1E
100
AcDbEntity
  8
0
100
AcDbLine
 10
339.847
 20
148.201
 30
0.0
 11
339.847
 21
148.737734791944
 31
0.0
  0
LINE
  5
C82
330
1E
100
AcDbEntity
  8
0
100
AcDbLine
 10
339.847
 20
148.201
 30
0.0
 11
341.307
 21
148.201
 31
0.0
  0
LINE
  5
C83
330
1E
100
AcDbEntity
  8
0
100
AcDbLine
 10
339.847
 20
147.584
 30
0.0
 11
339.847
 21
148.737734791944
 31
0.0
  0
LINE
  5
C84
330
1E
100
AcDbEntity
  8
0
100
AcDbLine
 10
339.847
 20
147.584
 30
0.0
 11
339.847
 21
148.201
 31
0.0
  0
LINE
  5
C85
330
1E
100
AcDbEntity
  8
0
100
AcDbLine
 10
339.847
 20
147.584
 30
0.0
 11
341.307
 21
147.584
 31
0.0
  0
LINE
  5
C86
330
1E
100
AcDbEntity
  8
0
100
AcDbLine
 10
341.307
 20
148.201
 30
0.0
 11
341.307
 21
149.21942582558
 31
0.0
  0
LINE
  5
C87
330
1E
100
AcDbEntity
  8
0
100
AcDbLine
 10
341.307
 20
148.201
 30
0.0
 11
341.307
 21
147.584
 31
0.0
  0
LINE
  5
C88
330
1E
100
AcDbEntity
  8
0
100
AcDbLine
 10
341.307
 20
147.584
 30
0.0
 11
341.307
 21
148.201
 31
0.0
  0
LINE
  5
C89
330
1E
100
AcDbEntity
  8
0
100
AcDbLine
 10
341.307
 20
149.21942582558
 30
0.0
 11
341.307
 21
148.201
 31
0.0
  0
LINE
  5
C8A
330
1E
100
AcDbEntity
  8
0
100
AcDbLine
 10
340.9
 20
154.336
 30
0.0
 11
340.9
 21
154.952
 31
0.0
  0
LINE
  5
C8B
330
1E
100
AcDbEntity
  8
0
100
AcDbLine
 10
339.44
 20
154.557874371859
 30
0.0
 11
339.44
 21
154.336
 31
0.0
  0
LINE
  5
C8C
330
1E
100
AcDbEntity
  8
0
100
AcDbLine
 10
339.44
 20
155.907889414548
 30
0.0
 11
339.44
 21
154.952
 31
0.0
  0
LINE
  5
C8D
330
1E
100
AcDbEntity
  8
0
100
AcDbLine
 10
340.9
 20
154.952
 30
0.0
 11
340.9
 21
155.953577370392
 31
0.0
  0
LINE
  5
C8E
330
1E
100
AcDbEntity
  8
0
100
AcDbLine
 10
340.9
 20
154.952
 30
0.0
 11
340.9
 21
154.336
 31
0.0
  0
LINE
  5
C8F
330
1E
100
AcDbEntity
  8
0
100
AcDbLine
 10
340.9
 20
155.953577370392
 30
0.0
 11
340.9
 21
154.952
 31
0.0
  0
LINE
  5
C90
330
1E
100
AcDbEntity
  8
0
100
AcDbLine
 10
339.44
 20
154.952
 30
0.0
 11
339.44
 21
154.336
 31
0.0
  0
LINE
  5
C91
330
1E
100
AcDbEntity
  8
0
100
AcDbLine
 10
339.44
 20
154.952
 30
0.0
 11
339.44
 21
155.907889414548
 31
0.0
  0
LINE
  5
C92
330
1E
100
AcDbEntity
  8
0
100
AcDbLine
 10
339.44
 20
154.952
 30
0.0
 11
340.9
 21
154.952
 31
0.0
  0
LINE
  5
C93
330
1E
100
AcDbEntity
  8
0
100
AcDbLine
 10
339.44
 20
154.336
 30
0.0
 11
339.44
 21
154.557874371859
 31
0.0
  0
LINE
  5
C94
330
1E
100
AcDbEntity
  8
0
100
AcDbLine
 10
339.44
 20
154.336
 30
0.0
 11
339.44
 21
154.952
 31
0.0
  0
LINE
  5
C95
330
1E
100
AcDbEntity
  8
0
100
AcDbLine
 10
339.44
 20
154.336
 30
0.0
 11
340.9
 21
154.336
 31
0.0
  0
LINE
  5
C96
330
1E
100
AcDbEntity
  8
0
100
AcDbLine
 10
338.71
 20
158.11
 30
0.0
 11
338.71
 21
158.727
 31
0.0
  0
LINE
  5
C97
330
1E
100
AcDbEntity
  8
0
100
AcDbLine
 10
337.25
 20
158.923826272833
 30
0.0
 11
337.25
 21
158.11
 31
0.0
  0
LINE
  5
C98
330
1E
100
AcDbEntity
  8
0
100
AcDbLine
 10
337.25
 20
159.276094539448
 30
0.0
 11
337.25
 21
158.727
 31
0.0
  0
LINE
  5
C99
330
1E
100
AcDbEntity
  8
0
100
AcDbLine
 10
338.71
 20
158.727
 30
0.0
 11
338.71
 21
159.262121550719
 31
0.0
  0
LINE
  5
C9A
330
1E
100
AcDbEntity
  8
0
100
AcDbLine
 10
338.71
 20
158.727
 30
0.0
 11
338.71
 21
158.11
 31
0.0
  0
LINE
  5
C9B
330
1E
100
AcDbEntity
  8
0
100
AcDbLine
 10
338.71
 20
159.262121550719
 30
0.0
 11
338.71
 21
158.727
 31
0.0
  0
LINE
  5
C9C
330
1E
100
AcDbEntity
  8
0
100
AcDbLine
 10
337.25
 20
158.727
 30
0.0
 11
337.25
 21
158.11
 31
0.0
  0
LINE
  5
C9D
330
1E
100
AcDbEntity
  8
0
100
AcDbLine
 10
337.25
 20
158.727
 30
0.0
 11
337.25
 21
159.276094539448
 31
0.0
  0
LINE
  5
C9E
330
1E
100
AcDbEntity
  8
0
100
AcDbLine
 10
337.25
 20
158.727
 30
0.0
 11
338.71
 21
158.727
 31
0.0
  0
LINE
  5
C9F
330
1E
100
AcDbEntity
  8
0
100
AcDbLine
 10
337.25
 20
158.11
 30
0.0
 11
337.25
 21
158.923826272833
 31
0.0
  0
LINE
  5
CA0
330
1E
100
AcDbEntity
  8
0
100
AcDbLine
 10
337.25
 20
158.11
 30
0.0
 11
337.25
 21
158.727
 31
0.0
  0
LINE
  5
CA1
330
1E
100
AcDbEntity
  8
0
100
AcDbLine
 10
337.25
 20
158.11
 30
0.0
 11
338.71
 21
158.11
 31
0.0
  0
LINE
  5
CA2
330
1E
100
AcDbEntity
  8
0
100
AcDbLine
 10
336.645795020266
 20
144.503
 30
0.0
 11
336.739
 21
144.468
 31
0.0
  0
LINE
  5
CA3
330
1E
100
AcDbEntity
  8
0
100
AcDbLine
 10
336.739
 20
144.468
 30
0.0
 11
341.91
 21
142.990143766885
 31
0.0
  0
LINE
  5
CA4
330
1E
100
AcDbEntity
  8
0
100
AcDbLine
 10
335.425
 20
143.727
 30
0.0
 11
340.826
 21
142.185
 31
0.0
  0
LINE
  5
CA5
330
1E
100
AcDbEntity
  8
0
100
AcDbLine
 10
340.826
 20
142.185
 30
0.0
 11
346.52
 21
141.043
 31
0.0
  0
LINE
  5
CA6
330
1E
100
AcDbEntity
  8
0
100
AcDbLine
 10
354.984
 20
127.047
 30
0.0
 11
356.904
 21
124.487
 31
0.0
  0
LINE
  5
CA7
330
1E
100
AcDbEntity
  8
0
100
AcDbLine
 10
353.736
 20
129.959
 30
0.0
 11
354.984
 21
127.047
 31
0.0
  0
LINE
  5
CA8
330
1E
100
AcDbEntity
  8
0
100
AcDbLine
 10
353.352
 20
133.048
 30
0.0
 11
353.736
 21
136.226
 31
0.0
  0
LINE
  5
CA9
330
1E
100
AcDbEntity
  8
0
100
AcDbLine
 10
353.352
 20
133.048
 30
0.0
 11
353.352
 21
61.0135
 31
0.0
  0
LINE
  5
CAA
330
1E
100
AcDbEntity
  8
0
100
AcDbLine
 10
353.352
 20
133.048
 30
0.0
 11
353.736
 21
129.959
 31
0.0
  0
LINE
  5
CAB
330
1E
100
AcDbEntity
  8
0
100
AcDbLine
 10
353.736
 20
136.226
 30
0.0
 11
354.984
 21
139.138
 31
0.0
  0
LINE
  5
CAC
330
1E
100
AcDbEntity
  8
0
100
AcDbLine
 10
354.984
 20
139.138
 30
0.0
 11
355.571743916615
 21
139.921658555487
 31
0.0
  0
LINE
  5
CAD
330
1E
100
AcDbEntity
  8
0
100
AcDbLine
 10
356.712
 20
139.823045882159
 30
0.0
 11
356.712
 21
133.048
 31
0.0
  0
LINE
  5
CAE
330
1E
100
AcDbEntity
  8
0
100
AcDbLine
 10
356.904
 20
124.487
 30
0.0
 11
359.4
 21
122.546
 31
0.0
  0
LINE
  5
CAF
330
1E
100
AcDbEntity
  8
0
100
AcDbLine
 10
357.864
 20
128.724
 30
0.0
 11
359.208
 21
126.87
 31
0.0
  0
LINE
  5
CB0
330
1E
100
AcDbEntity
  8
0
100
AcDbLine
 10
358.881
 20
140.114
 30
0.0
 11
360.145
 21
140.423
 31
0.0
  0
LINE
  5
CB1
330
1E
100
AcDbEntity
  8
0
100
AcDbLine
 10
357.0
 20
130.842
 30
0.0
 11
357.864
 21
128.724
 31
0.0
  0
LINE
  5
CB2
330
1E
100
AcDbEntity
  8
0
100
AcDbLine
 10
356.712
 20
133.048
 30
0.0
 11
357.0
 21
130.842
 31
0.0
  0
LINE
  5
CB3
330
1E
100
AcDbEntity
  8
0
100
AcDbLine
 10
356.712
 20
133.048
 30
0.0
 11
356.712
 21
139.823045882159
 31
0.0
  0
LINE
  5
CB4
330
1E
100
AcDbEntity
  8
0
100
AcDbLine
 10
343.174
 20
142.473
 30
0.0
 11
343.904
 21
143.008
 31
0.0
  0
LINE
  5
CB5
330
1E
100
AcDbEntity
  8
0
100
AcDbLine
 10
343.904
 20
143.008
 30
0.0
 11
343.904
 21
143.611839049394
 31
0.0
  0
LINE
  5
CB6
330
1E
100
AcDbEntity
  8
0
100
AcDbLine
 10
342.64
 20
143.316
 30
0.0
 11
343.904
 21
143.008
 31
0.0
  0
LINE
  5
CB7
330
1E
100
AcDbEntity
  8
0
100
AcDbLine
 10
342.64
 20
143.316
 30
0.0
 11
342.64
 21
143.425294520548
 31
0.0
  0
LINE
  5
CB8
330
1E
100
AcDbEntity
  8
0
100
AcDbLine
 10
343.904
 20
143.611839049394
 30
0.0
 11
343.904
 21
143.008
 31
0.0
  0
LINE
  5
CB9
330
1E
100
AcDbEntity
  8
0
100
AcDbLine
 10
342.64
 20
143.425294520548
 30
0.0
 11
342.64
 21
143.316
 31
0.0
  0
LINE
  5
CBA
330
1E
100
AcDbEntity
  8
0
100
AcDbLine
 10
344.712
 20
150.528
 30
0.0
 11
344.712
 21
151.145
 31
0.0
  0
LINE
  5
CBB
330
1E
100
AcDbEntity
  8
0
100
AcDbLine
 10
344.712
 20
150.528
 30
0.0
 11
346.172
 21
150.528
 31
0.0
  0
LINE
  5
CBC
330
1E
100
AcDbEntity
  8
0
100
AcDbLine
 10
344.712
 20
152.027758098224
 30
0.0
 11
344.712
 21
151.145
 31
0.0
  0
LINE
  5
CBD
330
1E
100
AcDbEntity
  8
0
100
AcDbLine
 10
344.712
 20
151.145
 30
0.0
 11
344.712
 21
150.528
 31
0.0
  0
LINE
  5
CBE
330
1E
100
AcDbEntity
  8
0
100
AcDbLine
 10
344.712
 20
151.145
 30
0.0
 11
344.712
 21
152.027758098224
 31
0.0
  0
LINE
  5
CBF
330
1E
100
AcDbEntity
  8
0
100
AcDbLine
 10
344.712
 20
151.145
 30
0.0
 11
346.172
 21
151.145
 31
0.0
  0
LINE
  5
CC0
330
1E
100
AcDbEntity
  8
0
100
AcDbLine
 10
346.009
 20
158.236178390983
 30
0.0
 11
346.009
 21
157.657
 31
0.0
  0
LINE
  5
CC1
330
1E
100
AcDbEntity
  8
0
100
AcDbLine
 10
346.009
 20
159.192266177614
 30
0.0
 11
346.009
 21
158.273
 31
0.0
  0
LINE
  5
CC2
330
1E
100
AcDbEntity
  8
0
100
AcDbLine
 10
346.009
 20
158.273
 30
0.0
 11
346.009
 21
157.657
 31
0.0
  0
LINE
  5
CC3
330
1E
100
AcDbEntity
  8
0
100
AcDbLine
 10
346.009
 20
158.273
 30
0.0
 11
346.009
 21
159.192266177614
 31
0.0
  0
LINE
  5
CC4
330
1E
100
AcDbEntity
  8
0
100
AcDbLine
 10
346.009
 20
158.273
 30
0.0
 11
347.469
 21
158.273
 31
0.0
  0
LINE
  5
CC5
330
1E
100
AcDbEntity
  8
0
100
AcDbLine
 10
346.172
 20
151.145
 30
0.0
 11
346.172
 21
150.528
 31
0.0
  0
LINE
  5
CC6
330
1E
100
AcDbEntity
  8
0
100
AcDbLine
 10
346.172
 20
150.528
 30
0.0
 11
346.172
 21
151.145
 31
0.0
  0
LINE
  5
CC7
330
1E
100
AcDbEntity
  8
0
100
AcDbLine
 10
346.289
 20
146.610485885088
 30
0.0
 11
346.289
 21
145.535
 31
0.0
  0
LINE
  5
CC8
330
1E
100
AcDbEntity
  8
0
100
AcDbLine
 10
346.289
 20
145.535
 30
0.0
 11
347.554
 21
145.226
 31
0.0
  0
LINE
  5
CC9
330
1E
100
AcDbEntity
  8
0
100
AcDbLine
 10
346.289
 20
145.535
 30
0.0
 11
346.289
 21
146.610485885088
 31
0.0
  0
LINE
  5
CCA
330
1E
100
AcDbEntity
  8
0
100
AcDbLine
 10
346.289
 20
145.535
 30
0.0
 11
347.019
 21
146.069
 31
0.0
  0
LINE
  5
CCB
330
1E
100
AcDbEntity
  8
0
100
AcDbLine
 10
346.009
 20
157.657
 30
0.0
 11
346.009
 21
158.236178390983
 31
0.0
  0
LINE
  5
CCC
330
1E
100
AcDbEntity
  8
0
100
AcDbLine
 10
346.009
 20
157.657
 30
0.0
 11
346.009
 21
158.273
 31
0.0
  0
LINE
  5
CCD
330
1E
100
AcDbEntity
  8
0
100
AcDbLine
 10
346.009
 20
157.657
 30
0.0
 11
347.469
 21
157.657
 31
0.0
  0
LINE
  5
CCE
330
1E
100
AcDbEntity
  8
0
100
AcDbLine
 10
343.451557724212
 20
142.676415592402
 30
0.0
 11
347.396
 21
141.876
 31
0.0
  0
LINE
  5
CCF
330
1E
100
AcDbEntity
  8
0
100
AcDbLine
 10
349.841
 20
141.036
 30
0.0
 11
351.105
 21
141.344
 31
0.0
  0
LINE
  5
CD0
330
1E
100
AcDbEntity
  8
0
100
AcDbLine
 10
358.151
 20
140.649
 30
0.0
 11
359.415
 21
140.957
 31
0.0
  0
LINE
  5
CD1
330
1E
100
AcDbEntity
  8
0
100
AcDbLine
 10
358.151
 20
140.649
 30
0.0
 11
358.881
 21
140.114
 31
0.0
  0
LINE
  5
CD2
330
1E
100
AcDbEntity
  8
0
100
AcDbLine
 10
349.111
 20
141.57
 30
0.0
 11
350.375
 21
141.879
 31
0.0
  0
LINE
  5
CD3
330
1E
100
AcDbEntity
  8
0
100
AcDbLine
 10
349.111
 20
141.57
 30
0.0
 11
349.841
 21
141.036
 31
0.0
  0
LINE
  5
CD4
330
1E
100
AcDbEntity
  8
0
100
AcDbLine
 10
349.111
 20
141.57
 30
0.0
 11
349.111
 21
142.587608432455
 31
0.0
  0
LINE
  5
CD5
330
1E
100
AcDbEntity
  8
0
100
AcDbLine
 10
351.105
 20
141.344
 30
0.0
 11
351.105
 21
141.405670117217
 31
0.0
  0
LINE
  5
CD6
330
1E
100
AcDbEntity
  8
0
100
AcDbLine
 10
349.111
 20
142.587608432455
 30
0.0
 11
349.111
 21
141.57
 31
0.0
  0
LINE
  5
CD7
330
1E
100
AcDbEntity
  8
0
100
AcDbLine
 10
347.019
 20
146.069
 30
0.0
 11
348.283
 21
145.761
 31
0.0
  0
LINE
  5
CD8
330
1E
100
AcDbEntity
  8
0
100
AcDbLine
 10
347.019
 20
146.069
 30
0.0
 11
347.019
 21
146.774257057456
 31
0.0
  0
LINE
  5
CD9
330
1E
100
AcDbEntity
  8
0
100
AcDbLine
 10
348.283
 20
145.761
 30
0.0
 11
348.283
 21
146.865205479452
 31
0.0
  0
LINE
  5
CDA
330
1E
100
AcDbEntity
  8
0
100
AcDbLine
 10
347.554
 20
145.226
 30
0.0
 11
348.283
 21
145.761
 31
0.0
  0
LINE
  5
CDB
330
1E
100
AcDbEntity
  8
0
100
AcDbLine
 10
348.283
 20
146.865205479452
 30
0.0
 11
348.283
 21
145.761
 31
0.0
  0
LINE
  5
CDC
330
1E
100
AcDbEntity
  8
0
100
AcDbLine
 10
347.019
 20
146.774257057456
 30
0.0
 11
347.019
 21
146.069
 31
0.0
  0
LINE
  5
CDD
330
1E
100
AcDbEntity
  8
0
100
AcDbLine
 10
349.172
 20
154.231861602106
 30
0.0
 11
349.172
 21
153.642
 31
0.0
  0
LINE
  5
CDE
330
1E
100
AcDbEntity
  8
0
100
AcDbLine
 10
347.469
 20
158.273
 30
0.0
 11
347.469
 21
159.178293188885
 31
0.0
  0
LINE
  5
CDF
330
1E
100
AcDbEntity
  8
0
100
AcDbLine
 10
347.469
 20
158.273
 30
0.0
 11
347.469
 21
157.657
 31
0.0
  0
LINE
  5
CE0
330
1E
100
AcDbEntity
  8
0
100
AcDbLine
 10
347.469
 20
157.657
 30
0.0
 11
347.469
 21
158.273
 31
0.0
  0
LINE
  5
CE1
330
1E
100
AcDbEntity
  8
0
100
AcDbLine
 10
347.469
 20
159.178293188885
 30
0.0
 11
347.469
 21
158.273
 31
0.0
  0
LINE
  5
CE2
330
1E
100
AcDbEntity
  8
0
100
AcDbLine
 10
349.172
 20
154.75177513587
 30
0.0
 11
349.172
 21
154.259
 31
0.0
  0
LINE
  5
CE3
330
1E
100
AcDbEntity
  8
0
100
AcDbLine
 10
349.172
 20
154.259
 30
0.0
 11
349.172
 21
153.642
 31
0.0
  0
LINE
  5
CE4
330
1E
100
AcDbEntity
  8
0
100
AcDbLine
 10
349.172
 20
154.259
 30
0.0
 11
349.172
 21
154.75177513587
 31
0.0
  0
LINE
  5
CE5
330
1E
100
AcDbEntity
  8
0
100
AcDbLine
 10
349.172
 20
154.259
 30
0.0
 11
350.632
 21
154.259
 31
0.0
  0
LINE
  5
CE6
330
1E
100
AcDbEntity
  8
0
100
AcDbLine
 10
349.172
 20
153.642
 30
0.0
 11
349.172
 21
154.231861602106
 31
0.0
  0
LINE
  5
CE7
330
1E
100
AcDbEntity
  8
0
100
AcDbLine
 10
349.172
 20
153.642
 30
0.0
 11
349.172
 21
154.259
 31
0.0
  0
LINE
  5
CE8
330
1E
100
AcDbEntity
  8
0
100
AcDbLine
 10
349.172
 20
153.642
 30
0.0
 11
350.632
 21
153.642
 31
0.0
  0
LINE
  5
CE9
330
1E
100
AcDbEntity
  8
0
100
AcDbLine
 10
350.375
 20
143.112082519116
 30
0.0
 11
350.375
 21
141.879
 31
0.0
  0
LINE
  5
CEA
330
1E
100
AcDbEntity
  8
0
100
AcDbLine
 10
350.632
 20
154.259
 30
0.0
 11
350.632
 21
155.03379053442
 31
0.0
  0
LINE
  5
CEB
330
1E
100
AcDbEntity
  8
0
100
AcDbLine
 10
350.632
 20
154.259
 30
0.0
 11
350.632
 21
153.642
 31
0.0
  0
LINE
  5
CEC
330
1E
100
AcDbEntity
  8
0
100
AcDbLine
 10
350.669
 20
148.380517076035
 30
0.0
 11
350.669
 21
148.287
 31
0.0
  0
LINE
  5
CED
330
1E
100
AcDbEntity
  8
0
100
AcDbLine
 10
350.669
 20
148.287
 30
0.0
 11
351.933
 21
147.978
 31
0.0
  0
LINE
  5
CEE
330
1E
100
AcDbEntity
  8
0
100
AcDbLine
 10
350.669
 20
148.287
 30
0.0
 11
350.669
 21
148.380517076035
 31
0.0
  0
LINE
  5
CEF
330
1E
100
AcDbEntity
  8
0
100
AcDbLine
 10
350.669
 20
148.287
 30
0.0
 11
351.399
 21
148.822
 31
0.0
  0
LINE
  5
CF0
330
1E
100
AcDbEntity
  8
0
100
AcDbLine
 10
350.632
 20
153.642
 30
0.0
 11
350.632
 21
154.259
 31
0.0
  0
LINE
  5
CF1
330
1E
100
AcDbEntity
  8
0
100
AcDbLine
 10
350.632
 20
155.03379053442
 30
0.0
 11
350.632
 21
154.259
 31
0.0
  0
LINE
  5
CF2
330
1E
100
AcDbEntity
  8
0
100
AcDbLine
 10
350.375
 20
141.879
 30
0.0
 11
351.105
 21
141.344
 31
0.0
  0
LINE
  5
CF3
330
1E
100
AcDbEntity
  8
0
100
AcDbLine
 10
350.375
 20
141.879
 30
0.0
 11
350.375
 21
143.112082519116
 31
0.0
  0
LINE
  5
CF4
330
1E
100
AcDbEntity
  8
0
100
AcDbLine
 10
347.396
 20
141.876
 30
0.0
 11
349.111
 21
141.658524737403
 31
0.0
  0
LINE
  5
CF5
330
1E
100
AcDbEntity
  8
0
100
AcDbLine
 10
354.244
 20
144.717454545455
 30
0.0
 11
354.244
 21
144.427
 31
0.0
  0
LINE
  5
CF6
330
1E
100
AcDbEntity
  8
0
100
AcDbLine
 10
354.244
 20
144.427
 30
0.0
 11
355.509
 21
144.736
 31
0.0
  0
LINE
  5
CF7
330
1E
100
AcDbEntity
  8
0
100
AcDbLine
 10
354.244
 20
144.427
 30
0.0
 11
354.974
 21
143.893
 31
0.0
  0
LINE
  5
CF8
330
1E
100
AcDbEntity
  8
0
100
AcDbLine
 10
354.244
 20
144.427
 30
0.0
 11
354.244
 21
144.717454545455
 31
0.0
  0
LINE
  5
CF9
330
1E
100
AcDbEntity
  8
0
100
AcDbLine
 10
351.399
 20
148.822
 30
0.0
 11
352.663
 21
148.513
 31
0.0
  0
LINE
  5
CFA
330
1E
100
AcDbEntity
  8
0
100
AcDbLine
 10
352.663
 20
148.513
 30
0.0
 11
352.663
 21
149.257186162014
 31
0.0
  0
LINE
  5
CFB
330
1E
100
AcDbEntity
  8
0
100
AcDbLine
 10
351.933
 20
147.978
 30
0.0
 11
352.663
 21
148.513
 31
0.0
  0
LINE
  5
CFC
330
1E
100
AcDbEntity
  8
0
100
AcDbLine
 10
352.663
 20
149.257186162014
 30
0.0
 11
352.663
 21
148.513
 31
0.0
  0
LINE
  5
CFD
330
1E
100
AcDbEntity
  8
0
100
AcDbLine
 10
354.359
 20
155.803
 30
0.0
 11
354.751
 21
156.024
 31
0.0
  0
LINE
  5
CFE
330
1E
100
AcDbEntity
  8
0
100
AcDbLine
 10
354.128
 20
155.54
 30
0.0
 11
354.359
 21
155.803
 31
0.0
  0
LINE
  5
CFF
330
1E
100
AcDbEntity
  8
0
100
AcDbLine
 10
354.016
 20
155.263
 30
0.0
 11
354.095
 21
154.989
 31
0.0
  0
LINE
  5
D00
330
1E
100
AcDbEntity
  8
0
100
AcDbLine
 10
354.016
 20
155.263
 30
0.0
 11
354.128
 21
155.54
 31
0.0
  0
LINE
  5
D01
330
1E
100
AcDbEntity
  8
0
100
AcDbLine
 10
353.723875926283
 20
155.68557133836
 30
0.0
 11
354.095
 21
154.989
 31
0.0
  0
LINE
  5
D02
330
1E
100
AcDbEntity
  8
0
100
AcDbLine
 10
354.095
 20
154.989
 30
0.0
 11
354.359
 21
154.721
 31
0.0
  0
LINE
  5
D03
330
1E
100
AcDbEntity
  8
0
100
AcDbLine
 10
354.751
 20
156.024
 30
0.0
 11
355.296
 21
156.199
 31
0.0
  0
LINE
  5
D04
330
1E
100
AcDbEntity
  8
0
100
AcDbLine
 10
354.775
 20
154.491
 30
0.0
 11
355.296
 21
154.325
 31
0.0
  0
LINE
  5
D05
330
1E
100
AcDbEntity
  8
0
100
AcDbLine
 10
354.359
 20
154.721
 30
0.0
 11
354.775
 21
154.491
 31
0.0
  0
LINE
  5
D06
330
1E
100
AcDbEntity
  8
0
100
AcDbLine
 10
355.048
 20
152.158119619295
 30
0.0
 11
355.048
 21
151.04
 31
0.0
  0
LINE
  5
D07
330
1E
100
AcDbEntity
  8
0
100
AcDbLine
 10
355.296
 20
156.199
 30
0.0
 11
355.929
 21
156.311
 31
0.0
  0
LINE
  5
D08
330
1E
100
AcDbEntity
  8
0
100
AcDbLine
 10
355.296
 20
154.325
 30
0.0
 11
355.92
 21
154.228
 31
0.0
  0
LINE
  5
D09
330
1E
100
AcDbEntity
  8
0
100
AcDbLine
 10
355.048
 20
151.04
 30
0.0
 11
356.313
 21
150.731
 31
0.0
  0
LINE
  5
D0A
330
1E
100
AcDbEntity
  8
0
100
AcDbLine
 10
355.048
 20
151.04
 30
0.0
 11
355.048
 21
152.158119619295
 31
0.0
  0
LINE
  5
D0B
330
1E
100
AcDbEntity
  8
0
100
AcDbLine
 10
355.048
 20
151.04
 30
0.0
 11
355.778
 21
151.574
 31
0.0
  0
LINE
  5
D0C
330
1E
100
AcDbEntity
  8
0
100
AcDbLine
 10
355.509
 20
145.242343564146
 30
0.0
 11
355.509
 21
144.736
 31
0.0
  0
LINE
  5
D0D
330
1E
100
AcDbEntity
  8
0
100
AcDbLine
 10
355.778
 20
151.574
 30
0.0
 11
357.042
 21
151.265
 31
0.0
  0
LINE
  5
D0E
330
1E
100
AcDbEntity
  8
0
100
AcDbLine
 10
355.778
 20
151.574
 30
0.0
 11
355.778
 21
152.448140529238
 31
0.0
  0
LINE
  5
D0F
330
1E
100
AcDbEntity
  8
0
100
AcDbLine
 10
355.929
 20
156.311
 30
0.0
 11
356.576
 21
156.344
 31
0.0
  0
LINE
  5
D10
330
1E
100
AcDbEntity
  8
0
100
AcDbLine
 10
355.92
 20
154.228
 30
0.0
 11
356.575
 21
154.181
 31
0.0
  0
LINE
  5
D11
330
1E
100
AcDbEntity
  8
0
100
AcDbLine
 10
355.778
 20
152.448140529238
 30
0.0
 11
355.778
 21
151.574
 31
0.0
  0
LINE
  5
D12
330
1E
100
AcDbEntity
  8
0
100
AcDbLine
 10
355.509
 20
144.736
 30
0.0
 11
356.239
 21
144.201
 31
0.0
  0
LINE
  5
D13
330
1E
100
AcDbEntity
  8
0
100
AcDbLine
 10
355.509
 20
144.736
 30
0.0
 11
355.509
 21
145.242343564146
 31
0.0
  0
LINE
  5
D14
330
1E
100
AcDbEntity
  8
0
100
AcDbLine
 10
356.239
 20
144.201
 30
0.0
 11
356.239
 21
144.829006322445
 31
0.0
  0
LINE
  5
D15
330
1E
100
AcDbEntity
  8
0
100
AcDbLine
 10
357.042
 20
151.265
 30
0.0
 11
357.042
 21
151.61280167837
 31
0.0
  0
LINE
  5
D16
330
1E
100
AcDbEntity
  8
0
100
AcDbLine
 10
356.313
 20
150.731
 30
0.0
 11
357.042
 21
151.265
 31
0.0
  0
LINE
  5
D17
330
1E
100
AcDbEntity
  8
0
100
AcDbLine
 10
357.042
 20
151.61280167837
 30
0.0
 11
357.042
 21
151.265
 31
0.0
  0
LINE
  5
D18
330
1E
100
AcDbEntity
  8
0
100
AcDbLine
 10
357.223
 20
154.214
 30
0.0
 11
357.856
 21
154.325
 31
0.0
  0
LINE
  5
D19
330
1E
100
AcDbEntity
  8
0
100
AcDbLine
 10
356.575
 20
154.181
 30
0.0
 11
357.223
 21
154.214
 31
0.0
  0
LINE
  5
D1A
330
1E
100
AcDbEntity
  8
0
100
AcDbLine
 10
356.576
 20
156.344
 30
0.0
 11
357.231
 21
156.296
 31
0.0
  0
LINE
  5
D1B
330
1E
100
AcDbEntity
  8
0
100
AcDbLine
 10
357.231
 20
156.296
 30
0.0
 11
357.855
 21
156.199
 31
0.0
  0
LINE
  5
D1C
330
1E
100
AcDbEntity
  8
0
100
AcDbLine
 10
357.855
 20
156.199
 30
0.0
 11
358.376
 21
156.034
 31
0.0
  0
LINE
  5
D1D
330
1E
100
AcDbEntity
  8
0
100
AcDbLine
 10
358.376
 20
156.034
 30
0.0
 11
358.793
 21
155.804
 31
0.0
  0
LINE
  5
D1E
330
1E
100
AcDbEntity
  8
0
100
AcDbLine
 10
357.856
 20
154.325
 30
0.0
 11
358.401
 21
154.501
 31
0.0
  0
LINE
  5
D1F
330
1E
100
AcDbEntity
  8
0
100
AcDbLine
 10
358.401
 20
154.501
 30
0.0
 11
358.792
 21
154.722
 31
0.0
  0
LINE
  5
D20
330
1E
100
AcDbEntity
  8
0
100
AcDbLine
 10
358.792
 20
154.722
 30
0.0
 11
359.024
 21
154.985
 31
0.0
  0
LINE
  5
D21
330
1E
100
AcDbEntity
  8
0
100
AcDbLine
 10
358.793
 20
155.804
 30
0.0
 11
359.056
 21
155.536
 31
0.0
  0
LINE
  5
D22
330
1E
100
AcDbEntity
  8
0
100
AcDbLine
 10
358.772
 20
147.868124617403
 30
0.0
 11
358.772
 21
147.454
 31
0.0
  0
LINE
  5
D23
330
1E
100
AcDbEntity
  8
0
100
AcDbLine
 10
358.772
 20
147.454
 30
0.0
 11
360.036
 21
147.762
 31
0.0
  0
LINE
  5
D24
330
1E
100
AcDbEntity
  8
0
100
AcDbLine
 10
358.772
 20
147.454
 30
0.0
 11
359.502
 21
146.919
 31
0.0
  0
LINE
  5
D25
330
1E
100
AcDbEntity
  8
0
100
AcDbLine
 10
358.772
 20
147.454
 30
0.0
 11
358.772
 21
147.868124617403
 31
0.0
  0
LINE
  5
D26
330
1E
100
AcDbEntity
  8
0
100
AcDbLine
 10
356.239
 20
144.829006322445
 30
0.0
 11
356.239
 21
144.201
 31
0.0
  0
LINE
  5
D27
330
1E
100
AcDbEntity
  8
0
100
AcDbLine
 10
354.974
 20
143.893
 30
0.0
 11
356.239
 21
144.201
 31
0.0
  0
LINE
  5
D28
330
1E
100
AcDbEntity
  8
0
100
AcDbLine
 10
351.105
 20
141.405670117217
 30
0.0
 11
353.965
 21
141.043
 31
0.0
  0
LINE
  5
D29
330
1E
100
AcDbEntity
  8
0
100
AcDbLine
 10
351.105
 20
141.405670117217
 30
0.0
 11
351.105
 21
141.344
 31
0.0
  0
LINE
  5
D2A
330
1E
100
AcDbEntity
  8
0
100
AcDbLine
 10
353.965
 20
141.043
 30
0.0
 11
358.19722446175
 21
140.615123168444
 31
0.0
  0
LINE
  5
D2B
330
1E
100
AcDbEntity
  8
0
100
AcDbLine
 10
346.52
 20
141.043
 30
0.0
 11
352.943
 21
140.149
 31
0.0
  0
LINE
  5
D2C
330
1E
100
AcDbEntity
  8
0
100
AcDbLine
 10
352.943
 20
140.149
 30
0.0
 11
359.002
 21
139.625
 31
0.0
  0
LINE
  5
D2D
330
1E
100
AcDbEntity
  8
0
100
AcDbLine
 10
331.492
 20
162.646
 30
0.0
 11
331.492
 21
163.263
 31
0.0
  0
LINE
  5
D2E
330
1E
100
AcDbEntity
  8
0
100
AcDbLine
 10
330.032
 20
162.646
 30
0.0
 11
330.032
 21
163.263
 31
0.0
  0
LINE
  5
D2F
330
1E
100
AcDbEntity
  8
0
100
AcDbLine
 10
330.032
 20
162.646
 30
0.0
 11
330.032
 21
163.451263157895
 31
0.0
  0
LINE
  5
D30
330
1E
100
AcDbEntity
  8
0
100
AcDbLine
 10
330.032
 20
162.646
 30
0.0
 11
331.492
 21
162.646
 31
0.0
  0
LINE
  5
D31
330
1E
100
AcDbEntity
  8
0
100
AcDbLine
 10
321.111
 20
163.784
 30
0.0
 11
321.111
 21
164.859842105263
 31
0.0
  0
LINE
  5
D32
330
1E
100
AcDbEntity
  8
0
100
AcDbLine
 10
321.111
 20
163.784
 30
0.0
 11
321.111
 21
163.167
 31
0.0
  0
LINE
  5
D33
330
1E
100
AcDbEntity
  8
0
100
AcDbLine
 10
321.111
 20
163.784
 30
0.0
 11
322.57
 21
163.784
 31
0.0
  0
LINE
  5
D34
330
1E
100
AcDbEntity
  8
0
100
AcDbLine
 10
331.492
 20
163.263
 30
0.0
 11
331.492
 21
162.646
 31
0.0
  0
LINE
  5
D35
330
1E
100
AcDbEntity
  8
0
100
AcDbLine
 10
330.032
 20
163.263
 30
0.0
 11
330.032
 21
163.451263157895
 31
0.0
  0
LINE
  5
D36
330
1E
100
AcDbEntity
  8
0
100
AcDbLine
 10
330.032
 20
163.263
 30
0.0
 11
330.032
 21
162.646
 31
0.0
  0
LINE
  5
D37
330
1E
100
AcDbEntity
  8
0
100
AcDbLine
 10
330.032
 20
163.263
 30
0.0
 11
331.492
 21
163.263
 31
0.0
  0
LINE
  5
D38
330
1E
100
AcDbEntity
  8
0
100
AcDbLine
 10
330.032
 20
163.451263157895
 30
0.0
 11
330.032
 21
162.646
 31
0.0
  0
LINE
  5
D39
330
1E
100
AcDbEntity
  8
0
100
AcDbLine
 10
330.032
 20
163.451263157895
 30
0.0
 11
330.032
 21
163.263
 31
0.0
  0
LINE
  5
D3A
330
1E
100
AcDbEntity
  8
0
100
AcDbLine
 10
322.57
 20
163.167
 30
0.0
 11
322.57
 21
163.784
 31
0.0
  0
LINE
  5
D3B
330
1E
100
AcDbEntity
  8
0
100
AcDbLine
 10
322.57
 20
163.784
 30
0.0
 11
322.57
 21
163.167
 31
0.0
  0
LINE
  5
D3C
330
1E
100
AcDbEntity
  8
0
100
AcDbLine
 10
322.57
 20
163.784
 30
0.0
 11
322.57
 21
164.629473684211
 31
0.0
  0
LINE
  5
D3D
330
1E
100
AcDbEntity
  8
0
100
AcDbLine
 10
321.111
 20
163.167
 30
0.0
 11
321.111
 21
163.784
 31
0.0
  0
LINE
  5
D3E
330
1E
100
AcDbEntity
  8
0
100
AcDbLine
 10
321.111
 20
163.167
 30
0.0
 11
322.57
 21
163.167
 31
0.0
  0
LINE
  5
D3F
330
1E
100
AcDbEntity
  8
0
100
AcDbLine
 10
318.71
 20
162.853
 30
0.0
 11
319.951
 21
165.043
 31
0.0
  0
LINE
  5
D40
330
1E
100
AcDbEntity
  8
0
100
AcDbLine
 10
316.593
 20
162.915
 30
0.0
 11
317.834
 21
165.475
 31
0.0
  0
LINE
  5
D41
330
1E
100
AcDbEntity
  8
0
100
AcDbLine
 10
315.863
 20
163.852
 30
0.0
 11
317.177
 21
166.597
 31
0.0
  0
LINE
  5
D42
330
1E
100
AcDbEntity
  8
0
100
AcDbLine
 10
350.632
 20
161.671
 30
0.0
 11
350.632
 21
162.288
 31
0.0
  0
LINE
  5
D43
330
1E
100
AcDbEntity
  8
0
100
AcDbLine
 10
339.44
 20
162.193941454761
 30
0.0
 11
339.44
 21
161.884
 31
0.0
  0
LINE
  5
D44
330
1E
100
AcDbEntity
  8
0
100
AcDbLine
 10
340.9
 20
161.884
 30
0.0
 11
340.9
 21
162.501
 31
0.0
  0
LINE
  5
D45
330
1E
100
AcDbEntity
  8
0
100
AcDbLine
 10
339.44
 20
161.884
 30
0.0
 11
339.44
 21
162.501
 31
0.0
  0
LINE
  5
D46
330
1E
100
AcDbEntity
  8
0
100
AcDbLine
 10
339.44
 20
161.884
 30
0.0
 11
339.44
 21
162.193941454761
 31
0.0
  0
LINE
  5
D47
330
1E
100
AcDbEntity
  8
0
100
AcDbLine
 10
339.44
 20
161.884
 30
0.0
 11
340.9
 21
161.884
 31
0.0
  0
LINE
  5
D48
330
1E
100
AcDbEntity
  8
0
100
AcDbLine
 10
339.44
 20
163.636077492727
 30
0.0
 11
339.44
 21
162.501
 31
0.0
  0
LINE
  5
D49
330
1E
100
AcDbEntity
  8
0
100
AcDbLine
 10
340.9
 20
163.31117825972
 30
0.0
 11
340.9
 21
162.501
 31
0.0
  0
LINE
  5
D4A
330
1E
100
AcDbEntity
  8
0
100
AcDbLine
 10
340.9
 20
162.501
 30
0.0
 11
340.9
 21
161.884
 31
0.0
  0
LINE
  5
D4B
330
1E
100
AcDbEntity
  8
0
100
AcDbLine
 10
340.9
 20
162.501
 30
0.0
 11
340.9
 21
163.31117825972
 31
0.0
  0
LINE
  5
D4C
330
1E
100
AcDbEntity
  8
0
100
AcDbLine
 10
339.44
 20
162.501
 30
0.0
 11
339.44
 21
163.636077492727
 31
0.0
  0
LINE
  5
D4D
330
1E
100
AcDbEntity
  8
0
100
AcDbLine
 10
339.44
 20
162.501
 30
0.0
 11
339.44
 21
161.884
 31
0.0
  0
LINE
  5
D4E
330
1E
100
AcDbEntity
  8
0
100
AcDbLine
 10
339.44
 20
162.501
 30
0.0
 11
340.9
 21
162.501
 31
0.0
  0
LINE
  5
D4F
330
1E
100
AcDbEntity
  8
0
100
AcDbLine
 10
349.172
 20
163.191880406168
 30
0.0
 11
349.172
 21
162.288
 31
0.0
  0
LINE
  5
D50
330
1E
100
AcDbEntity
  8
0
100
AcDbLine
 10
349.172
 20
162.288
 30
0.0
 11
349.172
 21
163.191880406168
 31
0.0
  0
LINE
  5
D51
330
1E
100
AcDbEntity
  8
0
100
AcDbLine
 10
349.172
 20
162.288
 30
0.0
 11
349.172
 21
161.671
 31
0.0
  0
LINE
  5
D52
330
1E
100
AcDbEntity
  8
0
100
AcDbLine
 10
349.172
 20
162.288
 30
0.0
 11
350.632
 21
162.288
 31
0.0
  0
LINE
  5
D53
330
1E
100
AcDbEntity
  8
0
100
AcDbLine
 10
355.778
 20
164.356
 30
0.0
 11
357.042
 21
164.665
 31
0.0
  0
LINE
  5
D54
330
1E
100
AcDbEntity
  8
0
100
AcDbLine
 10
350.632
 20
162.82799817332
 30
0.0
 11
350.632
 21
162.288
 31
0.0
  0
LINE
  5
D55
330
1E
100
AcDbEntity
  8
0
100
AcDbLine
 10
350.632
 20
162.288
 30
0.0
 11
350.632
 21
161.671
 31
0.0
  0
LINE
  5
D56
330
1E
100
AcDbEntity
  8
0
100
AcDbLine
 10
350.632
 20
162.288
 30
0.0
 11
350.632
 21
162.82799817332
 31
0.0
  0
LINE
  5
D57
330
1E
100
AcDbEntity
  8
0
100
AcDbLine
 10
349.172
 20
162.606139775815
 30
0.0
 11
349.172
 21
161.671
 31
0.0
  0
LINE
  5
D58
330
1E
100
AcDbEntity
  8
0
100
AcDbLine
 10
349.172
 20
161.671
 30
0.0
 11
349.172
 21
162.288
 31
0.0
  0
LINE
  5
D59
330
1E
100
AcDbEntity
  8
0
100
AcDbLine
 10
349.172
 20
161.671
 30
0.0
 11
349.172
 21
162.606139775815
 31
0.0
  0
LINE
  5
D5A
330
1E
100
AcDbEntity
  8
0
100
AcDbLine
 10
349.172
 20
161.671
 30
0.0
 11
350.632
 21
161.671
 31
0.0
  0
LINE
  5
D5B
330
1E
100
AcDbEntity
  8
0
100
AcDbLine
 10
359.4
 20
122.546
 30
0.0
 11
362.28
 21
121.31
 31
0.0
  0
LINE
  5
D5C
330
1E
100
AcDbEntity
  8
0
100
AcDbLine
 10
362.28
 20
121.31
 30
0.0
 11
365.352
 21
120.869
 31
0.0
  0
LINE
  5
D5D
330
1E
100
AcDbEntity
  8
0
100
AcDbLine
 10
363.144
 20
124.664
 30
0.0
 11
365.352
 21
124.311
 31
0.0
  0
LINE
  5
D5E
330
1E
100
AcDbEntity
  8
0
100
AcDbLine
 10
364.352
 20
135.755
 30
0.0
 11
364.352
 21
135.024
 31
0.0
  0
LINE
  5
D5F
330
1E
100
AcDbEntity
  8
0
100
AcDbLine
 10
364.352
 20
135.755
 30
0.0
 11
364.352
 21
136.746
 31
0.0
  0
LINE
  5
D60
330
1E
100
AcDbEntity
  8
0
100
AcDbLine
 10
364.352
 20
135.024
 30
0.0
 11
364.352
 21
134.782
 31
0.0
  0
LINE
  5
D61
330
1E
100
AcDbEntity
  8
0
100
AcDbLine
 10
364.352
 20
135.024
 30
0.0
 11
364.352
 21
135.755
 31
0.0
  0
LINE
  5
D62
330
1E
100
AcDbEntity
  8
0
100
AcDbLine
 10
364.352
 20
134.782
 30
0.0
 11
364.352
 21
135.114
 31
0.0
  0
LINE
  5
D63
330
1E
100
AcDbEntity
  8
0
100
AcDbLine
 10
364.352
 20
134.782
 30
0.0
 11
364.352
 21
135.024
 31
0.0
  0
LINE
  5
D64
330
1E
100
AcDbEntity
  8
0
100
AcDbLine
 10
364.352
 20
134.782
 30
0.0
 11
366.352
 21
134.782
 31
0.0
  0
LINE
  5
D65
330
1E
100
AcDbEntity
  8
0
100
AcDbLine
 10
364.352
 20
135.114
 30
0.0
 11
364.352
 21
135.766
 31
0.0
  0
LINE
  5
D66
330
1E
100
AcDbEntity
  8
0
100
AcDbLine
 10
364.352
 20
135.114
 30
0.0
 11
364.352
 21
134.782
 31
0.0
  0
LINE
  5
D67
330
1E
100
AcDbEntity
  8
0
100
AcDbLine
 10
364.352
 20
136.746
 30
0.0
 11
364.352
 21
135.755
 31
0.0
  0
LINE
  5
D68
330
1E
100
AcDbEntity
  8
0
100
AcDbLine
 10
364.352
 20
135.766
 30
0.0
 11
364.352
 21
137.692
 31
0.0
  0
LINE
  5
D69
330
1E
100
AcDbEntity
  8
0
100
AcDbLine
 10
364.352
 20
135.766
 30
0.0
 11
364.352
 21
135.114
 31
0.0
  0
LINE
  5
D6A
330
1E
100
AcDbEntity
  8
0
100
AcDbLine
 10
364.352
 20
137.692
 30
0.0
 11
364.352
 21
143.568816455696
 31
0.0
  0
LINE
  5
D6B
330
1E
100
AcDbEntity
  8
0
100
AcDbLine
 10
364.352
 20
137.692
 30
0.0
 11
364.352
 21
135.766
 31
0.0
  0
LINE
  5
D6C
330
1E
100
AcDbEntity
  8
0
100
AcDbLine
 10
361.032
 20
125.458
 30
0.0
 11
363.144
 21
124.664
 31
0.0
  0
LINE
  5
D6D
330
1E
100
AcDbEntity
  8
0
100
AcDbLine
 10
359.208
 20
126.87
 30
0.0
 11
361.032
 21
125.458
 31
0.0
  0
LINE
  5
D6E
330
1E
100
AcDbEntity
  8
0
100
AcDbLine
 10
365.352
 20
120.869
 30
0.0
 11
368.424
 21
121.31
 31
0.0
  0
LINE
  5
D6F
330
1E
100
AcDbEntity
  8
0
100
AcDbLine
 10
365.352
 20
124.311
 30
0.0
 11
367.56
 21
124.664
 31
0.0
  0
LINE
  5
D70
330
1E
100
AcDbEntity
  8
0
100
AcDbLine
 10
359.415
 20
141.212045861887
 30
0.0
 11
359.415
 21
140.957
 31
0.0
  0
LINE
  5
D71
330
1E
100
AcDbEntity
  8
0
100
AcDbLine
 10
359.415
 20
140.957
 30
0.0
 11
360.145
 21
140.423
 31
0.0
  0
LINE
  5
D72
330
1E
100
AcDbEntity
  8
0
100
AcDbLine
 10
359.415
 20
140.957
 30
0.0
 11
359.415
 21
141.212045861887
 31
0.0
  0
LINE
  5
D73
330
1E
100
AcDbEntity
  8
0
100
AcDbLine
 10
360.145
 20
140.423
 30
0.0
 11
360.145
 21
141.285552224371
 31
0.0
  0
LINE
  5
D74
330
1E
100
AcDbEntity
  8
0
100
AcDbLine
 10
359.024
 20
154.985
 30
0.0
 11
359.551147227839
 21
155.966888332086
 31
0.0
  0
LINE
  5
D75
330
1E
100
AcDbEntity
  8
0
100
AcDbLine
 10
359.024
 20
154.985
 30
0.0
 11
359.135
 21
155.262
 31
0.0
  0
LINE
  5
D76
330
1E
100
AcDbEntity
  8
0
100
AcDbLine
 10
359.056
 20
155.536
 30
0.0
 11
359.135
 21
155.262
 31
0.0
  0
LINE
  5
D77
330
1E
100
AcDbEntity
  8
0
100
AcDbLine
 10
359.352
 20
158.419
 30
0.0
 11
359.352
 21
157.86
 31
0.0
  0
LINE
  5
D78
330
1E
100
AcDbEntity
  8
0
100
AcDbLine
 10
359.352
 20
157.86
 30
0.0
 11
359.568
 21
158.509
 31
0.0
  0
LINE
  5
D79
330
1E
100
AcDbEntity
  8
0
100
AcDbLine
 10
359.352
 20
157.86
 30
0.0
 11
359.568
 21
157.21
 31
0.0
  0
LINE
  5
D7A
330
1E
100
AcDbEntity
  8
0
100
AcDbLine
 10
359.352
 20
157.86
 30
0.0
 11
359.352
 21
158.419
 31
0.0
  0
LINE
  5
D7B
330
1E
100
AcDbEntity
  8
0
100
AcDbLine
 10
359.568
 20
157.21
 30
0.0
 11
360.144
 21
156.602
 31
0.0
  0
LINE
  5
D7C
330
1E
100
AcDbEntity
  8
0
100
AcDbLine
 10
360.144
 20
156.602
 30
0.0
 11
361.104
 21
156.064
 31
0.0
  0
LINE
  5
D7D
330
1E
100
AcDbEntity
  8
0
100
AcDbLine
 10
360.144
 20
159.117
 30
0.0
 11
361.104
 21
159.655
 31
0.0
  0
LINE
  5
D7E
330
1E
100
AcDbEntity
  8
0
100
AcDbLine
 10
359.568
 20
158.509
 30
0.0
 11
360.144
 21
159.117
 31
0.0
  0
LINE
  5
D7F
330
1E
100
AcDbEntity
  8
0
100
AcDbLine
 10
360.036
 20
147.762
 30
0.0
 11
360.766
 21
147.227
 31
0.0
  0
LINE
  5
D80
330
1E
100
AcDbEntity
  8
0
100
AcDbLine
 10
359.502
 20
146.919
 30
0.0
 11
360.766
 21
147.227
 31
0.0
  0
LINE
  5
D81
330
1E
100
AcDbEntity
  8
0
100
AcDbLine
 10
360.145
 20
141.285552224371
 30
0.0
 11
360.145
 21
140.423
 31
0.0
  0
LINE
  5
D82
330
1E
100
AcDbEntity
  8
0
100
AcDbLine
 10
364.352
 20
140.222346456693
 30
0.0
 11
364.352
 21
136.746
 31
0.0
  0
LINE
  5
D83
330
1E
100
AcDbEntity
  8
0
100
AcDbLine
 10
364.352
 20
143.568816455696
 30
0.0
 11
364.352
 21
137.692
 31
0.0
  0
LINE
  5
D84
330
1E
100
AcDbEntity
  8
0
100
AcDbLine
 10
362.686
 20
143.874
 30
0.0
 11
363.951
 21
144.183
 31
0.0
  0
LINE
  5
D85
330
1E
100
AcDbEntity
  8
0
100
AcDbLine
 10
362.686
 20
143.874
 30
0.0
 11
363.416
 21
143.34
 31
0.0
  0
LINE
  5
D86
330
1E
100
AcDbEntity
  8
0
100
AcDbLine
 10
361.104
 20
156.064
 30
0.0
 11
362.376
 21
155.659
 31
0.0
  0
LINE
  5
D87
330
1E
100
AcDbEntity
  8
0
100
AcDbLine
 10
363.816
 20
155.415
 30
0.0
 11
365.352
 21
155.324
 31
0.0
  0
LINE
  5
D88
330
1E
100
AcDbEntity
  8
0
100
AcDbLine
 10
362.376
 20
155.659
 30
0.0
 11
363.816
 21
155.415
 31
0.0
  0
LINE
  5
D89
330
1E
100
AcDbEntity
  8
0
100
AcDbLine
 10
362.875
 20
161.977
 30
0.0
 11
363.131
 21
162.231
 31
0.0
  0
LINE
  5
D8A
330
1E
100
AcDbEntity
  8
0
100
AcDbLine
 10
363.131
 20
162.231
 30
0.0
 11
363.555
 21
162.447
 31
0.0
  0
LINE
  5
D8B
330
1E
100
AcDbEntity
  8
0
100
AcDbLine
 10
362.787
 20
161.69
 30
0.0
 11
362.875
 21
161.403
 31
0.0
  0
LINE
  5
D8C
330
1E
100
AcDbEntity
  8
0
100
AcDbLine
 10
362.787
 20
161.69
 30
0.0
 11
362.875
 21
161.977
 31
0.0
  0
LINE
  5
D8D
330
1E
100
AcDbEntity
  8
0
100
AcDbLine
 10
362.875
 20
161.403
 30
0.0
 11
363.131
 21
161.149
 31
0.0
  0
LINE
  5
D8E
330
1E
100
AcDbEntity
  8
0
100
AcDbLine
 10
363.555
 20
162.447
 30
0.0
 11
364.067
 21
162.626
 31
0.0
  0
LINE
  5
D8F
330
1E
100
AcDbEntity
  8
0
100
AcDbLine
 10
363.131
 20
161.149
 30
0.0
 11
363.555
 21
160.933
 31
0.0
  0
LINE
  5
D90
330
1E
100
AcDbEntity
  8
0
100
AcDbLine
 10
363.555
 20
160.933
 30
0.0
 11
364.067
 21
160.753
 31
0.0
  0
LINE
  5
D91
330
1E
100
AcDbEntity
  8
0
100
AcDbLine
 10
363.816
 20
160.304
 30
0.0
 11
365.352
 21
160.395
 31
0.0
  0
LINE
  5
D92
330
1E
100
AcDbEntity
  8
0
100
AcDbLine
 10
362.376
 20
160.061
 30
0.0
 11
363.816
 21
160.304
 31
0.0
  0
LINE
  5
D93
330
1E
100
AcDbEntity
  8
0
100
AcDbLine
 10
361.104
 20
159.655
 30
0.0
 11
362.376
 21
160.061
 31
0.0
  0
LINE
  5
D94
330
1E
100
AcDbEntity
  8
0
100
AcDbLine
 10
363.854
 20
150.417
 30
0.0
 11
365.118
 21
150.725
 31
0.0
  0
LINE
  5
D95
330
1E
100
AcDbEntity
  8
0
100
AcDbLine
 10
363.854
 20
150.417
 30
0.0
 11
364.584
 21
149.882
 31
0.0
  0
LINE
  5
D96
330
1E
100
AcDbEntity
  8
0
100
AcDbLine
 10
364.067
 20
162.626
 30
0.0
 11
364.667
 21
162.735
 31
0.0
  0
LINE
  5
D97
330
1E
100
AcDbEntity
  8
0
100
AcDbLine
 10
364.667
 20
162.735
 30
0.0
 11
365.347
 21
162.772
 31
0.0
  0
LINE
  5
D98
330
1E
100
AcDbEntity
  8
0
100
AcDbLine
 10
364.067
 20
160.753
 30
0.0
 11
364.667
 21
160.645
 31
0.0
  0
LINE
  5
D99
330
1E
100
AcDbEntity
  8
0
100
AcDbLine
 10
364.667
 20
160.645
 30
0.0
 11
365.347
 21
160.608
 31
0.0
  0
LINE
  5
D9A
330
1E
100
AcDbEntity
  8
0
100
AcDbLine
 10
364.584
 20
149.882
 30
0.0
 11
365.848
 21
150.19
 31
0.0
  0
LINE
  5
D9B
330
1E
100
AcDbEntity
  8
0
100
AcDbLine
 10
363.951
 20
144.183
 30
0.0
 11
364.68
 21
143.649
 31
0.0
  0
LINE
  5
D9C
330
1E
100
AcDbEntity
  8
0
100
AcDbLine
 10
364.68
 20
143.649
 30
0.0
 11
364.68
 21
144.77232688588
 31
0.0
  0
LINE
  5
D9D
330
1E
100
AcDbEntity
  8
0
100
AcDbLine
 10
365.347
 20
160.608
 30
0.0
 11
366.027
 21
160.645
 31
0.0
  0
LINE
  5
D9E
330
1E
100
AcDbEntity
  8
0
100
AcDbLine
 10
365.347
 20
162.772
 30
0.0
 11
366.027
 21
162.735
 31
0.0
  0
LINE
  5
D9F
330
1E
100
AcDbEntity
  8
0
100
AcDbLine
 10
365.352
 20
155.324
 30
0.0
 11
366.888
 21
155.415
 31
0.0
  0
LINE
  5
DA0
330
1E
100
AcDbEntity
  8
0
100
AcDbLine
 10
365.352
 20
160.395
 30
0.0
 11
366.888
 21
160.304
 31
0.0
  0
LINE
  5
DA1
330
1E
100
AcDbEntity
  8
0
100
AcDbLine
 10
365.118
 20
150.725
 30
0.0
 11
365.848
 21
150.19
 31
0.0
  0
LINE
  5
DA2
330
1E
100
AcDbEntity
  8
0
100
AcDbLine
 10
364.68
 20
144.77232688588
 30
0.0
 11
364.68
 21
143.649
 31
0.0
  0
LINE
  5
DA3
330
1E
100
AcDbEntity
  8
0
100
AcDbLine
 10
363.416
 20
143.34
 30
0.0
 11
364.68
 21
143.649
 31
0.0
  0
LINE
  5
DA4
330
1E
100
AcDbEntity
  8
0
100
AcDbLine
 10
360.145
 20
140.489269987105
 30
0.0
 11
364.352
 21
140.363819471309
 31
0.0
  0
LINE
  5
DA5
330
1E
100
AcDbEntity
  8
0
100
AcDbLine
 10
359.002
 20
139.625
 30
0.0
 11
364.352
 21
139.443015748032
 31
0.0
  0
LINE
  5
DA6
330
1E
100
AcDbEntity
  8
0
100
AcDbLine
 10
321.111
 20
164.859842105263
 30
0.0
 11
321.111
 21
163.784
 31
0.0
  0
LINE
  5
DA7
330
1E
100
AcDbEntity
  8
0
100
AcDbLine
 10
357.042
 20
164.665
 30
0.0
 11
357.042
 21
165.753995290289
 31
0.0
  0
LINE
  5
DA8
330
1E
100
AcDbEntity
  8
0
100
AcDbLine
 10
355.048
 20
164.891
 30
0.0
 11
356.313
 21
165.199
 31
0.0
  0
LINE
  5
DA9
330
1E
100
AcDbEntity
  8
0
100
AcDbLine
 10
355.048
 20
164.891
 30
0.0
 11
355.778
 21
164.356
 31
0.0
  0
LINE
  5
DAA
330
1E
100
AcDbEntity
  8
0
100
AcDbLine
 10
355.048
 20
164.891
 30
0.0
 11
355.048
 21
165.194759896171
 31
0.0
  0
LINE
  5
DAB
330
1E
100
AcDbEntity
  8
0
100
AcDbLine
 10
322.57
 20
164.629473684211
 30
0.0
 11
322.57
 21
163.784
 31
0.0
  0
LINE
  5
DAC
330
1E
100
AcDbEntity
  8
0
100
AcDbLine
 10
344.712
 20
166.309
 30
0.0
 11
344.712
 21
165.692
 31
0.0
  0
LINE
  5
DAD
330
1E
100
AcDbEntity
  8
0
100
AcDbLine
 10
344.712
 20
166.309
 30
0.0
 11
346.172
 21
166.309
 31
0.0
  0
LINE
  5
DAE
330
1E
100
AcDbEntity
  8
0
100
AcDbLine
 10
344.712
 20
166.028632358063
 30
0.0
 11
344.712
 21
165.692
 31
0.0
  0
LINE
  5
DAF
330
1E
100
AcDbEntity
  8
0
100
AcDbLine
 10
356.313
 20
166.259326254496
 30
0.0
 11
356.313
 21
165.199
 31
0.0
  0
LINE
  5
DB0
330
1E
100
AcDbEntity
  8
0
100
AcDbLine
 10
363.854
 20
165.513
 30
0.0
 11
365.118
 21
165.205
 31
0.0
  0
LINE
  5
DB1
330
1E
100
AcDbEntity
  8
0
100
AcDbLine
 10
363.854
 20
165.513
 30
0.0
 11
364.584
 21
166.049
 31
0.0
  0
LINE
  5
DB2
330
1E
100
AcDbEntity
  8
0
100
AcDbLine
 10
365.118
 20
165.205
 30
0.0
 11
365.848
 21
165.74
 31
0.0
  0
LINE
  5
DB3
330
1E
100
AcDbEntity
  8
0
100
AcDbLine
 10
364.584
 20
166.049
 30
0.0
 11
365.848
 21
165.74
 31
0.0
  0
LINE
  5
DB4
330
1E
100
AcDbEntity
  8
0
100
AcDbLine
 10
357.042
 20
165.753995290289
 30
0.0
 11
357.042
 21
164.665
 31
0.0
  0
LINE
  5
DB5
330
1E
100
AcDbEntity
  8
0
100
AcDbLine
 10
356.313
 20
165.199
 30
0.0
 11
356.313
 21
166.259326254496
 31
0.0
  0
LINE
  5
DB6
330
1E
100
AcDbEntity
  8
0
100
AcDbLine
 10
356.313
 20
165.199
 30
0.0
 11
357.042
 21
164.665
 31
0.0
  0
LINE
  5
DB7
330
1E
100
AcDbEntity
  8
0
100
AcDbLine
 10
355.048
 20
165.194759896171
 30
0.0
 11
355.048
 21
164.891
 31
0.0
  0
LINE
  5
DB8
330
1E
100
AcDbEntity
  8
0
100
AcDbLine
 10
346.172
 20
165.692
 30
0.0
 11
346.172
 21
166.309
 31
0.0
  0
LINE
  5
DB9
330
1E
100
AcDbEntity
  8
0
100
AcDbLine
 10
346.172
 20
166.309
 30
0.0
 11
346.172
 21
165.692
 31
0.0
  0
LINE
  5
DBA
330
1E
100
AcDbEntity
  8
0
100
AcDbLine
 10
346.172
 20
166.309
 30
0.0
 11
346.172
 21
167.162397496523
 31
0.0
  0
LINE
  5
DBB
330
1E
100
AcDbEntity
  8
0
100
AcDbLine
 10
344.712
 20
165.692
 30
0.0
 11
344.712
 21
166.309
 31
0.0
  0
LINE
  5
DBC
330
1E
100
AcDbEntity
  8
0
100
AcDbLine
 10
344.712
 20
165.692
 30
0.0
 11
344.712
 21
166.028632358063
 31
0.0
  0
LINE
  5
DBD
330
1E
100
AcDbEntity
  8
0
100
AcDbLine
 10
344.712
 20
165.692
 30
0.0
 11
346.172
 21
165.692
 31
0.0
  0
LINE
  5
DBE
330
1E
100
AcDbEntity
  8
0
100
AcDbLine
 10
319.951
 20
165.043
 30
0.0
 11
321.921
 21
167.82
 31
0.0
  0
LINE
  5
DBF
330
1E
100
AcDbEntity
  8
0
100
AcDbLine
 10
317.834
 20
165.475
 30
0.0
 11
319.951
 21
168.19
 31
0.0
  0
LINE
  5
DC0
330
1E
100
AcDbEntity
  8
0
100
AcDbLine
 10
324.436
 20
167.868
 30
0.0
 11
324.436
 21
167.251
 31
0.0
  0
LINE
  5
DC1
330
1E
100
AcDbEntity
  8
0
100
AcDbLine
 10
324.436
 20
167.868
 30
0.0
 11
325.896
 21
167.868
 31
0.0
  0
LINE
  5
DC2
330
1E
100
AcDbEntity
  8
0
100
AcDbLine
 10
324.436
 20
167.564077494547
 30
0.0
 11
324.436
 21
167.251
 31
0.0
  0
LINE
  5
DC3
330
1E
100
AcDbEntity
  8
0
100
AcDbLine
 10
335.953
 20
166.728
 30
0.0
 11
335.953
 21
167.345
 31
0.0
  0
LINE
  5
DC4
330
1E
100
AcDbEntity
  8
0
100
AcDbLine
 10
334.493
 20
167.345
 30
0.0
 11
334.493
 21
168.583828032493
 31
0.0
  0
LINE
  5
DC5
330
1E
100
AcDbEntity
  8
0
100
AcDbLine
 10
334.493
 20
167.345
 30
0.0
 11
334.493
 21
166.728
 31
0.0
  0
LINE
  5
DC6
330
1E
100
AcDbEntity
  8
0
100
AcDbLine
 10
334.493
 20
167.345
 30
0.0
 11
335.953
 21
167.345
 31
0.0
  0
LINE
  5
DC7
330
1E
100
AcDbEntity
  8
0
100
AcDbLine
 10
346.172
 20
167.162397496523
 30
0.0
 11
346.172
 21
166.309
 31
0.0
  0
LINE
  5
DC8
330
1E
100
AcDbEntity
  8
0
100
AcDbLine
 10
335.953
 20
167.345
 30
0.0
 11
335.953
 21
166.728
 31
0.0
  0
LINE
  5
DC9
330
1E
100
AcDbEntity
  8
0
100
AcDbLine
 10
335.953
 20
167.345
 30
0.0
 11
335.953
 21
168.356375189316
 31
0.0
  0
LINE
  5
DCA
330
1E
100
AcDbEntity
  8
0
100
AcDbLine
 10
334.493
 20
166.990616738625
 30
0.0
 11
334.493
 21
166.728
 31
0.0
  0
LINE
  5
DCB
330
1E
100
AcDbEntity
  8
0
100
AcDbLine
 10
334.493
 20
166.728
 30
0.0
 11
334.493
 21
167.345
 31
0.0
  0
LINE
  5
DCC
330
1E
100
AcDbEntity
  8
0
100
AcDbLine
 10
334.493
 20
166.728
 30
0.0
 11
334.493
 21
166.990616738625
 31
0.0
  0
LINE
  5
DCD
330
1E
100
AcDbEntity
  8
0
100
AcDbLine
 10
334.493
 20
166.728
 30
0.0
 11
335.953
 21
166.728
 31
0.0
  0
LINE
  5
DCE
330
1E
100
AcDbEntity
  8
0
100
AcDbLine
 10
325.896
 20
167.251
 30
0.0
 11
325.896
 21
167.868
 31
0.0
  0
LINE
  5
DCF
330
1E
100
AcDbEntity
  8
0
100
AcDbLine
 10
334.493
 20
168.583828032493
 30
0.0
 11
334.493
 21
167.345
 31
0.0
  0
LINE
  5
DD0
330
1E
100
AcDbEntity
  8
0
100
AcDbLine
 10
335.953
 20
168.356375189316
 30
0.0
 11
335.953
 21
167.345
 31
0.0
  0
LINE
  5
DD1
330
1E
100
AcDbEntity
  8
0
100
AcDbLine
 10
352.663
 20
168.324
 30
0.0
 11
352.663
 21
168.789446994348
 31
0.0
  0
LINE
  5
DD2
330
1E
100
AcDbEntity
  8
0
100
AcDbLine
 10
351.399
 20
168.016
 30
0.0
 11
352.663
 21
168.324
 31
0.0
  0
LINE
  5
DD3
330
1E
100
AcDbEntity
  8
0
100
AcDbLine
 10
351.933
 20
169.295471142319
 30
0.0
 11
351.933
 21
168.858
 31
0.0
  0
LINE
  5
DD4
330
1E
100
AcDbEntity
  8
0
100
AcDbLine
 10
358.772
 20
169.384
 30
0.0
 11
360.036
 21
169.076
 31
0.0
  0
LINE
  5
DD5
330
1E
100
AcDbEntity
  8
0
100
AcDbLine
 10
358.772
 20
169.384
 30
0.0
 11
359.502
 21
169.918
 31
0.0
  0
LINE
  5
DD6
330
1E
100
AcDbEntity
  8
0
100
AcDbLine
 10
358.772
 20
169.384
 30
0.0
 11
358.772
 21
170.263236554438
 31
0.0
  0
LINE
  5
DD7
330
1E
100
AcDbEntity
  8
0
100
AcDbLine
 10
360.036
 20
169.076
 30
0.0
 11
360.766
 21
169.61
 31
0.0
  0
LINE
  5
DD8
330
1E
100
AcDbEntity
  8
0
100
AcDbLine
 10
352.663
 20
168.789446994348
 30
0.0
 11
352.663
 21
168.324
 31
0.0
  0
LINE
  5
DD9
330
1E
100
AcDbEntity
  8
0
100
AcDbLine
 10
351.933
 20
168.858
 30
0.0
 11
351.933
 21
169.295471142319
 31
0.0
  0
LINE
  5
DDA
330
1E
100
AcDbEntity
  8
0
100
AcDbLine
 10
351.933
 20
168.858
 30
0.0
 11
352.663
 21
168.324
 31
0.0
  0
LINE
  5
DDB
330
1E
100
AcDbEntity
  8
0
100
AcDbLine
 10
350.669
 20
168.55
 30
0.0
 11
351.933
 21
168.858
 31
0.0
  0
LINE
  5
DDC
330
1E
100
AcDbEntity
  8
0
100
AcDbLine
 10
350.669
 20
168.55
 30
0.0
 11
351.399
 21
168.016
 31
0.0
  0
LINE
  5
DDD
330
1E
100
AcDbEntity
  8
0
100
AcDbLine
 10
350.669
 20
168.55
 30
0.0
 11
350.669
 21
169.933878950974
 31
0.0
  0
LINE
  5
DDE
330
1E
100
AcDbEntity
  8
0
100
AcDbLine
 10
359.502
 20
169.918
 30
0.0
 11
360.766
 21
169.61
 31
0.0
  0
LINE
  5
DDF
330
1E
100
AcDbEntity
  8
0
100
AcDbLine
 10
350.669
 20
169.933878950974
 30
0.0
 11
350.669
 21
168.55
 31
0.0
  0
LINE
  5
DE0
330
1E
100
AcDbEntity
  8
0
100
AcDbLine
 10
341.307
 20
169.542
 30
0.0
 11
341.307
 21
170.159
 31
0.0
  0
LINE
  5
DE1
330
1E
100
AcDbEntity
  8
0
100
AcDbLine
 10
339.847
 20
169.542
 30
0.0
 11
339.847
 21
170.159
 31
0.0
  0
LINE
  5
DE2
330
1E
100
AcDbEntity
  8
0
100
AcDbLine
 10
339.847
 20
169.542
 30
0.0
 11
339.847
 21
170.295488498109
 31
0.0
  0
LINE
  5
DE3
330
1E
100
AcDbEntity
  8
0
100
AcDbLine
 10
339.847
 20
169.542
 30
0.0
 11
341.307
 21
169.542
 31
0.0
  0
LINE
  5
DE4
330
1E
100
AcDbEntity
  8
0
100
AcDbLine
 10
325.896
 20
167.868
 30
0.0
 11
325.896
 21
167.251
 31
0.0
  0
LINE
  5
DE5
330
1E
100
AcDbEntity
  8
0
100
AcDbLine
 10
324.436
 20
167.251
 30
0.0
 11
324.436
 21
167.868
 31
0.0
  0
LINE
  5
DE6
330
1E
100
AcDbEntity
  8
0
100
AcDbLine
 10
324.436
 20
167.251
 30
0.0
 11
324.436
 21
167.564077494547
 31
0.0
  0
LINE
  5
DE7
330
1E
100
AcDbEntity
  8
0
100
AcDbLine
 10
324.436
 20
167.251
 30
0.0
 11
325.896
 21
167.251
 31
0.0
  0
LINE
  5
DE8
330
1E
100
AcDbEntity
  8
0
100
AcDbLine
 10
339.847
 20
170.159
 30
0.0
 11
339.847
 21
170.295488498109
 31
0.0
  0
LINE
  5
DE9
330
1E
100
AcDbEntity
  8
0
100
AcDbLine
 10
339.847
 20
170.159
 30
0.0
 11
339.847
 21
169.542
 31
0.0
  0
LINE
  5
DEA
330
1E
100
AcDbEntity
  8
0
100
AcDbLine
 10
339.847
 20
170.159
 30
0.0
 11
341.307
 21
170.159
 31
0.0
  0
LINE
  5
DEB
330
1E
100
AcDbEntity
  8
0
100
AcDbLine
 10
358.772
 20
170.263236554438
 30
0.0
 11
358.772
 21
169.384
 31
0.0
  0
LINE
  5
DEC
330
1E
100
AcDbEntity
  8
0
100
AcDbLine
 10
341.307
 20
170.159
 30
0.0
 11
341.307
 21
169.542
 31
0.0
  0
LINE
  5
DED
330
1E
100
AcDbEntity
  8
0
100
AcDbLine
 10
339.847
 20
170.295488498109
 30
0.0
 11
339.847
 21
169.542
 31
0.0
  0
LINE
  5
DEE
330
1E
100
AcDbEntity
  8
0
100
AcDbLine
 10
339.847
 20
170.295488498109
 30
0.0
 11
339.847
 21
170.159
 31
0.0
  0
LINE
  5
DEF
330
1E
100
AcDbEntity
  8
0
100
AcDbLine
 10
324.549
 20
170.133
 30
0.0
 11
328.053
 21
172.323
 31
0.0
  0
LINE
  5
DF0
330
1E
100
AcDbEntity
  8
0
100
AcDbLine
 10
321.921
 20
167.82
 30
0.0
 11
324.549
 21
170.133
 31
0.0
  0
LINE
  5
DF1
330
1E
100
AcDbEntity
  8
0
100
AcDbLine
 10
329.222
 20
171.299
 30
0.0
 11
329.222
 21
172.062023363138
 31
0.0
  0
LINE
  5
DF2
330
1E
100
AcDbEntity
  8
0
100
AcDbLine
 10
329.222
 20
171.299
 30
0.0
 11
329.222
 21
170.682
 31
0.0
  0
LINE
  5
DF3
330
1E
100
AcDbEntity
  8
0
100
AcDbLine
 10
329.222
 20
171.299
 30
0.0
 11
330.682
 21
171.299
 31
0.0
  0
LINE
  5
DF4
330
1E
100
AcDbEntity
  8
0
100
AcDbLine
 10
330.682
 20
170.682
 30
0.0
 11
330.682
 21
171.299
 31
0.0
  0
LINE
  5
DF5
330
1E
100
AcDbEntity
  8
0
100
AcDbLine
 10
330.682
 20
171.299
 30
0.0
 11
330.682
 21
170.682
 31
0.0
  0
LINE
  5
DF6
330
1E
100
AcDbEntity
  8
0
100
AcDbLine
 10
330.682
 20
171.299
 30
0.0
 11
330.682
 21
171.736081626767
 31
0.0
  0
LINE
  5
DF7
330
1E
100
AcDbEntity
  8
0
100
AcDbLine
 10
329.222
 20
170.682
 30
0.0
 11
329.222
 21
171.299
 31
0.0
  0
LINE
  5
DF8
330
1E
100
AcDbEntity
  8
0
100
AcDbLine
 10
329.222
 20
170.682
 30
0.0
 11
329.222
 21
171.850712121212
 31
0.0
  0
LINE
  5
DF9
330
1E
100
AcDbEntity
  8
0
100
AcDbLine
 10
329.222
 20
170.682
 30
0.0
 11
330.682
 21
170.682
 31
0.0
  0
LINE
  5
DFA
330
1E
100
AcDbEntity
  8
0
100
AcDbLine
 10
322.651
 20
170.596
 30
0.0
 11
326.301
 21
172.879
 31
0.0
  0
LINE
  5
DFB
330
1E
100
AcDbEntity
  8
0
100
AcDbLine
 10
319.951
 20
168.19
 30
0.0
 11
322.651
 21
170.596
 31
0.0
  0
LINE
  5
DFC
330
1E
100
AcDbEntity
  8
0
100
AcDbLine
 10
347.019
 20
171.674
 30
0.0
 11
348.283
 21
171.982
 31
0.0
  0
LINE
  5
DFD
330
1E
100
AcDbEntity
  8
0
100
AcDbLine
 10
330.682
 20
171.736081626767
 30
0.0
 11
330.682
 21
171.299
 31
0.0
  0
LINE
  5
DFE
330
1E
100
AcDbEntity
  8
0
100
AcDbLine
 10
346.289
 20
172.413939388907
 30
0.0
 11
346.289
 21
172.209
 31
0.0
  0
LINE
  5
DFF
330
1E
100
AcDbEntity
  8
0
100
AcDbLine
 10
347.554
 20
172.516
 30
0.0
 11
348.283
 21
171.982
 31
0.0
  0
LINE
  5
E00
330
1E
100
AcDbEntity
  8
0
100
AcDbLine
 10
346.289
 20
172.209
 30
0.0
 11
347.554
 21
172.516
 31
0.0
  0
LINE
  5
E01
330
1E
100
AcDbEntity
  8
0
100
AcDbLine
 10
346.289
 20
172.209
 30
0.0
 11
347.019
 21
171.674
 31
0.0
  0
LINE
  5
E02
330
1E
100
AcDbEntity
  8
0
100
AcDbLine
 10
346.289
 20
172.209
 30
0.0
 11
346.289
 21
172.413939388907
 31
0.0
  0
LINE
  5
E03
330
1E
100
AcDbEntity
  8
0
100
AcDbLine
 10
329.222
 20
172.062023363138
 30
0.0
 11
329.222
 21
171.299
 31
0.0
  0
LINE
  5
E04
330
1E
100
AcDbEntity
  8
0
100
AcDbLine
 10
329.222
 20
171.850712121212
 30
0.0
 11
329.222
 21
170.682
 31
0.0
  0
LINE
  5
E05
330
1E
100
AcDbEntity
  8
0
100
AcDbLine
 10
328.053
 20
172.323
 30
0.0
 11
332.14
 21
174.266
 31
0.0
  0
LINE
  5
E06
330
1E
100
AcDbEntity
  8
0
100
AcDbLine
 10
332.14
 20
174.266
 30
0.0
 11
336.739
 21
175.994
 31
0.0
  0
LINE
  5
E07
330
1E
100
AcDbEntity
  8
0
100
AcDbLine
 10
330.534
 20
174.945
 30
0.0
 11
335.425
 21
176.735
 31
0.0
  0
LINE
  5
E08
330
1E
100
AcDbEntity
  8
0
100
AcDbLine
 10
330.024
 20
176.068
 30
0.0
 11
334.987
 21
177.888
 31
0.0
  0
LINE
  5
E09
330
1E
100
AcDbEntity
  8
0
100
AcDbLine
 10
335.63
 20
175.577311154599
 30
0.0
 11
335.63
 21
174.146
 31
0.0
  0
LINE
  5
E0A
330
1E
100
AcDbEntity
  8
0
100
AcDbLine
 10
335.63
 20
174.146
 30
0.0
 11
335.63
 21
175.577311154599
 31
0.0
  0
LINE
  5
E0B
330
1E
100
AcDbEntity
  8
0
100
AcDbLine
 10
335.63
 20
174.146
 30
0.0
 11
335.63
 21
173.529
 31
0.0
  0
LINE
  5
E0C
330
1E
100
AcDbEntity
  8
0
100
AcDbLine
 10
335.63
 20
174.146
 30
0.0
 11
337.09
 21
174.146
 31
0.0
  0
LINE
  5
E0D
330
1E
100
AcDbEntity
  8
0
100
AcDbLine
 10
335.63
 20
173.529
 30
0.0
 11
335.63
 21
174.146
 31
0.0
  0
LINE
  5
E0E
330
1E
100
AcDbEntity
  8
0
100
AcDbLine
 10
335.63
 20
173.529
 30
0.0
 11
337.09
 21
173.529
 31
0.0
  0
LINE
  5
E0F
330
1E
100
AcDbEntity
  8
0
100
AcDbLine
 10
337.09
 20
173.529
 30
0.0
 11
337.09
 21
174.146
 31
0.0
  0
LINE
  5
E10
330
1E
100
AcDbEntity
  8
0
100
AcDbLine
 10
337.09
 20
174.146
 30
0.0
 11
337.09
 21
173.529
 31
0.0
  0
LINE
  5
E11
330
1E
100
AcDbEntity
  8
0
100
AcDbLine
 10
343.904
 20
175.641
 30
0.0
 11
343.904
 21
176.515102329916
 31
0.0
  0
LINE
  5
E12
330
1E
100
AcDbEntity
  8
0
100
AcDbLine
 10
342.64
 20
175.333
 30
0.0
 11
343.904
 21
175.641
 31
0.0
  0
LINE
  5
E13
330
1E
100
AcDbEntity
  8
0
100
AcDbLine
 10
343.174
 20
176.868468592731
 30
0.0
 11
343.174
 21
176.176
 31
0.0
  0
LINE
  5
E14
330
1E
100
AcDbEntity
  8
0
100
AcDbLine
 10
343.904
 20
176.515102329916
 30
0.0
 11
343.904
 21
175.641
 31
0.0
  0
LINE
  5
E15
330
1E
100
AcDbEntity
  8
0
100
AcDbLine
 10
343.174
 20
176.176
 30
0.0
 11
343.174
 21
176.868468592731
 31
0.0
  0
LINE
  5
E16
330
1E
100
AcDbEntity
  8
0
100
AcDbLine
 10
343.174
 20
176.176
 30
0.0
 11
343.904
 21
175.641
 31
0.0
  0
LINE
  5
E17
330
1E
100
AcDbEntity
  8
0
100
AcDbLine
 10
341.91
 20
177.471856233115
 30
0.0
 11
341.91
 21
175.867
 31
0.0
  0
LINE
  5
E18
330
1E
100
AcDbEntity
  8
0
100
AcDbLine
 10
341.91
 20
175.867
 30
0.0
 11
343.174
 21
176.176
 31
0.0
  0
LINE
  5
E19
330
1E
100
AcDbEntity
  8
0
100
AcDbLine
 10
341.91
 20
175.867
 30
0.0
 11
342.64
 21
175.333
 31
0.0
  0
LINE
  5
E1A
330
1E
100
AcDbEntity
  8
0
100
AcDbLine
 10
341.91
 20
175.867
 30
0.0
 11
341.91
 21
177.471856233115
 31
0.0
  0
LINE
  5
E1B
330
1E
100
AcDbEntity
  8
0
100
AcDbLine
 10
336.739
 20
175.994
 30
0.0
 11
341.921
 21
177.475
 31
0.0
  0
LINE
  5
E1C
330
1E
100
AcDbEntity
  8
0
100
AcDbLine
 10
341.921
 20
177.475
 30
0.0
 11
347.396
 21
178.586
 31
0.0
  0
LINE
  5
E1D
330
1E
100
AcDbEntity
  8
0
100
AcDbLine
 10
335.425
 20
176.735
 30
0.0
 11
340.826
 21
178.277
 31
0.0
  0
LINE
  5
E1E
330
1E
100
AcDbEntity
  8
0
100
AcDbLine
 10
340.826
 20
178.277
 30
0.0
 11
346.52
 21
179.418
 31
0.0
  0
LINE
  5
E1F
330
1E
100
AcDbEntity
  8
0
100
AcDbLine
 10
334.987
 20
177.888
 30
0.0
 11
340.461
 21
179.43
 31
0.0
  0
LINE
  5
E20
330
1E
100
AcDbEntity
  8
0
100
AcDbLine
 10
340.461
 20
179.43
 30
0.0
 11
346.228
 21
180.633
 31
0.0
  0
LINE
  5
E21
330
1E
100
AcDbEntity
  8
0
100
AcDbLine
 10
349.111
 20
177.544177570094
 30
0.0
 11
349.111
 21
177.079
 31
0.0
  0
LINE
  5
E22
330
1E
100
AcDbEntity
  8
0
100
AcDbLine
 10
349.111
 20
177.079
 30
0.0
 11
350.375
 21
176.771
 31
0.0
  0
LINE
  5
E23
330
1E
100
AcDbEntity
  8
0
100
AcDbLine
 10
349.111
 20
177.079
 30
0.0
 11
349.841
 21
177.613
 31
0.0
  0
LINE
  5
E24
330
1E
100
AcDbEntity
  8
0
100
AcDbLine
 10
349.111
 20
177.079
 30
0.0
 11
349.111
 21
177.544177570094
 31
0.0
  0
LINE
  5
E25
330
1E
100
AcDbEntity
  8
0
100
AcDbLine
 10
350.375
 20
176.771
 30
0.0
 11
351.105
 21
177.305
 31
0.0
  0
LINE
  5
E26
330
1E
100
AcDbEntity
  8
0
100
AcDbLine
 10
349.841
 20
178.89567270513
 30
0.0
 11
349.841
 21
177.613
 31
0.0
  0
LINE
  5
E27
330
1E
100
AcDbEntity
  8
0
100
AcDbLine
 10
349.841
 20
177.613
 30
0.0
 11
351.105
 21
177.305
 31
0.0
  0
LINE
  5
E28
330
1E
100
AcDbEntity
  8
0
100
AcDbLine
 10
349.841
 20
177.613
 30
0.0
 11
349.841
 21
178.89567270513
 31
0.0
  0
LINE
  5
E29
330
1E
100
AcDbEntity
  8
0
100
AcDbLine
 10
347.396
 20
178.586
 30
0.0
 11
353.965
 21
179.418
 31
0.0
  0
LINE
  5
E2A
330
1E
100
AcDbEntity
  8
0
100
AcDbLine
 10
346.52
 20
179.418
 30
0.0
 11
352.943
 21
180.313
 31
0.0
  0
LINE
  5
E2B
330
1E
100
AcDbEntity
  8
0
100
AcDbLine
 10
354.244
 20
173.316
 30
0.0
 11
355.509
 21
173.008
 31
0.0
  0
LINE
  5
E2C
330
1E
100
AcDbEntity
  8
0
100
AcDbLine
 10
354.244
 20
173.316
 30
0.0
 11
354.974
 21
173.85
 31
0.0
  0
LINE
  5
E2D
330
1E
100
AcDbEntity
  8
0
100
AcDbLine
 10
354.244
 20
173.316
 30
0.0
 11
354.244
 21
174.426
 31
0.0
  0
LINE
  5
E2E
330
1E
100
AcDbEntity
  8
0
100
AcDbLine
 10
356.239
 20
173.542
 30
0.0
 11
356.239
 21
174.184684931507
 31
0.0
  0
LINE
  5
E2F
330
1E
100
AcDbEntity
  8
0
100
AcDbLine
 10
355.509
 20
173.008
 30
0.0
 11
356.239
 21
173.542
 31
0.0
  0
LINE
  5
E30
330
1E
100
AcDbEntity
  8
0
100
AcDbLine
 10
354.974
 20
173.85
 30
0.0
 11
356.239
 21
173.542
 31
0.0
  0
LINE
  5
E31
330
1E
100
AcDbEntity
  8
0
100
AcDbLine
 10
354.974
 20
173.85
 30
0.0
 11
354.974
 21
173.982542056075
 31
0.0
  0
LINE
  5
E32
330
1E
100
AcDbEntity
  8
0
100
AcDbLine
 10
354.974
 20
173.982542056075
 30
0.0
 11
354.974
 21
173.85
 31
0.0
  0
LINE
  5
E33
330
1E
100
AcDbEntity
  8
0
100
AcDbLine
 10
356.239
 20
174.184684931507
 30
0.0
 11
356.239
 21
173.542
 31
0.0
  0
LINE
  5
E34
330
1E
100
AcDbEntity
  8
0
100
AcDbLine
 10
362.686
 20
173.869
 30
0.0
 11
363.951
 21
173.56
 31
0.0
  0
LINE
  5
E35
330
1E
100
AcDbEntity
  8
0
100
AcDbLine
 10
362.686
 20
173.869
 30
0.0
 11
363.416
 21
174.403
 31
0.0
  0
LINE
  5
E36
330
1E
100
AcDbEntity
  8
0
100
AcDbLine
 10
363.951
 20
173.56
 30
0.0
 11
364.68
 21
174.095
 31
0.0
  0
LINE
  5
E37
330
1E
100
AcDbEntity
  8
0
100
AcDbLine
 10
354.244
 20
174.426
 30
0.0
 11
354.244
 21
173.316
 31
0.0
  0
LINE
  5
E38
330
1E
100
AcDbEntity
  8
0
100
AcDbLine
 10
358.151
 20
178.0
 30
0.0
 11
359.415
 21
177.692
 31
0.0
  0
LINE
  5
E39
330
1E
100
AcDbEntity
  8
0
100
AcDbLine
 10
358.151
 20
178.0
 30
0.0
 11
358.881
 21
178.535
 31
0.0
  0
LINE
  5
E3A
330
1E
100
AcDbEntity
  8
0
100
AcDbLine
 10
360.145
 20
178.226
 30
0.0
 11
360.145
 21
178.885093649258
 31
0.0
  0
LINE
  5
E3B
330
1E
100
AcDbEntity
  8
0
100
AcDbLine
 10
359.415
 20
177.692
 30
0.0
 11
360.145
 21
178.226
 31
0.0
  0
LINE
  5
E3C
330
1E
100
AcDbEntity
  8
0
100
AcDbLine
 10
358.881
 20
179.915954852402
 30
0.0
 11
358.881
 21
178.535
 31
0.0
  0
LINE
  5
E3D
330
1E
100
AcDbEntity
  8
0
100
AcDbLine
 10
360.145
 20
178.885093649258
 30
0.0
 11
360.145
 21
178.226
 31
0.0
  0
LINE
  5
E3E
330
1E
100
AcDbEntity
  8
0
100
AcDbLine
 10
358.881
 20
178.535
 30
0.0
 11
360.145
 21
178.226
 31
0.0
  0
LINE
  5
E3F
330
1E
100
AcDbEntity
  8
0
100
AcDbLine
 10
358.881
 20
178.535
 30
0.0
 11
358.881
 21
179.915954852402
 31
0.0
  0
LINE
  5
E40
330
1E
100
AcDbEntity
  8
0
100
AcDbLine
 10
363.416
 20
175.414269503546
 30
0.0
 11
363.416
 21
174.403
 31
0.0
  0
LINE
  5
E41
330
1E
100
AcDbEntity
  8
0
100
AcDbLine
 10
363.416
 20
174.403
 30
0.0
 11
364.68
 21
174.095
 31
0.0
  0
LINE
  5
E42
330
1E
100
AcDbEntity
  8
0
100
AcDbLine
 10
363.416
 20
174.403
 30
0.0
 11
363.416
 21
175.414269503546
 31
0.0
  0
LINE
  5
E43
330
1E
100
AcDbEntity
  8
0
100
AcDbLine
 10
353.965
 20
179.418
 30
0.0
 11
359.148
 21
179.943
 31
0.0
  0
LINE
  5
E44
330
1E
100
AcDbEntity
  8
0
100
AcDbLine
 10
359.148
 20
179.943
 30
0.0
 11
365.352
 21
180.128
 31
0.0
  0
LINE
  5
E45
330
1E
100
AcDbEntity
  8
0
100
AcDbLine
 10
352.943
 20
180.313
 30
0.0
 11
359.002
 21
180.837
 31
0.0
  0
LINE
  5
E46
330
1E
100
AcDbEntity
  8
0
100
AcDbLine
 10
359.002
 20
180.837
 30
0.0
 11
365.352
 21
181.054
 31
0.0
  0
LINE
  5
E47
330
1E
100
AcDbEntity
  8
0
100
AcDbLine
 10
346.228
 20
180.633
 30
0.0
 11
352.432
 21
181.497
 31
0.0
  0
LINE
  5
E48
330
1E
100
AcDbEntity
  8
0
100
AcDbLine
 10
326.301
 20
172.879
 30
0.0
 11
330.534
 21
174.945
 31
0.0
  0
LINE
  5
E49
330
1E
100
AcDbEntity
  8
0
100
AcDbLine
 10
325.717
 20
173.97
 30
0.0
 11
330.024
 21
176.068
 31
0.0
  0
LINE
  5
E4A
330
1E
100
AcDbEntity
  8
0
100
AcDbLine
 10
322.067
 20
171.657
 30
0.0
 11
325.717
 21
173.97
 31
0.0
  0
LINE
  5
E4B
330
1E
100
AcDbEntity
  8
0
100
AcDbLine
 10
319.221
 20
169.22
 30
0.0
 11
322.067
 21
171.657
 31
0.0
  0
LINE
  5
E4C
330
1E
100
AcDbEntity
  8
0
100
AcDbLine
 10
317.177
 20
166.597
 30
0.0
 11
319.221
 21
169.22
 31
0.0
  0
LINE
  5
E4D
330
1E
100
AcDbEntity
  8
0
100
AcDbLine
 10
315.352
 20
180.17
 30
0.0
 11
315.863
 21
182.885
 31
0.0
  0
LINE
  5
E4E
330
1E
100
AcDbEntity
  8
0
100
AcDbLine
 10
315.352
 20
180.17
 30
0.0
 11
315.352
 21
161.138
 31
0.0
  0
LINE
  5
E4F
330
1E
100
AcDbEntity
  8
0
100
AcDbLine
 10
365.352
 20
180.128
 30
0.0
 11
371.556
 21
179.943
 31
0.0
  0
LINE
  5
E50
330
1E
100
AcDbEntity
  8
0
100
AcDbLine
 10
319.221
 20
188.252
 30
0.0
 11
319.951
 21
189.035
 31
0.0
  0
LINE
  5
E51
330
1E
100
AcDbEntity
  8
0
100
AcDbLine
 10
319.221
 20
188.252
 30
0.0
 11
322.067
 21
190.688
 31
0.0
  0
LINE
  5
E52
330
1E
100
AcDbEntity
  8
0
100
AcDbLine
 10
317.177
 20
185.63
 30
0.0
 11
319.221
 21
188.252
 31
0.0
  0
LINE
  5
E53
330
1E
100
AcDbEntity
  8
0
100
AcDbLine
 10
315.863
 20
182.885
 30
0.0
 11
317.177
 21
185.63
 31
0.0
  0
LINE
  5
E54
330
1E
100
AcDbEntity
  8
0
100
AcDbLine
 10
352.432
 20
181.497
 30
0.0
 11
358.929
 21
182.052
 31
0.0
  0
LINE
  5
E55
330
1E
100
AcDbEntity
  8
0
100
AcDbLine
 10
358.929
 20
182.052
 30
0.0
 11
365.352
 21
182.269
 31
0.0
  0
LINE
  5
E56
330
1E
100
AcDbEntity
  8
0
100
AcDbLine
 10
322.067
 20
190.688
 30
0.0
 11
325.717
 21
193.003
 31
0.0
  0
LINE
  5
E57
330
1E
100
AcDbEntity
  8
0
100
AcDbLine
 10
325.717
 20
193.003
 30
0.0
 11
330.024
 21
195.1
 31
0.0
  0
LINE
  5
E58
330
1E
100
AcDbEntity
  8
0
100
AcDbLine
 10
330.024
 20
195.1
 30
0.0
 11
334.987
 21
196.921
 31
0.0
  0
LINE
  5
E59
330
1E
100
AcDbEntity
  8
0
100
AcDbLine
 10
334.987
 20
196.921
 30
0.0
 11
340.461
 21
198.463
 31
0.0
  0
LINE
  5
E5A
330
1E
100
AcDbEntity
  8
0
100
AcDbLine
 10
330.534
 20
195.791
 30
0.0
 11
335.425
 21
197.58
 31
0.0
  0
LINE
  5
E5B
330
1E
100
AcDbEntity
  8
0
100
AcDbLine
 10
340.461
 20
198.463
 30
0.0
 11
346.228
 21
199.666
 31
0.0
  0
LINE
  5
E5C
330
1E
100
AcDbEntity
  8
0
100
AcDbLine
 10
335.425
 20
197.58
 30
0.0
 11
340.826
 21
199.123
 31
0.0
  0
LINE
  5
E5D
330
1E
100
AcDbEntity
  8
0
100
AcDbLine
 10
346.228
 20
199.666
 30
0.0
 11
352.432
 21
200.53
 31
0.0
  0
LINE
  5
E5E
330
1E
100
AcDbEntity
  8
0
100
AcDbLine
 10
340.826
 20
199.123
 30
0.0
 11
346.52
 21
200.264
 31
0.0
  0
LINE
  5
E5F
330
1E
100
AcDbEntity
  8
0
100
AcDbLine
 10
352.432
 20
200.53
 30
0.0
 11
358.929
 21
201.085
 31
0.0
  0
LINE
  5
E60
330
1E
100
AcDbEntity
  8
0
100
AcDbLine
 10
358.929
 20
201.085
 30
0.0
 11
365.352
 21
201.301
 31
0.0
  0
LINE
  5
E61
330
1E
100
AcDbEntity
  8
0
100
AcDbLine
 10
346.52
 20
200.264
 30
0.0
 11
352.943
 21
201.158
 31
0.0
  0
LINE
  5
E62
330
1E
100
AcDbEntity
  8
0
100
AcDbLine
 10
352.943
 20
201.158
 30
0.0
 11
359.002
 21
201.683
 31
0.0
  0
LINE
  5
E63
330
1E
100
AcDbEntity
  8
0
100
AcDbLine
 10
326.301
 20
193.724
 30
0.0
 11
330.534
 21
195.791
 31
0.0
  0
LINE
  5
E64
330
1E
100
AcDbEntity
  8
0
100
AcDbLine
 10
322.651
 20
191.441
 30
0.0
 11
326.301
 21
193.724
 31
0.0
  0
LINE
  5
E65
330
1E
100
AcDbEntity
  8
0
100
AcDbLine
 10
319.951
 20
189.035
 30
0.0
 11
322.651
 21
191.441
 31
0.0
  0
LINE
  5
E66
330
1E
100
AcDbEntity
  8
0
100
AcDbLine
 10
365.352
 20
181.054
 30
0.0
 11
371.702
 21
180.837
 31
0.0
  0
LINE
  5
E67
330
1E
100
AcDbEntity
  8
0
100
AcDbLine
 10
365.352
 20
182.269
 30
0.0
 11
371.775
 21
182.052
 31
0.0
  0
LINE
  5
E68
330
1E
100
AcDbEntity
  8
0
100
AcDbLine
 10
359.002
 20
201.683
 30
0.0
 11
365.352
 21
201.898
 31
0.0
  0
LINE
  5
E69
330
1E
100
AcDbEntity
  8
0
100
AcDbLine
 10
365.352
 20
201.301
 30
0.0
 11
371.775
 21
201.085
 31
0.0
  0
LINE
  5
E6A
330
1E
100
AcDbEntity
  8
0
100
AcDbLine
 10
368.424
 20
121.31
 30
0.0
 11
371.304
 21
122.546
 31
0.0
  0
LINE
  5
E6B
330
1E
100
AcDbEntity
  8
0
100
AcDbLine
 10
371.304
 20
122.546
 30
0.0
 11
373.8
 21
124.487
 31
0.0
  0
LINE
  5
E6C
330
1E
100
AcDbEntity
  8
0
100
AcDbLine
 10
367.56
 20
124.664
 30
0.0
 11
369.672
 21
125.458
 31
0.0
  0
LINE
  5
E6D
330
1E
100
AcDbEntity
  8
0
100
AcDbLine
 10
366.352
 20
134.782
 30
0.0
 11
366.352
 21
135.114
 31
0.0
  0
LINE
  5
E6E
330
1E
100
AcDbEntity
  8
0
100
AcDbLine
 10
366.352
 20
135.114
 30
0.0
 11
366.352
 21
134.782
 31
0.0
  0
LINE
  5
E6F
330
1E
100
AcDbEntity
  8
0
100
AcDbLine
 10
366.352
 20
135.114
 30
0.0
 11
366.352
 21
135.766
 31
0.0
  0
LINE
  5
E70
330
1E
100
AcDbEntity
  8
0
100
AcDbLine
 10
366.352
 20
135.766
 30
0.0
 11
366.352
 21
135.114
 31
0.0
  0
LINE
  5
E71
330
1E
100
AcDbEntity
  8
0
100
AcDbLine
 10
366.352
 20
135.766
 30
0.0
 11
366.352
 21
137.746
 31
0.0
  0
LINE
  5
E72
330
1E
100
AcDbEntity
  8
0
100
AcDbLine
 10
366.352
 20
137.746
 30
0.0
 11
366.352
 21
135.766
 31
0.0
  0
LINE
  5
E73
330
1E
100
AcDbEntity
  8
0
100
AcDbLine
 10
366.352
 20
137.746
 30
0.0
 11
366.352
 21
143.829
 31
0.0
  0
LINE
  5
E74
330
1E
100
AcDbEntity
  8
0
100
AcDbLine
 10
369.672
 20
125.458
 30
0.0
 11
371.496
 21
126.87
 31
0.0
  0
LINE
  5
E75
330
1E
100
AcDbEntity
  8
0
100
AcDbLine
 10
371.496
 20
126.87
 30
0.0
 11
372.84
 21
128.724
 31
0.0
  0
LINE
  5
E76
330
1E
100
AcDbEntity
  8
0
100
AcDbLine
 10
368.304
 20
140.078
 30
0.0
 11
369.568
 21
140.387
 31
0.0
  0
LINE
  5
E77
330
1E
100
AcDbEntity
  8
0
100
AcDbLine
 10
367.574
 20
140.612
 30
0.0
 11
368.838
 21
140.921
 31
0.0
  0
LINE
  5
E78
330
1E
100
AcDbEntity
  8
0
100
AcDbLine
 10
367.574
 20
140.612
 30
0.0
 11
368.304
 21
140.078
 31
0.0
  0
LINE
  5
E79
330
1E
100
AcDbEntity
  8
0
100
AcDbLine
 10
366.027
 20
160.645
 30
0.0
 11
366.627
 21
160.753
 31
0.0
  0
LINE
  5
E7A
330
1E
100
AcDbEntity
  8
0
100
AcDbLine
 10
366.027
 20
162.735
 30
0.0
 11
366.627
 21
162.626
 31
0.0
  0
LINE
  5
E7B
330
1E
100
AcDbEntity
  8
0
100
AcDbLine
 10
366.888
 20
155.415
 30
0.0
 11
368.328
 21
155.659
 31
0.0
  0
LINE
  5
E7C
330
1E
100
AcDbEntity
  8
0
100
AcDbLine
 10
368.328
 20
155.659
 30
0.0
 11
369.6
 21
156.064
 31
0.0
  0
LINE
  5
E7D
330
1E
100
AcDbEntity
  8
0
100
AcDbLine
 10
366.627
 20
160.753
 30
0.0
 11
367.139
 21
160.933
 31
0.0
  0
LINE
  5
E7E
330
1E
100
AcDbEntity
  8
0
100
AcDbLine
 10
366.627
 20
162.626
 30
0.0
 11
367.139
 21
162.447
 31
0.0
  0
LINE
  5
E7F
330
1E
100
AcDbEntity
  8
0
100
AcDbLine
 10
367.563
 20
161.149
 30
0.0
 11
367.819
 21
161.403
 31
0.0
  0
LINE
  5
E80
330
1E
100
AcDbEntity
  8
0
100
AcDbLine
 10
367.139
 20
160.933
 30
0.0
 11
367.563
 21
161.149
 31
0.0
  0
LINE
  5
E81
330
1E
100
AcDbEntity
  8
0
100
AcDbLine
 10
367.819
 20
161.403
 30
0.0
 11
367.907
 21
161.69
 31
0.0
  0
LINE
  5
E82
330
1E
100
AcDbEntity
  8
0
100
AcDbLine
 10
367.819
 20
161.977
 30
0.0
 11
367.907
 21
161.69
 31
0.0
  0
LINE
  5
E83
330
1E
100
AcDbEntity
  8
0
100
AcDbLine
 10
367.563
 20
162.231
 30
0.0
 11
367.819
 21
161.977
 31
0.0
  0
LINE
  5
E84
330
1E
100
AcDbEntity
  8
0
100
AcDbLine
 10
367.139
 20
162.447
 30
0.0
 11
367.563
 21
162.231
 31
0.0
  0
LINE
  5
E85
330
1E
100
AcDbEntity
  8
0
100
AcDbLine
 10
366.888
 20
160.304
 30
0.0
 11
368.328
 21
160.061
 31
0.0
  0
LINE
  5
E86
330
1E
100
AcDbEntity
  8
0
100
AcDbLine
 10
368.328
 20
160.061
 30
0.0
 11
369.6
 21
159.655
 31
0.0
  0
LINE
  5
E87
330
1E
100
AcDbEntity
  8
0
100
AcDbLine
 10
366.352
 20
143.829
 30
0.0
 11
366.352
 21
137.746
 31
0.0
  0
LINE
  5
E88
330
1E
100
AcDbEntity
  8
0
100
AcDbLine
 10
367.574
 20
178.037
 30
0.0
 11
368.838
 21
177.728
 31
0.0
  0
LINE
  5
E89
330
1E
100
AcDbEntity
  8
0
100
AcDbLine
 10
367.574
 20
178.037
 30
0.0
 11
368.304
 21
178.571
 31
0.0
  0
LINE
  5
E8A
330
1E
100
AcDbEntity
  8
0
100
AcDbLine
 10
369.212
 20
169.409
 30
0.0
 11
370.477
 21
169.101
 31
0.0
  0
LINE
  5
E8B
330
1E
100
AcDbEntity
  8
0
100
AcDbLine
 10
369.212
 20
169.409
 30
0.0
 11
369.942
 21
169.944
 31
0.0
  0
LINE
  5
E8C
330
1E
100
AcDbEntity
  8
0
100
AcDbLine
 10
368.838
 20
177.728
 30
0.0
 11
369.568
 21
178.262
 31
0.0
  0
LINE
  5
E8D
330
1E
100
AcDbEntity
  8
0
100
AcDbLine
 10
368.304
 20
180.039972920696
 30
0.0
 11
368.304
 21
178.571
 31
0.0
  0
LINE
  5
E8E
330
1E
100
AcDbEntity
  8
0
100
AcDbLine
 10
368.304
 20
178.571
 30
0.0
 11
369.568
 21
178.262
 31
0.0
  0
LINE
  5
E8F
330
1E
100
AcDbEntity
  8
0
100
AcDbLine
 10
368.304
 20
178.571
 30
0.0
 11
368.304
 21
180.039972920696
 31
0.0
  0
LINE
  5
E90
330
1E
100
AcDbEntity
  8
0
100
AcDbLine
 10
369.212
 20
147.427
 30
0.0
 11
370.477
 21
147.736
 31
0.0
  0
LINE
  5
E91
330
1E
100
AcDbEntity
  8
0
100
AcDbLine
 10
369.212
 20
147.427
 30
0.0
 11
369.942
 21
146.893
 31
0.0
  0
LINE
  5
E92
330
1E
100
AcDbEntity
  8
0
100
AcDbLine
 10
368.838
 20
140.921
 30
0.0
 11
369.568
 21
140.387
 31
0.0
  0
LINE
  5
E93
330
1E
100
AcDbEntity
  8
0
100
AcDbLine
 10
369.568
 20
140.387
 30
0.0
 11
369.568
 21
140.459718891038
 31
0.0
  0
LINE
  5
E94
330
1E
100
AcDbEntity
  8
0
100
AcDbLine
 10
366.352
 20
140.363819471309
 30
0.0
 11
367.852121390284
 21
140.408552298066
 31
0.0
  0
LINE
  5
E95
330
1E
100
AcDbEntity
  8
0
100
AcDbLine
 10
369.6
 20
156.064
 30
0.0
 11
370.56
 21
156.602
 31
0.0
  0
LINE
  5
E96
330
1E
100
AcDbEntity
  8
0
100
AcDbLine
 10
369.6
 20
159.655
 30
0.0
 11
370.56
 21
159.117
 31
0.0
  0
LINE
  5
E97
330
1E
100
AcDbEntity
  8
0
100
AcDbLine
 10
369.942
 20
169.944
 30
0.0
 11
371.206
 21
169.635
 31
0.0
  0
LINE
  5
E98
330
1E
100
AcDbEntity
  8
0
100
AcDbLine
 10
371.162636480609
 20
155.962752604706
 30
0.0
 11
371.686
 21
154.989
 31
0.0
  0
LINE
  5
E99
330
1E
100
AcDbEntity
  8
0
100
AcDbLine
 10
370.56
 20
156.602
 30
0.0
 11
371.136
 21
157.21
 31
0.0
  0
LINE
  5
E9A
330
1E
100
AcDbEntity
  8
0
100
AcDbLine
 10
371.352
 20
158.419
 30
0.0
 11
371.352
 21
157.86
 31
0.0
  0
LINE
  5
E9B
330
1E
100
AcDbEntity
  8
0
100
AcDbLine
 10
371.136
 20
157.21
 30
0.0
 11
371.352
 21
157.86
 31
0.0
  0
LINE
  5
E9C
330
1E
100
AcDbEntity
  8
0
100
AcDbLine
 10
371.352
 20
157.86
 30
0.0
 11
371.352
 21
158.419
 31
0.0
  0
LINE
  5
E9D
330
1E
100
AcDbEntity
  8
0
100
AcDbLine
 10
370.56
 20
159.117
 30
0.0
 11
371.136
 21
158.509
 31
0.0
  0
LINE
  5
E9E
330
1E
100
AcDbEntity
  8
0
100
AcDbLine
 10
371.136
 20
158.509
 30
0.0
 11
371.352
 21
157.86
 31
0.0
  0
LINE
  5
E9F
330
1E
100
AcDbEntity
  8
0
100
AcDbLine
 10
370.477
 20
169.101
 30
0.0
 11
371.206
 21
169.635
 31
0.0
  0
LINE
  5
EA0
330
1E
100
AcDbEntity
  8
0
100
AcDbLine
 10
370.477
 20
147.736
 30
0.0
 11
371.206
 21
147.202
 31
0.0
  0
LINE
  5
EA1
330
1E
100
AcDbEntity
  8
0
100
AcDbLine
 10
369.942
 20
146.893
 30
0.0
 11
371.206
 21
147.202
 31
0.0
  0
LINE
  5
EA2
330
1E
100
AcDbEntity
  8
0
100
AcDbLine
 10
371.556
 20
140.519
 30
0.0
 11
376.739
 21
141.043
 31
0.0
  0
LINE
  5
EA3
330
1E
100
AcDbEntity
  8
0
100
AcDbLine
 10
369.568
 20
140.459718891038
 30
0.0
 11
371.556
 21
140.519
 31
0.0
  0
LINE
  5
EA4
330
1E
100
AcDbEntity
  8
0
100
AcDbLine
 10
369.568
 20
140.459718891038
 30
0.0
 11
369.568
 21
140.387
 31
0.0
  0
LINE
  5
EA5
330
1E
100
AcDbEntity
  8
0
100
AcDbLine
 10
366.352
 20
139.443015748032
 30
0.0
 11
371.702
 21
139.625
 31
0.0
  0
LINE
  5
EA6
330
1E
100
AcDbEntity
  8
0
100
AcDbLine
 10
371.574
 20
155.266
 30
0.0
 11
371.653
 21
155.539
 31
0.0
  0
LINE
  5
EA7
330
1E
100
AcDbEntity
  8
0
100
AcDbLine
 10
371.574
 20
155.266
 30
0.0
 11
371.686
 21
154.989
 31
0.0
  0
LINE
  5
EA8
330
1E
100
AcDbEntity
  8
0
100
AcDbLine
 10
371.686
 20
154.989
 30
0.0
 11
371.917
 21
154.725
 31
0.0
  0
LINE
  5
EA9
330
1E
100
AcDbEntity
  8
0
100
AcDbLine
 10
371.653
 20
155.539
 30
0.0
 11
371.916
 21
155.807
 31
0.0
  0
LINE
  5
EAA
330
1E
100
AcDbEntity
  8
0
100
AcDbLine
 10
371.702
 20
139.625
 30
0.0
 11
377.761
 21
140.149
 31
0.0
  0
LINE
  5
EAB
330
1E
100
AcDbEntity
  8
0
100
AcDbLine
 10
371.556
 20
179.943
 30
0.0
 11
376.739
 21
179.418
 31
0.0
  0
LINE
  5
EAC
330
1E
100
AcDbEntity
  8
0
100
AcDbLine
 10
371.702
 20
180.837
 30
0.0
 11
377.761
 21
180.313
 31
0.0
  0
LINE
  5
EAD
330
1E
100
AcDbEntity
  8
0
100
AcDbLine
 10
372.84
 20
128.724
 30
0.0
 11
373.704
 21
130.842
 31
0.0
  0
LINE
  5
EAE
330
1E
100
AcDbEntity
  8
0
100
AcDbLine
 10
373.8
 20
124.487
 30
0.0
 11
375.72
 21
127.047
 31
0.0
  0
LINE
  5
EAF
330
1E
100
AcDbEntity
  8
0
100
AcDbLine
 10
375.72
 20
127.047
 30
0.0
 11
376.968
 21
129.959
 31
0.0
  0
LINE
  5
EB0
330
1E
100
AcDbEntity
  8
0
100
AcDbLine
 10
375.72
 20
139.138
 30
0.0
 11
376.968
 21
136.226
 31
0.0
  0
LINE
  5
EB1
330
1E
100
AcDbEntity
  8
0
100
AcDbLine
 10
373.992
 20
133.048
 30
0.0
 11
373.992
 21
139.823045882159
 31
0.0
  0
LINE
  5
EB2
330
1E
100
AcDbEntity
  8
0
100
AcDbLine
 10
373.704
 20
130.842
 30
0.0
 11
373.992
 21
133.048
 31
0.0
  0
LINE
  5
EB3
330
1E
100
AcDbEntity
  8
0
100
AcDbLine
 10
373.283
 20
144.283
 30
0.0
 11
374.548
 21
144.592
 31
0.0
  0
LINE
  5
EB4
330
1E
100
AcDbEntity
  8
0
100
AcDbLine
 10
373.283
 20
144.283
 30
0.0
 11
374.013
 21
143.749
 31
0.0
  0
LINE
  5
EB5
330
1E
100
AcDbEntity
  8
0
100
AcDbLine
 10
374.548
 20
145.510804587935
 30
0.0
 11
374.548
 21
144.592
 31
0.0
  0
LINE
  5
EB6
330
1E
100
AcDbEntity
  8
0
100
AcDbLine
 10
374.548
 20
144.592
 30
0.0
 11
375.278
 21
144.057
 31
0.0
  0
LINE
  5
EB7
330
1E
100
AcDbEntity
  8
0
100
AcDbLine
 10
374.548
 20
144.592
 30
0.0
 11
374.548
 21
145.510804587935
 31
0.0
  0
LINE
  5
EB8
330
1E
100
AcDbEntity
  8
0
100
AcDbLine
 10
374.013
 20
143.749
 30
0.0
 11
375.278
 21
144.057
 31
0.0
  0
LINE
  5
EB9
330
1E
100
AcDbEntity
  8
0
100
AcDbLine
 10
373.662
 20
151.61280167837
 30
0.0
 11
373.662
 21
151.265
 31
0.0
  0
LINE
  5
EBA
330
1E
100
AcDbEntity
  8
0
100
AcDbLine
 10
373.662
 20
151.265
 30
0.0
 11
374.926
 21
151.574
 31
0.0
  0
LINE
  5
EBB
330
1E
100
AcDbEntity
  8
0
100
AcDbLine
 10
373.662
 20
151.265
 30
0.0
 11
374.391
 21
150.731
 31
0.0
  0
LINE
  5
EBC
330
1E
100
AcDbEntity
  8
0
100
AcDbLine
 10
373.662
 20
151.265
 30
0.0
 11
373.662
 21
151.61280167837
 31
0.0
  0
LINE
  5
EBD
330
1E
100
AcDbEntity
  8
0
100
AcDbLine
 10
372.308
 20
154.506
 30
0.0
 11
372.853
 21
154.329
 31
0.0
  0
LINE
  5
EBE
330
1E
100
AcDbEntity
  8
0
100
AcDbLine
 10
371.917
 20
154.725
 30
0.0
 11
372.308
 21
154.506
 31
0.0
  0
LINE
  5
EBF
330
1E
100
AcDbEntity
  8
0
100
AcDbLine
 10
372.853
 20
154.329
 30
0.0
 11
373.486
 21
154.218
 31
0.0
  0
LINE
  5
EC0
330
1E
100
AcDbEntity
  8
0
100
AcDbLine
 10
373.486
 20
154.218
 30
0.0
 11
374.134
 21
154.184
 31
0.0
  0
LINE
  5
EC1
330
1E
100
AcDbEntity
  8
0
100
AcDbLine
 10
373.478
 20
156.301
 30
0.0
 11
374.133
 21
156.347
 31
0.0
  0
LINE
  5
EC2
330
1E
100
AcDbEntity
  8
0
100
AcDbLine
 10
372.854
 20
156.203
 30
0.0
 11
373.478
 21
156.301
 31
0.0
  0
LINE
  5
EC3
330
1E
100
AcDbEntity
  8
0
100
AcDbLine
 10
372.333
 20
156.037
 30
0.0
 11
372.854
 21
156.203
 31
0.0
  0
LINE
  5
EC4
330
1E
100
AcDbEntity
  8
0
100
AcDbLine
 10
371.916
 20
155.807
 30
0.0
 11
372.333
 21
156.037
 31
0.0
  0
LINE
  5
EC5
330
1E
100
AcDbEntity
  8
0
100
AcDbLine
 10
374.134
 20
154.184
 30
0.0
 11
374.789
 21
154.232
 31
0.0
  0
LINE
  5
EC6
330
1E
100
AcDbEntity
  8
0
100
AcDbLine
 10
374.789
 20
154.232
 30
0.0
 11
375.413
 21
154.33
 31
0.0
  0
LINE
  5
EC7
330
1E
100
AcDbEntity
  8
0
100
AcDbLine
 10
374.78
 20
156.314
 30
0.0
 11
375.413
 21
156.203
 31
0.0
  0
LINE
  5
EC8
330
1E
100
AcDbEntity
  8
0
100
AcDbLine
 10
374.133
 20
156.347
 30
0.0
 11
374.78
 21
156.314
 31
0.0
  0
LINE
  5
EC9
330
1E
100
AcDbEntity
  8
0
100
AcDbLine
 10
374.926
 20
152.448140529238
 30
0.0
 11
374.926
 21
151.574
 31
0.0
  0
LINE
  5
ECA
330
1E
100
AcDbEntity
  8
0
100
AcDbLine
 10
374.926
 20
151.574
 30
0.0
 11
375.656
 21
151.04
 31
0.0
  0
LINE
  5
ECB
330
1E
100
AcDbEntity
  8
0
100
AcDbLine
 10
374.926
 20
151.574
 30
0.0
 11
374.926
 21
152.448140529238
 31
0.0
  0
LINE
  5
ECC
330
1E
100
AcDbEntity
  8
0
100
AcDbLine
 10
374.391
 20
150.731
 30
0.0
 11
375.656
 21
151.04
 31
0.0
  0
LINE
  5
ECD
330
1E
100
AcDbEntity
  8
0
100
AcDbLine
 10
375.278
 20
144.057
 30
0.0
 11
375.278
 21
145.207904205608
 31
0.0
  0
LINE
  5
ECE
330
1E
100
AcDbEntity
  8
0
100
AcDbLine
 10
375.278
 20
145.207904205608
 30
0.0
 11
375.278
 21
144.057
 31
0.0
  0
LINE
  5
ECF
330
1E
100
AcDbEntity
  8
0
100
AcDbLine
 10
375.656
 20
151.04
 30
0.0
 11
375.656
 21
152.158119619295
 31
0.0
  0
LINE
  5
ED0
330
1E
100
AcDbEntity
  8
0
100
AcDbLine
 10
375.413
 20
154.33
 30
0.0
 11
375.934
 21
154.494
 31
0.0
  0
LINE
  5
ED1
330
1E
100
AcDbEntity
  8
0
100
AcDbLine
 10
375.934
 20
154.494
 30
0.0
 11
376.351
 21
154.725
 31
0.0
  0
LINE
  5
ED2
330
1E
100
AcDbEntity
  8
0
100
AcDbLine
 10
375.413
 20
156.203
 30
0.0
 11
375.958
 21
156.027
 31
0.0
  0
LINE
  5
ED3
330
1E
100
AcDbEntity
  8
0
100
AcDbLine
 10
375.958
 20
156.027
 30
0.0
 11
376.35
 21
155.806
 31
0.0
  0
LINE
  5
ED4
330
1E
100
AcDbEntity
  8
0
100
AcDbLine
 10
376.35
 20
155.806
 30
0.0
 11
376.581
 21
155.544
 31
0.0
  0
LINE
  5
ED5
330
1E
100
AcDbEntity
  8
0
100
AcDbLine
 10
376.581
 20
155.544
 30
0.0
 11
376.693
 21
155.266
 31
0.0
  0
LINE
  5
ED6
330
1E
100
AcDbEntity
  8
0
100
AcDbLine
 10
376.614
 20
154.992
 30
0.0
 11
376.98336868048
 21
155.685276600286
 31
0.0
  0
LINE
  5
ED7
330
1E
100
AcDbEntity
  8
0
100
AcDbLine
 10
376.614
 20
154.992
 30
0.0
 11
376.693
 21
155.266
 31
0.0
  0
LINE
  5
ED8
330
1E
100
AcDbEntity
  8
0
100
AcDbLine
 10
376.351
 20
154.725
 30
0.0
 11
376.614
 21
154.992
 31
0.0
  0
LINE
  5
ED9
330
1E
100
AcDbEntity
  8
0
100
AcDbLine
 10
375.656
 20
152.158119619295
 30
0.0
 11
375.656
 21
151.04
 31
0.0
  0
LINE
  5
EDA
330
1E
100
AcDbEntity
  8
0
100
AcDbLine
 10
375.132256083385
 20
139.921658555487
 30
0.0
 11
375.72
 21
139.138
 31
0.0
  0
LINE
  5
EDB
330
1E
100
AcDbEntity
  8
0
100
AcDbLine
 10
373.992
 20
139.823045882159
 30
0.0
 11
373.992
 21
133.048
 31
0.0
  0
LINE
  5
EDC
330
1E
100
AcDbEntity
  8
0
100
AcDbLine
 10
376.739
 20
141.043
 30
0.0
 11
377.934249704487
 21
141.194566905745
 31
0.0
  0
LINE
  5
EDD
330
1E
100
AcDbEntity
  8
0
100
AcDbLine
 10
373.283
 20
173.46
 30
0.0
 11
374.548
 21
173.151
 31
0.0
  0
LINE
  5
EDE
330
1E
100
AcDbEntity
  8
0
100
AcDbLine
 10
373.283
 20
173.46
 30
0.0
 11
374.013
 21
173.994
 31
0.0
  0
LINE
  5
EDF
330
1E
100
AcDbEntity
  8
0
100
AcDbLine
 10
374.013
 20
173.994
 30
0.0
 11
375.278
 21
173.685
 31
0.0
  0
LINE
  5
EE0
330
1E
100
AcDbEntity
  8
0
100
AcDbLine
 10
374.391
 20
166.259326254496
 30
0.0
 11
374.391
 21
165.199
 31
0.0
  0
LINE
  5
EE1
330
1E
100
AcDbEntity
  8
0
100
AcDbLine
 10
373.662
 20
165.753995290289
 30
0.0
 11
373.662
 21
164.665
 31
0.0
  0
LINE
  5
EE2
330
1E
100
AcDbEntity
  8
0
100
AcDbLine
 10
373.662
 20
164.665
 30
0.0
 11
374.926
 21
164.356
 31
0.0
  0
LINE
  5
EE3
330
1E
100
AcDbEntity
  8
0
100
AcDbLine
 10
373.662
 20
164.665
 30
0.0
 11
374.391
 21
165.199
 31
0.0
  0
LINE
  5
EE4
330
1E
100
AcDbEntity
  8
0
100
AcDbLine
 10
373.662
 20
164.665
 30
0.0
 11
373.662
 21
165.753995290289
 31
0.0
  0
LINE
  5
EE5
330
1E
100
AcDbEntity
  8
0
100
AcDbLine
 10
375.656
 20
164.891
 30
0.0
 11
375.656
 21
165.194759896171
 31
0.0
  0
LINE
  5
EE6
330
1E
100
AcDbEntity
  8
0
100
AcDbLine
 10
374.926
 20
164.356
 30
0.0
 11
375.656
 21
164.891
 31
0.0
  0
LINE
  5
EE7
330
1E
100
AcDbEntity
  8
0
100
AcDbLine
 10
375.656
 20
165.194759896171
 30
0.0
 11
375.656
 21
164.891
 31
0.0
  0
LINE
  5
EE8
330
1E
100
AcDbEntity
  8
0
100
AcDbLine
 10
374.548
 20
173.151
 30
0.0
 11
375.278
 21
173.685
 31
0.0
  0
LINE
  5
EE9
330
1E
100
AcDbEntity
  8
0
100
AcDbLine
 10
374.391
 20
165.199
 30
0.0
 11
375.656
 21
164.891
 31
0.0
  0
LINE
  5
EEA
330
1E
100
AcDbEntity
  8
0
100
AcDbLine
 10
374.391
 20
165.199
 30
0.0
 11
374.391
 21
166.259326254496
 31
0.0
  0
LINE
  5
EEB
330
1E
100
AcDbEntity
  8
0
100
AcDbLine
 10
376.968
 20
129.959
 30
0.0
 11
377.352
 21
133.048
 31
0.0
  0
LINE
  5
EEC
330
1E
100
AcDbEntity
  8
0
100
AcDbLine
 10
377.352
 20
133.048
 30
0.0
 11
377.352
 21
61.0135
 31
0.0
  0
LINE
  5
EED
330
1E
100
AcDbEntity
  8
0
100
AcDbLine
 10
376.968
 20
136.226
 30
0.0
 11
377.352
 21
133.048
 31
0.0
  0
LINE
  5
EEE
330
1E
100
AcDbEntity
  8
0
100
AcDbLine
 10
377.603
 20
177.213
 30
0.0
 11
378.868
 21
176.904
 31
0.0
  0
LINE
  5
EEF
330
1E
100
AcDbEntity
  8
0
100
AcDbLine
 10
377.603
 20
177.213
 30
0.0
 11
378.334
 21
177.747
 31
0.0
  0
LINE
  5
EF0
330
1E
100
AcDbEntity
  8
0
100
AcDbLine
 10
377.603
 20
141.437
 30
0.0
 11
378.868
 21
141.745
 31
0.0
  0
LINE
  5
EF1
330
1E
100
AcDbEntity
  8
0
100
AcDbLine
 10
377.603
 20
141.437
 30
0.0
 11
378.334
 21
140.902
 31
0.0
  0
LINE
  5
EF2
330
1E
100
AcDbEntity
  8
0
100
AcDbLine
 10
377.761
 20
140.149
 30
0.0
 11
384.184
 21
141.043
 31
0.0
  0
LINE
  5
EF3
330
1E
100
AcDbEntity
  8
0
100
AcDbLine
 10
376.739
 20
179.418
 30
0.0
 11
383.308
 21
178.586
 31
0.0
  0
LINE
  5
EF4
330
1E
100
AcDbEntity
  8
0
100
AcDbLine
 10
377.761
 20
180.313
 30
0.0
 11
384.184
 21
179.418
 31
0.0
  0
LINE
  5
EF5
330
1E
100
AcDbEntity
  8
0
100
AcDbLine
 10
371.775
 20
182.052
 30
0.0
 11
378.272
 21
181.497
 31
0.0
  0
LINE
  5
EF6
330
1E
100
AcDbEntity
  8
0
100
AcDbLine
 10
371.775
 20
201.085
 30
0.0
 11
378.272
 21
200.53
 31
0.0
  0
LINE
  5
EF7
330
1E
100
AcDbEntity
  8
0
100
AcDbLine
 10
378.041
 20
168.789446994348
 30
0.0
 11
378.041
 21
168.324
 31
0.0
  0
LINE
  5
EF8
330
1E
100
AcDbEntity
  8
0
100
AcDbLine
 10
378.041
 20
168.324
 30
0.0
 11
379.305
 21
168.016
 31
0.0
  0
LINE
  5
EF9
330
1E
100
AcDbEntity
  8
0
100
AcDbLine
 10
378.041
 20
168.324
 30
0.0
 11
378.771
 21
168.858
 31
0.0
  0
LINE
  5
EFA
330
1E
100
AcDbEntity
  8
0
100
AcDbLine
 10
378.041
 20
168.324
 30
0.0
 11
378.041
 21
168.789446994348
 31
0.0
  0
LINE
  5
EFB
330
1E
100
AcDbEntity
  8
0
100
AcDbLine
 10
378.041
 20
149.257186162014
 30
0.0
 11
378.041
 21
148.513
 31
0.0
  0
LINE
  5
EFC
330
1E
100
AcDbEntity
  8
0
100
AcDbLine
 10
378.041
 20
148.513
 30
0.0
 11
379.305
 21
148.822
 31
0.0
  0
LINE
  5
EFD
330
1E
100
AcDbEntity
  8
0
100
AcDbLine
 10
378.041
 20
148.513
 30
0.0
 11
378.771
 21
147.978
 31
0.0
  0
LINE
  5
EFE
330
1E
100
AcDbEntity
  8
0
100
AcDbLine
 10
378.041
 20
148.513
 30
0.0
 11
378.041
 21
149.257186162014
 31
0.0
  0
LINE
  5
EFF
330
1E
100
AcDbEntity
  8
0
100
AcDbLine
 10
379.598
 20
141.211
 30
0.0
 11
379.598
 21
141.405543309484
 31
0.0
  0
LINE
  5
F00
330
1E
100
AcDbEntity
  8
0
100
AcDbLine
 10
378.334
 20
140.902
 30
0.0
 11
379.598
 21
141.211
 31
0.0
  0
LINE
  5
F01
330
1E
100
AcDbEntity
  8
0
100
AcDbLine
 10
378.334
 20
177.747
 30
0.0
 11
379.598
 21
177.438
 31
0.0
  0
LINE
  5
F02
330
1E
100
AcDbEntity
  8
0
100
AcDbLine
 10
378.334
 20
177.747
 30
0.0
 11
378.334
 21
179.215984472523
 31
0.0
  0
LINE
  5
F03
330
1E
100
AcDbEntity
  8
0
100
AcDbLine
 10
378.771
 20
169.295471142319
 30
0.0
 11
378.771
 21
168.858
 31
0.0
  0
LINE
  5
F04
330
1E
100
AcDbEntity
  8
0
100
AcDbLine
 10
378.771
 20
168.858
 30
0.0
 11
380.035
 21
168.55
 31
0.0
  0
LINE
  5
F05
330
1E
100
AcDbEntity
  8
0
100
AcDbLine
 10
378.771
 20
168.858
 30
0.0
 11
378.771
 21
169.295471142319
 31
0.0
  0
LINE
  5
F06
330
1E
100
AcDbEntity
  8
0
100
AcDbLine
 10
378.868
 20
141.745
 30
0.0
 11
379.598
 21
141.211
 31
0.0
  0
LINE
  5
F07
330
1E
100
AcDbEntity
  8
0
100
AcDbLine
 10
380.035
 20
148.287
 30
0.0
 11
380.035
 21
148.380517076035
 31
0.0
  0
LINE
  5
F08
330
1E
100
AcDbEntity
  8
0
100
AcDbLine
 10
378.868
 20
176.904
 30
0.0
 11
379.598
 21
177.438
 31
0.0
  0
LINE
  5
F09
330
1E
100
AcDbEntity
  8
0
100
AcDbLine
 10
379.305
 20
168.016
 30
0.0
 11
380.035
 21
168.55
 31
0.0
  0
LINE
  5
F0A
330
1E
100
AcDbEntity
  8
0
100
AcDbLine
 10
380.072
 20
153.642
 30
0.0
 11
380.072
 21
154.259
 31
0.0
  0
LINE
  5
F0B
330
1E
100
AcDbEntity
  8
0
100
AcDbLine
 10
380.072
 20
153.642
 30
0.0
 11
381.532
 21
153.642
 31
0.0
  0
LINE
  5
F0C
330
1E
100
AcDbEntity
  8
0
100
AcDbLine
 10
380.072
 20
153.642
 30
0.0
 11
380.072
 21
154.453532477301
 31
0.0
  0
LINE
  5
F0D
330
1E
100
AcDbEntity
  8
0
100
AcDbLine
 10
380.072
 20
154.453532477301
 30
0.0
 11
380.072
 21
153.642
 31
0.0
  0
LINE
  5
F0E
330
1E
100
AcDbEntity
  8
0
100
AcDbLine
 10
380.072
 20
155.03379053442
 30
0.0
 11
380.072
 21
154.259
 31
0.0
  0
LINE
  5
F0F
330
1E
100
AcDbEntity
  8
0
100
AcDbLine
 10
380.072
 20
154.259
 30
0.0
 11
381.532
 21
154.259
 31
0.0
  0
LINE
  5
F10
330
1E
100
AcDbEntity
  8
0
100
AcDbLine
 10
380.072
 20
154.259
 30
0.0
 11
380.072
 21
155.03379053442
 31
0.0
  0
LINE
  5
F11
330
1E
100
AcDbEntity
  8
0
100
AcDbLine
 10
380.072
 20
154.259
 30
0.0
 11
380.072
 21
153.642
 31
0.0
  0
LINE
  5
F12
330
1E
100
AcDbEntity
  8
0
100
AcDbLine
 10
381.532
 20
153.642
 30
0.0
 11
381.532
 21
154.259
 31
0.0
  0
LINE
  5
F13
330
1E
100
AcDbEntity
  8
0
100
AcDbLine
 10
381.532
 20
154.75177513587
 30
0.0
 11
381.532
 21
154.259
 31
0.0
  0
LINE
  5
F14
330
1E
100
AcDbEntity
  8
0
100
AcDbLine
 10
381.532
 20
154.259
 30
0.0
 11
381.532
 21
153.642
 31
0.0
  0
LINE
  5
F15
330
1E
100
AcDbEntity
  8
0
100
AcDbLine
 10
381.532
 20
154.259
 30
0.0
 11
381.532
 21
154.75177513587
 31
0.0
  0
LINE
  5
F16
330
1E
100
AcDbEntity
  8
0
100
AcDbLine
 10
380.072
 20
161.671
 30
0.0
 11
381.532
 21
161.671
 31
0.0
  0
LINE
  5
F17
330
1E
100
AcDbEntity
  8
0
100
AcDbLine
 10
380.072
 20
161.671
 30
0.0
 11
380.072
 21
162.17427270154
 31
0.0
  0
LINE
  5
F18
330
1E
100
AcDbEntity
  8
0
100
AcDbLine
 10
380.072
 20
161.671
 30
0.0
 11
380.072
 21
162.288
 31
0.0
  0
LINE
  5
F19
330
1E
100
AcDbEntity
  8
0
100
AcDbLine
 10
380.072
 20
162.82799817332
 30
0.0
 11
380.072
 21
162.288
 31
0.0
  0
LINE
  5
F1A
330
1E
100
AcDbEntity
  8
0
100
AcDbLine
 10
380.072
 20
162.288
 30
0.0
 11
380.072
 21
161.671
 31
0.0
  0
LINE
  5
F1B
330
1E
100
AcDbEntity
  8
0
100
AcDbLine
 10
380.072
 20
162.288
 30
0.0
 11
381.532
 21
162.288
 31
0.0
  0
LINE
  5
F1C
330
1E
100
AcDbEntity
  8
0
100
AcDbLine
 10
380.072
 20
162.288
 30
0.0
 11
380.072
 21
162.82799817332
 31
0.0
  0
LINE
  5
F1D
330
1E
100
AcDbEntity
  8
0
100
AcDbLine
 10
381.532
 20
163.191880406168
 30
0.0
 11
381.532
 21
162.288
 31
0.0
  0
LINE
  5
F1E
330
1E
100
AcDbEntity
  8
0
100
AcDbLine
 10
380.072
 20
162.17427270154
 30
0.0
 11
380.072
 21
161.671
 31
0.0
  0
LINE
  5
F1F
330
1E
100
AcDbEntity
  8
0
100
AcDbLine
 10
381.532
 20
162.288
 30
0.0
 11
381.532
 21
163.191880406168
 31
0.0
  0
LINE
  5
F20
330
1E
100
AcDbEntity
  8
0
100
AcDbLine
 10
381.532
 20
162.288
 30
0.0
 11
381.532
 21
161.671
 31
0.0
  0
LINE
  5
F21
330
1E
100
AcDbEntity
  8
0
100
AcDbLine
 10
381.532
 20
161.671
 30
0.0
 11
381.532
 21
162.288
 31
0.0
  0
LINE
  5
F22
330
1E
100
AcDbEntity
  8
0
100
AcDbLine
 10
380.035
 20
168.55
 30
0.0
 11
380.035
 21
169.933878950974
 31
0.0
  0
LINE
  5
F23
330
1E
100
AcDbEntity
  8
0
100
AcDbLine
 10
379.598
 20
177.438
 30
0.0
 11
379.598
 21
179.055891916578
 31
0.0
  0
LINE
  5
F24
330
1E
100
AcDbEntity
  8
0
100
AcDbLine
 10
380.035
 20
169.933878950974
 30
0.0
 11
380.035
 21
168.55
 31
0.0
  0
LINE
  5
F25
330
1E
100
AcDbEntity
  8
0
100
AcDbLine
 10
379.305
 20
148.822
 30
0.0
 11
380.035
 21
148.287
 31
0.0
  0
LINE
  5
F26
330
1E
100
AcDbEntity
  8
0
100
AcDbLine
 10
380.035
 20
148.380517076035
 30
0.0
 11
380.035
 21
148.287
 31
0.0
  0
LINE
  5
F27
330
1E
100
AcDbEntity
  8
0
100
AcDbLine
 10
378.771
 20
147.978
 30
0.0
 11
380.035
 21
148.287
 31
0.0
  0
LINE
  5
F28
330
1E
100
AcDbEntity
  8
0
100
AcDbLine
 10
379.598
 20
141.405543309484
 30
0.0
 11
383.308
 21
141.876
 31
0.0
  0
LINE
  5
F29
330
1E
100
AcDbEntity
  8
0
100
AcDbLine
 10
379.598
 20
141.405543309484
 30
0.0
 11
379.598
 21
141.211
 31
0.0
  0
LINE
  5
F2A
330
1E
100
AcDbEntity
  8
0
100
AcDbLine
 10
382.421
 20
171.982
 30
0.0
 11
383.685
 21
171.674
 31
0.0
  0
LINE
  5
F2B
330
1E
100
AcDbEntity
  8
0
100
AcDbLine
 10
382.421
 20
171.982
 30
0.0
 11
383.15
 21
172.516
 31
0.0
  0
LINE
  5
F2C
330
1E
100
AcDbEntity
  8
0
100
AcDbLine
 10
382.421
 20
146.865205479452
 30
0.0
 11
382.421
 21
145.761
 31
0.0
  0
LINE
  5
F2D
330
1E
100
AcDbEntity
  8
0
100
AcDbLine
 10
383.235
 20
158.121557326079
 30
0.0
 11
383.235
 21
157.657
 31
0.0
  0
LINE
  5
F2E
330
1E
100
AcDbEntity
  8
0
100
AcDbLine
 10
383.235
 20
157.657
 30
0.0
 11
383.235
 21
158.273
 31
0.0
  0
LINE
  5
F2F
330
1E
100
AcDbEntity
  8
0
100
AcDbLine
 10
383.235
 20
157.657
 30
0.0
 11
384.695
 21
157.657
 31
0.0
  0
LINE
  5
F30
330
1E
100
AcDbEntity
  8
0
100
AcDbLine
 10
383.235
 20
157.657
 30
0.0
 11
383.235
 21
158.121557326079
 31
0.0
  0
LINE
  5
F31
330
1E
100
AcDbEntity
  8
0
100
AcDbLine
 10
383.15
 20
172.516
 30
0.0
 11
384.415
 21
172.209
 31
0.0
  0
LINE
  5
F32
330
1E
100
AcDbEntity
  8
0
100
AcDbLine
 10
383.235
 20
159.178293188885
 30
0.0
 11
383.235
 21
158.273
 31
0.0
  0
LINE
  5
F33
330
1E
100
AcDbEntity
  8
0
100
AcDbLine
 10
383.235
 20
158.273
 30
0.0
 11
384.695
 21
158.273
 31
0.0
  0
LINE
  5
F34
330
1E
100
AcDbEntity
  8
0
100
AcDbLine
 10
383.235
 20
158.273
 30
0.0
 11
383.235
 21
159.178293188885
 31
0.0
  0
LINE
  5
F35
330
1E
100
AcDbEntity
  8
0
100
AcDbLine
 10
383.235
 20
158.273
 30
0.0
 11
383.235
 21
157.657
 31
0.0
  0
LINE
  5
F36
330
1E
100
AcDbEntity
  8
0
100
AcDbLine
 10
382.421
 20
145.761
 30
0.0
 11
383.685
 21
146.069
 31
0.0
  0
LINE
  5
F37
330
1E
100
AcDbEntity
  8
0
100
AcDbLine
 10
382.421
 20
145.761
 30
0.0
 11
383.15
 21
145.226
 31
0.0
  0
LINE
  5
F38
330
1E
100
AcDbEntity
  8
0
100
AcDbLine
 10
382.421
 20
145.761
 30
0.0
 11
382.421
 21
146.865205479452
 31
0.0
  0
LINE
  5
F39
330
1E
100
AcDbEntity
  8
0
100
AcDbLine
 10
383.15
 20
145.226
 30
0.0
 11
384.415
 21
145.535
 31
0.0
  0
LINE
  5
F3A
330
1E
100
AcDbEntity
  8
0
100
AcDbLine
 10
383.685
 20
171.674
 30
0.0
 11
384.415
 21
172.209
 31
0.0
  0
LINE
  5
F3B
330
1E
100
AcDbEntity
  8
0
100
AcDbLine
 10
383.685
 20
146.774257057456
 30
0.0
 11
383.685
 21
146.069
 31
0.0
  0
LINE
  5
F3C
330
1E
100
AcDbEntity
  8
0
100
AcDbLine
 10
383.685
 20
146.069
 30
0.0
 11
384.415
 21
145.535
 31
0.0
  0
LINE
  5
F3D
330
1E
100
AcDbEntity
  8
0
100
AcDbLine
 10
383.685
 20
146.069
 30
0.0
 11
383.685
 21
146.774257057456
 31
0.0
  0
LINE
  5
F3E
330
1E
100
AcDbEntity
  8
0
100
AcDbLine
 10
383.308
 20
141.876
 30
0.0
 11
387.252442275788
 21
142.676415592402
 31
0.0
  0
LINE
  5
F3F
330
1E
100
AcDbEntity
  8
0
100
AcDbLine
 10
384.184
 20
141.043
 30
0.0
 11
389.878
 21
142.185
 31
0.0
  0
LINE
  5
F40
330
1E
100
AcDbEntity
  8
0
100
AcDbLine
 10
378.334
 20
179.215984472523
 30
0.0
 11
378.334
 21
177.747
 31
0.0
  0
LINE
  5
F41
330
1E
100
AcDbEntity
  8
0
100
AcDbLine
 10
379.598
 20
179.055891916578
 30
0.0
 11
379.598
 21
177.438
 31
0.0
  0
LINE
  5
F42
330
1E
100
AcDbEntity
  8
0
100
AcDbLine
 10
383.308
 20
178.586
 30
0.0
 11
388.783
 21
177.475
 31
0.0
  0
LINE
  5
F43
330
1E
100
AcDbEntity
  8
0
100
AcDbLine
 10
386.8
 20
143.008
 30
0.0
 11
388.064
 21
143.316
 31
0.0
  0
LINE
  5
F44
330
1E
100
AcDbEntity
  8
0
100
AcDbLine
 10
386.8
 20
143.008
 30
0.0
 11
387.53
 21
142.473
 31
0.0
  0
LINE
  5
F45
330
1E
100
AcDbEntity
  8
0
100
AcDbLine
 10
386.8
 20
143.008
 30
0.0
 11
386.8
 21
143.611839049394
 31
0.0
  0
LINE
  5
F46
330
1E
100
AcDbEntity
  8
0
100
AcDbLine
 10
384.415
 20
145.535
 30
0.0
 11
384.415
 21
146.610485885088
 31
0.0
  0
LINE
  5
F47
330
1E
100
AcDbEntity
  8
0
100
AcDbLine
 10
384.532
 20
150.950645410292
 30
0.0
 11
384.532
 21
150.528
 31
0.0
  0
LINE
  5
F48
330
1E
100
AcDbEntity
  8
0
100
AcDbLine
 10
384.532
 20
150.528
 30
0.0
 11
384.532
 21
151.145
 31
0.0
  0
LINE
  5
F49
330
1E
100
AcDbEntity
  8
0
100
AcDbLine
 10
384.532
 20
150.528
 30
0.0
 11
385.992
 21
150.528
 31
0.0
  0
LINE
  5
F4A
330
1E
100
AcDbEntity
  8
0
100
AcDbLine
 10
384.532
 20
150.528
 30
0.0
 11
384.532
 21
150.950645410292
 31
0.0
  0
LINE
  5
F4B
330
1E
100
AcDbEntity
  8
0
100
AcDbLine
 10
384.532
 20
151.145
 30
0.0
 11
385.992
 21
151.145
 31
0.0
  0
LINE
  5
F4C
330
1E
100
AcDbEntity
  8
0
100
AcDbLine
 10
384.532
 20
151.145
 30
0.0
 11
384.532
 21
150.528
 31
0.0
  0
LINE
  5
F4D
330
1E
100
AcDbEntity
  8
0
100
AcDbLine
 10
384.695
 20
157.657
 30
0.0
 11
384.695
 21
158.273
 31
0.0
  0
LINE
  5
F4E
330
1E
100
AcDbEntity
  8
0
100
AcDbLine
 10
384.415
 20
172.209
 30
0.0
 11
384.415
 21
172.413939388907
 31
0.0
  0
LINE
  5
F4F
330
1E
100
AcDbEntity
  8
0
100
AcDbLine
 10
384.532
 20
167.162397496523
 30
0.0
 11
384.532
 21
166.309
 31
0.0
  0
LINE
  5
F50
330
1E
100
AcDbEntity
  8
0
100
AcDbLine
 10
384.532
 20
166.309
 30
0.0
 11
384.532
 21
165.692
 31
0.0
  0
LINE
  5
F51
330
1E
100
AcDbEntity
  8
0
100
AcDbLine
 10
384.532
 20
166.309
 30
0.0
 11
385.992
 21
166.309
 31
0.0
  0
LINE
  5
F52
330
1E
100
AcDbEntity
  8
0
100
AcDbLine
 10
384.532
 20
166.309
 30
0.0
 11
384.532
 21
167.162397496523
 31
0.0
  0
LINE
  5
F53
330
1E
100
AcDbEntity
  8
0
100
AcDbLine
 10
384.532
 20
165.692
 30
0.0
 11
385.992
 21
165.692
 31
0.0
  0
LINE
  5
F54
330
1E
100
AcDbEntity
  8
0
100
AcDbLine
 10
384.532
 20
165.692
 30
0.0
 11
384.532
 21
166.309
 31
0.0
  0
LINE
  5
F55
330
1E
100
AcDbEntity
  8
0
100
AcDbLine
 10
384.415
 20
172.413939388907
 30
0.0
 11
384.415
 21
172.209
 31
0.0
  0
LINE
  5
F56
330
1E
100
AcDbEntity
  8
0
100
AcDbLine
 10
384.695
 20
159.192266177614
 30
0.0
 11
384.695
 21
158.273
 31
0.0
  0
LINE
  5
F57
330
1E
100
AcDbEntity
  8
0
100
AcDbLine
 10
385.992
 20
150.528
 30
0.0
 11
385.992
 21
151.145
 31
0.0
  0
LINE
  5
F58
330
1E
100
AcDbEntity
  8
0
100
AcDbLine
 10
385.992
 20
152.027758098224
 30
0.0
 11
385.992
 21
151.145
 31
0.0
  0
LINE
  5
F59
330
1E
100
AcDbEntity
  8
0
100
AcDbLine
 10
385.992
 20
151.145
 30
0.0
 11
385.992
 21
150.528
 31
0.0
  0
LINE
  5
F5A
330
1E
100
AcDbEntity
  8
0
100
AcDbLine
 10
385.992
 20
151.145
 30
0.0
 11
385.992
 21
152.027758098224
 31
0.0
  0
LINE
  5
F5B
330
1E
100
AcDbEntity
  8
0
100
AcDbLine
 10
385.992
 20
166.309
 30
0.0
 11
385.992
 21
165.692
 31
0.0
  0
LINE
  5
F5C
330
1E
100
AcDbEntity
  8
0
100
AcDbLine
 10
385.992
 20
165.692
 30
0.0
 11
385.992
 21
166.309
 31
0.0
  0
LINE
  5
F5D
330
1E
100
AcDbEntity
  8
0
100
AcDbLine
 10
386.8
 20
176.515102329916
 30
0.0
 11
386.8
 21
175.641
 31
0.0
  0
LINE
  5
F5E
330
1E
100
AcDbEntity
  8
0
100
AcDbLine
 10
386.8
 20
175.641
 30
0.0
 11
388.064
 21
175.333
 31
0.0
  0
LINE
  5
F5F
330
1E
100
AcDbEntity
  8
0
100
AcDbLine
 10
386.8
 20
175.641
 30
0.0
 11
387.53
 21
176.176
 31
0.0
  0
LINE
  5
F60
330
1E
100
AcDbEntity
  8
0
100
AcDbLine
 10
386.8
 20
175.641
 30
0.0
 11
386.8
 21
176.515102329916
 31
0.0
  0
LINE
  5
F61
330
1E
100
AcDbEntity
  8
0
100
AcDbLine
 10
384.695
 20
158.273
 30
0.0
 11
384.695
 21
157.657
 31
0.0
  0
LINE
  5
F62
330
1E
100
AcDbEntity
  8
0
100
AcDbLine
 10
384.695
 20
158.273
 30
0.0
 11
384.695
 21
159.192266177614
 31
0.0
  0
LINE
  5
F63
330
1E
100
AcDbEntity
  8
0
100
AcDbLine
 10
384.415
 20
146.610485885088
 30
0.0
 11
384.415
 21
145.535
 31
0.0
  0
LINE
  5
F64
330
1E
100
AcDbEntity
  8
0
100
AcDbLine
 10
388.064
 20
175.333
 30
0.0
 11
388.794
 21
175.867
 31
0.0
  0
LINE
  5
F65
330
1E
100
AcDbEntity
  8
0
100
AcDbLine
 10
387.53
 20
176.868468592731
 30
0.0
 11
387.53
 21
176.176
 31
0.0
  0
LINE
  5
F66
330
1E
100
AcDbEntity
  8
0
100
AcDbLine
 10
387.53
 20
176.176
 30
0.0
 11
388.794
 21
175.867
 31
0.0
  0
LINE
  5
F67
330
1E
100
AcDbEntity
  8
0
100
AcDbLine
 10
387.53
 20
176.176
 30
0.0
 11
387.53
 21
176.868468592731
 31
0.0
  0
LINE
  5
F68
330
1E
100
AcDbEntity
  8
0
100
AcDbLine
 10
386.8
 20
143.611839049394
 30
0.0
 11
386.8
 21
143.008
 31
0.0
  0
LINE
  5
F69
330
1E
100
AcDbEntity
  8
0
100
AcDbLine
 10
388.064
 20
143.425294520548
 30
0.0
 11
388.064
 21
143.316
 31
0.0
  0
LINE
  5
F6A
330
1E
100
AcDbEntity
  8
0
100
AcDbLine
 10
388.064
 20
143.316
 30
0.0
 11
388.794
 21
142.782
 31
0.0
  0
LINE
  5
F6B
330
1E
100
AcDbEntity
  8
0
100
AcDbLine
 10
388.064
 20
143.316
 30
0.0
 11
388.064
 21
143.425294520548
 31
0.0
  0
LINE
  5
F6C
330
1E
100
AcDbEntity
  8
0
100
AcDbLine
 10
387.53
 20
142.473
 30
0.0
 11
388.794
 21
142.782
 31
0.0
  0
LINE
  5
F6D
330
1E
100
AcDbEntity
  8
0
100
AcDbLine
 10
388.794
 20
175.867
 30
0.0
 11
388.794
 21
177.471856233115
 31
0.0
  0
LINE
  5
F6E
330
1E
100
AcDbEntity
  8
0
100
AcDbLine
 10
388.794
 20
177.471856233115
 30
0.0
 11
388.794
 21
175.867
 31
0.0
  0
LINE
  5
F6F
330
1E
100
AcDbEntity
  8
0
100
AcDbLine
 10
388.794
 20
142.782
 30
0.0
 11
388.794
 21
142.990143766885
 31
0.0
  0
LINE
  5
F70
330
1E
100
AcDbEntity
  8
0
100
AcDbLine
 10
389.397
 20
147.584
 30
0.0
 11
389.397
 21
148.201
 31
0.0
  0
LINE
  5
F71
330
1E
100
AcDbEntity
  8
0
100
AcDbLine
 10
389.397
 20
147.584
 30
0.0
 11
390.857
 21
147.584
 31
0.0
  0
LINE
  5
F72
330
1E
100
AcDbEntity
  8
0
100
AcDbLine
 10
389.397
 20
149.21942582558
 30
0.0
 11
389.397
 21
148.201
 31
0.0
  0
LINE
  5
F73
330
1E
100
AcDbEntity
  8
0
100
AcDbLine
 10
389.804
 20
154.74275879397
 30
0.0
 11
389.804
 21
154.336
 31
0.0
  0
LINE
  5
F74
330
1E
100
AcDbEntity
  8
0
100
AcDbLine
 10
389.804
 20
154.336
 30
0.0
 11
389.804
 21
154.952
 31
0.0
  0
LINE
  5
F75
330
1E
100
AcDbEntity
  8
0
100
AcDbLine
 10
389.804
 20
154.336
 30
0.0
 11
391.264
 21
154.336
 31
0.0
  0
LINE
  5
F76
330
1E
100
AcDbEntity
  8
0
100
AcDbLine
 10
389.804
 20
154.336
 30
0.0
 11
389.804
 21
154.74275879397
 31
0.0
  0
LINE
  5
F77
330
1E
100
AcDbEntity
  8
0
100
AcDbLine
 10
389.804
 20
155.953577370392
 30
0.0
 11
389.804
 21
154.952
 31
0.0
  0
LINE
  5
F78
330
1E
100
AcDbEntity
  8
0
100
AcDbLine
 10
389.804
 20
154.952
 30
0.0
 11
391.264
 21
154.952
 31
0.0
  0
LINE
  5
F79
330
1E
100
AcDbEntity
  8
0
100
AcDbLine
 10
389.804
 20
154.952
 30
0.0
 11
389.804
 21
155.953577370392
 31
0.0
  0
LINE
  5
F7A
330
1E
100
AcDbEntity
  8
0
100
AcDbLine
 10
389.804
 20
154.952
 30
0.0
 11
389.804
 21
154.336
 31
0.0
  0
LINE
  5
F7B
330
1E
100
AcDbEntity
  8
0
100
AcDbLine
 10
389.397
 20
148.201
 30
0.0
 11
390.857
 21
148.201
 31
0.0
  0
LINE
  5
F7C
330
1E
100
AcDbEntity
  8
0
100
AcDbLine
 10
389.397
 20
148.201
 30
0.0
 11
389.397
 21
149.21942582558
 31
0.0
  0
LINE
  5
F7D
330
1E
100
AcDbEntity
  8
0
100
AcDbLine
 10
389.397
 20
148.201
 30
0.0
 11
389.397
 21
147.584
 31
0.0
  0
LINE
  5
F7E
330
1E
100
AcDbEntity
  8
0
100
AcDbLine
 10
389.397
 20
170.159
 30
0.0
 11
389.397
 21
169.542
 31
0.0
  0
LINE
  5
F7F
330
1E
100
AcDbEntity
  8
0
100
AcDbLine
 10
389.397
 20
170.159
 30
0.0
 11
390.857
 21
170.159
 31
0.0
  0
LINE
  5
F80
330
1E
100
AcDbEntity
  8
0
100
AcDbLine
 10
389.397
 20
169.542
 30
0.0
 11
390.857
 21
169.542
 31
0.0
  0
LINE
  5
F81
330
1E
100
AcDbEntity
  8
0
100
AcDbLine
 10
389.397
 20
169.542
 30
0.0
 11
389.397
 21
170.159
 31
0.0
  0
LINE
  5
F82
330
1E
100
AcDbEntity
  8
0
100
AcDbLine
 10
389.804
 20
163.31117825972
 30
0.0
 11
389.804
 21
162.501
 31
0.0
  0
LINE
  5
F83
330
1E
100
AcDbEntity
  8
0
100
AcDbLine
 10
389.804
 20
162.501
 30
0.0
 11
389.804
 21
161.884
 31
0.0
  0
LINE
  5
F84
330
1E
100
AcDbEntity
  8
0
100
AcDbLine
 10
389.804
 20
162.501
 30
0.0
 11
391.264
 21
162.501
 31
0.0
  0
LINE
  5
F85
330
1E
100
AcDbEntity
  8
0
100
AcDbLine
 10
389.804
 20
162.501
 30
0.0
 11
389.804
 21
163.31117825972
 31
0.0
  0
LINE
  5
F86
330
1E
100
AcDbEntity
  8
0
100
AcDbLine
 10
389.804
 20
162.017737039227
 30
0.0
 11
389.804
 21
161.884
 31
0.0
  0
LINE
  5
F87
330
1E
100
AcDbEntity
  8
0
100
AcDbLine
 10
389.804
 20
161.884
 30
0.0
 11
391.264
 21
161.884
 31
0.0
  0
LINE
  5
F88
330
1E
100
AcDbEntity
  8
0
100
AcDbLine
 10
389.804
 20
161.884
 30
0.0
 11
389.804
 21
162.017737039227
 31
0.0
  0
LINE
  5
F89
330
1E
100
AcDbEntity
  8
0
100
AcDbLine
 10
389.804
 20
161.884
 30
0.0
 11
389.804
 21
162.501
 31
0.0
  0
LINE
  5
F8A
330
1E
100
AcDbEntity
  8
0
100
AcDbLine
 10
388.794
 20
142.990143766885
 30
0.0
 11
393.965
 21
144.468
 31
0.0
  0
LINE
  5
F8B
330
1E
100
AcDbEntity
  8
0
100
AcDbLine
 10
388.794
 20
142.990143766885
 30
0.0
 11
388.794
 21
142.782
 31
0.0
  0
LINE
  5
F8C
330
1E
100
AcDbEntity
  8
0
100
AcDbLine
 10
389.878
 20
142.185
 30
0.0
 11
395.279
 21
143.727
 31
0.0
  0
LINE
  5
F8D
330
1E
100
AcDbEntity
  8
0
100
AcDbLine
 10
388.783
 20
177.475
 30
0.0
 11
393.965
 21
175.994
 31
0.0
  0
LINE
  5
F8E
330
1E
100
AcDbEntity
  8
0
100
AcDbLine
 10
389.878
 20
178.277
 30
0.0
 11
395.279
 21
176.735
 31
0.0
  0
LINE
  5
F8F
330
1E
100
AcDbEntity
  8
0
100
AcDbLine
 10
384.184
 20
179.418
 30
0.0
 11
389.878
 21
178.277
 31
0.0
  0
LINE
  5
F90
330
1E
100
AcDbEntity
  8
0
100
AcDbLine
 10
384.476
 20
180.633
 30
0.0
 11
390.243
 21
179.43
 31
0.0
  0
LINE
  5
F91
330
1E
100
AcDbEntity
  8
0
100
AcDbLine
 10
378.272
 20
181.497
 30
0.0
 11
384.476
 21
180.633
 31
0.0
  0
LINE
  5
F92
330
1E
100
AcDbEntity
  8
0
100
AcDbLine
 10
384.476
 20
199.666
 30
0.0
 11
390.243
 21
198.463
 31
0.0
  0
LINE
  5
F93
330
1E
100
AcDbEntity
  8
0
100
AcDbLine
 10
390.857
 20
147.584
 30
0.0
 11
390.857
 21
148.201
 31
0.0
  0
LINE
  5
F94
330
1E
100
AcDbEntity
  8
0
100
AcDbLine
 10
390.857
 20
148.737734791944
 30
0.0
 11
390.857
 21
148.201
 31
0.0
  0
LINE
  5
F95
330
1E
100
AcDbEntity
  8
0
100
AcDbLine
 10
391.264
 20
154.336
 30
0.0
 11
391.264
 21
154.952
 31
0.0
  0
LINE
  5
F96
330
1E
100
AcDbEntity
  8
0
100
AcDbLine
 10
391.264
 20
155.907889414548
 30
0.0
 11
391.264
 21
154.952
 31
0.0
  0
LINE
  5
F97
330
1E
100
AcDbEntity
  8
0
100
AcDbLine
 10
391.264
 20
154.952
 30
0.0
 11
391.264
 21
154.336
 31
0.0
  0
LINE
  5
F98
330
1E
100
AcDbEntity
  8
0
100
AcDbLine
 10
391.264
 20
154.952
 30
0.0
 11
391.264
 21
155.907889414548
 31
0.0
  0
LINE
  5
F99
330
1E
100
AcDbEntity
  8
0
100
AcDbLine
 10
390.857
 20
148.201
 30
0.0
 11
390.857
 21
147.584
 31
0.0
  0
LINE
  5
F9A
330
1E
100
AcDbEntity
  8
0
100
AcDbLine
 10
390.857
 20
148.201
 30
0.0
 11
390.857
 21
148.737734791944
 31
0.0
  0
LINE
  5
F9B
330
1E
100
AcDbEntity
  8
0
100
AcDbLine
 10
391.994
 20
158.11
 30
0.0
 11
391.994
 21
158.727
 31
0.0
  0
LINE
  5
F9C
330
1E
100
AcDbEntity
  8
0
100
AcDbLine
 10
391.994
 20
158.11
 30
0.0
 11
393.454
 21
158.11
 31
0.0
  0
LINE
  5
F9D
330
1E
100
AcDbEntity
  8
0
100
AcDbLine
 10
391.994
 20
158.11
 30
0.0
 11
391.994
 21
158.809205207928
 31
0.0
  0
LINE
  5
F9E
330
1E
100
AcDbEntity
  8
0
100
AcDbLine
 10
393.614
 20
144.624850250179
 30
0.0
 11
393.614
 21
144.503
 31
0.0
  0
LINE
  5
F9F
330
1E
100
AcDbEntity
  8
0
100
AcDbLine
 10
393.614
 20
144.503
 30
0.0
 11
393.614
 21
145.12
 31
0.0
  0
LINE
  5
FA0
330
1E
100
AcDbEntity
  8
0
100
AcDbLine
 10
393.614
 20
144.503
 30
0.0
 11
395.074
 21
144.503
 31
0.0
  0
LINE
  5
FA1
330
1E
100
AcDbEntity
  8
0
100
AcDbLine
 10
393.614
 20
144.503
 30
0.0
 11
393.614
 21
144.624850250179
 31
0.0
  0
LINE
  5
FA2
330
1E
100
AcDbEntity
  8
0
100
AcDbLine
 10
393.614
 20
145.12
 30
0.0
 11
395.074
 21
145.12
 31
0.0
  0
LINE
  5
FA3
330
1E
100
AcDbEntity
  8
0
100
AcDbLine
 10
393.614
 20
145.12
 30
0.0
 11
393.614
 21
144.503
 31
0.0
  0
LINE
  5
FA4
330
1E
100
AcDbEntity
  8
0
100
AcDbLine
 10
393.454
 20
158.11
 30
0.0
 11
393.454
 21
158.727
 31
0.0
  0
LINE
  5
FA5
330
1E
100
AcDbEntity
  8
0
100
AcDbLine
 10
391.994
 20
158.727
 30
0.0
 11
393.454
 21
158.727
 31
0.0
  0
LINE
  5
FA6
330
1E
100
AcDbEntity
  8
0
100
AcDbLine
 10
391.994
 20
158.727
 30
0.0
 11
391.994
 21
159.262121550719
 31
0.0
  0
LINE
  5
FA7
330
1E
100
AcDbEntity
  8
0
100
AcDbLine
 10
391.994
 20
158.727
 30
0.0
 11
391.994
 21
158.11
 31
0.0
  0
LINE
  5
FA8
330
1E
100
AcDbEntity
  8
0
100
AcDbLine
 10
391.994
 20
158.809205207928
 30
0.0
 11
391.994
 21
158.11
 31
0.0
  0
LINE
  5
FA9
330
1E
100
AcDbEntity
  8
0
100
AcDbLine
 10
391.264
 20
161.884
 30
0.0
 11
391.264
 21
162.501
 31
0.0
  0
LINE
  5
FAA
330
1E
100
AcDbEntity
  8
0
100
AcDbLine
 10
391.994
 20
159.262121550719
 30
0.0
 11
391.994
 21
158.727
 31
0.0
  0
LINE
  5
FAB
330
1E
100
AcDbEntity
  8
0
100
AcDbLine
 10
393.454
 20
159.276094539448
 30
0.0
 11
393.454
 21
158.727
 31
0.0
  0
LINE
  5
FAC
330
1E
100
AcDbEntity
  8
0
100
AcDbLine
 10
393.454
 20
158.727
 30
0.0
 11
393.454
 21
158.11
 31
0.0
  0
LINE
  5
FAD
330
1E
100
AcDbEntity
  8
0
100
AcDbLine
 10
393.454
 20
158.727
 30
0.0
 11
393.454
 21
159.276094539448
 31
0.0
  0
LINE
  5
FAE
330
1E
100
AcDbEntity
  8
0
100
AcDbLine
 10
393.965
 20
144.468
 30
0.0
 11
394.058204979734
 21
144.503
 31
0.0
  0
LINE
  5
FAF
330
1E
100
AcDbEntity
  8
0
100
AcDbLine
 10
390.857
 20
170.295488498109
 30
0.0
 11
390.857
 21
170.159
 31
0.0
  0
LINE
  5
FB0
330
1E
100
AcDbEntity
  8
0
100
AcDbLine
 10
390.857
 20
170.159
 30
0.0
 11
390.857
 21
170.295488498109
 31
0.0
  0
LINE
  5
FB1
330
1E
100
AcDbEntity
  8
0
100
AcDbLine
 10
390.857
 20
170.159
 30
0.0
 11
390.857
 21
169.542
 31
0.0
  0
LINE
  5
FB2
330
1E
100
AcDbEntity
  8
0
100
AcDbLine
 10
390.857
 20
169.542
 30
0.0
 11
390.857
 21
170.159
 31
0.0
  0
LINE
  5
FB3
330
1E
100
AcDbEntity
  8
0
100
AcDbLine
 10
391.264
 20
163.636077492727
 30
0.0
 11
391.264
 21
162.501
 31
0.0
  0
LINE
  5
FB4
330
1E
100
AcDbEntity
  8
0
100
AcDbLine
 10
393.614
 20
174.146
 30
0.0
 11
393.614
 21
173.529
 31
0.0
  0
LINE
  5
FB5
330
1E
100
AcDbEntity
  8
0
100
AcDbLine
 10
393.614
 20
174.146
 30
0.0
 11
395.074
 21
174.146
 31
0.0
  0
LINE
  5
FB6
330
1E
100
AcDbEntity
  8
0
100
AcDbLine
 10
393.614
 20
173.529
 30
0.0
 11
395.074
 21
173.529
 31
0.0
  0
LINE
  5
FB7
330
1E
100
AcDbEntity
  8
0
100
AcDbLine
 10
393.614
 20
173.529
 30
0.0
 11
393.614
 21
174.146
 31
0.0
  0
LINE
  5
FB8
330
1E
100
AcDbEntity
  8
0
100
AcDbLine
 10
391.264
 20
162.501
 30
0.0
 11
391.264
 21
163.636077492727
 31
0.0
  0
LINE
  5
FB9
330
1E
100
AcDbEntity
  8
0
100
AcDbLine
 10
391.264
 20
162.501
 30
0.0
 11
391.264
 21
161.884
 31
0.0
  0
LINE
  5
FBA
330
1E
100
AcDbEntity
  8
0
100
AcDbLine
 10
394.751
 20
150.682853917114
 30
0.0
 11
394.751
 21
150.398
 31
0.0
  0
LINE
  5
FBB
330
1E
100
AcDbEntity
  8
0
100
AcDbLine
 10
394.751
 20
150.398
 30
0.0
 11
394.751
 21
151.015
 31
0.0
  0
LINE
  5
FBC
330
1E
100
AcDbEntity
  8
0
100
AcDbLine
 10
394.751
 20
150.398
 30
0.0
 11
396.211
 21
150.398
 31
0.0
  0
LINE
  5
FBD
330
1E
100
AcDbEntity
  8
0
100
AcDbLine
 10
394.751
 20
150.398
 30
0.0
 11
394.751
 21
150.682853917114
 31
0.0
  0
LINE
  5
FBE
330
1E
100
AcDbEntity
  8
0
100
AcDbLine
 10
394.751
 20
151.015
 30
0.0
 11
396.211
 21
151.015
 31
0.0
  0
LINE
  5
FBF
330
1E
100
AcDbEntity
  8
0
100
AcDbLine
 10
394.751
 20
151.015
 30
0.0
 11
394.751
 21
150.398
 31
0.0
  0
LINE
  5
FC0
330
1E
100
AcDbEntity
  8
0
100
AcDbLine
 10
395.074
 20
144.503
 30
0.0
 11
395.074
 21
145.12
 31
0.0
  0
LINE
  5
FC1
330
1E
100
AcDbEntity
  8
0
100
AcDbLine
 10
395.074
 20
145.12
 30
0.0
 11
395.074
 21
144.503
 31
0.0
  0
LINE
  5
FC2
330
1E
100
AcDbEntity
  8
0
100
AcDbLine
 10
394.751
 20
168.356375189316
 30
0.0
 11
394.751
 21
167.345
 31
0.0
  0
LINE
  5
FC3
330
1E
100
AcDbEntity
  8
0
100
AcDbLine
 10
395.074
 20
175.577311154599
 30
0.0
 11
395.074
 21
174.146
 31
0.0
  0
LINE
  5
FC4
330
1E
100
AcDbEntity
  8
0
100
AcDbLine
 10
395.074
 20
174.146
 30
0.0
 11
395.074
 21
175.577311154599
 31
0.0
  0
LINE
  5
FC5
330
1E
100
AcDbEntity
  8
0
100
AcDbLine
 10
395.074
 20
174.146
 30
0.0
 11
395.074
 21
173.529
 31
0.0
  0
LINE
  5
FC6
330
1E
100
AcDbEntity
  8
0
100
AcDbLine
 10
395.074
 20
173.529
 30
0.0
 11
395.074
 21
174.146
 31
0.0
  0
LINE
  5
FC7
330
1E
100
AcDbEntity
  8
0
100
AcDbLine
 10
394.751
 20
167.345
 30
0.0
 11
394.751
 21
166.728
 31
0.0
  0
LINE
  5
FC8
330
1E
100
AcDbEntity
  8
0
100
AcDbLine
 10
394.751
 20
167.345
 30
0.0
 11
396.211
 21
167.345
 31
0.0
  0
LINE
  5
FC9
330
1E
100
AcDbEntity
  8
0
100
AcDbLine
 10
394.751
 20
167.345
 30
0.0
 11
394.751
 21
168.356375189316
 31
0.0
  0
LINE
  5
FCA
330
1E
100
AcDbEntity
  8
0
100
AcDbLine
 10
394.751
 20
166.728
 30
0.0
 11
396.211
 21
166.728
 31
0.0
  0
LINE
  5
FCB
330
1E
100
AcDbEntity
  8
0
100
AcDbLine
 10
394.751
 20
166.728
 30
0.0
 11
394.751
 21
167.345
 31
0.0
  0
LINE
  5
FCC
330
1E
100
AcDbEntity
  8
0
100
AcDbLine
 10
395.074
 20
144.884447706023
 30
0.0
 11
398.564
 21
146.195
 31
0.0
  0
LINE
  5
FCD
330
1E
100
AcDbEntity
  8
0
100
AcDbLine
 10
395.279
 20
143.727
 30
0.0
 11
400.17
 21
145.516
 31
0.0
  0
LINE
  5
FCE
330
1E
100
AcDbEntity
  8
0
100
AcDbLine
 10
393.965
 20
175.994
 30
0.0
 11
398.564
 21
174.266
 31
0.0
  0
LINE
  5
FCF
330
1E
100
AcDbEntity
  8
0
100
AcDbLine
 10
395.279
 20
176.735
 30
0.0
 11
400.17
 21
174.945
 31
0.0
  0
LINE
  5
FD0
330
1E
100
AcDbEntity
  8
0
100
AcDbLine
 10
395.717
 20
177.888
 30
0.0
 11
400.68
 21
176.068
 31
0.0
  0
LINE
  5
FD1
330
1E
100
AcDbEntity
  8
0
100
AcDbLine
 10
390.243
 20
179.43
 30
0.0
 11
395.717
 21
177.888
 31
0.0
  0
LINE
  5
FD2
330
1E
100
AcDbEntity
  8
0
100
AcDbLine
 10
400.022
 20
147.35
 30
0.0
 11
400.022
 21
147.967
 31
0.0
  0
LINE
  5
FD3
330
1E
100
AcDbEntity
  8
0
100
AcDbLine
 10
400.022
 20
147.35
 30
0.0
 11
401.482
 21
147.35
 31
0.0
  0
LINE
  5
FD4
330
1E
100
AcDbEntity
  8
0
100
AcDbLine
 10
400.022
 20
147.35
 30
0.0
 11
400.022
 21
148.381411883473
 31
0.0
  0
LINE
  5
FD5
330
1E
100
AcDbEntity
  8
0
100
AcDbLine
 10
398.564
 20
146.195
 30
0.0
 11
400.993482758621
 21
147.35
 31
0.0
  0
LINE
  5
FD6
330
1E
100
AcDbEntity
  8
0
100
AcDbLine
 10
401.482
 20
147.35
 30
0.0
 11
401.482
 21
147.967
 31
0.0
  0
LINE
  5
FD7
330
1E
100
AcDbEntity
  8
0
100
AcDbLine
 10
401.482
 20
147.582245901639
 30
0.0
 11
402.651
 21
148.138
 31
0.0
  0
LINE
  5
FD8
330
1E
100
AcDbEntity
  8
0
100
AcDbLine
 10
400.17
 20
145.516
 30
0.0
 11
404.403
 21
147.583
 31
0.0
  0
LINE
  5
FD9
330
1E
100
AcDbEntity
  8
0
100
AcDbLine
 10
400.022
 20
147.967
 30
0.0
 11
401.482
 21
147.967
 31
0.0
  0
LINE
  5
FDA
330
1E
100
AcDbEntity
  8
0
100
AcDbLine
 10
400.022
 20
147.967
 30
0.0
 11
400.022
 21
148.768177644711
 31
0.0
  0
LINE
  5
FDB
330
1E
100
AcDbEntity
  8
0
100
AcDbLine
 10
400.022
 20
147.967
 30
0.0
 11
400.022
 21
147.35
 31
0.0
  0
LINE
  5
FDC
330
1E
100
AcDbEntity
  8
0
100
AcDbLine
 10
401.482
 20
147.967
 30
0.0
 11
401.482
 21
147.35
 31
0.0
  0
LINE
  5
FDD
330
1E
100
AcDbEntity
  8
0
100
AcDbLine
 10
401.482
 20
147.967
 30
0.0
 11
401.482
 21
148.418212121212
 31
0.0
  0
LINE
  5
FDE
330
1E
100
AcDbEntity
  8
0
100
AcDbLine
 10
400.022
 20
148.381411883473
 30
0.0
 11
400.022
 21
147.35
 31
0.0
  0
LINE
  5
FDF
330
1E
100
AcDbEntity
  8
0
100
AcDbLine
 10
396.211
 20
150.398
 30
0.0
 11
396.211
 21
151.015
 31
0.0
  0
LINE
  5
FE0
330
1E
100
AcDbEntity
  8
0
100
AcDbLine
 10
396.211
 20
151.974324809034
 30
0.0
 11
396.211
 21
151.015
 31
0.0
  0
LINE
  5
FE1
330
1E
100
AcDbEntity
  8
0
100
AcDbLine
 10
396.211
 20
151.015
 30
0.0
 11
396.211
 21
150.398
 31
0.0
  0
LINE
  5
FE2
330
1E
100
AcDbEntity
  8
0
100
AcDbLine
 10
396.211
 20
151.015
 30
0.0
 11
396.211
 21
151.974324809034
 31
0.0
  0
LINE
  5
FE3
330
1E
100
AcDbEntity
  8
0
100
AcDbLine
 10
400.022
 20
148.768177644711
 30
0.0
 11
400.022
 21
147.967
 31
0.0
  0
LINE
  5
FE4
330
1E
100
AcDbEntity
  8
0
100
AcDbLine
 10
404.808
 20
150.782
 30
0.0
 11
404.808
 21
151.399
 31
0.0
  0
LINE
  5
FE5
330
1E
100
AcDbEntity
  8
0
100
AcDbLine
 10
404.808
 20
150.782
 30
0.0
 11
406.268
 21
150.782
 31
0.0
  0
LINE
  5
FE6
330
1E
100
AcDbEntity
  8
0
100
AcDbLine
 10
404.808
 20
151.399
 30
0.0
 11
406.268
 21
151.399
 31
0.0
  0
LINE
  5
FE7
330
1E
100
AcDbEntity
  8
0
100
AcDbLine
 10
404.808
 20
151.399
 30
0.0
 11
404.808
 21
152.55603332879
 31
0.0
  0
LINE
  5
FE8
330
1E
100
AcDbEntity
  8
0
100
AcDbLine
 10
404.808
 20
151.399
 30
0.0
 11
404.808
 21
150.782
 31
0.0
  0
LINE
  5
FE9
330
1E
100
AcDbEntity
  8
0
100
AcDbLine
 10
401.482
 20
148.418212121212
 30
0.0
 11
401.482
 21
147.967
 31
0.0
  0
LINE
  5
FEA
330
1E
100
AcDbEntity
  8
0
100
AcDbLine
 10
402.651
 20
148.138
 30
0.0
 11
406.155
 21
150.328
 31
0.0
  0
LINE
  5
FEB
330
1E
100
AcDbEntity
  8
0
100
AcDbLine
 10
406.268
 20
150.782
 30
0.0
 11
406.268
 21
151.399
 31
0.0
  0
LINE
  5
FEC
330
1E
100
AcDbEntity
  8
0
100
AcDbLine
 10
406.268
 20
151.399
 30
0.0
 11
406.268
 21
150.782
 31
0.0
  0
LINE
  5
FED
330
1E
100
AcDbEntity
  8
0
100
AcDbLine
 10
406.268
 20
151.399
 30
0.0
 11
406.268
 21
152.587975804253
 31
0.0
  0
LINE
  5
FEE
330
1E
100
AcDbEntity
  8
0
100
AcDbLine
 10
406.155
 20
150.328
 30
0.0
 11
408.783
 21
152.643
 31
0.0
  0
LINE
  5
FEF
330
1E
100
AcDbEntity
  8
0
100
AcDbLine
 10
404.403
 20
147.583
 30
0.0
 11
408.053
 21
149.866
 31
0.0
  0
LINE
  5
FF0
330
1E
100
AcDbEntity
  8
0
100
AcDbLine
 10
408.053
 20
149.866
 30
0.0
 11
410.753
 21
152.273
 31
0.0
  0
LINE
  5
FF1
330
1E
100
AcDbEntity
  8
0
100
AcDbLine
 10
404.808
 20
152.55603332879
 30
0.0
 11
404.808
 21
151.399
 31
0.0
  0
LINE
  5
FF2
330
1E
100
AcDbEntity
  8
0
100
AcDbLine
 10
406.268
 20
152.587975804253
 30
0.0
 11
406.268
 21
151.399
 31
0.0
  0
LINE
  5
FF3
330
1E
100
AcDbEntity
  8
0
100
AcDbLine
 10
399.212
 20
154.48
 30
0.0
 11
399.212
 21
155.097
 31
0.0
  0
LINE
  5
FF4
330
1E
100
AcDbEntity
  8
0
100
AcDbLine
 10
399.212
 20
154.48
 30
0.0
 11
400.672
 21
154.48
 31
0.0
  0
LINE
  5
FF5
330
1E
100
AcDbEntity
  8
0
100
AcDbLine
 10
399.212
 20
154.48
 30
0.0
 11
399.212
 21
155.67548431534
 31
0.0
  0
LINE
  5
FF6
330
1E
100
AcDbEntity
  8
0
100
AcDbLine
 10
400.672
 20
154.48
 30
0.0
 11
400.672
 21
155.097
 31
0.0
  0
LINE
  5
FF7
330
1E
100
AcDbEntity
  8
0
100
AcDbLine
 10
399.212
 20
155.097
 30
0.0
 11
400.672
 21
155.097
 31
0.0
  0
LINE
  5
FF8
330
1E
100
AcDbEntity
  8
0
100
AcDbLine
 10
399.212
 20
155.097
 30
0.0
 11
399.212
 21
155.67548431534
 31
0.0
  0
LINE
  5
FF9
330
1E
100
AcDbEntity
  8
0
100
AcDbLine
 10
399.212
 20
155.097
 30
0.0
 11
399.212
 21
154.48
 31
0.0
  0
LINE
  5
FFA
330
1E
100
AcDbEntity
  8
0
100
AcDbLine
 10
399.212
 20
155.67548431534
 30
0.0
 11
399.212
 21
155.097
 31
0.0
  0
LINE
  5
FFB
330
1E
100
AcDbEntity
  8
0
100
AcDbLine
 10
399.212
 20
155.67548431534
 30
0.0
 11
399.212
 21
154.48
 31
0.0
  0
LINE
  5
FFC
330
1E
100
AcDbEntity
  8
0
100
AcDbLine
 10
400.672
 20
155.642911132739
 30
0.0
 11
400.672
 21
155.097
 31
0.0
  0
LINE
  5
FFD
330
1E
100
AcDbEntity
  8
0
100
AcDbLine
 10
400.672
 20
155.097
 30
0.0
 11
400.672
 21
154.48
 31
0.0
  0
LINE
  5
FFE
330
1E
100
AcDbEntity
  8
0
100
AcDbLine
 10
400.672
 20
155.097
 30
0.0
 11
400.672
 21
155.642911132739
 31
0.0
  0
LINE
  5
FFF
330
1E
100
AcDbEntity
  8
0
100
AcDbLine
 10
400.753
 20
158.563
 30
0.0
 11
400.753
 21
159.18
 31
0.0
  0
LINE
  5
1000
330
1E
100
AcDbEntity
  8
0
100
AcDbLine
 10
400.753
 20
158.563
 30
0.0
 11
402.213
 21
158.563
 31
0.0
  0
LINE
  5
1001
330
1E
100
AcDbEntity
  8
0
100
AcDbLine
 10
400.753
 20
158.563
 30
0.0
 11
400.753
 21
159.46800793193
 31
0.0
  0
LINE
  5
1002
330
1E
100
AcDbEntity
  8
0
100
AcDbLine
 10
400.753
 20
159.46800793193
 30
0.0
 11
400.753
 21
159.18
 31
0.0
  0
LINE
  5
1003
330
1E
100
AcDbEntity
  8
0
100
AcDbLine
 10
400.753
 20
159.46800793193
 30
0.0
 11
400.753
 21
158.563
 31
0.0
  0
LINE
  5
1004
330
1E
100
AcDbEntity
  8
0
100
AcDbLine
 10
402.213
 20
158.563
 30
0.0
 11
402.213
 21
159.18
 31
0.0
  0
LINE
  5
1005
330
1E
100
AcDbEntity
  8
0
100
AcDbLine
 10
400.753
 20
159.18
 30
0.0
 11
402.213
 21
159.18
 31
0.0
  0
LINE
  5
1006
330
1E
100
AcDbEntity
  8
0
100
AcDbLine
 10
400.753
 20
159.18
 30
0.0
 11
400.753
 21
159.46800793193
 31
0.0
  0
LINE
  5
1007
330
1E
100
AcDbEntity
  8
0
100
AcDbLine
 10
400.753
 20
159.18
 30
0.0
 11
400.753
 21
158.563
 31
0.0
  0
LINE
  5
1008
330
1E
100
AcDbEntity
  8
0
100
AcDbLine
 10
402.213
 20
159.563390106721
 30
0.0
 11
402.213
 21
159.18
 31
0.0
  0
LINE
  5
1009
330
1E
100
AcDbEntity
  8
0
100
AcDbLine
 10
408.134
 20
155.47643093509
 30
0.0
 11
408.134
 21
154.865
 31
0.0
  0
LINE
  5
100A
330
1E
100
AcDbEntity
  8
0
100
AcDbLine
 10
408.134
 20
154.865
 30
0.0
 11
408.134
 21
155.482
 31
0.0
  0
LINE
  5
100B
330
1E
100
AcDbEntity
  8
0
100
AcDbLine
 10
408.134
 20
154.865
 30
0.0
 11
409.593
 21
154.865
 31
0.0
  0
LINE
  5
100C
330
1E
100
AcDbEntity
  8
0
100
AcDbLine
 10
408.134
 20
154.865
 30
0.0
 11
408.134
 21
155.47643093509
 31
0.0
  0
LINE
  5
100D
330
1E
100
AcDbEntity
  8
0
100
AcDbLine
 10
408.134
 20
155.482
 30
0.0
 11
409.593
 21
155.482
 31
0.0
  0
LINE
  5
100E
330
1E
100
AcDbEntity
  8
0
100
AcDbLine
 10
408.134
 20
155.482
 30
0.0
 11
408.134
 21
154.865
 31
0.0
  0
LINE
  5
100F
330
1E
100
AcDbEntity
  8
0
100
AcDbLine
 10
402.213
 20
159.18
 30
0.0
 11
402.213
 21
158.563
 31
0.0
  0
LINE
  5
1010
330
1E
100
AcDbEntity
  8
0
100
AcDbLine
 10
402.213
 20
159.18
 30
0.0
 11
402.213
 21
159.563390106721
 31
0.0
  0
LINE
  5
1011
330
1E
100
AcDbEntity
  8
0
100
AcDbLine
 10
409.513
 20
159.671728377714
 30
0.0
 11
409.513
 21
159.017
 31
0.0
  0
LINE
  5
1012
330
1E
100
AcDbEntity
  8
0
100
AcDbLine
 10
409.513
 20
159.017
 30
0.0
 11
409.513
 21
159.634
 31
0.0
  0
LINE
  5
1013
330
1E
100
AcDbEntity
  8
0
100
AcDbLine
 10
409.513
 20
159.017
 30
0.0
 11
410.972
 21
159.017
 31
0.0
  0
LINE
  5
1014
330
1E
100
AcDbEntity
  8
0
100
AcDbLine
 10
409.513
 20
159.017
 30
0.0
 11
409.513
 21
159.671728377714
 31
0.0
  0
LINE
  5
1015
330
1E
100
AcDbEntity
  8
0
100
AcDbLine
 10
399.212
 20
163.263
 30
0.0
 11
399.212
 21
162.646
 31
0.0
  0
LINE
  5
1016
330
1E
100
AcDbEntity
  8
0
100
AcDbLine
 10
399.212
 20
163.263
 30
0.0
 11
400.672
 21
163.263
 31
0.0
  0
LINE
  5
1017
330
1E
100
AcDbEntity
  8
0
100
AcDbLine
 10
399.212
 20
163.220736842105
 30
0.0
 11
399.212
 21
162.646
 31
0.0
  0
LINE
  5
1018
330
1E
100
AcDbEntity
  8
0
100
AcDbLine
 10
399.212
 20
162.646
 30
0.0
 11
400.672
 21
162.646
 31
0.0
  0
LINE
  5
1019
330
1E
100
AcDbEntity
  8
0
100
AcDbLine
 10
399.212
 20
162.646
 30
0.0
 11
399.212
 21
163.220736842105
 31
0.0
  0
LINE
  5
101A
330
1E
100
AcDbEntity
  8
0
100
AcDbLine
 10
399.212
 20
162.646
 30
0.0
 11
399.212
 21
163.263
 31
0.0
  0
LINE
  5
101B
330
1E
100
AcDbEntity
  8
0
100
AcDbLine
 10
400.672
 20
163.451263157895
 30
0.0
 11
400.672
 21
163.263
 31
0.0
  0
LINE
  5
101C
330
1E
100
AcDbEntity
  8
0
100
AcDbLine
 10
400.672
 20
163.263
 30
0.0
 11
400.672
 21
163.451263157895
 31
0.0
  0
LINE
  5
101D
330
1E
100
AcDbEntity
  8
0
100
AcDbLine
 10
400.672
 20
163.263
 30
0.0
 11
400.672
 21
162.646
 31
0.0
  0
LINE
  5
101E
330
1E
100
AcDbEntity
  8
0
100
AcDbLine
 10
400.672
 20
162.646
 30
0.0
 11
400.672
 21
163.263
 31
0.0
  0
LINE
  5
101F
330
1E
100
AcDbEntity
  8
0
100
AcDbLine
 10
408.134
 20
164.629473684211
 30
0.0
 11
408.134
 21
163.784
 31
0.0
  0
LINE
  5
1020
330
1E
100
AcDbEntity
  8
0
100
AcDbLine
 10
408.134
 20
163.784
 30
0.0
 11
408.134
 21
163.167
 31
0.0
  0
LINE
  5
1021
330
1E
100
AcDbEntity
  8
0
100
AcDbLine
 10
408.134
 20
163.784
 30
0.0
 11
409.593
 21
163.784
 31
0.0
  0
LINE
  5
1022
330
1E
100
AcDbEntity
  8
0
100
AcDbLine
 10
408.134
 20
163.784
 30
0.0
 11
408.134
 21
164.629473684211
 31
0.0
  0
LINE
  5
1023
330
1E
100
AcDbEntity
  8
0
100
AcDbLine
 10
408.134
 20
163.167
 30
0.0
 11
409.593
 21
163.167
 31
0.0
  0
LINE
  5
1024
330
1E
100
AcDbEntity
  8
0
100
AcDbLine
 10
408.134
 20
163.167
 30
0.0
 11
408.134
 21
163.784
 31
0.0
  0
LINE
  5
1025
330
1E
100
AcDbEntity
  8
0
100
AcDbLine
 10
409.513
 20
160.418449307946
 30
0.0
 11
409.513
 21
159.634
 31
0.0
  0
LINE
  5
1026
330
1E
100
AcDbEntity
  8
0
100
AcDbLine
 10
409.593
 20
154.865
 30
0.0
 11
409.593
 21
155.482
 31
0.0
  0
LINE
  5
1027
330
1E
100
AcDbEntity
  8
0
100
AcDbLine
 10
409.593
 20
155.482
 30
0.0
 11
409.593
 21
154.865
 31
0.0
  0
LINE
  5
1028
330
1E
100
AcDbEntity
  8
0
100
AcDbLine
 10
409.593
 20
164.859842105263
 30
0.0
 11
409.593
 21
163.784
 31
0.0
  0
LINE
  5
1029
330
1E
100
AcDbEntity
  8
0
100
AcDbLine
 10
409.593
 20
163.784
 30
0.0
 11
409.593
 21
164.859842105263
 31
0.0
  0
LINE
  5
102A
330
1E
100
AcDbEntity
  8
0
100
AcDbLine
 10
409.593
 20
163.784
 30
0.0
 11
409.593
 21
163.167
 31
0.0
  0
LINE
  5
102B
330
1E
100
AcDbEntity
  8
0
100
AcDbLine
 10
409.593
 20
163.167
 30
0.0
 11
409.593
 21
163.784
 31
0.0
  0
LINE
  5
102C
330
1E
100
AcDbEntity
  8
0
100
AcDbLine
 10
409.513
 20
159.634
 30
0.0
 11
410.972
 21
159.634
 31
0.0
  0
LINE
  5
102D
330
1E
100
AcDbEntity
  8
0
100
AcDbLine
 10
409.513
 20
159.634
 30
0.0
 11
409.513
 21
160.418449307946
 31
0.0
  0
LINE
  5
102E
330
1E
100
AcDbEntity
  8
0
100
AcDbLine
 10
409.513
 20
159.634
 30
0.0
 11
409.513
 21
159.017
 31
0.0
  0
LINE
  5
102F
330
1E
100
AcDbEntity
  8
0
100
AcDbLine
 10
408.783
 20
152.643
 30
0.0
 11
410.753
 21
155.418
 31
0.0
  0
LINE
  5
1030
330
1E
100
AcDbEntity
  8
0
100
AcDbLine
 10
410.972
 20
159.017
 30
0.0
 11
410.972
 21
159.634
 31
0.0
  0
LINE
  5
1031
330
1E
100
AcDbEntity
  8
0
100
AcDbLine
 10
410.972
 20
160.324756762453
 30
0.0
 11
410.972
 21
159.634
 31
0.0
  0
LINE
  5
1032
330
1E
100
AcDbEntity
  8
0
100
AcDbLine
 10
410.972
 20
159.634
 30
0.0
 11
410.972
 21
159.017
 31
0.0
  0
LINE
  5
1033
330
1E
100
AcDbEntity
  8
0
100
AcDbLine
 10
410.972
 20
159.634
 30
0.0
 11
410.972
 21
160.324756762453
 31
0.0
  0
LINE
  5
1034
330
1E
100
AcDbEntity
  8
0
100
AcDbLine
 10
410.753
 20
155.418
 30
0.0
 11
411.994
 21
157.608
 31
0.0
  0
LINE
  5
1035
330
1E
100
AcDbEntity
  8
0
100
AcDbLine
 10
410.753
 20
152.273
 30
0.0
 11
411.483
 21
153.055
 31
0.0
  0
LINE
  5
1036
330
1E
100
AcDbEntity
  8
0
100
AcDbLine
 10
410.753
 20
152.273
 30
0.0
 11
412.87
 21
154.987
 31
0.0
  0
LINE
  5
1037
330
1E
100
AcDbEntity
  8
0
100
AcDbLine
 10
411.994
 20
157.608
 30
0.0
 11
412.432
 21
160.231
 31
0.0
  0
LINE
  5
1038
330
1E
100
AcDbEntity
  8
0
100
AcDbLine
 10
411.483
 20
153.055
 30
0.0
 11
413.527
 21
155.677
 31
0.0
  0
LINE
  5
1039
330
1E
100
AcDbEntity
  8
0
100
AcDbLine
 10
410.753
 20
165.043
 30
0.0
 11
411.994
 21
162.853
 31
0.0
  0
LINE
  5
103A
330
1E
100
AcDbEntity
  8
0
100
AcDbLine
 10
412.87
 20
154.987
 30
0.0
 11
414.111
 21
157.547
 31
0.0
  0
LINE
  5
103B
330
1E
100
AcDbEntity
  8
0
100
AcDbLine
 10
414.111
 20
157.547
 30
0.0
 11
414.622
 21
160.231
 31
0.0
  0
LINE
  5
103C
330
1E
100
AcDbEntity
  8
0
100
AcDbLine
 10
413.527
 20
155.677
 30
0.0
 11
414.841
 21
158.423
 31
0.0
  0
LINE
  5
103D
330
1E
100
AcDbEntity
  8
0
100
AcDbLine
 10
411.994
 20
162.853
 30
0.0
 11
412.432
 21
160.231
 31
0.0
  0
LINE
  5
103E
330
1E
100
AcDbEntity
  8
0
100
AcDbLine
 10
412.87
 20
165.475
 30
0.0
 11
414.111
 21
162.915
 31
0.0
  0
LINE
  5
103F
330
1E
100
AcDbEntity
  8
0
100
AcDbLine
 10
414.841
 20
158.423
 30
0.0
 11
415.352
 21
161.138
 31
0.0
  0
LINE
  5
1040
330
1E
100
AcDbEntity
  8
0
100
AcDbLine
 10
414.111
 20
162.915
 30
0.0
 11
414.622
 21
160.231
 31
0.0
  0
LINE
  5
1041
330
1E
100
AcDbEntity
  8
0
100
AcDbLine
 10
396.211
 20
166.728
 30
0.0
 11
396.211
 21
167.345
 31
0.0
  0
LINE
  5
1042
330
1E
100
AcDbEntity
  8
0
100
AcDbLine
 10
396.211
 20
167.345
 30
0.0
 11
396.211
 21
168.583828032493
 31
0.0
  0
LINE
  5
1043
330
1E
100
AcDbEntity
  8
0
100
AcDbLine
 10
396.211
 20
167.345
 30
0.0
 11
396.211
 21
166.728
 31
0.0
  0
LINE
  5
1044
330
1E
100
AcDbEntity
  8
0
100
AcDbLine
 10
396.211
 20
168.583828032493
 30
0.0
 11
396.211
 21
167.345
 31
0.0
  0
LINE
  5
1045
330
1E
100
AcDbEntity
  8
0
100
AcDbLine
 10
404.808
 20
167.868
 30
0.0
 11
404.808
 21
167.251
 31
0.0
  0
LINE
  5
1046
330
1E
100
AcDbEntity
  8
0
100
AcDbLine
 10
404.808
 20
167.868
 30
0.0
 11
406.268
 21
167.868
 31
0.0
  0
LINE
  5
1047
330
1E
100
AcDbEntity
  8
0
100
AcDbLine
 10
406.268
 20
167.868
 30
0.0
 11
406.268
 21
167.251
 31
0.0
  0
LINE
  5
1048
330
1E
100
AcDbEntity
  8
0
100
AcDbLine
 10
404.808
 20
167.415510155398
 30
0.0
 11
404.808
 21
167.251
 31
0.0
  0
LINE
  5
1049
330
1E
100
AcDbEntity
  8
0
100
AcDbLine
 10
404.808
 20
167.251
 30
0.0
 11
406.268
 21
167.251
 31
0.0
  0
LINE
  5
104A
330
1E
100
AcDbEntity
  8
0
100
AcDbLine
 10
404.808
 20
167.251
 30
0.0
 11
404.808
 21
167.415510155398
 31
0.0
  0
LINE
  5
104B
330
1E
100
AcDbEntity
  8
0
100
AcDbLine
 10
404.808
 20
167.251
 30
0.0
 11
404.808
 21
167.868
 31
0.0
  0
LINE
  5
104C
330
1E
100
AcDbEntity
  8
0
100
AcDbLine
 10
406.268
 20
167.251
 30
0.0
 11
406.268
 21
167.868
 31
0.0
  0
LINE
  5
104D
330
1E
100
AcDbEntity
  8
0
100
AcDbLine
 10
406.155
 20
170.133
 30
0.0
 11
408.783
 21
167.82
 31
0.0
  0
LINE
  5
104E
330
1E
100
AcDbEntity
  8
0
100
AcDbLine
 10
408.783
 20
167.82
 30
0.0
 11
410.753
 21
165.043
 31
0.0
  0
LINE
  5
104F
330
1E
100
AcDbEntity
  8
0
100
AcDbLine
 10
400.022
 20
171.299
 30
0.0
 11
400.022
 21
170.682
 31
0.0
  0
LINE
  5
1050
330
1E
100
AcDbEntity
  8
0
100
AcDbLine
 10
400.022
 20
171.299
 30
0.0
 11
401.482
 21
171.299
 31
0.0
  0
LINE
  5
1051
330
1E
100
AcDbEntity
  8
0
100
AcDbLine
 10
400.022
 20
171.299
 30
0.0
 11
400.022
 21
171.736081626767
 31
0.0
  0
LINE
  5
1052
330
1E
100
AcDbEntity
  8
0
100
AcDbLine
 10
400.022
 20
171.260857285429
 30
0.0
 11
400.022
 21
170.682
 31
0.0
  0
LINE
  5
1053
330
1E
100
AcDbEntity
  8
0
100
AcDbLine
 10
400.022
 20
170.682
 30
0.0
 11
401.482
 21
170.682
 31
0.0
  0
LINE
  5
1054
330
1E
100
AcDbEntity
  8
0
100
AcDbLine
 10
400.022
 20
170.682
 30
0.0
 11
400.022
 21
171.260857285429
 31
0.0
  0
LINE
  5
1055
330
1E
100
AcDbEntity
  8
0
100
AcDbLine
 10
400.022
 20
170.682
 30
0.0
 11
400.022
 21
171.299
 31
0.0
  0
LINE
  5
1056
330
1E
100
AcDbEntity
  8
0
100
AcDbLine
 10
401.482
 20
171.299
 30
0.0
 11
401.482
 21
172.062023363138
 31
0.0
  0
LINE
  5
1057
330
1E
100
AcDbEntity
  8
0
100
AcDbLine
 10
401.482
 20
171.299
 30
0.0
 11
401.482
 21
170.682
 31
0.0
  0
LINE
  5
1058
330
1E
100
AcDbEntity
  8
0
100
AcDbLine
 10
401.482
 20
170.682
 30
0.0
 11
401.482
 21
171.299
 31
0.0
  0
LINE
  5
1059
330
1E
100
AcDbEntity
  8
0
100
AcDbLine
 10
408.053
 20
170.596
 30
0.0
 11
410.753
 21
168.19
 31
0.0
  0
LINE
  5
105A
330
1E
100
AcDbEntity
  8
0
100
AcDbLine
 10
410.753
 20
168.19
 30
0.0
 11
412.87
 21
165.475
 31
0.0
  0
LINE
  5
105B
330
1E
100
AcDbEntity
  8
0
100
AcDbLine
 10
401.482
 20
172.062023363138
 30
0.0
 11
401.482
 21
171.299
 31
0.0
  0
LINE
  5
105C
330
1E
100
AcDbEntity
  8
0
100
AcDbLine
 10
400.022
 20
171.736081626767
 30
0.0
 11
400.022
 21
171.299
 31
0.0
  0
LINE
  5
105D
330
1E
100
AcDbEntity
  8
0
100
AcDbLine
 10
398.564
 20
174.266
 30
0.0
 11
402.651
 21
172.323
 31
0.0
  0
LINE
  5
105E
330
1E
100
AcDbEntity
  8
0
100
AcDbLine
 10
402.651
 20
172.323
 30
0.0
 11
406.155
 21
170.133
 31
0.0
  0
LINE
  5
105F
330
1E
100
AcDbEntity
  8
0
100
AcDbLine
 10
400.17
 20
174.945
 30
0.0
 11
404.403
 21
172.879
 31
0.0
  0
LINE
  5
1060
330
1E
100
AcDbEntity
  8
0
100
AcDbLine
 10
404.403
 20
172.879
 30
0.0
 11
408.053
 21
170.596
 31
0.0
  0
LINE
  5
1061
330
1E
100
AcDbEntity
  8
0
100
AcDbLine
 10
400.68
 20
176.068
 30
0.0
 11
404.987
 21
173.97
 31
0.0
  0
LINE
  5
1062
330
1E
100
AcDbEntity
  8
0
100
AcDbLine
 10
404.987
 20
173.97
 30
0.0
 11
408.637
 21
171.657
 31
0.0
  0
LINE
  5
1063
330
1E
100
AcDbEntity
  8
0
100
AcDbLine
 10
408.637
 20
171.657
 30
0.0
 11
411.483
 21
169.22
 31
0.0
  0
LINE
  5
1064
330
1E
100
AcDbEntity
  8
0
100
AcDbLine
 10
411.483
 20
169.22
 30
0.0
 11
413.527
 21
166.597
 31
0.0
  0
LINE
  5
1065
330
1E
100
AcDbEntity
  8
0
100
AcDbLine
 10
413.527
 20
166.597
 30
0.0
 11
414.841
 21
163.852
 31
0.0
  0
LINE
  5
1066
330
1E
100
AcDbEntity
  8
0
100
AcDbLine
 10
414.841
 20
163.852
 30
0.0
 11
415.352
 21
161.138
 31
0.0
  0
LINE
  5
1067
330
1E
100
AcDbEntity
  8
0
100
AcDbLine
 10
408.637
 20
190.688
 30
0.0
 11
411.483
 21
188.252
 31
0.0
  0
LINE
  5
1068
330
1E
100
AcDbEntity
  8
0
100
AcDbLine
 10
410.753
 20
189.035
 30
0.0
 11
411.483
 21
188.252
 31
0.0
  0
LINE
  5
1069
330
1E
100
AcDbEntity
  8
0
100
AcDbLine
 10
411.483
 20
188.252
 30
0.0
 11
413.527
 21
185.63
 31
0.0
  0
LINE
  5
106A
330
1E
100
AcDbEntity
  8
0
100
AcDbLine
 10
413.527
 20
185.63
 30
0.0
 11
414.841
 21
182.885
 31
0.0
  0
LINE
  5
106B
330
1E
100
AcDbEntity
  8
0
100
AcDbLine
 10
415.352
 20
180.17
 30
0.0
 11
415.352
 21
161.138
 31
0.0
  0
LINE
  5
106C
330
1E
100
AcDbEntity
  8
0
100
AcDbLine
 10
415.352
 20
161.138
 30
0.0
 11
415.352
 21
180.17
 31
0.0
  0
LINE
  5
106D
330
1E
100
AcDbEntity
  8
0
100
AcDbLine
 10
414.841
 20
182.885
 30
0.0
 11
415.352
 21
180.17
 31
0.0
  0
LINE
  5
106E
330
1E
100
AcDbEntity
  8
0
100
AcDbLine
 10
400.68
 20
195.1
 30
0.0
 11
404.987
 21
193.003
 31
0.0
  0
LINE
  5
106F
330
1E
100
AcDbEntity
  8
0
100
AcDbLine
 10
400.17
 20
195.791
 30
0.0
 11
404.403
 21
193.724
 31
0.0
  0
LINE
  5
1070
330
1E
100
AcDbEntity
  8
0
100
AcDbLine
 10
404.987
 20
193.003
 30
0.0
 11
408.637
 21
190.688
 31
0.0
  0
LINE
  5
1071
330
1E
100
AcDbEntity
  8
0
100
AcDbLine
 10
404.403
 20
193.724
 30
0.0
 11
408.053
 21
191.441
 31
0.0
  0
LINE
  5
1072
330
1E
100
AcDbEntity
  8
0
100
AcDbLine
 10
408.053
 20
191.441
 30
0.0
 11
410.753
 21
189.035
 31
0.0
  0
LINE
  5
1073
330
1E
100
AcDbEntity
  8
0
100
AcDbLine
 10
395.717
 20
196.921
 30
0.0
 11
400.68
 21
195.1
 31
0.0
  0
LINE
  5
1074
330
1E
100
AcDbEntity
  8
0
100
AcDbLine
 10
390.243
 20
198.463
 30
0.0
 11
395.717
 21
196.921
 31
0.0
  0
LINE
  5
1075
330
1E
100
AcDbEntity
  8
0
100
AcDbLine
 10
395.279
 20
197.58
 30
0.0
 11
400.17
 21
195.791
 31
0.0
  0
LINE
  5
1076
330
1E
100
AcDbEntity
  8
0
100
AcDbLine
 10
389.878
 20
199.123
 30
0.0
 11
395.279
 21
197.58
 31
0.0
  0
LINE
  5
1077
330
1E
100
AcDbEntity
  8
0
100
AcDbLine
 10
378.272
 20
200.53
 30
0.0
 11
384.476
 21
199.666
 31
0.0
  0
LINE
  5
1078
330
1E
100
AcDbEntity
  8
0
100
AcDbLine
 10
384.184
 20
200.264
 30
0.0
 11
389.878
 21
199.123
 31
0.0
  0
LINE
  5
1079
330
1E
100
AcDbEntity
  8
0
100
AcDbLine
 10
377.761
 20
201.158
 30
0.0
 11
384.184
 21
200.264
 31
0.0
  0
LINE
  5
107A
330
1E
100
AcDbEntity
  8
0
100
AcDbLine
 10
371.702
 20
201.683
 30
0.0
 11
377.761
 21
201.158
 31
0.0
  0
LINE
  5
107B
330
1E
100
AcDbEntity
  8
0
100
AcDbLine
 10
365.352
 20
201.898
 30
0.0
 11
371.702
 21
201.683
 31
0.0
  0
LINE
  5
107C
330
1E
100
AcDbEntity
  8
0
100
AcDbLine
 10
381.705186137138
 20
12.288651934747
 30
0.0
 11
381.343351854483
 21
13.740731238196
 31
0.0
  0
LINE
  5
107D
330
1E
100
AcDbEntity
  8
0
100
AcDbLine
 10
400.0
 20
-0.17
 30
0.0
 11
330.644
 21
-0.194916
 31
0.0
  0
LINE
  5
107E
330
1E
100
AcDbEntity
  8
0
100
AcDbLine
 10
349.335343998511
 20
45.375978794785
 30
0.0
 11
349.319
 21
60.1495
 31
0.0
  0
LINE
  5
107F
330
1E
100
AcDbEntity
  8
0
100
AcDbLine
 10
354.079
 20
38.0516
 30
0.0
 11
355.477
 21
37.324
 31
0.0
  0
LINE
  5
1080
330
1E
100
AcDbEntity
  8
0
100
AcDbLine
 10
381.326
 20
14.03
 30
0.0
 11
381.313
 21
44.4969
 31
0.0
  0
ENDSEC
  0
SECTION
  2
OBJECTS
  0
DICTIONARY
  5
C
330
0
100
AcDbDictionary
281
     1
  3
ACAD_GROUP
350
D
  3
ACAD_LAYOUT
350
19
  3
ACAD_MLEADERSTYLE
350
1083
  3
ACAD_MLINESTYLE
350
16
  3
ACAD_PLOTSETTINGS
350
18
  3
ACAD_PLOTSTYLENAME
350
E
  3
ACAD_SCALELIST
350
666
  3
AcDbVariableDictionary
350
663
  3
DWGPROPS
350
108C
  0
DICTIONARY
  5
D
102
{ACAD_REACTORS
330
C
102
}
330
C
100
AcDbDictionary
281
     1
  0
DICTIONARY
  5
19
102
{ACAD_REACTORS
330
C
102
}
330
C
100
AcDbDictionary
281
     1
  3
Layout1
350
1D
  3
Model
350
21
  0
DICTIONARY
  5
1083
102
{ACAD_REACTORS
330
C
102
}
330
C
100
AcDbDictionary
281
     1
  0
DICTIONARY
  5
16
102
{ACAD_REACTORS
330
C
102
}
330
C
100
AcDbDictionary
281
     1
  3
Standard
350
17
  0
DICTIONARY
  5
18
102
{ACAD_REACTORS
330
C
102
}
330
C
100
AcDbDictionary
281
     1
  0
ACDBDICTIONARYWDFLT
  5
E
102
{ACAD_REACTORS
330
C
102
}
330
C
100
AcDbDictionary
281
     1
  3
Normal
350
F
100
AcDbDictionaryWithDefault
340
F
  0
DICTIONARY
  5
666
102
{ACAD_REACTORS
330
C
102
}
330
C
100
AcDbDictionary
281
     1
  3
A0
350
667
  3
A1
350
668
  3
A2
350
669
  3
A3
350
66A
  3
A4
350
66B
  3
A5
350
66C
  3
A6
350
66D
  3
A7
350
66E
  3
A8
350
66F
  3
A9
350
670
  3
B0
350
671
  3
B1
350
672
  3
B2
350
673
  3
B3
350
674
  3
B4
350
675
  3
B5
350
676
  3
B6
350
677
  3
B7
350
678
  3
B8
350
679
  3
B9
350
67A
  3
C0
350
67B
  3
C1
350
67C
  3
C2
350
67D
  3
C3
350
67E
  3
C4
350
67F
  3
C5
350
680
  3
C6
350
681
  3
C7
350
682
  3
C8
350
683
  3
C9
350
684
  3
D0
350
685
  3
D1
350
686
  3
D2
350
687
  0
DICTIONARY
  5
663
102
{ACAD_REACTORS
330
C
102
}
330
C
100
AcDbDictionary
281
     1
  3
CANNOSCALE
350
1084
  3
DIMASSOC
350
664
  0
XRECORD
  5
108C
102
{ACAD_REACTORS
330
C
102
}
330
C
100
AcDbXrecord
280
     1
  1
DWGPROPS COOKIE
  2

  3

  4

  6

  7

  8
MARTIN
  9

300
=
301
=
302
=
303
=
304
=
305
=
306
=
307
=
308
=
309
=
 40
0.0
 41
2454745.572999306
 42
2456209.517234155
  1

 90
        0
  0
LAYOUT
  5
1D
102
{ACAD_REACTORS
330
19
102
}
330
19
100
AcDbPlotSettings
  1

  2
hp deskjet 980c series
  4

  6

 40
0.0
 41
0.0
 42
0.0
 43
0.0
 44
0.0
 45
0.0
 46
0.0
 47
0.0
 48
0.0
 49
0.0
140
0.0
141
0.0
142
1.0
143
1.0
 70
   688
 72
     0
 73
     0
 74
     5
  7

 75
    16
147
1.0
148
0.0
149
0.0
100
AcDbLayout
  1
Layout1
 70
     1
 71
     1
 10
0.0
 20
0.0
 11
12.0
 21
9.0
 12
0.0
 22
0.0
 32
0.0
 14
1.000000000000E+20
 24
1.000000000000E+20
 34
1.000000000000E+20
 15
-1.000000000000E+20
 25
-1.000000000000E+20
 35
-1.000000000000E+20
146
0.0
 13
0.0
 23
0.0
 33
0.0
 16
1.0
 26
0.0
 36
0.0
 17
0.0
 27
1.0
 37
0.0
 76
     0
330
1A
  0
LAYOUT
  5
21
102
{ACAD_REACTORS
330
19
102
}
330
19
100
AcDbPlotSettings
  1

  2
hp deskjet 980c series
  4

  6

 40
0.0
 41
0.0
 42
0.0
 43
0.0
 44
0.0
 45
0.0
 46
0.0
 47
0.0
 48
0.0
 49
0.0
140
0.0
141
0.0
142
1.0
143
1.0
 70
  1712
 72
     0
 73
     0
 74
     0
  7

 75
     0
147
1.0
148
0.0
149
0.0
100
AcDbLayout
  1
Model
 70
     1
 71
     0
 10
0.0
 20
0.0
 11
12.0
 21
9.0
 12
0.0
 22
0.0
 32
0.0
 14
0.0
 24
-0.194916
 34
0.0
 15
415.352
 25
201.898
 35
0.0
146
0.0
 13
0.0
 23
0.0
 33
0.0
 16
1.0
 26
0.0
 36
0.0
 17
0.0
 27
1.0
 37
0.0
 76
     0
330
1E
331
665
  0
MLINESTYLE
  5
17
102
{ACAD_REACTORS
330
16
102
}
330
16
100
AcDbMlineStyle
  2
STANDARD
 70
     0
  3

 62
   256
 51
90.0
 52
90.0
 71
     2
 49
0.5
 62
   256
  6
BYLAYER
 49
-0.5
 62
   256
  6
BYLAYER
  0
ACDBPLACEHOLDER
  5
F
102
{ACAD_REACTORS
330
E
102
}
330
E
  0
SCALE
  5
667
102
{ACAD_REACTORS
330
666
102
}
330
666
100
AcDbScale
 70
     0
300
1:1
140
1.0
141
1.0
290
     1
  0
SCALE
  5
668
102
{ACAD_REACTORS
330
666
102
}
330
666
100
AcDbScale
 70
     0
300
1:2
140
1.0
141
2.0
290
     0
  0
SCALE
  5
669
102
{ACAD_REACTORS
330
666
102
}
330
666
100
AcDbScale
 70
     0
300
1:4
140
1.0
141
4.0
290
     0
  0
SCALE
  5
66A
102
{ACAD_REACTORS
330
666
102
}
330
666
100
AcDbScale
 70
     0
300
1:5
140
1.0
141
5.0
290
     0
  0
SCALE
  5
66B
102
{ACAD_REACTORS
330
666
102
}
330
666
100
AcDbScale
 70
     0
300
1:8
140
1.0
141
8.0
290
     0
  0
SCALE
  5
66C
102
{ACAD_REACTORS
330
666
102
}
330
666
100
AcDbScale
 70
     0
300
1:10
140
1.0
141
10.0
290
     0
  0
SCALE
  5
66D
102
{ACAD_REACTORS
330
666
102
}
330
666
100
AcDbScale
 70
     0
300
1:16
140
1.0
141
16.0
290
     0
  0
SCALE
  5
66E
102
{ACAD_REACTORS
330
666
102
}
330
666
100
AcDbScale
 70
     0
300
1:20
140
1.0
141
20.0
290
     0
  0
SCALE
  5
66F
102
{ACAD_REACTORS
330
666
102
}
330
666
100
AcDbScale
 70
     0
300
1:30
140
1.0
141
30.0
290
     0
  0
SCALE
  5
670
102
{ACAD_REACTORS
330
666
102
}
330
666
100
AcDbScale
 70
     0
300
1:40
140
1.0
141
40.0
290
     0
  0
SCALE
  5
671
102
{ACAD_REACTORS
330
666
102
}
330
666
100
AcDbScale
 70
     0
300
1:50
140
1.0
141
50.0
290
     0
  0
SCALE
  5
672
102
{ACAD_REACTORS
330
666
102
}
330
666
100
AcDbScale
 70
     0
300
1:100
140
1.0
141
100.0
290
     0
  0
SCALE
  5
673
102
{ACAD_REACTORS
330
666
102
}
330
666
100
AcDbScale
 70
     0
300
2:1
140
2.0
141
1.0
290
     0
  0
SCALE
  5
674
102
{ACAD_REACTORS
330
666
102
}
330
666
100
AcDbScale
 70
     0
300
4:1
140
4.0
141
1.0
290
     0
  0
SCALE
  5
675
102
{ACAD_REACTORS
330
666
102
}
330
666
100
AcDbScale
 70
     0
300
8:1
140
8.0
141
1.0
290
     0
  0
SCALE
  5
676
102
{ACAD_REACTORS
330
666
102
}
330
666
100
AcDbScale
 70
     0
300
10:1
140
10.0
141
1.0
290
     0
  0
SCALE
  5
677
102
{ACAD_REACTORS
330
666
102
}
330
666
100
AcDbScale
 70
     0
300
100:1
140
100.0
141
1.0
290
     0
  0
SCALE
  5
678
102
{ACAD_REACTORS
330
666
102
}
330
666
100
AcDbScale
 70
     0
300
1/128" = 1'-0"
140
0.0078125
141
12.0
290
     0
  0
SCALE
  5
679
102
{ACAD_REACTORS
330
666
102
}
330
666
100
AcDbScale
 70
     0
300
1/64" = 1'-0"
140
0.015625
141
12.0
290
     0
  0
SCALE
  5
67A
102
{ACAD_REACTORS
330
666
102
}
330
666
100
AcDbScale
 70
     0
300
1/32" = 1'-0"
140
0.03125
141
12.0
290
     0
  0
SCALE
  5
67B
102
{ACAD_REACTORS
330
666
102
}
330
666
100
AcDbScale
 70
     0
300
1/16" = 1'-0"
140
0.0625
141
12.0
290
     0
  0
SCALE
  5
67C
102
{ACAD_REACTORS
330
666
102
}
330
666
100
AcDbScale
 70
     0
300
3/32" = 1'-0"
140
0.09375
141
12.0
290
     0
  0
SCALE
  5
67D
102
{ACAD_REACTORS
330
666
102
}
330
666
100
AcDbScale
 70
     0
300
1/8" = 1'-0"
140
0.125
141
12.0
290
     0
  0
SCALE
  5
67E
102
{ACAD_REACTORS
330
666
102
}
330
666
100
AcDbScale
 70
     0
300
3/16" = 1'-0"
140
0.1875
141
12.0
290
     0
  0
SCALE
  5
67F
102
{ACAD_REACTORS
330
666
102
}
330
666
100
AcDbScale
 70
     0
300
1/4" = 1'-0"
140
0.25
141
12.0
290
     0
  0
SCALE
  5
680
102
{ACAD_REACTORS
330
666
102
}
330
666
100
AcDbScale
 70
     0
300
3/8" = 1'-0"
140
0.375
141
12.0
290
     0
  0
SCALE
  5
681
102
{ACAD_REACTORS
330
666
102
}
330
666
100
AcDbScale
 70
     0
300
1/2" = 1'-0"
140
0.5
141
12.0
290
     0
  0
SCALE
  5
682
102
{ACAD_REACTORS
330
666
102
}
330
666
100
AcDbScale
 70
     0
300
3/4" = 1'-0"
140
0.75
141
12.0
290
     0
  0
SCALE
  5
683
102
{ACAD_REACTORS
330
666
102
}
330
666
100
AcDbScale
 70
     0
300
1" = 1'-0"
140
1.0
141
12.0
290
     0
  0
SCALE
  5
684
102
{ACAD_REACTORS
330
666
102
}
330
666
100
AcDbScale
 70
     0
300
1-1/2" = 1'-0"
140
1.5
141
12.0
290
     0
  0
SCALE
  5
685
102
{ACAD_REACTORS
330
666
102
}
330
666
100
AcDbScale
 70
     0
300
3" = 1'-0"
140
3.0
141
12.0
290
     0
  0
SCALE
  5
686
102
{ACAD_REACTORS
330
666
102
}
330
666
100
AcDbScale
 70
     0
300
6" = 1'-0"
140
6.0
141
12.0
290
     0
  0
SCALE
  5
687
102
{ACAD_REACTORS
330
666
102
}
330
666
100
AcDbScale
 70
     0
300
1'-0" = 1'-0"
140
12.0
141
12.0
290
     0
  0
DICTIONARYVAR
  5
1084
102
{ACAD_REACTORS
330
663
102
}
330
663
100
DictionaryVariables
280
     0
  1
1:1
  0
DICTIONARYVAR
  5
664
102
{ACAD_REACTORS
330
663
102
}
330
663
100
DictionaryVariables
280
     0
  1
1
  0
ENDSEC
  0
SECTION
  2
THUMBNAILIMAGE
 90
    16364
310
28000000B40000005500000001000800000000000000000000000000000000000000000000000000FFFFFF000000FF0000FFFF0000FF0000FFFF0000FF000000FF00FF000000000080808000C0C0C0000000FF007F7FFF000000A5005252A50000007F003F3F7F0000004C0026264C000000260013132600003FFF007F9FFF
310
000029A5005267A500001F7F003F4F7F0000134C00262F4C000009260013172600007FFF007FBFFF000052A500527CA500003F7F003F5F7F0000264C0026394C0000132600131C260000BFFF007FDFFF00007CA5005291A500005F7F003F6F7F0000394C0026424C00001C26001321260000FFFF007FFFFF0000A5A50052A5
310
A500007F7F003F7F7F00004C4C00264C4C00002626001326260000FFBF007FFFDF0000A57C0052A59100007F5F003F7F6F00004C3900264C420000261C001326210000FF7F007FFFBF0000A5520052A57C00007F3F003F7F5F00004C2600264C39000026130013261C0000FF3F007FFF9F0000A5290052A56700007F1F003F
310
7F4F00004C1300264C2F00002609001326170000FF00007FFF7F0000A5000052A55200007F00003F7F3F00004C0000264C260000260000132613003FFF00009FFF7F0029A5000067A552001F7F00004F7F3F00134C00002F4C260009260000172613007FFF0000BFFF7F0052A500007CA552003F7F00005F7F3F00264C0000
310
394C2600132600001C261300BFFF0000DFFF7F007CA5000091A552005F7F00006F7F3F00394C0000424C26001C26000021261300FFFF0000FFFF7F00A5A50000A5A552007F7F00007F7F3F004C4C00004C4C26002626000026261300FFBF0000FFDF7F00A57C0000A59152007F5F00007F6F3F004C3900004C422600261C00
310
0026211300FF7F0000FFBF7F00A5520000A57C52007F3F00007F5F3F004C2600004C39260026130000261C1300FF3F0000FF9F7F00A5290000A56752007F1F00007F4F3F004C1300004C2F26002609000026171300FF000000FF7F7F00A5000000A55252007F0000007F3F3F004C0000004C2626002600000026131300FF00
310
3F00FF7F9F00A5002900A55267007F001F007F3F4F004C0013004C262F002600090026131700FF007F00FF7FBF00A5005200A5527C007F003F007F3F5F004C0026004C2639002600130026131C00FF00BF00FF7FDF00A5007C00A55291007F005F007F3F6F004C0039004C26420026001C0026132100FF00FF00FF7FFF00A5
310
00A500A552A5007F007F007F3F7F004C004C004C264C002600260026132600BF00FF00DF7FFF007C00A5009152A5005F007F006F3F7F0039004C0042264C001C002600211326007F00FF00BF7FFF005200A5007C52A5003F007F005F3F7F0026004C0039264C00130026001C1326003F00FF009F7FFF002900A5006752A500
310
1F007F004F3F7F0013004C002F264C000900260017132600000000002D2D2D005B5B5B0089898900B7B7B700B3B3B30000000000000000000000000000000000000000000000000000000000000000000000000000000000000000000000000000000000000000000000000000000000000000000000000000000000000000
310
00000000000000000000000000000000000000000000000000000000000000000000000000000000000000000000000000000000000000000000000000000000000000000000000000000000000000000000000000000000000000000000000000000000000000000000000000000000000000000000000000000000000000
310
00000000000000000000000000000000000000000000000000000000000000000000000000000000000000000000000000000000000000000000000000000000000000000000000000000000000000000000000000000000000000000000000000000000000000000000000000000000000000000000000000000000000000
310
00000000000000000000000000000000000000000000000000000000000000000000000000000000000000000000000000000000000000000000000000000000000000000000000000000000000000000000000000000000000000000000000000000000000000000000000000000000000000000000000000000000000000
310
00000000000000000000000000000000000000000000000000000000000000000000000000000000000000000000000000000000000000000000000000000000000000000000000000000000000000000000000000000000000007070707070707070707070707070707070707070707070707070707000000000000000000
310
00000000000707070707070707070707070707070707070707070707070707070700000000000000000000000000000007070707070707070707070707070707070707070707070707070707000000000000000000000000000007070707070707070707070707070707070707070707070707070707000000000000000000
310
00000000000000000000000000000000070000000000000000000000000000000000000000000000000000070000000000000000000000000000070000000000000000000000000000000000000000000000000000070000000000000000000000000000000700000000000000000000000000000000000000000000000000
310
00070000000000000000000000000000070000000000000000000000000000000000000000000000000000070000000000000000000000000000000000000000000000000007000000000000000000000000000000000000000000000000000007000000000000000000000000000007000000000000000000000000000000
310
00000000000000000000000700000000000000000000000000000007000000000000000000000000000000000000000000000000000007000000000000000000000000000007000000000000000000000000000000000000000000000000000007000000000000000000000000000000000000000000000000000700000000
310
00000000000000000000000000000000000000000000070000000000000000000000000000070000000000000000000000000000000000000000000000000000070000000000000000000000000000000700000000000000000000000000000000000000000000000000000700000000000000000000000000000707070707
310
07070707070707070707070707070707070707070707070000000000000000000000000000000000000000000000000007070707070707070707070707070707070707070707070707070707000000000000000000000000000000070707070707070707070707070707070707070707070707070707000000000000000000
310
00000000000007070707070707070707070707070707070707070707070707070700000000000000000000000000000000000000000000070000000000000000000000000707000000000000000000000000000000000000000000000000000000000000000000000000000700000000000000000000000000000007000000
310
00000000000000000000000000000000000000000007000000000000000000000000000000000007000000000000000000000000000000000000000000000000070000000000000000000000000000000700000000000000000000000000000000000000000000000000000007000000000000000000000000070000000000
310
00000000000000000000000000000000000000000000000000000000000000000007070707070707070707070707070707070000000000000000000000000000000000000000000000000700000000000000000000000000000000000700000000000000000000000000000000000000000000000007070707070707070707
310
07070707070707000000000000000000000000000000000000000000000000000000070000000000000000000000000700000000000000000000000000000000000000000000000000000000000000000000000000000707070707070707070707070707070707000000000000000000000000000000000000000000000000
310
07000000000000000000000000000000000007000000000000000000000000000000000000000000000000070707070707070707070707070707070700000000000000000000000000000000000000000000000000000007000000000000000000000000070000000000000000000000000000000000000000000000000000
310
00000000000000000000000007000000000000000000000000000000070000000000000000000000000000000000000000000000000700000000000000000000000000000000000700000000000000000000000000000000000000000000000007000000000000000000000000000000070000000000000000000000000000
310
00000000000000000000000000070000000000000000000000000700000000000000000000000000000000000000000000000000000000000000000000000000000700000000000000000000000000000007000000000000000000000000000000000000000000000000070000000000000000000000000000000000070000
310
00000000000000000000000000000000000000000000070000000000000000000000000000000700000000000000000000000000000000000000000000000000000007000000000000000000000000070000000000000000000000000000000000000000000000000000000000000000000000000000070000000000000000
310
00000000000000070000000000000000000000000000000000000000000000000700000000000000000000000000000000000700000000000000000000000000000000000000000000000007000000000000000000000000000000070000000000000000000000000000000000000000000000000000000700000000000000
310
00000000000700000000000000000000000000000000000000000000000000000000000000000000000000000700000000000000000000000000000007000000000000000000000000000000000000000000000000070000000000000000000000000000000000070000000000000000000000000000000000000000000000
310
00070000000000000000000000000000000700000000000000000000000000000000000000000000000000000007000000000000000000000000070000000000000000000000000000000000000000000000000000000000000000000000000000070000000000000000000000000000000700000000000000000000000000
310
00000000000000000000070000000000000000000000000000000000000700000000000000000000000000000000000000000000000007000000000000000000000000000000070000000000000000000000000000000000000000000000000000000700000000000000000000000007000000000000000000000000000000
310
00000000000000000000000000000000000000000000000700000000000000000000000000000007000000000000000000000000000000000000000000000007000000000000000000000000000000000000070000000000000000000000000000000000000000000000000700000000000000000000000000000007000000
310
00000000000000000000000000000000000000000000000007000000070707070707000000070000000000000000000000000000000000000000000000000000000000000000000000000000070000000000000000000000000000000700000000000000000000000000000000000000000000000700000000000000000000
310
00000000000000000700000000000000000000000000000000000000000000000007000000000000000000000000000000070000000000000000000000000000000000000000000000000000000700070707000000000707070007000000000000000000000000000000000000000000000000000000000000000000000000
310
00000700000000000000000000000000000007000000000000000000000000000000000000000000000007000000000000000000000000000000000000070000000000000000000000000000000000000000000000000700000000000000000000000000000007000000000000000000000000000000000000000000000000
310
00000007070700000000000000000707070000000000000000000000000000000000000000000000000000000000000000000000000000070000000000000000000000000000000700000000000000000000000000000000000000000000000700000000000000000000000000000000000007000000000000000000000000
310
00000000000000000000000007000000000000000000000000000000070000000000000000000000000000000000000000000000000000000707000000000000000000000707000000000000000000000000000000000000000000000000000000000000000000000000000007000000000000000000000000000000070000
310
00000000000000000000000000000000000000000007000000000000000000000000000000000000000700000000000000000000000000000000000000000000000700000000000000000000000000000007000000000000000000000000000000000000000000000000000000070000000000000000000000000700000000
310
00000000000000000000000000000000000000000000000000000000000000000000070000000000000000000000000000000700000000000000000000000000000000000000000000000700000000000000000000000000000000000000070000000000000000000000000000000000000000000000070000000000000000
310
00000000000000070000000000000000000000000000000000000000000000000000000700000000000000000000000007000000000000000000000000000000000000000000000000000000000000000000000000000007000000000000000000000000000000070000000000000000000000000000000000000000000000
310
07000000000000000000000000000000000000000700000000000000000000000000000000000000000000000700000000000000000000000000000007000000000000000000000000000000000000000000000000000000070000070707070707070700000700000000000000000000000000000000000000000000000000
310
00000000000000000000000000070000000000000000000000000000000700000000000000000000000000000000000000000000000700000000000000000000000000000000000000070000000000000000000000000000000000000000000000070000000000000000000000000000000700000000000000000000000000
310
00000000000000000000000000000700070700070707070000070007000000000000000000000000000000000000000000000000000000000000000000000000000007070707070707070707070707070707070000000000000000000000000000000000000000000000070000000000000000000000000000000000000007
310
00000000000000000000000000000000000000000000000707070707070707070707070707070707000000000000000000000000000000000000000000000000000000070700070700000000070700070700000000000000000000000000000000000000000000000000000000000000000000000000000707070707070707
310
07070707070707070000000000000000000000000000000000000000000000070000000000000000000000000000000000000000000700000000000000000000000000000000000000000000000707070707070707070707070707070700000000000000000000000000000000000000000000000000000007070707000000
310
00000000070007000000000000000000000000000000000000000000000000000000000000000000000000000000000000000000000000000000000000000000000000000000000000000000000000000000000007000000000000000000000000000000000000000000070000000000000000000000000000000000000000
310
00000000000000000000000000000000000000000000000000000000000000000000000000000000000000000000070707000000000000000007000700000000000000000000000000000000000000000000000000000000000000000000000000000000000000000000000000000000000000000000000000000000000000
310
00000000000000000000070000000000000000000000000000000000000000000700000000000000000000000000000000000000000000000000000000000000000000000000000000000000000000000000000000000000000000000000000000000000070700000000000000000707000000000000000000000000000000
310
00000000000000000000000000000000000000000000000000000000000000000000000000000000000000000000000000000000000000000000000000000007000000000000000000000000000000000000000000070000000000000000000000000000000000000000000000000000000000000000000000000000000000
310
00000000000000000000000000000000000000000000000000000707000000000000000007070000000000000000000000000000000000000000000000000000000000000000000000000000000000000000000000000000000000000000000000000000000000000000000000000000000000000700000000000000000000
310
00000000000000000000000700000000000000000000000000000000000000000000000000000000000000000000000000000000000000000000000000000000000000000000000000000000000000000700000000000000000700000000000000000000000000000000000000000000000000000000000000000000000000
310
00000000000000000000000000000000000000000000000000000000000000000000000000000000000700000000000000000000000000000000000000000000000700000000000000000000000000000000000000000000000000000000000000000000000000000000000000000000000000000000000000000000000000
310
00000000000007000000000000000007000000000000000000000000000000000000000000000000000000000000000000000000000000000000000000000000000000000000000000000000000000000000000000000000000000000000070000000000000000000000000000000000000000000000070000000000000000
310
00000000000000000000000000000000000000000000000000000000000000000000000000000000000000000000000000000000000000000000000700000000000000000700000000000000000000000000000000000000000000000000000000000000000000000000000000000000000000000000000000000000000000
310
00000000000000000000000000000000000000000700000000000000000000000000000000000000000000000700000000000000000000000000000000000000000000000000000000000000000000000000000000000000000000000000000000000000000000000000000000000000070000000000000000070000000000
310
00000000000000000000000000000000000000000000000000000000000000000000000000000000000000000000000000000000000000000000000000000000000000000000000000070000000000000000000000000000000000000000000000070000000000000000000000000000000000000000000000000000000000
310
00000000000000000000000000000000000000000000000000000000000000000000000000000700000000000000000700000000000000000000000000000000000000000000000000000000000000000000000000000000000000000000000000000000000000000000000000000000000000000000000000000000000700
310
00000000000000000000000000000000000000000000000007000000000000000000000000000000000000000000000000000000000000000000000000000000000000000000000000000000000000000000000000000000000000070000000000000000070000000000000000000000000000000000000000000000000000
310
00000000000000000000000000000000000000000000000000000000000000000000000000000000000000000000000000000007000000000000000000000000000000000000000000000000000700000000000000000000000000000000000000000000000000000000000000000000000000000000000000000000000000
310
00000000000000000000000000000000000700000000000000000700000000000000000000000000000000000000000000000000000000000000000000000000000000000000000000000000000000000000000000000000000000000000000000000000000000070000000000000000000000000000000000000000000000
310
00000000070000000000000000000000000000000000000000000000000000000000000000000000000000000000000000000000000000000000000000000000000000000000070000000000000000070000000000000000000000000000000000000000000000000000000000000000000000000000000000000000000000
310
00000000000000000000000000000000000000000000000000000000000700000000000000000000000000000000000000000000000000000007000000000000000000000000000000000000000000000000000000000000000000000000000000000000000000000000000000000000000000000000000000000007000000
310
00000000000700000000000000000000000000000000000000000000000000000000000000000000000000000000000000000000000000000000000000000000000000000000000000000000000000000007000000000000000000000000000000000000000000000000000000000007000000000000000000000000000000
310
00000000000000000000000000000000000000000000000000000000000000000000000000000000000000000000000000070000000000000000070000000000000000000000000000000000000000000000000000000000000000000000000000000000000000000000000000000000000000000000000000000000000000
310
00000000000000070000000000000000000000000000000000000000000000000000000000070000000000000000000000000000000000000000000000000000000000000000000000000000000000000000000000000000000000000000000000000000000007000000000000000007000000000000000000000000000000
310
00000000000000000000000000000000000000000000000000000000000000000000000000000000000000000000000000000000000000000000000700000000000000000000000000000000000000000000000000000000000000070000000000000000000000000000000000000000000000000000000000000000000000
310
00000000000000000000000000000000000000000000000000000000070000000000000000070000000000000000000000000000000000000000000000000000000000000000000000000000000000000000000000000000000000000000000000000000000000000000000000000000070000000000000000000000000000
310
00000000000000000000000000000000000700000000000000000000000000000000000000000000000000000000000000000000000000000000000000000000000000000000000000000000000000000007000000000000000007000000000000000000000000000000000000000000000000000000000000000000000000
310
00000000000000000000000000000000000000000000000000000000000000000007070707070707070707070707070707070707070707070707070707070707070707070707070707070707000000000000000000000000000000000000000000000000000000000000000000000000000000000000000000000000000000
310
00000000000000070000000000000000070000000000000000000000000000000000000000000000000000000000000000000000000000000000000000000000000000000007070707070707070707070707070707070707070707070707070707070707070707070707070707070707070707070707070707070707070707
310
07070707070707070707070707070707070707000000000000000000000000000000000000000000000000000000000000000000000000000000000007000000000000000007000000000000000000000000000000000000000000000000000000000000000000000000000000000000000000000000000000070707070707
310
07070707070707070707070707070707070707070707070707070707070707070707070707070707070707070707070707070707070707070707070707070707070707070707070700000000000000000000000000000000000000000000000000000000000000000000000000000000000700000000000000000700000000
310
00000000000000000000000000000000000000000000000000000000000000000000000000000000000000000000000700000000000000000000000000000000000000000000000000000000000000000000000000000000000000000000000000000000000000000000000000000000000000000000000000000000070000
310
00000000000000000000000000000000000000000000000000000000000000000000000000000007000000000000000007000000000000000000000000000000000000000000000000000000000000000000000000000000000000000000000000000000070000000000000000000000000000000000000000000000000000
310
00000000000000000000000000000000000000000000000000000000000000000000000000000000000000000000000000000700000000000000000000000000000000000000000000000000000000000000000000000000000000000700000000000000000700000000000000000000000000000000000000000000000000
310
00000000000000000000000000000000000000000000000000000700000000000000000000000000000000000000000000000000000000000000000000000000000000000000000000000000000000000000000000000000000000000000000000000000000000070000000000000000000000000000000000000000000000
310
00000000000000000000000000000000000007000000000000000007000000000000000000000000000000000000000000000000000000000000000000000000000000000000000000000000000000070707070707070707070707070707070707070707070707070707070707070707070707070707070707070707070707
310
07070707070707070707070707070707070707070707070707070707070700000000000000000000000000000000000000000000000000000000000000000000000000000000000700000000000000000700000000000000000000000000000000000000000000000000000000000000000000000000000000000000000000
310
00000000000000000000000000000000000000000000000000000000000000000000000000000000000000000000000000000000000000000000000000000000000000000000000000000000000000000000000000000000000000000000000000000000000000000000000000000000000000000000000000000000070000
310
07070707000007000000000000000000000000000000000000000000000000000000000000000000000000000000000000000000000000000000000000000000000000000000000000000000000000000000000000000000000000000000000000000000000000000000000000000000000000000000000000000000000000
310
00000000000000000000000000000000000000000000000000000000000000000000000000000000000000000000000000000700070000000007000700000000000000000000000000000000000000000000000000000000000000000000000000000000000000000000000000000000000000000000000000000000000000
310
00000000000000000000000000000000000000000000000000000000000000000000000000000000000000000000000000000000000000000000000000000000000000000000000000000000000000000000000000000000000000000000000000000000000000070700070707070007070000000000000000000000000000
310
00000000000000000000000000000000000000000000000000000000000000000000000000000000000000000000000000000000000000000000000000000000000000000000000000000000000000000000000000000000000000000000000000000000000000000000000000000000000000000000000000000000000000
310
00000000000000000000000000000000000000000000000000000000000707070000000007000700000000000000000000000000000000000000000000000000000000000000000000000000000000000000000000000000000000000000000000000000000000000000000000000000000000000000000000000000000000
310
00000000000000000000000000000000000000000000000000000000000000000000000000000000000000000000000000000000000000000000000000000000000000000000000000000000000000000000070700000000000007070000000000000000000000000000000000000000000000000000000000000000000000
310
00000000000000000000000000000000000000000000000000000000000000000000000000000000000000000000000000000000000000000000000000000000000000000000000000000000000000000000000000000000000000000000000000000000000000000000000000000000000000000000000000000000000000
310
00000000000000000707000000000000070700000000000000000000000000000000000000000000000000000000000000000000000000000000000000000000000000000000000000000000000000000000000000000000000000000000000000000000000000000000000000000000000000000000000000000000000000
310
00000000000000000000000000000000000000000000000000000000000000000000000000000000000000000000000000000000000000000000000000070700000707000007070000000000000000000000000000000000000000000000000000000000000000000000000000000000000000000000000000000000000000
310
00000000000000000000000000000000000000000000000000000000000000000000000000000000000000000000000000000000000000000000000000000000000000000000000000000000000000000000000000000000000000000000000000000000000000000000000000000000000000070707070707070707000000
310
00000000000000000000000000000000000000000000000000000000000000000000000000000000000000000000000000000000000000000000000000000000000000000000000000000000000000000000000000000000000000000000000000000000000000000000000000000000000000000000000000000000000000
310
00000000000000000000000000000000000000000000000000000000000000000000000707070707070707070707070707070707070707000000000000000000000000000000000000000000000000000000000000000000000000000000000000000000000000000000000000000000000000000000000000000000000000
310
00000000000000000000000000000000000000000000000000000000000000000000000000000000000000000000000000000000000000000000000000000000000000000000000000000000000000000000000000000707070707070707070000070700000700000000070707070000000000000000000000000000000000
310
00000000000000000000000000000000000000000000000000000000000000000000000000000000000000000000000000000000000000000000000000000000000000000000000000000000000000000000000000000000000000000000000000000000000000000000000000000000000000000000000000000000000000
310
00000000000000000007070707070700070700000707000000070007000007070007070707070707000000000000000000000000000000000000000000000000000000000000000000000000000000000000000000000000000000000000000000000000000000000000000000000000000000000000000000000000000000
310
00000000000000000000000000000000000000000000000000000000000000000000000000000000000000000000000000000000000000000000000007070707000000070000000707000707070000070007070000000700000007070007000000000000000000000000000000000000000000000000000000000000000000
310
00000000000000000000000000000000000000000000000000000000000000000000000000000000000000000000000000000000000000000000000000000000000000000000000000000000000000000000000000000000000000000000000000000000000000000000000000000000070707000000070000000700000007
310
00000707000007070000070700000700000007070700000000000000000000000000000000000000000000000000000000000000000000000000000000000000000000000000000000000000000000000000000000000000000000000000000000000000000000000000000000000000000000000000000000000000000000
310
00000000000000000000000000000000000000000000000000000000000000000000000000070707000007070000070000070707070700070700070707070700000707000007000007070700000000000000000000000000000000000000000000000000000000000000000000000000000000000000000000000000000000
310
00000000000000000000000000000000000000000000000000000000000000000000000000000000000000000000000000000000000000000000000000000000000000000000000000000000000000000000000000000000000007070000000707000007000707000707070700000707070700070700070700000700000000
310
07000000000000000000000000000000000000000000000000000000000000000000000000000000000000000000000000000000000000000000000000000000000000000000000000000000000000000000000000000000000000000000000000000000000000000000000000000000000000000000000000000000000000
310
00000000000000000000000000000000070707000707000007000007070000000707070707070000000707000007000007070000070007000000000000000000000000000000000000000000000000000000000000000000000000000000000000000000000000000000000000000000000000000000000000000000000000
310
00000000000000000000000000000000000000000000000000000000000000000000000000000000000000000000000000000000000000000000000000000000000000000707070700000707000007000007070000000007070700000007070000070700000700000707070700000000000000000000000000000000000000
310
00000000000000000000000000000000000000000000000000000000000000000000000000000000000000000000000000000000000000000000000000000000000000000000000000000000000000000000000000000000000000000000000000000000000000000000000000000000000000000000000000070707070000
310
07000000070007000000070000070700000707000007070707000007000007070707000000000000000000000000000000000000000000000000000000000000000000000000000000000000000000000000000000000000000000000000000000000000000000000000000000000000000000000000000000000000000000
310
00000000000000000000000000000000000000000000000000000000000000000000000000000000000000000000000707070707000000070000000700070707000007000000070707000707000007000000070707070700000000000000000000000000000000000000000000000000000000000000000000000000000000
310
00000000000000000000000000000000000000000000000000000000000000000000000000000000000000000000000000000000000000000000000000000000000000000000000000000000000000000000000000000000000000000000000000000000070007070700070007000700000007070007070000070700070700
310
00000700070007000707070007000000000000000000000000000000000000000000000000000000000000000000000000000000000000000000000000000000000000000000000000000000000000000000000000000000000000000000000000000000000000000000000000000000000000000000000000000000000000
310
00000000000000000000000000000000000000000000000000000700000707070700070700000707000707000007000000070000070700000707000707070700000700000000000000000000000000000000000000000000000000000000000000000000000000000000000000000000000000000000000000000000000000
310
00000000000000000000000000000000000000000000000000000000000000000000000000000000000000000000000000000000000000000000000000000000000000000000000000000000000000070000000707070707070007000000070700000700000007000000000707070707070707000000070000000000000000
310
00000000000000000000000000000000000000000000000000000000000000000000000000000000000000000000000000000000000000000000000000000000000000000000000000000000000000000000000000000000000000000000000000000000000000000000000000000000000000000000000000000000000000
310
00000000000700000000000007070707070707070000070700070700000707070707070707070000000000000700000000000000000000000000000000000000000000000000000000000000000000000000000000000000000000000000000000000000000000000000000000000000000000000000000000000000000000
310
00000000000000000000000000000000000000000000000000000000000000000000000000000000000000000000000000000000000000000000070000000000000000070707070707070707070707070707070707070707070000000000000000070000000000000000000000000000000000000000000000000000000000
310
00000000000000000000000000000000000000000000000000000000000000000000000000000000000000000000000000000000000000000000000000000000000000000000000000000000000000000000000000000000000000000000000000000000000000000000000000000000070000000000000000000000000000
310
07070707070707070000000000000000000000000000000700000000000000000000000000000000000000000000000000000000000000000000000000000000000000000000000000000000000000000000000000000000000000000000000000000000000000000000000000000000000000000000000000000000000000
310
00000000000000000000000000000000000000000000000000000000000000000000000000000700000000000000000000000000000000000000000000000000000000000000000000000007000000000000000000000000000000000000000000000000000000000000000000000000000000000000000000000000000000
310
00000000000000000000000000000000000000000000000000000000000000000000000000000000000000000000000000000000000000000000000000000000000000000000000000000000000000000000000000000000000000000700000000000000000000000000000000000000000000000000000000000000000000
310
07000000000000000000000000000000000000000000000000000000000000000000000000000000000000000000000000000000000000000000000000000000000000000000000000000000000000000000000000000000000000000000000000000000000000000000000000000000000000000000000000000000000000
310
00000000000000000000000000000000000000070000000000000000000000000000000000000000000000000000000000000000070000000000000000000000000000000000000000000000000000000000000000000000000000000000000000000000000000000000000000000000000000000000000000000000000000
310
00000000000000000000000000000000000000000000000000000000000000000000000000000000000000000000000000000000000000000000000000000000000000000000000000070700000000000000000000000000000000000000000000000000000000000700000000000000000000000000000000000000000000
310
00000000000000000000000000000000000000000000000000000000000000000000000000000000000000000000000000000000000000000000000000000000000000000000000000000000000000000000000000000000000000000000000000000000000000000000000000000000000000000000000000000000000000
310
07070707000000000000000000000000000000000000000000000707070700000000000000000000000000000000000000000000000000000000000000000000000000000000000000000000000000000000000000000000000000000000000000000000000000000000000000000000000000000000000000000000000000
310
00000000000000000000000000000000000000000000000000000000000000000000000000000000000000000000000000000000000000070707070707070000000000000000000000000007070707070700000000000000000000000000000000000000000000000000000000000000000000000000000000000000000000
310
00000000000000000000000000000000000000000000000000000000000000000000000000000000000000000000000000000000000000000000000000000000000000000000000000000000000000000000000000000000000000000000000000000000000000000000000000000000070707070707070707070707070707
310
07070700000000000000000000000000000000000000000000000000000000000000000000000000000000000000000000000000000000000000000000000000000000000000000000000000000000000000000000000000000000000000000000000000000000000000000000000000000000000000000000000000000000
310
00000000000000000000000000000000000000000000000000000000000000000000000000000000000000000000000000000000000000000000000000000000000000000000000000000000000000000000000000000000000000000000000000000000000000000000000000000000000000000000000000000000000000
310
00000000000000000000000000000000000000000000000000000000000000000000000000000000000000000000000000000000000000000000000000000000000000000000000000000000000000000000000000000000000000000000000000000000000000000000000000000000000000000000000000000000000000
310
00000000000000000000000000000000000000000000000000000000000000000000000000000000000000000000000000000000000000000000000000000000000000000000000000000000000000000000000000000000000000000000000000000000000000000000000000000000000000000000000000000000000000
310
00000000000000000000000000000000000000000000000000000000000000000000000000000000000000000000000000000000000000000000000000000000000000000000000000000000000000000000000000000000000000000000000000000000000000000000000000000000000000000000000000000000000000
310
000000000000000000000000000000000000000000000000000000000000000000000000000000000000000000000000000000000000000000000000000000000000000000000000000000000000000000000000000000000000000000000000000000000000000000000000
  0
ENDSEC
  0
EOF
