  0
SECTION
  2
HEADER
  9
$ACADVER
  1
AC1015
  9
$ACADMAINTVER
 70
     6
  9
$DWGCODEPAGE
  3
ANSI_1252
  9
$INSBASE
 10
0.0
 20
0.0
 30
0.0
  9
$EXTMIN
 10
0.0
 20
0.0
 30
0.0
  9
$EXTMAX
 10
121.0
 20
121.0
 30
0.0
  9
$LIMMIN
 10
0.0
 20
0.0
  9
$LIMMAX
 10
12.0
 20
9.0
  9
$ORTHOMODE
 70
     0
  9
$REGENMODE
 70
     1
  9
$FILLMODE
 70
     1
  9
$QTEXTMODE
 70
     0
  9
$MIRRTEXT
 70
     1
  9
$LTSCALE
 40
1.0
  9
$ATTMODE
 70
     1
  9
$TEXTSIZE
 40
0.2
  9
$TRACEWID
 40
0.05
  9
$TEXTSTYLE
  7
Standard
  9
$CLAYER
  8
0
  9
$CELTYPE
  6
ByBlock
  9
$CECOLOR
 62
   256
  9
$CELTSCALE
 40
1.0
  9
$DISPSILH
 70
     0
  9
$DIMSCALE
 40
1.0
  9
$DIMASZ
 40
0.18
  9
$DIMEXO
 40
0.0625
  9
$DIMDLI
 40
0.38
  9
$DIMRND
 40
0.0
  9
$DIMDLE
 40
0.0
  9
$DIMEXE
 40
0.18
  9
$DIMTP
 40
0.0
  9
$DIMTM
 40
0.0
  9
$DIMTXT
 40
0.18
  9
$DIMCEN
 40
0.09
  9
$DIMTSZ
 40
0.0
  9
$DIMTOL
 70
     0
  9
$DIMLIM
 70
     0
  9
$DIMTIH
 70
     1
  9
$DIMTOH
 70
     1
  9
$DIMSE1
 70
     0
  9
$DIMSE2
 70
     0
  9
$DIMTAD
 70
     0
  9
$DIMZIN
 70
     0
  9
$DIMBLK
  1

  9
$DIMASO
 70
     1
  9
$DIMSHO
 70
     1
  9
$DIMPOST
  1

  9
$DIMAPOST
  1

  9
$DIMALT
 70
     0
  9
$DIMALTD
 70
     2
  9
$DIMALTF
 40
25.4
  9
$DIMLFAC
 40
1.0
  9
$DIMTOFL
 70
     0
  9
$DIMTVP
 40
0.0
  9
$DIMTIX
 70
     0
  9
$DIMSOXD
 70
     0
  9
$DIMSAH
 70
     0
  9
$DIMBLK1
  1

  9
$DIMBLK2
  1

  9
$DIMSTYLE
  2
Standard
  9
$DIMCLRD
 70
     0
  9
$DIMCLRE
 70
     0
  9
$DIMCLRT
 70
     0
  9
$DIMTFAC
 40
1.0
  9
$DIMGAP
 40
0.09
  9
$DIMJUST
 70
     0
  9
$DIMSD1
 70
     0
  9
$DIMSD2
 70
     0
  9
$DIMTOLJ
 70
     1
  9
$DIMTZIN
 70
     0
  9
$DIMALTZ
 70
     0
  9
$DIMALTTZ
 70
     0
  9
$DIMUPT
 70
     0
  9
$DIMDEC
 70
     4
  9
$DIMTDEC
 70
     4
  9
$DIMALTU
 70
     2
  9
$DIMALTTD
 70
     2
  9
$DIMTXSTY
  7
Standard
  9
$DIMAUNIT
 70
     0
  9
$DIMADEC
 70
     0
  9
$DIMALTRND
 40
0.0
  9
$DIMAZIN
 70
     0
  9
$DIMDSEP
 70
    46
  9
$DIMATFIT
 70
     3
  9
$DIMFRAC
 70
     0
  9
$DIMLDRBLK
  1

  9
$DIMLUNIT
 70
     2
  9
$DIMLWD
 70
    -2
  9
$DIMLWE
 70
    -2
  9
$DIMTMOVE
 70
     2
  9
$LUNITS
 70
     2
  9
$LUPREC
 70
     4
  9
$SKETCHINC
 40
0.1
  9
$FILLETRAD
 40
0.5
  9
$AUNITS
 70
     0
  9
$AUPREC
 70
     0
  9
$MENU
  1
.
  9
$ELEVATION
 40
0.0
  9
$PELEVATION
 40
0.0
  9
$THICKNESS
 40
0.0
  9
$LIMCHECK
 70
     0
  9
$CHAMFERA
 40
0.5
  9
$CHAMFERB
 40
0.5
  9
$CHAMFERC
 40
1.0
  9
$CHAMFERD
 40
0.0
  9
$SKPOLY
 70
     0
  9
$TDCREATE
 40
2456184.578004988
  9
$TDUCREATE
 40
2456184.494671655
  9
$TDUPDATE
 40
2456184.617324468
  9
$TDUUPDATE
 40
2456184.533991134
  9
$TDINDWG
 40
0.0393193056
  9
$TDUSRTIMER
 40
0.0393193056
  9
$USRTIMER
 70
     1
  9
$ANGBASE
 50
0.0
  9
$ANGDIR
 70
     0
  9
$PDMODE
 70
     0
  9
$PDSIZE
 40
0.0
  9
$PLINEWID
 40
0.0
  9
$SPLFRAME
 70
     0
  9
$SPLINETYPE
 70
     6
  9
$SPLINESEGS
 70
     8
  9
$HANDSEED
  5
7B9
  9
$SURFTAB1
 70
     6
  9
$SURFTAB2
 70
     6
  9
$SURFTYPE
 70
     6
  9
$SURFU
 70
     6
  9
$SURFV
 70
     6
  9
$UCSBASE
  2

  9
$UCSNAME
  2

  9
$UCSORG
 10
0.0
 20
0.0
 30
0.0
  9
$UCSXDIR
 10
1.0
 20
0.0
 30
0.0
  9
$UCSYDIR
 10
0.0
 20
1.0
 30
0.0
  9
$UCSORTHOREF
  2

  9
$UCSORTHOVIEW
 70
     0
  9
$UCSORGTOP
 10
0.0
 20
0.0
 30
0.0
  9
$UCSORGBOTTOM
 10
0.0
 20
0.0
 30
0.0
  9
$UCSORGLEFT
 10
0.0
 20
0.0
 30
0.0
  9
$UCSORGRIGHT
 10
0.0
 20
0.0
 30
0.0
  9
$UCSORGFRONT
 10
0.0
 20
0.0
 30
0.0
  9
$UCSORGBACK
 10
0.0
 20
0.0
 30
0.0
  9
$PUCSBASE
  2

  9
$PUCSNAME
  2

  9
$PUCSORG
 10
0.0
 20
0.0
 30
0.0
  9
$PUCSXDIR
 10
1.0
 20
0.0
 30
0.0
  9
$PUCSYDIR
 10
0.0
 20
1.0
 30
0.0
  9
$PUCSORTHOREF
  2

  9
$PUCSORTHOVIEW
 70
     0
  9
$PUCSORGTOP
 10
0.0
 20
0.0
 30
0.0
  9
$PUCSORGBOTTOM
 10
0.0
 20
0.0
 30
0.0
  9
$PUCSORGLEFT
 10
0.0
 20
0.0
 30
0.0
  9
$PUCSORGRIGHT
 10
0.0
 20
0.0
 30
0.0
  9
$PUCSORGFRONT
 10
0.0
 20
0.0
 30
0.0
  9
$PUCSORGBACK
 10
0.0
 20
0.0
 30
0.0
  9
$USERI1
 70
     0
  9
$USERI2
 70
     0
  9
$USERI3
 70
     0
  9
$USERI4
 70
     0
  9
$USERI5
 70
     0
  9
$USERR1
 40
0.0
  9
$USERR2
 40
0.0
  9
$USERR3
 40
0.0
  9
$USERR4
 40
0.0
  9
$USERR5
 40
0.0
  9
$WORLDVIEW
 70
     1
  9
$SHADEDGE
 70
     3
  9
$SHADEDIF
 70
    70
  9
$TILEMODE
 70
     1
  9
$MAXACTVP
 70
    64
  9
$PINSBASE
 10
0.0
 20
0.0
 30
0.0
  9
$PLIMCHECK
 70
     0
  9
$PEXTMIN
 10
1.000000000000E+20
 20
1.000000000000E+20
 30
1.000000000000E+20
  9
$PEXTMAX
 10
-1.000000000000E+20
 20
-1.000000000000E+20
 30
-1.000000000000E+20
  9
$PLIMMIN
 10
0.0
 20
0.0
  9
$PLIMMAX
 10
12.0
 20
9.0
  9
$UNITMODE
 70
     0
  9
$VISRETAIN
 70
     1
  9
$PLINEGEN
 70
     0
  9
$PSLTSCALE
 70
     1
  9
$TREEDEPTH
 70
  3020
  9
$CMLSTYLE
  2
Standard
  9
$CMLJUST
 70
     0
  9
$CMLSCALE
 40
1.0
  9
$PROXYGRAPHICS
 70
     1
  9
$MEASUREMENT
 70
     0
  9
$CELWEIGHT
370
    -1
  9
$ENDCAPS
280
     0
  9
$JOINSTYLE
280
     0
  9
$LWDISPLAY
290
     0
  9
$INSUNITS
 70
     0
  9
$HYPERLINKBASE
  1

  9
$STYLESHEET
  1

  9
$XEDIT
290
     1
  9
$CEPSNTYPE
380
     0
  9
$PSTYLEMODE
290
     1
  9
$FINGERPRINTGUID
  2
{4756929A-5A2C-43BF-A0F5-D23BABD89761}
  9
$VERSIONGUID
  2
{FAEB1C32-E019-11D5-929B-00C0DF256EC4}
  9
$EXTNAMES
290
     1
  9
$PSVPSCALE
 40
0.0
  9
$OLESTARTUP
290
     0
  0
ENDSEC
  0
SECTION
  2
CLASSES
  0
CLASS
  1
ACDBDICTIONARYWDFLT
  2
AcDbDictionaryWithDefault
  3
ObjectDBX Classes
 90
        0
280
     0
281
     0
  0
CLASS
  1
SCALE
  2
AcDbScale
  3
ObjectDBX Classes
 90
     1153
280
     0
281
     0
  0
CLASS
  1
DICTIONARYVAR
  2
AcDbDictionaryVar
  3
ObjectDBX Classes
 90
        0
280
     0
281
     0
  0
CLASS
  1
ACDBPLACEHOLDER
  2
AcDbPlaceHolder
  3
ObjectDBX Classes
 90
        0
280
     0
281
     0
  0
CLASS
  1
LAYOUT
  2
AcDbLayout
  3
ObjectDBX Classes
 90
        0
280
     0
281
     0
  0
ENDSEC
  0
SECTION
  2
TABLES
  0
TABLE
  2
VPORT
  5
8
330
0
100
AcDbSymbolTable
 70
     1
  0
VPORT
  5
433
330
8
100
AcDbSymbolTableRecord
100
AcDbViewportTableRecord
  2
*Active
 70
     0
 10
0.0
 20
0.0
 11
1.0
 21
1.0
 12
60.5
 22
60.5
 13
0.0
 23
0.0
 14
0.5
 24
0.5
 15
0.5
 25
0.5
 16
0.0
 26
0.0
 36
1.0
 17
0.0
 27
0.0
 37
0.0
 40
123.42
 41
1.863448275862
 42
50.0
 43
0.0
 44
0.0
 50
0.0
 51
0.0
 71
    16
 72
   100
 73
     1
 74
     3
 75
     0
 76
     0
 77
     0
 78
     0
281
     0
 65
     1
110
0.0
120
0.0
130
0.0
111
1.0
121
0.0
131
0.0
112
0.0
122
1.0
132
0.0
 79
     0
146
0.0
  0
ENDTAB
  0
TABLE
  2
LTYPE
  5
5
330
0
100
AcDbSymbolTable
 70
     1
  0
LTYPE
  5
14
330
5
100
AcDbSymbolTableRecord
100
AcDbLinetypeTableRecord
  2
ByBlock
 70
     0
  3

 72
    65
 73
     0
 40
0.0
  0
LTYPE
  5
15
330
5
100
AcDbSymbolTableRecord
100
AcDbLinetypeTableRecord
  2
ByLayer
 70
     0
  3

 72
    65
 73
     0
 40
0.0
  0
LTYPE
  5
16
330
5
100
AcDbSymbolTableRecord
100
AcDbLinetypeTableRecord
  2
Continuous
 70
     0
  3
Solid line
 72
    65
 73
     0
 40
0.0
  0
ENDTAB
  0
TABLE
  2
LAYER
  5
2
330
0
100
AcDbSymbolTable
 70
     1
  0
LAYER
  5
10
330
2
100
AcDbSymbolTableRecord
100
AcDbLayerTableRecord
  2
0
 70
     0
 62
     7
  6
Continuous
370
    -3
390
F
  0
ENDTAB
  0
TABLE
  2
STYLE
  5
3
330
0
100
AcDbSymbolTable
 70
     1
  0
STYLE
  5
11
330
3
100
AcDbSymbolTableRecord
100
AcDbTextStyleTableRecord
  2
Standard
 70
     0
 40
0.0
 41
1.0
 50
0.0
 71
     0
 42
0.2
  3
txt
  4

  0
ENDTAB
  0
TABLE
  2
VIEW
  5
6
330
0
100
AcDbSymbolTable
 70
     0
  0
ENDTAB
  0
TABLE
  2
UCS
  5
7
330
0
100
AcDbSymbolTable
 70
     0
  0
ENDTAB
  0
TABLE
  2
APPID
  5
9
330
0
100
AcDbSymbolTable
 70
     1
  0
APPID
  5
12
330
9
100
AcDbSymbolTableRecord
100
AcDbRegAppTableRecord
  2
ACAD
 70
     0
  0
ENDTAB
  0
TABLE
  2
DIMSTYLE
  5
A
330
0
100
AcDbSymbolTable
 70
     1
100
AcDbDimStyleTable
  0
DIMSTYLE
105
20
330
A
100
AcDbSymbolTableRecord
100
AcDbDimStyleTableRecord
  2
Standard
 70
     0
340
11
  0
ENDTAB
  0
TABLE
  2
BLOCK_RECORD
  5
1
330
0
100
AcDbSymbolTable
 70
     3
  0
BLOCK_RECORD
  5
1D
330
1
100
AcDbSymbolTableRecord
100
AcDbBlockTableRecord
  2
*Model_Space
340
1E
  0
BLOCK_RECORD
  5
1B
330
1
100
AcDbSymbolTableRecord
100
AcDbBlockTableRecord
  2
*Paper_Space
340
1C
  0
ENDTAB
  0
ENDSEC
  0
SECTION
  2
BLOCKS
  0
BLOCK
  5
436
330
1D
100
AcDbEntity
  8
0
100
AcDbBlockBegin
  2
*Model_Space
 70
     0
 10
0.0
 20
0.0
 30
0.0
  3
*Model_Space
  1
*Model_Space
  0
ENDBLK
  5
437
330
1D
100
AcDbEntity
  8
0
100
AcDbBlockEnd
  0
BLOCK
  5
434
330
1B
100
AcDbEntity
 67
     1
  8
0
100
AcDbBlockBegin
  2
*Paper_Space
 70
     0
 10
0.0
 20
0.0
 30
0.0
  3
*Paper_Space
  1
*Paper_Space
  0
ENDBLK
  5
435
330
1B
100
AcDbEntity
 67
     1
  8
0
100
AcDbBlockEnd
  0
ENDSEC
  0
SECTION
  2
ENTITIES
  0
LINE
  5
21
330
1D
100
AcDbEntity
  8
0
100
AcDbLine
 10
0.999
 20
0.0
 30
0.0
 11
120.001
 21
0.0
 31
0.0
  0
LINE
  5
22
330
1D
100
AcDbEntity
  8
0
100
AcDbLine
 10
0.188
 20
0.415
 30
0.0
 11
0.544
 21
0.11
 31
0.0
  0
LINE
  5
23
330
1D
100
AcDbEntity
  8
0
100
AcDbLine
 10
0.188
 20
0.415
 30
0.0
 11
0.544
 21
0.11
 31
0.0
  0
LINE
  5
25
330
1D
100
AcDbEntity
  8
0
100
AcDbLine
 10
0.544
 20
0.11
 30
0.0
 11
0.999
 21
0.0
 31
0.0
  0
LINE
  5
26
330
1D
100
AcDbEntity
  8
0
100
AcDbLine
 10
0.544
 20
0.11
 30
0.0
 11
0.999
 21
0.0
 31
0.0
  0
LINE
  5
28
330
1D
100
AcDbEntity
  8
0
100
AcDbLine
 10
0.999
 20
0.0
 30
0.0
 11
120.001
 21
0.0
 31
0.0
  0
LINE
  5
2D
330
1D
100
AcDbEntity
  8
0
100
AcDbLine
 10
0.0
 20
0.999
 30
0.0
 11
0.188
 21
0.415
 31
0.0
  0
LINE
  5
2F
330
1D
100
AcDbEntity
  8
0
100
AcDbLine
 10
0.0
 20
0.999
 30
0.0
 11
0.0
 21
120.001
 31
0.0
  0
LINE
  5
30
330
1D
100
AcDbEntity
  8
0
100
AcDbLine
 10
0.0
 20
0.999
 30
0.0
 11
0.188
 21
0.415
 31
0.0
  0
LINE
  5
5A
330
1D
100
AcDbEntity
  8
0
100
AcDbLine
 10
19.608
 20
13.395
 30
0.0
 11
21.6417
 21
13.148
 31
0.0
  0
LINE
  5
AE
330
1D
100
AcDbEntity
  8
0
100
AcDbLine
 10
0.0
 20
120.001
 30
0.0
 11
0.188
 21
120.585
 31
0.0
  0
LINE
  5
AF
330
1D
100
AcDbEntity
  8
0
100
AcDbLine
 10
0.0
 20
120.001
 30
0.0
 11
0.0
 21
0.999
 31
0.0
  0
LINE
  5
B1
330
1D
100
AcDbEntity
  8
0
100
AcDbLine
 10
0.188
 20
120.585
 30
0.0
 11
0.544
 21
120.89
 31
0.0
  0
LINE
  5
B2
330
1D
100
AcDbEntity
  8
0
100
AcDbLine
 10
0.999
 20
121.0
 30
0.0
 11
120.001
 21
121.0
 31
0.0
  0
LINE
  5
B5
330
1D
100
AcDbEntity
  8
0
100
AcDbLine
 10
0.999
 20
121.0
 30
0.0
 11
120.001
 21
121.0
 31
0.0
  0
LINE
  5
B6
330
1D
100
AcDbEntity
  8
0
100
AcDbLine
 10
0.544
 20
120.89
 30
0.0
 11
0.999
 21
121.0
 31
0.0
  0
LINE
  5
1EA
330
1D
100
AcDbEntity
  8
0
100
AcDbLine
 10
120.001
 20
0.0
 30
0.0
 11
120.585
 21
0.188
 31
0.0
  0
LINE
  5
1EB
330
1D
100
AcDbEntity
  8
0
100
AcDbLine
 10
120.585
 20
0.188
 30
0.0
 11
120.89
 21
0.544
 31
0.0
  0
LINE
  5
1EF
330
1D
100
AcDbEntity
  8
0
100
AcDbLine
 10
120.89
 20
0.544
 30
0.0
 11
121.0
 21
0.999
 31
0.0
  0
LINE
  5
1F0
330
1D
100
AcDbEntity
  8
0
100
AcDbLine
 10
120.001
 20
0.0
 30
0.0
 11
120.585
 21
0.188
 31
0.0
  0
LINE
  5
260
330
1D
100
AcDbEntity
  8
0
100
AcDbLine
 10
121.0
 20
0.999
 30
0.0
 11
121.0
 21
120.001
 31
0.0
  0
LINE
  5
342
330
1D
100
AcDbEntity
  8
0
100
AcDbLine
 10
54.8681
 20
99.1059
 30
0.0
 11
56.5531
 21
97.9427
 31
0.0
  0
LINE
  5
344
330
1D
100
AcDbEntity
  8
0
100
AcDbLine
 10
52.0685
 20
106.486
 30
0.0
 11
52.5581
 21
108.475
 31
0.0
  0
LINE
  5
345
330
1D
100
AcDbEntity
  8
0
100
AcDbLine
 10
53.5102
 20
100.638
 30
0.0
 11
54.8673
 21
99.1063
 31
0.0
  0
LINE
  5
346
330
1D
100
AcDbEntity
  8
0
100
AcDbLine
 10
52.5581
 20
102.45
 30
0.0
 11
53.5102
 21
100.638
 31
0.0
  0
LINE
  5
349
330
1D
100
AcDbEntity
  8
0
100
AcDbLine
 10
52.5581
 20
108.475
 30
0.0
 11
53.5102
 21
110.287
 31
0.0
  0
LINE
  5
34C
330
1D
100
AcDbEntity
  8
0
100
AcDbLine
 10
52.0689
 20
106.487
 30
0.0
 11
52.0689
 21
104.439
 31
0.0
  0
LINE
  5
34E
330
1D
100
AcDbEntity
  8
0
100
AcDbLine
 10
52.0689
 20
104.439
 30
0.0
 11
52.559
 21
102.451
 31
0.0
  0
LINE
  5
34F
330
1D
100
AcDbEntity
  8
0
100
AcDbLine
 10
52.0689
 20
104.439
 30
0.0
 11
52.0689
 21
106.487
 31
0.0
  0
LINE
  5
351
330
1D
100
AcDbEntity
  8
0
100
AcDbLine
 10
52.6637
 20
105.551
 30
0.0
 11
52.9461
 21
107.574
 31
0.0
  0
LINE
  5
352
330
1D
100
AcDbEntity
  8
0
100
AcDbLine
 10
52.6637
 20
105.551
 30
0.0
 11
52.9461
 21
103.527
 31
0.0
  0
LINE
  5
353
330
1D
100
AcDbEntity
  8
0
100
AcDbLine
 10
52.9461
 20
103.527
 30
0.0
 11
53.7226
 21
101.622
 31
0.0
  0
LINE
  5
354
330
1D
100
AcDbEntity
  8
0
100
AcDbLine
 10
52.9461
 20
107.574
 30
0.0
 11
53.7226
 21
109.48
 31
0.0
  0
LINE
  5
356
330
1D
100
AcDbEntity
  8
0
100
AcDbLine
 10
53.5102
 20
110.287
 30
0.0
 11
54.8673
 21
111.821
 31
0.0
  0
LINE
  5
357
330
1D
100
AcDbEntity
  8
0
100
AcDbLine
 10
53.7226
 20
101.622
 30
0.0
 11
54.9696
 21
99.9744
 31
0.0
  0
LINE
  5
359
330
1D
100
AcDbEntity
  8
0
100
AcDbLine
 10
53.7226
 20
109.48
 30
0.0
 11
54.9696
 21
111.127
 31
0.0
  0
LINE
  5
35C
330
1D
100
AcDbEntity
  8
0
100
AcDbLine
 10
54.8673
 20
111.821
 30
0.0
 11
56.5538
 21
112.983
 31
0.0
  0
LINE
  5
363
330
1D
100
AcDbEntity
  8
0
100
AcDbLine
 10
52.0685
 20
104.439
 30
0.0
 11
52.5581
 21
102.45
 31
0.0
  0
LINE
  5
364
330
1D
100
AcDbEntity
  8
0
100
AcDbLine
 10
52.0685
 20
104.439
 30
0.0
 11
52.0685
 21
106.486
 31
0.0
  0
LINE
  5
366
330
1D
100
AcDbEntity
  8
0
100
AcDbLine
 10
54.9696
 20
99.9744
 30
0.0
 11
56.6167
 21
98.7274
 31
0.0
  0
LINE
  5
367
330
1D
100
AcDbEntity
  8
0
100
AcDbLine
 10
54.9696
 20
111.127
 30
0.0
 11
56.6167
 21
112.374
 31
0.0
  0
LINE
  5
389
330
1D
100
AcDbEntity
  8
0
100
AcDbLine
 10
58.467
 20
97.2164
 30
0.0
 11
60.5009
 21
96.9698
 31
0.0
  0
LINE
  5
38A
330
1D
100
AcDbEntity
  8
0
100
AcDbLine
 10
56.5531
 20
112.983
 30
0.0
 11
58.4675
 21
113.709
 31
0.0
  0
LINE
  5
38B
330
1D
100
AcDbEntity
  8
0
100
AcDbLine
 10
56.6167
 20
98.7274
 30
0.0
 11
58.5226
 21
97.9509
 31
0.0
  0
LINE
  5
38D
330
1D
100
AcDbEntity
  8
0
100
AcDbLine
 10
56.6167
 20
112.374
 30
0.0
 11
58.5226
 21
113.151
 31
0.0
  0
LINE
  5
390
330
1D
100
AcDbEntity
  8
0
100
AcDbLine
 10
56.5538
 20
97.9436
 30
0.0
 11
58.467
 21
97.2164
 31
0.0
  0
LINE
  5
391
330
1D
100
AcDbEntity
  8
0
100
AcDbLine
 10
58.467
 20
113.709
 30
0.0
 11
60.5009
 21
113.955
 31
0.0
  0
LINE
  5
397
330
1D
100
AcDbEntity
  8
0
100
AcDbLine
 10
58.5226
 20
97.9509
 30
0.0
 11
60.5461
 21
97.6685
 31
0.0
  0
LINE
  5
399
330
1D
100
AcDbEntity
  8
0
100
AcDbLine
 10
58.5226
 20
113.151
 30
0.0
 11
60.5461
 21
113.433
 31
0.0
  0
LINE
  5
39B
330
1D
100
AcDbEntity
  8
0
100
AcDbLine
 10
60.500037584247
 20
96.969904563511
 30
0.0
 11
62.5326
 21
97.2167
 31
0.0
  0
LINE
  5
39C
330
1D
100
AcDbEntity
  8
0
100
AcDbLine
 10
60.5
 20
96.9699
 30
0.0
 11
62.5326
 21
97.2167
 31
0.0
  0
LINE
  5
39D
330
1D
100
AcDbEntity
  8
0
100
AcDbLine
 10
60.5
 20
113.956
 30
0.0
 11
62.5325
 21
113.709
 31
0.0
  0
LINE
  5
3A1
330
1D
100
AcDbEntity
  8
0
100
AcDbLine
 10
60.5461
 20
97.6685
 30
0.0
 11
62.5696
 21
97.9509
 31
0.0
  0
LINE
  5
3A3
330
1D
100
AcDbEntity
  8
0
100
AcDbLine
 10
60.5461
 20
113.433
 30
0.0
 11
62.5696
 21
113.151
 31
0.0
  0
LINE
  5
3A6
330
1D
100
AcDbEntity
  8
0
100
AcDbLine
 10
60.5009
 20
96.9698
 30
0.0
 11
62.533
 21
97.2164
 31
0.0
  0
LINE
  5
3C2
330
1D
100
AcDbEntity
  8
0
100
AcDbLine
 10
62.5326
 20
97.2167
 30
0.0
 11
64.4469
 21
97.9427
 31
0.0
  0
LINE
  5
3C3
330
1D
100
AcDbEntity
  8
0
100
AcDbLine
 10
62.5326
 20
97.2167
 30
0.0
 11
63.067384095667
 21
97.419517350183
 31
0.0
  0
LINE
  5
3C4
330
1D
100
AcDbEntity
  8
0
100
AcDbLine
 10
64.4755
 20
98.7274
 30
0.0
 11
66.1225
 21
99.9744
 31
0.0
  0
LINE
  5
3C5
330
1D
100
AcDbEntity
  8
0
100
AcDbLine
 10
62.5696
 20
97.9509
 30
0.0
 11
64.4755
 21
98.7274
 31
0.0
  0
LINE
  5
3C6
330
1D
100
AcDbEntity
  8
0
100
AcDbLine
 10
64.4462
 20
97.9436
 30
0.0
 11
66.1327
 21
99.1063
 31
0.0
  0
LINE
  5
3C7
330
1D
100
AcDbEntity
  8
0
100
AcDbLine
 10
66.1225
 20
99.9744
 30
0.0
 11
67.3696
 21
101.622
 31
0.0
  0
LINE
  5
3CA
330
1D
100
AcDbEntity
  8
0
100
AcDbLine
 10
66.1327
 20
99.1063
 30
0.0
 11
67.4898
 21
100.638
 31
0.0
  0
LINE
  5
3CC
330
1D
100
AcDbEntity
  8
0
100
AcDbLine
 10
67.4896
 20
100.638
 30
0.0
 11
68.441
 21
102.451
 31
0.0
  0
LINE
  5
3CE
330
1D
100
AcDbEntity
  8
0
100
AcDbLine
 10
62.5696
 20
113.151
 30
0.0
 11
64.4755
 21
112.374
 31
0.0
  0
LINE
  5
3D0
330
1D
100
AcDbEntity
  8
0
100
AcDbLine
 10
64.4462
 20
112.983
 30
0.0
 11
66.1327
 21
111.821
 31
0.0
  0
LINE
  5
3D1
330
1D
100
AcDbEntity
  8
0
100
AcDbLine
 10
62.533
 20
113.709
 30
0.0
 11
64.4462
 21
112.983
 31
0.0
  0
LINE
  5
3D2
330
1D
100
AcDbEntity
  8
0
100
AcDbLine
 10
64.4755
 20
112.374
 30
0.0
 11
66.1225
 21
111.127
 31
0.0
  0
LINE
  5
3D4
330
1D
100
AcDbEntity
  8
0
100
AcDbLine
 10
67.3696
 20
101.622
 30
0.0
 11
68.1461
 21
103.527
 31
0.0
  0
LINE
  5
3D5
330
1D
100
AcDbEntity
  8
0
100
AcDbLine
 10
67.3696
 20
109.48
 30
0.0
 11
68.1461
 21
107.574
 31
0.0
  0
LINE
  5
3D6
330
1D
100
AcDbEntity
  8
0
100
AcDbLine
 10
66.1225
 20
111.127
 30
0.0
 11
67.3696
 21
109.48
 31
0.0
  0
LINE
  5
3D9
330
1D
100
AcDbEntity
  8
0
100
AcDbLine
 10
68.1461
 20
103.527
 30
0.0
 11
68.4284
 21
105.551
 31
0.0
  0
LINE
  5
3DB
330
1D
100
AcDbEntity
  8
0
100
AcDbLine
 10
68.1461
 20
107.574
 30
0.0
 11
68.4284
 21
105.551
 31
0.0
  0
LINE
  5
3DD
330
1D
100
AcDbEntity
  8
0
100
AcDbLine
 10
68.441
 20
102.451
 30
0.0
 11
68.9311
 21
104.439
 31
0.0
  0
LINE
  5
3DE
330
1D
100
AcDbEntity
  8
0
100
AcDbLine
 10
68.4419
 20
108.475
 30
0.0
 11
68.9315
 21
106.486
 31
0.0
  0
LINE
  5
3DF
330
1D
100
AcDbEntity
  8
0
100
AcDbLine
 10
68.4411
 20
108.475
 30
0.0
 11
68.9311
 21
106.487
 31
0.0
  0
LINE
  5
3E1
330
1D
100
AcDbEntity
  8
0
100
AcDbLine
 10
67.4898
 20
110.287
 30
0.0
 11
68.4419
 21
108.475
 31
0.0
  0
LINE
  5
3E4
330
1D
100
AcDbEntity
  8
0
100
AcDbLine
 10
66.1327
 20
111.821
 30
0.0
 11
67.4898
 21
110.287
 31
0.0
  0
LINE
  5
3EC
330
1D
100
AcDbEntity
  8
0
100
AcDbLine
 10
68.9315
 20
106.486
 30
0.0
 11
68.9315
 21
104.439
 31
0.0
  0
LINE
  5
3ED
330
1D
100
AcDbEntity
  8
0
100
AcDbLine
 10
68.9311
 20
106.487
 30
0.0
 11
68.9311
 21
104.439
 31
0.0
  0
LINE
  5
422
330
1D
100
AcDbEntity
  8
0
100
AcDbLine
 10
120.001
 20
121.0
 30
0.0
 11
120.456
 21
120.89
 31
0.0
  0
LINE
  5
426
330
1D
100
AcDbEntity
  8
0
100
AcDbLine
 10
120.456
 20
120.89
 30
0.0
 11
120.812
 21
120.585
 31
0.0
  0
LINE
  5
427
330
1D
100
AcDbEntity
  8
0
100
AcDbLine
 10
121.0
 20
120.001
 30
0.0
 11
121.0
 21
0.999
 31
0.0
  0
LINE
  5
428
330
1D
100
AcDbEntity
  8
0
100
AcDbLine
 10
120.812
 20
120.585
 30
0.0
 11
121.0
 21
120.001
 31
0.0
  0
LINE
  5
591
330
1D
100
AcDbEntity
  8
0
100
AcDbLine
 10
59.0403
 20
32.838997328401
 30
0.0
 11
60.5001
 21
32.799997328401
 31
0.0
  0
LINE
  5
592
330
1D
100
AcDbEntity
  8
0
100
AcDbLine
 10
59.5271
 20
92.730897328401
 30
0.0
 11
60.5002
 21
92.806897328401
 31
0.0
  0
LINE
  5
593
330
1D
100
AcDbEntity
  8
0
100
AcDbLine
 10
59.5271
 20
92.730897328401
 30
0.0
 11
60.5001
 21
92.806897328401
 31
0.0
  0
LINE
  5
594
330
1D
100
AcDbEntity
  8
0
100
AcDbLine
 10
59.9675
 20
93.309897328401
 30
0.0
 11
60.5
 21
93.340897328401
 31
0.0
  0
LINE
  5
595
330
1D
100
AcDbEntity
  8
0
100
AcDbLine
 10
61.9597
 20
32.838997328401
 30
0.0
 11
60.4999
 21
32.799997328401
 31
0.0
  0
LINE
  5
596
330
1D
100
AcDbEntity
  8
0
100
AcDbLine
 10
61.4729
 20
92.730897328401
 30
0.0
 11
60.4998
 21
92.806897328401
 31
0.0
  0
LINE
  5
597
330
1D
100
AcDbEntity
  8
0
100
AcDbLine
 10
61.4729
 20
92.730897328401
 30
0.0
 11
60.4999
 21
92.806897328401
 31
0.0
  0
LINE
  5
598
330
1D
100
AcDbEntity
  8
0
100
AcDbLine
 10
61.0325
 20
93.309897328401
 30
0.0
 11
60.5
 21
93.340897328401
 31
0.0
  0
LINE
  5
599
330
1D
100
AcDbEntity
  8
0
100
AcDbLine
 10
33.1352
 20
60.199797328401
 30
0.0
 11
33.174
 21
61.661397328401
 31
0.0
  0
LINE
  5
59A
330
1D
100
AcDbEntity
  8
0
100
AcDbLine
 10
33.1351
 20
60.199897328401
 30
0.0
 11
33.1707
 21
58.799797328401
 31
0.0
  0
LINE
  5
59B
330
1D
100
AcDbEntity
  8
0
100
AcDbLine
 10
33.1351
 20
60.199897328401
 30
0.0
 11
33.1742
 21
61.661397328401
 31
0.0
  0
LINE
  5
59C
330
1D
100
AcDbEntity
  8
0
100
AcDbLine
 10
33.1351
 20
60.199897328401
 30
0.0
 11
33.1709
 21
58.799897328401
 31
0.0
  0
LINE
  5
59D
330
1D
100
AcDbEntity
  8
0
100
AcDbLine
 10
38.8495
 20
60.182197328401
 30
0.0
 11
38.8917
 21
61.041397328401
 31
0.0
  0
LINE
  5
59E
330
1D
100
AcDbEntity
  8
0
100
AcDbLine
 10
38.8492
 20
60.182197328401
 30
0.0
 11
38.8915
 21
61.041197328401
 31
0.0
  0
LINE
  5
59F
330
1D
100
AcDbEntity
  8
0
100
AcDbLine
 10
38.9446
 20
43.316297328401
 30
0.0
 11
39.8745
 21
42.189597328401
 31
0.0
  0
LINE
  5
5A0
330
1D
100
AcDbEntity
  8
0
100
AcDbLine
 10
39.1524
 20
54.630197328401
 30
0.0
 11
39.7344
 21
51.751597328401
 31
0.0
  0
LINE
  5
5A1
330
1D
100
AcDbEntity
  8
0
100
AcDbLine
 10
34.8196
 20
50.729097328401
 30
0.0
 11
35.3276
 21
49.448197328401
 31
0.0
  0
LINE
  5
5A2
330
1D
100
AcDbEntity
  8
0
100
AcDbLine
 10
34.8196
 20
50.729097328401
 30
0.0
 11
35.3275
 21
49.448197328401
 31
0.0
  0
LINE
  5
5A3
330
1D
100
AcDbEntity
  8
0
100
AcDbLine
 10
36.5329
 20
46.971497328401
 30
0.0
 11
37.2716
 21
45.710597328401
 31
0.0
  0
LINE
  5
5A4
330
1D
100
AcDbEntity
  8
0
100
AcDbLine
 10
37.2715
 20
45.710597328401
 30
0.0
 11
38.0761
 21
44.491097328401
 31
0.0
  0
LINE
  5
5A5
330
1D
100
AcDbEntity
  8
0
100
AcDbLine
 10
36.5328
 20
46.971497328401
 30
0.0
 11
37.2715
 21
45.710597328401
 31
0.0
  0
LINE
  5
5A6
330
1D
100
AcDbEntity
  8
0
100
AcDbLine
 10
35.3275
 20
49.448197328401
 30
0.0
 11
35.8992
 21
48.194497328401
 31
0.0
  0
LINE
  5
5A7
330
1D
100
AcDbEntity
  8
0
100
AcDbLine
 10
35.3276
 20
49.448197328401
 30
0.0
 11
35.8992
 21
48.194497328401
 31
0.0
  0
LINE
  5
5A8
330
1D
100
AcDbEntity
  8
0
100
AcDbLine
 10
35.8992
 20
48.194497328401
 30
0.0
 11
36.5329
 21
46.971497328401
 31
0.0
  0
LINE
  5
5A9
330
1D
100
AcDbEntity
  8
0
100
AcDbLine
 10
35.8992
 20
48.194497328401
 30
0.0
 11
36.5328
 21
46.971497328401
 31
0.0
  0
LINE
  5
5AA
330
1D
100
AcDbEntity
  8
0
100
AcDbLine
 10
38.0761
 20
44.491097328401
 30
0.0
 11
38.9446
 21
43.316297328401
 31
0.0
  0
LINE
  5
5AB
330
1D
100
AcDbEntity
  8
0
100
AcDbLine
 10
37.2716
 20
45.710597328401
 30
0.0
 11
38.0761
 21
44.491097328401
 31
0.0
  0
LINE
  5
5AC
330
1D
100
AcDbEntity
  8
0
100
AcDbLine
 10
34.3767
 20
52.034097328401
 30
0.0
 11
34.8196
 21
50.729097328401
 31
0.0
  0
LINE
  5
5AD
330
1D
100
AcDbEntity
  8
0
100
AcDbLine
 10
34.3766
 20
52.034097328401
 30
0.0
 11
34.8196
 21
50.729097328401
 31
0.0
  0
LINE
  5
5AE
330
1D
100
AcDbEntity
  8
0
100
AcDbLine
 10
33.2754
 20
57.425897328401
 30
0.0
 11
33.4487
 21
56.058497328401
 31
0.0
  0
LINE
  5
5AF
330
1D
100
AcDbEntity
  8
0
100
AcDbLine
 10
33.4487
 20
56.058497328401
 30
0.0
 11
33.6905
 21
54.701897328401
 31
0.0
  0
LINE
  5
5B0
330
1D
100
AcDbEntity
  8
0
100
AcDbLine
 10
33.1707
 20
58.799797328401
 30
0.0
 11
33.2754
 21
57.425897328401
 31
0.0
  0
LINE
  5
5B1
330
1D
100
AcDbEntity
  8
0
100
AcDbLine
 10
33.1709
 20
58.799897328401
 30
0.0
 11
33.2753
 21
57.425897328401
 31
0.0
  0
LINE
  5
5B2
330
1D
100
AcDbEntity
  8
0
100
AcDbLine
 10
33.2753
 20
57.425897328401
 30
0.0
 11
33.4487
 21
56.058497328401
 31
0.0
  0
LINE
  5
5B3
330
1D
100
AcDbEntity
  8
0
100
AcDbLine
 10
33.6905
 20
54.701897328401
 30
0.0
 11
33.9999
 21
53.359397328401
 31
0.0
  0
LINE
  5
5B4
330
1D
100
AcDbEntity
  8
0
100
AcDbLine
 10
33.9999
 20
53.359397328401
 30
0.0
 11
34.3767
 21
52.034097328401
 31
0.0
  0
LINE
  5
5B5
330
1D
100
AcDbEntity
  8
0
100
AcDbLine
 10
33.9999
 20
53.359397328401
 30
0.0
 11
34.3766
 21
52.034097328401
 31
0.0
  0
LINE
  5
5B6
330
1D
100
AcDbEntity
  8
0
100
AcDbLine
 10
38.8495
 20
60.181997328401
 30
0.0
 11
38.8642
 21
57.581997328401
 31
0.0
  0
LINE
  5
5B7
330
1D
100
AcDbEntity
  8
0
100
AcDbLine
 10
38.8642
 20
57.581997328401
 30
0.0
 11
39.1524
 21
54.630197328401
 31
0.0
  0
LINE
  5
5B8
330
1D
100
AcDbEntity
  8
0
100
AcDbLine
 10
43.0045
 20
39.128697328401
 30
0.0
 11
44.1519
 21
38.224097328401
 31
0.0
  0
LINE
  5
5B9
330
1D
100
AcDbEntity
  8
0
100
AcDbLine
 10
48.8667
 20
37.977697328401
 30
0.0
 11
46.762499999999
 21
39.689697328402
 31
0.0
  0
LINE
  5
5BA
330
1D
100
AcDbEntity
  8
0
100
AcDbLine
 10
49.1706
 20
35.256197328401
 30
0.0
 11
50.5149
 21
34.686797328401
 31
0.0
  0
LINE
  5
5BB
330
1D
100
AcDbEntity
  8
0
100
AcDbLine
 10
49.1705
 20
35.256097328401
 30
0.0
 11
50.515
 21
34.686797328401
 31
0.0
  0
LINE
  5
5BC
330
1D
100
AcDbEntity
  8
0
100
AcDbLine
 10
48.8667
 20
37.977697328401
 30
0.0
 11
51.1549
 21
36.564897328401
 31
0.0
  0
LINE
  5
5BD
330
1D
100
AcDbEntity
  8
0
100
AcDbLine
 10
47.8587
 20
35.895997328401
 30
0.0
 11
49.1705
 21
35.256097328401
 31
0.0
  0
LINE
  5
5BE
330
1D
100
AcDbEntity
  8
0
100
AcDbLine
 10
47.8587
 20
35.895997328401
 30
0.0
 11
49.1706
 21
35.256197328401
 31
0.0
  0
LINE
  5
5BF
330
1D
100
AcDbEntity
  8
0
100
AcDbLine
 10
45.3456
 20
37.382497328401
 30
0.0
 11
46.5825
 21
36.605497328401
 31
0.0
  0
LINE
  5
5C0
330
1D
100
AcDbEntity
  8
0
100
AcDbLine
 10
45.3455
 20
37.382497328401
 30
0.0
 11
46.5825
 21
36.605497328401
 31
0.0
  0
LINE
  5
5C1
330
1D
100
AcDbEntity
  8
0
100
AcDbLine
 10
46.5825
 20
36.605497328401
 30
0.0
 11
47.8587
 21
35.895997328401
 31
0.0
  0
LINE
  5
5C2
330
1D
100
AcDbEntity
  8
0
100
AcDbLine
 10
44.1519
 20
38.224097328401
 30
0.0
 11
45.3456
 21
37.382497328401
 31
0.0
  0
LINE
  5
5C3
330
1D
100
AcDbEntity
  8
0
100
AcDbLine
 10
44.1519
 20
38.224097328401
 30
0.0
 11
45.3455
 21
37.382497328401
 31
0.0
  0
LINE
  5
5C4
330
1D
100
AcDbEntity
  8
0
100
AcDbLine
 10
50.5149
 20
34.686797328401
 30
0.0
 11
51.8877
 21
34.190197328401
 31
0.0
  0
LINE
  5
5C5
330
1D
100
AcDbEntity
  8
0
100
AcDbLine
 10
51.8877
 20
34.190197328401
 30
0.0
 11
53.2851
 21
33.767797328401
 31
0.0
  0
LINE
  5
5C6
330
1D
100
AcDbEntity
  8
0
100
AcDbLine
 10
53.2851
 20
33.767797328401
 30
0.0
 11
54.7031
 21
33.420597328401
 31
0.0
  0
LINE
  5
5C7
330
1D
100
AcDbEntity
  8
0
100
AcDbLine
 10
50.515
 20
34.686797328401
 30
0.0
 11
51.8877
 21
34.190197328401
 31
0.0
  0
LINE
  5
5C8
330
1D
100
AcDbEntity
  8
0
100
AcDbLine
 10
53.3422
 20
35.572797328401
 30
0.0
 11
55.6353
 21
34.857097328401
 31
0.0
  0
LINE
  5
5C9
330
1D
100
AcDbEntity
  8
0
100
AcDbLine
 10
51.1546
 20
36.564997328401
 30
0.0
 11
53.3422
 21
35.572797328401
 31
0.0
  0
LINE
  5
5CA
330
1D
100
AcDbEntity
  8
0
100
AcDbLine
 10
54.7031
 20
33.420597328401
 30
0.0
 11
56.138
 21
33.149197328401
 31
0.0
  0
LINE
  5
5CB
330
1D
100
AcDbEntity
  8
0
100
AcDbLine
 10
57.5851
 20
32.955197328401
 30
0.0
 11
59.0403
 21
32.838997328401
 31
0.0
  0
LINE
  5
5CC
330
1D
100
AcDbEntity
  8
0
100
AcDbLine
 10
56.138
 20
33.149197328401
 30
0.0
 11
57.5851
 21
32.955197328401
 31
0.0
  0
LINE
  5
5CD
330
1D
100
AcDbEntity
  8
0
100
AcDbLine
 10
58.0149
 20
34.426197328401
 30
0.0
 11
60.4999
 21
34.280097328401
 31
0.0
  0
LINE
  5
5CE
330
1D
100
AcDbEntity
  8
0
100
AcDbLine
 10
55.6353
 20
34.857097328401
 30
0.0
 11
58.0149
 21
34.426197328401
 31
0.0
  0
LINE
  5
5CF
330
1D
100
AcDbEntity
  8
0
100
AcDbLine
 10
39.8745
 20
42.189597328401
 30
0.0
 11
40.8627
 21
41.114197328401
 31
0.0
  0
LINE
  5
5D0
330
1D
100
AcDbEntity
  8
0
100
AcDbLine
 10
39.8745
 20
42.189597328401
 30
0.0
 11
40.8628
 21
41.114297328401
 31
0.0
  0
LINE
  5
5D1
330
1D
100
AcDbEntity
  8
0
100
AcDbLine
 10
40.8628
 20
41.114297328401
 30
0.0
 11
41.9071
 21
40.092997328401
 31
0.0
  0
LINE
  5
5D2
330
1D
100
AcDbEntity
  8
0
100
AcDbLine
 10
40.8627
 20
41.114197328401
 30
0.0
 11
41.9071
 21
40.092997328401
 31
0.0
  0
LINE
  5
5D3
330
1D
100
AcDbEntity
  8
0
100
AcDbLine
 10
41.9071
 20
40.092997328401
 30
0.0
 11
43.0045
 21
39.128697328401
 31
0.0
  0
LINE
  5
5D4
330
1D
100
AcDbEntity
  8
0
100
AcDbLine
 10
43.2019
 20
43.888597328401
 30
0.0
 11
44.8668
 21
41.670497328401
 31
0.0
  0
LINE
  5
5D5
330
1D
100
AcDbEntity
  8
0
100
AcDbLine
 10
43.2016
 20
43.888797328401
 30
0.0
 11
44.8669
 21
41.670597328401
 31
0.0
  0
LINE
  5
5D6
330
1D
100
AcDbEntity
  8
0
100
AcDbLine
 10
40.6089
 20
48.978497328401
 30
0.0
 11
41.7686
 21
46.346497328401
 31
0.0
  0
LINE
  5
5D7
330
1D
100
AcDbEntity
  8
0
100
AcDbLine
 10
41.7686
 20
46.346497328401
 30
0.0
 11
43.2016
 21
43.888797328401
 31
0.0
  0
LINE
  5
5D8
330
1D
100
AcDbEntity
  8
0
100
AcDbLine
 10
41.7686
 20
46.346497328401
 30
0.0
 11
43.2019
 21
43.888597328401
 31
0.0
  0
LINE
  5
5D9
330
1D
100
AcDbEntity
  8
0
100
AcDbLine
 10
40.6086
 20
48.978897328401
 30
0.0
 11
41.7686
 21
46.346497328401
 31
0.0
  0
LINE
  5
5DA
330
1D
100
AcDbEntity
  8
0
100
AcDbLine
 10
39.7344
 20
51.751597328401
 30
0.0
 11
40.6089
 21
48.978497328401
 31
0.0
  0
LINE
  5
5DB
330
1D
100
AcDbEntity
  8
0
100
AcDbLine
 10
39.7343
 20
51.750997328401
 30
0.0
 11
40.6086
 21
48.978897328401
 31
0.0
  0
LINE
  5
5DC
330
1D
100
AcDbEntity
  8
0
100
AcDbLine
 10
44.8668
 20
41.670497328401
 30
0.0
 11
46.7625
 21
39.689697328401
 31
0.0
  0
LINE
  5
5DD
330
1D
100
AcDbEntity
  8
0
100
AcDbLine
 10
44.8669
 20
41.670597328401
 30
0.0
 11
46.7625
 21
39.689697328401
 31
0.0
  0
LINE
  5
5DE
330
1D
100
AcDbEntity
  8
0
100
AcDbLine
 10
39.1884
 20
63.854997328401
 30
0.0
 11
39.7172
 21
66.651197328401
 31
0.0
  0
LINE
  5
5DF
330
1D
100
AcDbEntity
  8
0
100
AcDbLine
 10
38.5574
 20
76.566897328401
 30
0.0
 11
39.4612
 21
77.715897328401
 31
0.0
  0
LINE
  5
5E0
330
1D
100
AcDbEntity
  8
0
100
AcDbLine
 10
38.5572
 20
76.566897328401
 30
0.0
 11
39.4611
 21
77.714897328401
 31
0.0
  0
LINE
  5
5E1
330
1D
100
AcDbEntity
  8
0
100
AcDbLine
 10
35.0212
 20
70.195697328401
 30
0.0
 11
35.59
 21
71.541497328401
 31
0.0
  0
LINE
  5
5E2
330
1D
100
AcDbEntity
  8
0
100
AcDbLine
 10
35.0214
 20
70.195997328401
 30
0.0
 11
35.59
 21
71.541497328401
 31
0.0
  0
LINE
  5
5E3
330
1D
100
AcDbEntity
  8
0
100
AcDbLine
 10
33.1742
 20
61.661397328401
 30
0.0
 11
33.2905
 21
63.118297328401
 31
0.0
  0
LINE
  5
5E4
330
1D
100
AcDbEntity
  8
0
100
AcDbLine
 10
33.2905
 20
63.118297328401
 30
0.0
 11
33.4846
 21
64.566997328401
 31
0.0
  0
LINE
  5
5E5
330
1D
100
AcDbEntity
  8
0
100
AcDbLine
 10
33.4846
 20
64.566997328401
 30
0.0
 11
33.7555
 21
66.003097328401
 31
0.0
  0
LINE
  5
5E6
330
1D
100
AcDbEntity
  8
0
100
AcDbLine
 10
33.2907
 20
63.118197328401
 30
0.0
 11
33.4848
 21
64.566897328401
 31
0.0
  0
LINE
  5
5E7
330
1D
100
AcDbEntity
  8
0
100
AcDbLine
 10
33.174
 20
61.661397328401
 30
0.0
 11
33.2907
 21
63.118197328401
 31
0.0
  0
LINE
  5
5E8
330
1D
100
AcDbEntity
  8
0
100
AcDbLine
 10
33.7555
 20
66.003097328401
 30
0.0
 11
34.1028
 21
67.422697328401
 31
0.0
  0
LINE
  5
5E9
330
1D
100
AcDbEntity
  8
0
100
AcDbLine
 10
34.1028
 20
67.422697328401
 30
0.0
 11
34.5246
 21
68.821597328401
 31
0.0
  0
LINE
  5
5EA
330
1D
100
AcDbEntity
  8
0
100
AcDbLine
 10
34.1027
 20
67.422797328401
 30
0.0
 11
34.5246
 21
68.821597328401
 31
0.0
  0
LINE
  5
5EB
330
1D
100
AcDbEntity
  8
0
100
AcDbLine
 10
33.7553
 20
66.003197328401
 30
0.0
 11
34.1027
 21
67.422797328401
 31
0.0
  0
LINE
  5
5EC
330
1D
100
AcDbEntity
  8
0
100
AcDbLine
 10
33.4848
 20
64.566897328401
 30
0.0
 11
33.7553
 21
66.003197328401
 31
0.0
  0
LINE
  5
5ED
330
1D
100
AcDbEntity
  8
0
100
AcDbLine
 10
34.5246
 20
68.821597328401
 30
0.0
 11
35.0214
 21
70.195997328401
 31
0.0
  0
LINE
  5
5EE
330
1D
100
AcDbEntity
  8
0
100
AcDbLine
 10
34.5246
 20
68.821597328401
 30
0.0
 11
35.0212
 21
70.195697328401
 31
0.0
  0
LINE
  5
5EF
330
1D
100
AcDbEntity
  8
0
100
AcDbLine
 10
38.8915
 20
61.041197328401
 30
0.0
 11
39.1884
 21
63.854997328401
 31
0.0
  0
LINE
  5
5F0
330
1D
100
AcDbEntity
  8
0
100
AcDbLine
 10
36.2303
 20
72.855197328401
 30
0.0
 11
36.9391
 21
74.132597328401
 31
0.0
  0
LINE
  5
5F1
330
1D
100
AcDbEntity
  8
0
100
AcDbLine
 10
36.2303
 20
72.855397328401
 30
0.0
 11
36.9389
 21
74.132497328401
 31
0.0
  0
LINE
  5
5F2
330
1D
100
AcDbEntity
  8
0
100
AcDbLine
 10
36.9391
 20
74.132597328401
 30
0.0
 11
37.7154
 21
75.370897328401
 31
0.0
  0
LINE
  5
5F3
330
1D
100
AcDbEntity
  8
0
100
AcDbLine
 10
37.7154
 20
75.370897328401
 30
0.0
 11
38.5572
 21
76.566897328401
 31
0.0
  0
LINE
  5
5F4
330
1D
100
AcDbEntity
  8
0
100
AcDbLine
 10
37.7154
 20
75.370897328401
 30
0.0
 11
38.5574
 21
76.566897328401
 31
0.0
  0
LINE
  5
5F5
330
1D
100
AcDbEntity
  8
0
100
AcDbLine
 10
36.9389
 20
74.132497328401
 30
0.0
 11
37.7154
 21
75.370897328401
 31
0.0
  0
LINE
  5
5F6
330
1D
100
AcDbEntity
  8
0
100
AcDbLine
 10
35.59
 20
71.541497328401
 30
0.0
 11
36.2303
 21
72.855397328401
 31
0.0
  0
LINE
  5
5F7
330
1D
100
AcDbEntity
  8
0
100
AcDbLine
 10
35.59
 20
71.541497328401
 30
0.0
 11
36.2303
 21
72.855197328401
 31
0.0
  0
LINE
  5
5F8
330
1D
100
AcDbEntity
  8
0
100
AcDbLine
 10
42.5207
 20
80.850897328401
 30
0.0
 11
43.6472
 21
81.781897328401
 31
0.0
  0
LINE
  5
5F9
330
1D
100
AcDbEntity
  8
0
100
AcDbLine
 10
42.5211
 20
80.850897328401
 30
0.0
 11
43.647
 21
81.781897328401
 31
0.0
  0
LINE
  5
5FA
330
1D
100
AcDbEntity
  8
0
100
AcDbLine
 10
44.9492
 20
79.226897328401
 30
0.0
 11
47.2156
 21
82.600897328401
 31
0.0
  0
LINE
  5
5FB
330
1D
100
AcDbEntity
  8
0
100
AcDbLine
 10
44.9491
 20
79.226897328401
 30
0.0
 11
47.2158
 21
82.600897328401
 31
0.0
  0
LINE
  5
5FC
330
1D
100
AcDbEntity
  8
0
100
AcDbLine
 10
39.7175
 20
66.650997328401
 30
0.0
 11
40.4611
 21
69.408997328401
 31
0.0
  0
LINE
  5
5FD
330
1D
100
AcDbEntity
  8
0
100
AcDbLine
 10
40.4248
 20
78.813897328401
 30
0.0
 11
41.4458
 21
79.860897328401
 31
0.0
  0
LINE
  5
5FE
330
1D
100
AcDbEntity
  8
0
100
AcDbLine
 10
39.4612
 20
77.715897328401
 30
0.0
 11
40.4248
 21
78.813897328401
 31
0.0
  0
LINE
  5
5FF
330
1D
100
AcDbEntity
  8
0
100
AcDbLine
 10
39.4611
 20
77.714897328401
 30
0.0
 11
40.425
 21
78.814897328401
 31
0.0
  0
LINE
  5
600
330
1D
100
AcDbEntity
  8
0
100
AcDbLine
 10
41.1664
 20
71.486597328401
 30
0.0
 11
41.974
 21
73.502197328401
 31
0.0
  0
LINE
  5
601
330
1D
100
AcDbEntity
  8
0
100
AcDbLine
 10
41.1664
 20
71.486597328401
 30
0.0
 11
41.9739
 21
73.501897328401
 31
0.0
  0
LINE
  5
602
330
1D
100
AcDbEntity
  8
0
100
AcDbLine
 10
41.9739
 20
73.501897328401
 30
0.0
 11
43.3677
 21
76.431897328401
 31
0.0
  0
LINE
  5
603
330
1D
100
AcDbEntity
  8
0
100
AcDbLine
 10
43.3677
 20
76.431897328401
 30
0.0
 11
44.9491
 21
79.226897328401
 31
0.0
  0
LINE
  5
604
330
1D
100
AcDbEntity
  8
0
100
AcDbLine
 10
43.3677
 20
76.431897328401
 30
0.0
 11
44.9492
 21
79.226897328401
 31
0.0
  0
LINE
  5
605
330
1D
100
AcDbEntity
  8
0
100
AcDbLine
 10
41.974
 20
73.502197328401
 30
0.0
 11
43.3677
 21
76.431897328401
 31
0.0
  0
LINE
  5
606
330
1D
100
AcDbEntity
  8
0
100
AcDbLine
 10
41.4458
 20
79.860897328401
 30
0.0
 11
42.5211
 21
80.850897328401
 31
0.0
  0
LINE
  5
607
330
1D
100
AcDbEntity
  8
0
100
AcDbLine
 10
41.4458
 20
79.860897328401
 30
0.0
 11
42.5207
 21
80.850897328401
 31
0.0
  0
LINE
  5
608
330
1D
100
AcDbEntity
  8
0
100
AcDbLine
 10
41.1664
 20
71.486597328401
 30
0.0
 11
40.4611
 21
69.408997328401
 31
0.0
  0
LINE
  5
609
330
1D
100
AcDbEntity
  8
0
100
AcDbLine
 10
48.6987
 20
84.511897328401
 30
0.0
 11
50.8077
 21
86.900897328401
 31
0.0
  0
LINE
  5
60A
330
1D
100
AcDbEntity
  8
0
100
AcDbLine
 10
48.1656
 20
84.850897328401
 30
0.0
 11
50.3713
 21
87.246897328401
 31
0.0
  0
LINE
  5
60B
330
1D
100
AcDbEntity
  8
0
100
AcDbLine
 10
43.6472
 20
81.781897328401
 30
0.0
 11
44.8212
 21
82.651897328401
 31
0.0
  0
LINE
  5
60C
330
1D
100
AcDbEntity
  8
0
100
AcDbLine
 10
43.647
 20
81.781897328401
 30
0.0
 11
44.8212
 21
82.651897328401
 31
0.0
  0
LINE
  5
60D
330
1D
100
AcDbEntity
  8
0
100
AcDbLine
 10
46.04
 20
83.457897328401
 30
0.0
 11
47.3001
 21
84.197897328401
 31
0.0
  0
LINE
  5
60E
330
1D
100
AcDbEntity
  8
0
100
AcDbLine
 10
44.8212
 20
82.651897328401
 30
0.0
 11
46.0404
 21
83.457897328401
 31
0.0
  0
LINE
  5
60F
330
1D
100
AcDbEntity
  8
0
100
AcDbLine
 10
44.8212
 20
82.651897328401
 30
0.0
 11
46.04
 21
83.457897328401
 31
0.0
  0
LINE
  5
610
330
1D
100
AcDbEntity
  8
0
100
AcDbLine
 10
47.2156
 20
82.600897328401
 30
0.0
 11
48.6987
 21
84.511897328401
 31
0.0
  0
LINE
  5
611
330
1D
100
AcDbEntity
  8
0
100
AcDbLine
 10
47.2999
 20
84.197897328401
 30
0.0
 11
47.786819699278
 21
84.435539185596
 31
0.0
  0
LINE
  5
612
330
1D
100
AcDbEntity
  8
0
100
AcDbLine
 10
47.3001
 20
84.197897328401
 30
0.0
 11
47.786706640423
 21
84.435415208937
 31
0.0
  0
LINE
  5
613
330
1D
100
AcDbEntity
  8
0
100
AcDbLine
 10
46.0404
 20
83.457897328401
 30
0.0
 11
47.2999
 21
84.197897328401
 31
0.0
  0
LINE
  5
614
330
1D
100
AcDbEntity
  8
0
100
AcDbLine
 10
48.1656
 20
84.850897328401
 30
0.0
 11
47.786819699278
 21
84.435539185596
 31
0.0
  0
LINE
  5
616
330
1D
100
AcDbEntity
  8
0
100
AcDbLine
 10
57.0203
 20
91.848897328401
 30
0.0
 11
58.2506
 21
92.389897328401
 31
0.0
  0
LINE
  5
617
330
1D
100
AcDbEntity
  8
0
100
AcDbLine
 10
56.1205
 20
91.938897328401
 30
0.0
 11
57.1343
 21
92.480897328401
 31
0.0
  0
LINE
  5
618
330
1D
100
AcDbEntity
  8
0
100
AcDbLine
 10
57.0207
 20
91.848897328401
 30
0.0
 11
58.2509
 21
92.389897328401
 31
0.0
  0
LINE
  5
619
330
1D
100
AcDbEntity
  8
0
100
AcDbLine
 10
50.8077
 20
86.900897328401
 30
0.0
 11
53.0933
 21
89.092897328401
 31
0.0
  0
LINE
  5
61A
330
1D
100
AcDbEntity
  8
0
100
AcDbLine
 10
50.371
 20
87.246897328401
 30
0.0
 11
52.2512
 21
89.041897328401
 31
0.0
  0
LINE
  5
61B
330
1D
100
AcDbEntity
  8
0
100
AcDbLine
 10
52.2512
 20
89.041897328401
 30
0.0
 11
52.9224
 21
89.620897328401
 31
0.0
  0
LINE
  5
61C
330
1D
100
AcDbEntity
  8
0
100
AcDbLine
 10
53.093
 20
89.092897328401
 30
0.0
 11
55.2001
 21
90.744897328401
 31
0.0
  0
LINE
  5
61D
330
1D
100
AcDbEntity
  8
0
100
AcDbLine
 10
52.9224
 20
89.620897328401
 30
0.0
 11
54.2338
 21
90.675897328401
 31
0.0
  0
LINE
  5
61E
330
1D
100
AcDbEntity
  8
0
100
AcDbLine
 10
54.2338
 20
90.675897328401
 30
0.0
 11
55.1566
 21
91.330897328401
 31
0.0
  0
LINE
  5
61F
330
1D
100
AcDbEntity
  8
0
100
AcDbLine
 10
55.2001
 20
90.744897328401
 30
0.0
 11
57.0207
 21
91.848897328401
 31
0.0
  0
LINE
  5
620
330
1D
100
AcDbEntity
  8
0
100
AcDbLine
 10
55.2002
 20
90.743897328401
 30
0.0
 11
57.0203
 21
91.848897328401
 31
0.0
  0
LINE
  5
621
330
1D
100
AcDbEntity
  8
0
100
AcDbLine
 10
55.1566
 20
91.330897328401
 30
0.0
 11
56.1205
 21
91.938897328401
 31
0.0
  0
LINE
  5
626
330
1D
100
AcDbEntity
  8
0
100
AcDbLine
 10
58.2506
 20
92.389897328401
 30
0.0
 11
59.5271
 21
92.730897328401
 31
0.0
  0
LINE
  5
627
330
1D
100
AcDbEntity
  8
0
100
AcDbLine
 10
57.1343
 20
92.480897328401
 30
0.0
 11
58.2426
 21
92.932897328401
 31
0.0
  0
LINE
  5
628
330
1D
100
AcDbEntity
  8
0
100
AcDbLine
 10
58.2509
 20
92.389897328401
 30
0.0
 11
59.5271
 21
92.730897328401
 31
0.0
  0
LINE
  5
629
330
1D
100
AcDbEntity
  8
0
100
AcDbLine
 10
58.2426
 20
92.932897328401
 30
0.0
 11
59.0474
 21
93.160897328401
 31
0.0
  0
LINE
  5
62B
330
1D
100
AcDbEntity
  8
0
100
AcDbLine
 10
59.0474
 20
93.160897328401
 30
0.0
 11
59.4473
 21
93.222897328401
 31
0.0
  0
LINE
  5
62C
330
1D
100
AcDbEntity
  8
0
100
AcDbLine
 10
59.4473
 20
93.222897328401
 30
0.0
 11
59.9675
 21
93.309897328401
 31
0.0
  0
LINE
  5
62F
330
1D
100
AcDbEntity
  8
0
100
AcDbLine
 10
87.8648
 20
60.199797328401
 30
0.0
 11
87.826
 21
61.661397328401
 31
0.0
  0
LINE
  5
630
330
1D
100
AcDbEntity
  8
0
100
AcDbLine
 10
87.8649
 20
60.199897328401
 30
0.0
 11
87.8293
 21
58.799797328401
 31
0.0
  0
LINE
  5
631
330
1D
100
AcDbEntity
  8
0
100
AcDbLine
 10
87.8649
 20
60.199897328401
 30
0.0
 11
87.8258
 21
61.661397328401
 31
0.0
  0
LINE
  5
632
330
1D
100
AcDbEntity
  8
0
100
AcDbLine
 10
87.8649
 20
60.199897328401
 30
0.0
 11
87.8291
 21
58.799897328401
 31
0.0
  0
LINE
  5
633
330
1D
100
AcDbEntity
  8
0
100
AcDbLine
 10
82.1505
 20
60.182197328401
 30
0.0
 11
82.1083
 21
61.041397328401
 31
0.0
  0
LINE
  5
634
330
1D
100
AcDbEntity
  8
0
100
AcDbLine
 10
82.1508
 20
60.182197328401
 30
0.0
 11
82.1085
 21
61.041197328401
 31
0.0
  0
LINE
  5
635
330
1D
100
AcDbEntity
  8
0
100
AcDbLine
 10
82.0554
 20
43.316297328401
 30
0.0
 11
81.1255
 21
42.189597328401
 31
0.0
  0
LINE
  5
636
330
1D
100
AcDbEntity
  8
0
100
AcDbLine
 10
81.8476
 20
54.630197328401
 30
0.0
 11
81.2656
 21
51.751597328401
 31
0.0
  0
LINE
  5
637
330
1D
100
AcDbEntity
  8
0
100
AcDbLine
 10
77.9955
 20
39.128697328401
 30
0.0
 11
76.8481
 21
38.224097328401
 31
0.0
  0
LINE
  5
638
330
1D
100
AcDbEntity
  8
0
100
AcDbLine
 10
72.1333
 20
37.977697328401
 30
0.0
 11
74.237500000001
 21
39.689697328402
 31
0.0
  0
LINE
  5
639
330
1D
100
AcDbEntity
  8
0
100
AcDbLine
 10
71.8294
 20
35.256197328401
 30
0.0
 11
70.4851
 21
34.686797328401
 31
0.0
  0
LINE
  5
63A
330
1D
100
AcDbEntity
  8
0
100
AcDbLine
 10
71.8295
 20
35.256097328401
 30
0.0
 11
70.485
 21
34.686797328401
 31
0.0
  0
LINE
  5
63B
330
1D
100
AcDbEntity
  8
0
100
AcDbLine
 10
72.1333
 20
37.977697328401
 30
0.0
 11
69.8451
 21
36.564897328401
 31
0.0
  0
LINE
  5
63C
330
1D
100
AcDbEntity
  8
0
100
AcDbLine
 10
70.4851
 20
34.686797328401
 30
0.0
 11
69.1123
 21
34.190197328401
 31
0.0
  0
LINE
  5
63D
330
1D
100
AcDbEntity
  8
0
100
AcDbLine
 10
69.1123
 20
34.190197328401
 30
0.0
 11
67.7149
 21
33.767797328401
 31
0.0
  0
LINE
  5
63E
330
1D
100
AcDbEntity
  8
0
100
AcDbLine
 10
67.7149
 20
33.767797328401
 30
0.0
 11
66.2969
 21
33.420597328401
 31
0.0
  0
LINE
  5
63F
330
1D
100
AcDbEntity
  8
0
100
AcDbLine
 10
70.485
 20
34.686797328401
 30
0.0
 11
69.1123
 21
34.190197328401
 31
0.0
  0
LINE
  5
640
330
1D
100
AcDbEntity
  8
0
100
AcDbLine
 10
67.6578
 20
35.572797328401
 30
0.0
 11
65.3647
 21
34.857097328401
 31
0.0
  0
LINE
  5
641
330
1D
100
AcDbEntity
  8
0
100
AcDbLine
 10
69.8454
 20
36.564997328401
 30
0.0
 11
67.6578
 21
35.572797328401
 31
0.0
  0
LINE
  5
642
330
1D
100
AcDbEntity
  8
0
100
AcDbLine
 10
66.2969
 20
33.420597328401
 30
0.0
 11
64.862
 21
33.149197328401
 31
0.0
  0
LINE
  5
643
330
1D
100
AcDbEntity
  8
0
100
AcDbLine
 10
63.4149
 20
32.955197328401
 30
0.0
 11
61.9597
 21
32.838997328401
 31
0.0
  0
LINE
  5
644
330
1D
100
AcDbEntity
  8
0
100
AcDbLine
 10
64.862
 20
33.149197328401
 30
0.0
 11
63.4149
 21
32.955197328401
 31
0.0
  0
LINE
  5
645
330
1D
100
AcDbEntity
  8
0
100
AcDbLine
 10
62.9851
 20
34.426197328401
 30
0.0
 11
60.5001
 21
34.280097328401
 31
0.0
  0
LINE
  5
646
330
1D
100
AcDbEntity
  8
0
100
AcDbLine
 10
65.3647
 20
34.857097328401
 30
0.0
 11
62.9851
 21
34.426197328401
 31
0.0
  0
LINE
  5
647
330
1D
100
AcDbEntity
  8
0
100
AcDbLine
 10
73.1413
 20
35.895997328401
 30
0.0
 11
71.8295
 21
35.256097328401
 31
0.0
  0
LINE
  5
648
330
1D
100
AcDbEntity
  8
0
100
AcDbLine
 10
73.1413
 20
35.895997328401
 30
0.0
 11
71.8294
 21
35.256197328401
 31
0.0
  0
LINE
  5
649
330
1D
100
AcDbEntity
  8
0
100
AcDbLine
 10
75.6544
 20
37.382497328401
 30
0.0
 11
74.4175
 21
36.605497328401
 31
0.0
  0
LINE
  5
64A
330
1D
100
AcDbEntity
  8
0
100
AcDbLine
 10
75.6545
 20
37.382497328401
 30
0.0
 11
74.4175
 21
36.605497328401
 31
0.0
  0
LINE
  5
64B
330
1D
100
AcDbEntity
  8
0
100
AcDbLine
 10
74.4175
 20
36.605497328401
 30
0.0
 11
73.1413
 21
35.895997328401
 31
0.0
  0
LINE
  5
64C
330
1D
100
AcDbEntity
  8
0
100
AcDbLine
 10
76.8481
 20
38.224097328401
 30
0.0
 11
75.6544
 21
37.382497328401
 31
0.0
  0
LINE
  5
64D
330
1D
100
AcDbEntity
  8
0
100
AcDbLine
 10
76.8481
 20
38.224097328401
 30
0.0
 11
75.6545
 21
37.382497328401
 31
0.0
  0
LINE
  5
64E
330
1D
100
AcDbEntity
  8
0
100
AcDbLine
 10
81.1255
 20
42.189597328401
 30
0.0
 11
80.1373
 21
41.114197328401
 31
0.0
  0
LINE
  5
64F
330
1D
100
AcDbEntity
  8
0
100
AcDbLine
 10
81.1255
 20
42.189597328401
 30
0.0
 11
80.1372
 21
41.114297328401
 31
0.0
  0
LINE
  5
650
330
1D
100
AcDbEntity
  8
0
100
AcDbLine
 10
80.1372
 20
41.114297328401
 30
0.0
 11
79.0929
 21
40.092997328401
 31
0.0
  0
LINE
  5
651
330
1D
100
AcDbEntity
  8
0
100
AcDbLine
 10
80.1373
 20
41.114197328401
 30
0.0
 11
79.0929
 21
40.092997328401
 31
0.0
  0
LINE
  5
652
330
1D
100
AcDbEntity
  8
0
100
AcDbLine
 10
79.0929
 20
40.092997328401
 30
0.0
 11
77.9955
 21
39.128697328401
 31
0.0
  0
LINE
  5
653
330
1D
100
AcDbEntity
  8
0
100
AcDbLine
 10
77.7981
 20
43.888597328401
 30
0.0
 11
76.1332
 21
41.670497328401
 31
0.0
  0
LINE
  5
654
330
1D
100
AcDbEntity
  8
0
100
AcDbLine
 10
77.7984
 20
43.888797328401
 30
0.0
 11
76.1331
 21
41.670597328401
 31
0.0
  0
LINE
  5
655
330
1D
100
AcDbEntity
  8
0
100
AcDbLine
 10
80.3911
 20
48.978497328401
 30
0.0
 11
79.2314
 21
46.346497328401
 31
0.0
  0
LINE
  5
656
330
1D
100
AcDbEntity
  8
0
100
AcDbLine
 10
79.2314
 20
46.346497328401
 30
0.0
 11
77.7984
 21
43.888797328401
 31
0.0
  0
LINE
  5
657
330
1D
100
AcDbEntity
  8
0
100
AcDbLine
 10
79.2314
 20
46.346497328401
 30
0.0
 11
77.7981
 21
43.888597328401
 31
0.0
  0
LINE
  5
658
330
1D
100
AcDbEntity
  8
0
100
AcDbLine
 10
80.3914
 20
48.978897328401
 30
0.0
 11
79.2314
 21
46.346497328401
 31
0.0
  0
LINE
  5
659
330
1D
100
AcDbEntity
  8
0
100
AcDbLine
 10
81.2656
 20
51.751597328401
 30
0.0
 11
80.3911
 21
48.978497328401
 31
0.0
  0
LINE
  5
65A
330
1D
100
AcDbEntity
  8
0
100
AcDbLine
 10
81.2657
 20
51.750997328401
 30
0.0
 11
80.3914
 21
48.978897328401
 31
0.0
  0
LINE
  5
65B
330
1D
100
AcDbEntity
  8
0
100
AcDbLine
 10
76.1332
 20
41.670497328401
 30
0.0
 11
74.2375
 21
39.689697328401
 31
0.0
  0
LINE
  5
65C
330
1D
100
AcDbEntity
  8
0
100
AcDbLine
 10
76.1331
 20
41.670597328401
 30
0.0
 11
74.2375
 21
39.689697328401
 31
0.0
  0
LINE
  5
65D
330
1D
100
AcDbEntity
  8
0
100
AcDbLine
 10
86.1804
 20
50.729097328401
 30
0.0
 11
85.6724
 21
49.448197328401
 31
0.0
  0
LINE
  5
65E
330
1D
100
AcDbEntity
  8
0
100
AcDbLine
 10
86.1804
 20
50.729097328401
 30
0.0
 11
85.6725
 21
49.448197328401
 31
0.0
  0
LINE
  5
65F
330
1D
100
AcDbEntity
  8
0
100
AcDbLine
 10
84.4671
 20
46.971497328401
 30
0.0
 11
83.7284
 21
45.710597328401
 31
0.0
  0
LINE
  5
660
330
1D
100
AcDbEntity
  8
0
100
AcDbLine
 10
83.7285
 20
45.710597328401
 30
0.0
 11
82.9239
 21
44.491097328401
 31
0.0
  0
LINE
  5
661
330
1D
100
AcDbEntity
  8
0
100
AcDbLine
 10
84.4672
 20
46.971497328401
 30
0.0
 11
83.7285
 21
45.710597328401
 31
0.0
  0
LINE
  5
662
330
1D
100
AcDbEntity
  8
0
100
AcDbLine
 10
85.6725
 20
49.448197328401
 30
0.0
 11
85.1008
 21
48.194497328401
 31
0.0
  0
LINE
  5
663
330
1D
100
AcDbEntity
  8
0
100
AcDbLine
 10
85.6724
 20
49.448197328401
 30
0.0
 11
85.1008
 21
48.194497328401
 31
0.0
  0
LINE
  5
664
330
1D
100
AcDbEntity
  8
0
100
AcDbLine
 10
85.1008
 20
48.194497328401
 30
0.0
 11
84.4671
 21
46.971497328401
 31
0.0
  0
LINE
  5
665
330
1D
100
AcDbEntity
  8
0
100
AcDbLine
 10
85.1008
 20
48.194497328401
 30
0.0
 11
84.4672
 21
46.971497328401
 31
0.0
  0
LINE
  5
666
330
1D
100
AcDbEntity
  8
0
100
AcDbLine
 10
82.9239
 20
44.491097328401
 30
0.0
 11
82.0554
 21
43.316297328401
 31
0.0
  0
LINE
  5
667
330
1D
100
AcDbEntity
  8
0
100
AcDbLine
 10
83.7284
 20
45.710597328401
 30
0.0
 11
82.9239
 21
44.491097328401
 31
0.0
  0
LINE
  5
668
330
1D
100
AcDbEntity
  8
0
100
AcDbLine
 10
86.6233
 20
52.034097328401
 30
0.0
 11
86.1804
 21
50.729097328401
 31
0.0
  0
LINE
  5
669
330
1D
100
AcDbEntity
  8
0
100
AcDbLine
 10
86.6234
 20
52.034097328401
 30
0.0
 11
86.1804
 21
50.729097328401
 31
0.0
  0
LINE
  5
66A
330
1D
100
AcDbEntity
  8
0
100
AcDbLine
 10
87.7246
 20
57.425897328401
 30
0.0
 11
87.5513
 21
56.058497328401
 31
0.0
  0
LINE
  5
66B
330
1D
100
AcDbEntity
  8
0
100
AcDbLine
 10
87.5513
 20
56.058497328401
 30
0.0
 11
87.3095
 21
54.701897328401
 31
0.0
  0
LINE
  5
66C
330
1D
100
AcDbEntity
  8
0
100
AcDbLine
 10
87.8293
 20
58.799797328401
 30
0.0
 11
87.7246
 21
57.425897328401
 31
0.0
  0
LINE
  5
66D
330
1D
100
AcDbEntity
  8
0
100
AcDbLine
 10
87.8291
 20
58.799897328401
 30
0.0
 11
87.7247
 21
57.425897328401
 31
0.0
  0
LINE
  5
66E
330
1D
100
AcDbEntity
  8
0
100
AcDbLine
 10
87.7247
 20
57.425897328401
 30
0.0
 11
87.5513
 21
56.058497328401
 31
0.0
  0
LINE
  5
66F
330
1D
100
AcDbEntity
  8
0
100
AcDbLine
 10
87.3095
 20
54.701897328401
 30
0.0
 11
87.0001
 21
53.359397328401
 31
0.0
  0
LINE
  5
670
330
1D
100
AcDbEntity
  8
0
100
AcDbLine
 10
87.0001
 20
53.359397328401
 30
0.0
 11
86.6233
 21
52.034097328401
 31
0.0
  0
LINE
  5
671
330
1D
100
AcDbEntity
  8
0
100
AcDbLine
 10
87.0001
 20
53.359397328401
 30
0.0
 11
86.6234
 21
52.034097328401
 31
0.0
  0
LINE
  5
672
330
1D
100
AcDbEntity
  8
0
100
AcDbLine
 10
82.1505
 20
60.181997328401
 30
0.0
 11
82.1358
 21
57.581997328401
 31
0.0
  0
LINE
  5
673
330
1D
100
AcDbEntity
  8
0
100
AcDbLine
 10
82.1358
 20
57.581997328401
 30
0.0
 11
81.8476
 21
54.630197328401
 31
0.0
  0
LINE
  5
674
330
1D
100
AcDbEntity
  8
0
100
AcDbLine
 10
81.8116
 20
63.854997328401
 30
0.0
 11
81.2828
 21
66.651197328401
 31
0.0
  0
LINE
  5
675
330
1D
100
AcDbEntity
  8
0
100
AcDbLine
 10
82.4426
 20
76.566897328401
 30
0.0
 11
81.5388
 21
77.715897328401
 31
0.0
  0
LINE
  5
676
330
1D
100
AcDbEntity
  8
0
100
AcDbLine
 10
82.4428
 20
76.566897328401
 30
0.0
 11
81.5389
 21
77.714897328401
 31
0.0
  0
LINE
  5
677
330
1D
100
AcDbEntity
  8
0
100
AcDbLine
 10
78.4793
 20
80.850897328401
 30
0.0
 11
77.3528
 21
81.781897328401
 31
0.0
  0
LINE
  5
678
330
1D
100
AcDbEntity
  8
0
100
AcDbLine
 10
78.4789
 20
80.850897328401
 30
0.0
 11
77.353
 21
81.781897328401
 31
0.0
  0
LINE
  5
679
330
1D
100
AcDbEntity
  8
0
100
AcDbLine
 10
76.0508
 20
79.226897328401
 30
0.0
 11
73.7844
 21
82.600897328401
 31
0.0
  0
LINE
  5
67A
330
1D
100
AcDbEntity
  8
0
100
AcDbLine
 10
76.0509
 20
79.226897328401
 30
0.0
 11
73.7842
 21
82.600897328401
 31
0.0
  0
LINE
  5
67B
330
1D
100
AcDbEntity
  8
0
100
AcDbLine
 10
81.2825
 20
66.650997328401
 30
0.0
 11
80.5389
 21
69.408997328401
 31
0.0
  0
LINE
  5
67C
330
1D
100
AcDbEntity
  8
0
100
AcDbLine
 10
80.5752
 20
78.813897328401
 30
0.0
 11
79.5542
 21
79.860897328401
 31
0.0
  0
LINE
  5
67D
330
1D
100
AcDbEntity
  8
0
100
AcDbLine
 10
81.5388
 20
77.715897328401
 30
0.0
 11
80.5752
 21
78.813897328401
 31
0.0
  0
LINE
  5
67E
330
1D
100
AcDbEntity
  8
0
100
AcDbLine
 10
81.5389
 20
77.714897328401
 30
0.0
 11
80.575
 21
78.814897328401
 31
0.0
  0
LINE
  5
67F
330
1D
100
AcDbEntity
  8
0
100
AcDbLine
 10
79.8336
 20
71.486597328401
 30
0.0
 11
79.026
 21
73.502197328401
 31
0.0
  0
LINE
  5
680
330
1D
100
AcDbEntity
  8
0
100
AcDbLine
 10
79.8336
 20
71.486597328401
 30
0.0
 11
79.0261
 21
73.501897328401
 31
0.0
  0
LINE
  5
681
330
1D
100
AcDbEntity
  8
0
100
AcDbLine
 10
79.0261
 20
73.501897328401
 30
0.0
 11
77.6323
 21
76.431897328401
 31
0.0
  0
LINE
  5
682
330
1D
100
AcDbEntity
  8
0
100
AcDbLine
 10
77.6323
 20
76.431897328401
 30
0.0
 11
76.0509
 21
79.226897328401
 31
0.0
  0
LINE
  5
683
330
1D
100
AcDbEntity
  8
0
100
AcDbLine
 10
77.6323
 20
76.431897328401
 30
0.0
 11
76.0508
 21
79.226897328401
 31
0.0
  0
LINE
  5
684
330
1D
100
AcDbEntity
  8
0
100
AcDbLine
 10
79.026
 20
73.502197328401
 30
0.0
 11
77.6323
 21
76.431897328401
 31
0.0
  0
LINE
  5
685
330
1D
100
AcDbEntity
  8
0
100
AcDbLine
 10
79.5542
 20
79.860897328401
 30
0.0
 11
78.4789
 21
80.850897328401
 31
0.0
  0
LINE
  5
686
330
1D
100
AcDbEntity
  8
0
100
AcDbLine
 10
79.5542
 20
79.860897328401
 30
0.0
 11
78.4793
 21
80.850897328401
 31
0.0
  0
LINE
  5
687
330
1D
100
AcDbEntity
  8
0
100
AcDbLine
 10
79.8336
 20
71.486597328401
 30
0.0
 11
80.5389
 21
69.408997328401
 31
0.0
  0
LINE
  5
688
330
1D
100
AcDbEntity
  8
0
100
AcDbLine
 10
72.3013
 20
84.511897328401
 30
0.0
 11
70.1923
 21
86.900897328401
 31
0.0
  0
LINE
  5
689
330
1D
100
AcDbEntity
  8
0
100
AcDbLine
 10
72.8344
 20
84.850897328401
 30
0.0
 11
70.6287
 21
87.246897328401
 31
0.0
  0
LINE
  5
68B
330
1D
100
AcDbEntity
  8
0
100
AcDbLine
 10
63.9797
 20
91.848897328401
 30
0.0
 11
62.7494
 21
92.389897328401
 31
0.0
  0
LINE
  5
68C
330
1D
100
AcDbEntity
  8
0
100
AcDbLine
 10
64.8795
 20
91.938897328401
 30
0.0
 11
63.8657
 21
92.480897328401
 31
0.0
  0
LINE
  5
68D
330
1D
100
AcDbEntity
  8
0
100
AcDbLine
 10
63.9793
 20
91.848897328401
 30
0.0
 11
62.7491
 21
92.389897328401
 31
0.0
  0
LINE
  5
68E
330
1D
100
AcDbEntity
  8
0
100
AcDbLine
 10
70.1923
 20
86.900897328401
 30
0.0
 11
67.9067
 21
89.092897328401
 31
0.0
  0
LINE
  5
68F
330
1D
100
AcDbEntity
  8
0
100
AcDbLine
 10
70.629
 20
87.246897328401
 30
0.0
 11
68.7488
 21
89.041897328401
 31
0.0
  0
LINE
  5
690
330
1D
100
AcDbEntity
  8
0
100
AcDbLine
 10
68.7488
 20
89.041897328401
 30
0.0
 11
68.0776
 21
89.620897328401
 31
0.0
  0
LINE
  5
691
330
1D
100
AcDbEntity
  8
0
100
AcDbLine
 10
67.907
 20
89.092897328401
 30
0.0
 11
65.7999
 21
90.744897328401
 31
0.0
  0
LINE
  5
692
330
1D
100
AcDbEntity
  8
0
100
AcDbLine
 10
68.0776
 20
89.620897328401
 30
0.0
 11
66.7662
 21
90.675897328401
 31
0.0
  0
LINE
  5
693
330
1D
100
AcDbEntity
  8
0
100
AcDbLine
 10
66.7662
 20
90.675897328401
 30
0.0
 11
65.8434
 21
91.330897328401
 31
0.0
  0
LINE
  5
694
330
1D
100
AcDbEntity
  8
0
100
AcDbLine
 10
65.7999
 20
90.744897328401
 30
0.0
 11
63.9793
 21
91.848897328401
 31
0.0
  0
LINE
  5
695
330
1D
100
AcDbEntity
  8
0
100
AcDbLine
 10
65.7998
 20
90.743897328401
 30
0.0
 11
63.9797
 21
91.848897328401
 31
0.0
  0
LINE
  5
696
330
1D
100
AcDbEntity
  8
0
100
AcDbLine
 10
65.8434
 20
91.330897328401
 30
0.0
 11
64.8795
 21
91.938897328401
 31
0.0
  0
LINE
  5
697
330
1D
100
AcDbEntity
  8
0
100
AcDbLine
 10
63.8657
 20
92.480897328401
 30
0.0
 11
62.7574
 21
92.932897328401
 31
0.0
  0
LINE
  5
69E
330
1D
100
AcDbEntity
  8
0
100
AcDbLine
 10
62.7494
 20
92.389897328401
 30
0.0
 11
61.4729
 21
92.730897328401
 31
0.0
  0
LINE
  5
69F
330
1D
100
AcDbEntity
  8
0
100
AcDbLine
 10
62.7491
 20
92.389897328401
 30
0.0
 11
61.4729
 21
92.730897328401
 31
0.0
  0
LINE
  5
6A0
330
1D
100
AcDbEntity
  8
0
100
AcDbLine
 10
62.7574
 20
92.932897328401
 30
0.0
 11
61.9526
 21
93.160897328401
 31
0.0
  0
LINE
  5
6A1
330
1D
100
AcDbEntity
  8
0
100
AcDbLine
 10
61.9526
 20
93.160897328401
 30
0.0
 11
61.5527
 21
93.222897328401
 31
0.0
  0
LINE
  5
6A2
330
1D
100
AcDbEntity
  8
0
100
AcDbLine
 10
61.5527
 20
93.222897328401
 30
0.0
 11
61.0325
 21
93.309897328401
 31
0.0
  0
LINE
  5
6A4
330
1D
100
AcDbEntity
  8
0
100
AcDbLine
 10
77.3528
 20
81.781897328401
 30
0.0
 11
76.1788
 21
82.651897328401
 31
0.0
  0
LINE
  5
6A5
330
1D
100
AcDbEntity
  8
0
100
AcDbLine
 10
77.353
 20
81.781897328401
 30
0.0
 11
76.1788
 21
82.651897328401
 31
0.0
  0
LINE
  5
6A6
330
1D
100
AcDbEntity
  8
0
100
AcDbLine
 10
74.96
 20
83.457897328401
 30
0.0
 11
73.6999
 21
84.197897328401
 31
0.0
  0
LINE
  5
6A7
330
1D
100
AcDbEntity
  8
0
100
AcDbLine
 10
76.1788
 20
82.651897328401
 30
0.0
 11
74.9596
 21
83.457897328401
 31
0.0
  0
LINE
  5
6A8
330
1D
100
AcDbEntity
  8
0
100
AcDbLine
 10
76.1788
 20
82.651897328401
 30
0.0
 11
74.96
 21
83.457897328401
 31
0.0
  0
LINE
  5
6A9
330
1D
100
AcDbEntity
  8
0
100
AcDbLine
 10
73.7844
 20
82.600897328401
 30
0.0
 11
72.3013
 21
84.511897328401
 31
0.0
  0
LINE
  5
6AA
330
1D
100
AcDbEntity
  8
0
100
AcDbLine
 10
73.7001
 20
84.197897328401
 30
0.0
 11
73.213180300722
 21
84.435539185596
 31
0.0
  0
LINE
  5
6AB
330
1D
100
AcDbEntity
  8
0
100
AcDbLine
 10
73.6999
 20
84.197897328401
 30
0.0
 11
73.213293359577
 21
84.435415208937
 31
0.0
  0
LINE
  5
6AC
330
1D
100
AcDbEntity
  8
0
100
AcDbLine
 10
74.9596
 20
83.457897328401
 30
0.0
 11
73.7001
 21
84.197897328401
 31
0.0
  0
LINE
  5
6AD
330
1D
100
AcDbEntity
  8
0
100
AcDbLine
 10
72.8344
 20
84.850897328401
 30
0.0
 11
73.213180300722
 21
84.435539185596
 31
0.0
  0
LINE
  5
6AE
330
1D
100
AcDbEntity
  8
0
100
AcDbLine
 10
85.9788
 20
70.195697328401
 30
0.0
 11
85.41
 21
71.541497328401
 31
0.0
  0
LINE
  5
6AF
330
1D
100
AcDbEntity
  8
0
100
AcDbLine
 10
85.9786
 20
70.195997328401
 30
0.0
 11
85.41
 21
71.541497328401
 31
0.0
  0
LINE
  5
6B0
330
1D
100
AcDbEntity
  8
0
100
AcDbLine
 10
87.8258
 20
61.661397328401
 30
0.0
 11
87.7095
 21
63.118297328401
 31
0.0
  0
LINE
  5
6B1
330
1D
100
AcDbEntity
  8
0
100
AcDbLine
 10
87.7095
 20
63.118297328401
 30
0.0
 11
87.5154
 21
64.566997328401
 31
0.0
  0
LINE
  5
6B2
330
1D
100
AcDbEntity
  8
0
100
AcDbLine
 10
87.5154
 20
64.566997328401
 30
0.0
 11
87.2445
 21
66.003097328401
 31
0.0
  0
LINE
  5
6B3
330
1D
100
AcDbEntity
  8
0
100
AcDbLine
 10
87.7093
 20
63.118197328401
 30
0.0
 11
87.5152
 21
64.566897328401
 31
0.0
  0
LINE
  5
6B4
330
1D
100
AcDbEntity
  8
0
100
AcDbLine
 10
87.826
 20
61.661397328401
 30
0.0
 11
87.7093
 21
63.118197328401
 31
0.0
  0
LINE
  5
6B5
330
1D
100
AcDbEntity
  8
0
100
AcDbLine
 10
87.2445
 20
66.003097328401
 30
0.0
 11
86.8972
 21
67.422697328401
 31
0.0
  0
LINE
  5
6B6
330
1D
100
AcDbEntity
  8
0
100
AcDbLine
 10
86.8972
 20
67.422697328401
 30
0.0
 11
86.4754
 21
68.821597328401
 31
0.0
  0
LINE
  5
6B7
330
1D
100
AcDbEntity
  8
0
100
AcDbLine
 10
86.8973
 20
67.422797328401
 30
0.0
 11
86.4754
 21
68.821597328401
 31
0.0
  0
LINE
  5
6B8
330
1D
100
AcDbEntity
  8
0
100
AcDbLine
 10
87.2447
 20
66.003197328401
 30
0.0
 11
86.8973
 21
67.422797328401
 31
0.0
  0
LINE
  5
6B9
330
1D
100
AcDbEntity
  8
0
100
AcDbLine
 10
87.5152
 20
64.566897328401
 30
0.0
 11
87.2447
 21
66.003197328401
 31
0.0
  0
LINE
  5
6BA
330
1D
100
AcDbEntity
  8
0
100
AcDbLine
 10
86.4754
 20
68.821597328401
 30
0.0
 11
85.9786
 21
70.195997328401
 31
0.0
  0
LINE
  5
6BB
330
1D
100
AcDbEntity
  8
0
100
AcDbLine
 10
86.4754
 20
68.821597328401
 30
0.0
 11
85.9788
 21
70.195697328401
 31
0.0
  0
LINE
  5
6BC
330
1D
100
AcDbEntity
  8
0
100
AcDbLine
 10
82.1085
 20
61.041197328401
 30
0.0
 11
81.8116
 21
63.854997328401
 31
0.0
  0
LINE
  5
6BD
330
1D
100
AcDbEntity
  8
0
100
AcDbLine
 10
84.7697
 20
72.855197328401
 30
0.0
 11
84.0609
 21
74.132597328401
 31
0.0
  0
LINE
  5
6BE
330
1D
100
AcDbEntity
  8
0
100
AcDbLine
 10
84.7697
 20
72.855397328401
 30
0.0
 11
84.0611
 21
74.132497328401
 31
0.0
  0
LINE
  5
6BF
330
1D
100
AcDbEntity
  8
0
100
AcDbLine
 10
84.0609
 20
74.132597328401
 30
0.0
 11
83.2846
 21
75.370897328401
 31
0.0
  0
LINE
  5
6C0
330
1D
100
AcDbEntity
  8
0
100
AcDbLine
 10
83.2846
 20
75.370897328401
 30
0.0
 11
82.4428
 21
76.566897328401
 31
0.0
  0
LINE
  5
6C1
330
1D
100
AcDbEntity
  8
0
100
AcDbLine
 10
83.2846
 20
75.370897328401
 30
0.0
 11
82.4426
 21
76.566897328401
 31
0.0
  0
LINE
  5
6C2
330
1D
100
AcDbEntity
  8
0
100
AcDbLine
 10
84.0611
 20
74.132497328401
 30
0.0
 11
83.2846
 21
75.370897328401
 31
0.0
  0
LINE
  5
6C3
330
1D
100
AcDbEntity
  8
0
100
AcDbLine
 10
85.41
 20
71.541497328401
 30
0.0
 11
84.7697
 21
72.855397328401
 31
0.0
  0
LINE
  5
6C4
330
1D
100
AcDbEntity
  8
0
100
AcDbLine
 10
85.41
 20
71.541497328401
 30
0.0
 11
84.7697
 21
72.855197328401
 31
0.0
  0
LINE
  5
704
330
1D
100
AcDbEntity
  8
0
100
AcDbLine
 10
13.6989
 20
18.6282
 30
0.0
 11
14.651
 21
16.8162
 31
0.0
  0
LINE
  5
706
330
1D
100
AcDbEntity
  8
0
100
AcDbLine
 10
19.6078
 20
29.8872
 30
0.0
 11
21.6417
 21
30.1332
 31
0.0
  0
LINE
  5
707
330
1D
100
AcDbEntity
  8
0
100
AcDbLine
 10
19.6634
 20
14.1291
 30
0.0
 11
21.6869
 21
13.8467
 31
0.0
  0
LINE
  5
708
330
1D
100
AcDbEntity
  8
0
100
AcDbLine
 10
19.6634
 20
29.3292
 30
0.0
 11
21.6869
 21
29.6112
 31
0.0
  0
LINE
  5
709
330
1D
100
AcDbEntity
  8
0
100
AcDbLine
 10
21.6408
 20
13.1481
 30
0.0
 11
23.6734
 21
13.3949
 31
0.0
  0
LINE
  5
70A
330
1D
100
AcDbEntity
  8
0
100
AcDbLine
 10
21.6408
 20
30.1342
 30
0.0
 11
23.6733
 21
29.8872
 31
0.0
  0
LINE
  5
70B
330
1D
100
AcDbEntity
  8
0
100
AcDbLine
 10
13.2097
 20
22.6652
 30
0.0
 11
13.2097
 21
20.6172
 31
0.0
  0
LINE
  5
70C
330
1D
100
AcDbEntity
  8
0
100
AcDbLine
 10
13.2097
 20
20.6172
 30
0.0
 11
13.2097
 21
22.6652
 31
0.0
  0
LINE
  5
70D
330
1D
100
AcDbEntity
  8
0
100
AcDbLine
 10
13.8045
 20
21.7292
 30
0.0
 11
14.0869
 21
23.7522
 31
0.0
  0
LINE
  5
70E
330
1D
100
AcDbEntity
  8
0
100
AcDbLine
 10
13.2093
 20
20.6172
 30
0.0
 11
13.2093
 21
22.6642
 31
0.0
  0
LINE
  5
70F
330
1D
100
AcDbEntity
  8
0
100
AcDbLine
 10
13.8045
 20
21.7292
 30
0.0
 11
14.0869
 21
19.7052
 31
0.0
  0
LINE
  5
710
330
1D
100
AcDbEntity
  8
0
100
AcDbLine
 10
13.2097
 20
20.6172
 30
0.0
 11
13.6998
 21
18.6292
 31
0.0
  0
LINE
  5
711
330
1D
100
AcDbEntity
  8
0
100
AcDbLine
 10
13.2093
 20
20.6172
 30
0.0
 11
13.6989
 21
18.6282
 31
0.0
  0
LINE
  5
712
330
1D
100
AcDbEntity
  8
0
100
AcDbLine
 10
16.0089
 20
15.2841
 30
0.0
 11
17.6939
 21
14.1209
 31
0.0
  0
LINE
  5
713
330
1D
100
AcDbEntity
  8
0
100
AcDbLine
 10
17.7575
 20
14.9056
 30
0.0
 11
19.6634
 21
14.1291
 31
0.0
  0
LINE
  5
714
330
1D
100
AcDbEntity
  8
0
100
AcDbLine
 10
17.6946
 20
14.1218
 30
0.0
 11
19.6078
 21
13.3946
 31
0.0
  0
LINE
  5
715
330
1D
100
AcDbEntity
  8
0
100
AcDbLine
 10
14.651
 20
16.8162
 30
0.0
 11
16.0081
 21
15.2845
 31
0.0
  0
LINE
  5
716
330
1D
100
AcDbEntity
  8
0
100
AcDbLine
 10
14.0869
 20
19.7052
 30
0.0
 11
14.8634
 21
17.8002
 31
0.0
  0
LINE
  5
717
330
1D
100
AcDbEntity
  8
0
100
AcDbLine
 10
14.8634
 20
17.8002
 30
0.0
 11
16.1104
 21
16.1526
 31
0.0
  0
LINE
  5
718
330
1D
100
AcDbEntity
  8
0
100
AcDbLine
 10
16.1104
 20
16.1526
 30
0.0
 11
17.7575
 21
14.9056
 31
0.0
  0
LINE
  5
719
330
1D
100
AcDbEntity
  8
0
100
AcDbLine
 10
13.6989
 20
24.6532
 30
0.0
 11
14.651
 21
26.4652
 31
0.0
  0
LINE
  5
71A
330
1D
100
AcDbEntity
  8
0
100
AcDbLine
 10
13.2093
 20
22.6642
 30
0.0
 11
13.6989
 21
24.6532
 31
0.0
  0
LINE
  5
71B
330
1D
100
AcDbEntity
  8
0
100
AcDbLine
 10
14.0869
 20
23.7522
 30
0.0
 11
14.8634
 21
25.6582
 31
0.0
  0
LINE
  5
71C
330
1D
100
AcDbEntity
  8
0
100
AcDbLine
 10
14.651
 20
26.4652
 30
0.0
 11
16.0081
 21
27.9992
 31
0.0
  0
LINE
  5
71D
330
1D
100
AcDbEntity
  8
0
100
AcDbLine
 10
14.8634
 20
25.6582
 30
0.0
 11
16.1104
 21
27.3052
 31
0.0
  0
LINE
  5
71E
330
1D
100
AcDbEntity
  8
0
100
AcDbLine
 10
16.0081
 20
27.9992
 30
0.0
 11
17.6946
 21
29.1612
 31
0.0
  0
LINE
  5
71F
330
1D
100
AcDbEntity
  8
0
100
AcDbLine
 10
16.1104
 20
27.3052
 30
0.0
 11
17.7575
 21
28.5522
 31
0.0
  0
LINE
  5
720
330
1D
100
AcDbEntity
  8
0
100
AcDbLine
 10
17.6939
 20
29.1612
 30
0.0
 11
19.6083
 21
29.8872
 31
0.0
  0
LINE
  5
721
330
1D
100
AcDbEntity
  8
0
100
AcDbLine
 10
17.7575
 20
28.5522
 30
0.0
 11
19.6634
 21
29.3292
 31
0.0
  0
LINE
  5
722
330
1D
100
AcDbEntity
  8
0
100
AcDbLine
 10
29.2869
 20
23.7522
 30
0.0
 11
29.5692
 21
21.7292
 31
0.0
  0
LINE
  5
723
330
1D
100
AcDbEntity
  8
0
100
AcDbLine
 10
30.0723
 20
22.6642
 30
0.0
 11
30.0723
 21
20.6172
 31
0.0
  0
LINE
  5
724
330
1D
100
AcDbEntity
  8
0
100
AcDbLine
 10
30.0719
 20
22.6652
 30
0.0
 11
30.0719
 21
20.6172
 31
0.0
  0
LINE
  5
725
330
1D
100
AcDbEntity
  8
0
100
AcDbLine
 10
28.6304
 20
16.8162
 30
0.0
 11
29.5818
 21
18.6292
 31
0.0
  0
LINE
  5
726
330
1D
100
AcDbEntity
  8
0
100
AcDbLine
 10
28.5104
 20
17.8002
 30
0.0
 11
29.2869
 21
19.7052
 31
0.0
  0
LINE
  5
727
330
1D
100
AcDbEntity
  8
0
100
AcDbLine
 10
23.7104
 20
14.1291
 30
0.0
 11
25.6163
 21
14.9056
 31
0.0
  0
LINE
  5
728
330
1D
100
AcDbEntity
  8
0
100
AcDbLine
 10
25.587
 20
14.1218
 30
0.0
 11
27.2735
 21
15.2845
 31
0.0
  0
LINE
  5
729
330
1D
100
AcDbEntity
  8
0
100
AcDbLine
 10
23.6734
 20
13.3949
 30
0.0
 11
25.5877
 21
14.1209
 31
0.0
  0
LINE
  5
72A
330
1D
100
AcDbEntity
  8
0
100
AcDbLine
 10
21.640837584247
 20
13.148104563511
 30
0.0
 11
23.6734
 21
13.3949
 31
0.0
  0
LINE
  5
72B
330
1D
100
AcDbEntity
  8
0
100
AcDbLine
 10
21.6869
 20
13.8467
 30
0.0
 11
23.7104
 21
14.1291
 31
0.0
  0
LINE
  5
72C
330
1D
100
AcDbEntity
  8
0
100
AcDbLine
 10
21.6417
 20
13.148
 30
0.0
 11
23.6738
 21
13.3946
 31
0.0
  0
LINE
  5
72D
330
1D
100
AcDbEntity
  8
0
100
AcDbLine
 10
23.6734
 20
13.3949
 30
0.0
 11
24.208184095667
 21
13.597717350182
 31
0.0
  0
LINE
  5
72E
330
1D
100
AcDbEntity
  8
0
100
AcDbLine
 10
25.6163
 20
14.9056
 30
0.0
 11
27.2633
 21
16.1526
 31
0.0
  0
LINE
  5
72F
330
1D
100
AcDbEntity
  8
0
100
AcDbLine
 10
27.2633
 20
16.1526
 30
0.0
 11
28.5104
 21
17.8002
 31
0.0
  0
LINE
  5
730
330
1D
100
AcDbEntity
  8
0
100
AcDbLine
 10
27.2735
 20
15.2845
 30
0.0
 11
28.6306
 21
16.8162
 31
0.0
  0
LINE
  5
731
330
1D
100
AcDbEntity
  8
0
100
AcDbLine
 10
29.2869
 20
19.7052
 30
0.0
 11
29.5692
 21
21.7292
 31
0.0
  0
LINE
  5
732
330
1D
100
AcDbEntity
  8
0
100
AcDbLine
 10
29.5818
 20
18.6292
 30
0.0
 11
30.0719
 21
20.6172
 31
0.0
  0
LINE
  5
733
330
1D
100
AcDbEntity
  8
0
100
AcDbLine
 10
28.5104
 20
25.6582
 30
0.0
 11
29.2869
 21
23.7522
 31
0.0
  0
LINE
  5
734
330
1D
100
AcDbEntity
  8
0
100
AcDbLine
 10
28.6306
 20
26.4652
 30
0.0
 11
29.5827
 21
24.6532
 31
0.0
  0
LINE
  5
735
330
1D
100
AcDbEntity
  8
0
100
AcDbLine
 10
21.6869
 20
29.6112
 30
0.0
 11
23.7104
 21
29.3292
 31
0.0
  0
LINE
  5
736
330
1D
100
AcDbEntity
  8
0
100
AcDbLine
 10
23.7104
 20
29.3292
 30
0.0
 11
25.6163
 21
28.5522
 31
0.0
  0
LINE
  5
737
330
1D
100
AcDbEntity
  8
0
100
AcDbLine
 10
25.587
 20
29.1612
 30
0.0
 11
27.2735
 21
27.9992
 31
0.0
  0
LINE
  5
738
330
1D
100
AcDbEntity
  8
0
100
AcDbLine
 10
23.6738
 20
29.8872
 30
0.0
 11
25.587
 21
29.1612
 31
0.0
  0
LINE
  5
739
330
1D
100
AcDbEntity
  8
0
100
AcDbLine
 10
25.6163
 20
28.5522
 30
0.0
 11
27.2633
 21
27.3052
 31
0.0
  0
LINE
  5
73A
330
1D
100
AcDbEntity
  8
0
100
AcDbLine
 10
27.2633
 20
27.3052
 30
0.0
 11
28.5104
 21
25.6582
 31
0.0
  0
LINE
  5
73B
330
1D
100
AcDbEntity
  8
0
100
AcDbLine
 10
27.2735
 20
27.9992
 30
0.0
 11
28.6306
 21
26.4652
 31
0.0
  0
LINE
  5
73C
330
1D
100
AcDbEntity
  8
0
100
AcDbLine
 10
29.5827
 20
24.6532
 30
0.0
 11
30.0723
 21
22.6642
 31
0.0
  0
LINE
  5
73D
330
1D
100
AcDbEntity
  8
0
100
AcDbLine
 10
29.5819
 20
24.6532
 30
0.0
 11
30.0719
 21
22.6652
 31
0.0
  0
LINE
  5
77B
330
1D
100
AcDbEntity
  8
0
100
AcDbLine
 10
91.2445
 20
18.6302
 30
0.0
 11
92.1966
 21
16.8182
 31
0.0
  0
LINE
  5
77C
330
1D
100
AcDbEntity
  8
0
100
AcDbLine
 10
97.1534
 20
13.3966
 30
0.0
 11
99.1873
 21
13.15
 31
0.0
  0
LINE
  5
77D
330
1D
100
AcDbEntity
  8
0
100
AcDbLine
 10
97.1534
 20
29.8892
 30
0.0
 11
99.1873
 21
30.1352
 31
0.0
  0
LINE
  5
77E
330
1D
100
AcDbEntity
  8
0
100
AcDbLine
 10
97.209
 20
14.1311
 30
0.0
 11
99.2325
 21
13.8487
 31
0.0
  0
LINE
  5
77F
330
1D
100
AcDbEntity
  8
0
100
AcDbLine
 10
97.209
 20
29.3312
 30
0.0
 11
99.2325
 21
29.6132
 31
0.0
  0
LINE
  5
780
330
1D
100
AcDbEntity
  8
0
100
AcDbLine
 10
99.1864
 20
13.1501
 30
0.0
 11
101.219
 21
13.3969
 31
0.0
  0
LINE
  5
781
330
1D
100
AcDbEntity
  8
0
100
AcDbLine
 10
99.1864
 20
30.1362
 30
0.0
 11
101.2189
 21
29.8892
 31
0.0
  0
LINE
  5
782
330
1D
100
AcDbEntity
  8
0
100
AcDbLine
 10
90.7553
 20
22.6672
 30
0.0
 11
90.7553
 21
20.6192
 31
0.0
  0
LINE
  5
783
330
1D
100
AcDbEntity
  8
0
100
AcDbLine
 10
90.7553
 20
20.6192
 30
0.0
 11
90.7553
 21
22.6672
 31
0.0
  0
LINE
  5
784
330
1D
100
AcDbEntity
  8
0
100
AcDbLine
 10
91.3501
 20
21.7312
 30
0.0
 11
91.6325
 21
23.7542
 31
0.0
  0
LINE
  5
785
330
1D
100
AcDbEntity
  8
0
100
AcDbLine
 10
90.7549
 20
20.6192
 30
0.0
 11
90.7549
 21
22.6662
 31
0.0
  0
LINE
  5
786
330
1D
100
AcDbEntity
  8
0
100
AcDbLine
 10
91.3501
 20
21.7312
 30
0.0
 11
91.6325
 21
19.7072
 31
0.0
  0
LINE
  5
787
330
1D
100
AcDbEntity
  8
0
100
AcDbLine
 10
90.7553
 20
20.6192
 30
0.0
 11
91.2454
 21
18.6312
 31
0.0
  0
LINE
  5
788
330
1D
100
AcDbEntity
  8
0
100
AcDbLine
 10
90.7549
 20
20.6192
 30
0.0
 11
91.2445
 21
18.6302
 31
0.0
  0
LINE
  5
789
330
1D
100
AcDbEntity
  8
0
100
AcDbLine
 10
93.5545
 20
15.2861
 30
0.0
 11
95.2395
 21
14.1229
 31
0.0
  0
LINE
  5
78A
330
1D
100
AcDbEntity
  8
0
100
AcDbLine
 10
95.3031
 20
14.9076
 30
0.0
 11
97.209
 21
14.1311
 31
0.0
  0
LINE
  5
78B
330
1D
100
AcDbEntity
  8
0
100
AcDbLine
 10
95.2402
 20
14.1238
 30
0.0
 11
97.1534
 21
13.3966
 31
0.0
  0
LINE
  5
78C
330
1D
100
AcDbEntity
  8
0
100
AcDbLine
 10
92.1966
 20
16.8182
 30
0.0
 11
93.5537
 21
15.2865
 31
0.0
  0
LINE
  5
78D
330
1D
100
AcDbEntity
  8
0
100
AcDbLine
 10
91.6325
 20
19.7072
 30
0.0
 11
92.409
 21
17.8022
 31
0.0
  0
LINE
  5
78E
330
1D
100
AcDbEntity
  8
0
100
AcDbLine
 10
92.409
 20
17.8022
 30
0.0
 11
93.656
 21
16.1546
 31
0.0
  0
LINE
  5
78F
330
1D
100
AcDbEntity
  8
0
100
AcDbLine
 10
93.656
 20
16.1546
 30
0.0
 11
95.3031
 21
14.9076
 31
0.0
  0
LINE
  5
790
330
1D
100
AcDbEntity
  8
0
100
AcDbLine
 10
91.2445
 20
24.6552
 30
0.0
 11
92.1966
 21
26.4672
 31
0.0
  0
LINE
  5
791
330
1D
100
AcDbEntity
  8
0
100
AcDbLine
 10
90.7549
 20
22.6662
 30
0.0
 11
91.2445
 21
24.6552
 31
0.0
  0
LINE
  5
792
330
1D
100
AcDbEntity
  8
0
100
AcDbLine
 10
91.6325
 20
23.7542
 30
0.0
 11
92.409
 21
25.6602
 31
0.0
  0
LINE
  5
793
330
1D
100
AcDbEntity
  8
0
100
AcDbLine
 10
92.1966
 20
26.4672
 30
0.0
 11
93.5537
 21
28.0012
 31
0.0
  0
LINE
  5
794
330
1D
100
AcDbEntity
  8
0
100
AcDbLine
 10
92.409
 20
25.6602
 30
0.0
 11
93.656
 21
27.3072
 31
0.0
  0
LINE
  5
795
330
1D
100
AcDbEntity
  8
0
100
AcDbLine
 10
93.5537
 20
28.0012
 30
0.0
 11
95.2402
 21
29.1632
 31
0.0
  0
LINE
  5
796
330
1D
100
AcDbEntity
  8
0
100
AcDbLine
 10
93.656
 20
27.3072
 30
0.0
 11
95.3031
 21
28.5542
 31
0.0
  0
LINE
  5
797
330
1D
100
AcDbEntity
  8
0
100
AcDbLine
 10
95.2395
 20
29.1632
 30
0.0
 11
97.1539
 21
29.8892
 31
0.0
  0
LINE
  5
798
330
1D
100
AcDbEntity
  8
0
100
AcDbLine
 10
95.3031
 20
28.5542
 30
0.0
 11
97.209
 21
29.3312
 31
0.0
  0
LINE
  5
799
330
1D
100
AcDbEntity
  8
0
100
AcDbLine
 10
106.8325
 20
23.7542
 30
0.0
 11
107.1148
 21
21.7312
 31
0.0
  0
LINE
  5
79A
330
1D
100
AcDbEntity
  8
0
100
AcDbLine
 10
107.6179
 20
22.6662
 30
0.0
 11
107.6179
 21
20.6192
 31
0.0
  0
LINE
  5
79B
330
1D
100
AcDbEntity
  8
0
100
AcDbLine
 10
107.6175
 20
22.6672
 30
0.0
 11
107.6175
 21
20.6192
 31
0.0
  0
LINE
  5
79C
330
1D
100
AcDbEntity
  8
0
100
AcDbLine
 10
106.176
 20
16.8182
 30
0.0
 11
107.1274
 21
18.6312
 31
0.0
  0
LINE
  5
79D
330
1D
100
AcDbEntity
  8
0
100
AcDbLine
 10
106.056
 20
17.8022
 30
0.0
 11
106.8325
 21
19.7072
 31
0.0
  0
LINE
  5
79E
330
1D
100
AcDbEntity
  8
0
100
AcDbLine
 10
101.256
 20
14.1311
 30
0.0
 11
103.1619
 21
14.9076
 31
0.0
  0
LINE
  5
79F
330
1D
100
AcDbEntity
  8
0
100
AcDbLine
 10
103.1326
 20
14.1238
 30
0.0
 11
104.8191
 21
15.2865
 31
0.0
  0
LINE
  5
7A0
330
1D
100
AcDbEntity
  8
0
100
AcDbLine
 10
101.219
 20
13.3969
 30
0.0
 11
103.1333
 21
14.1229
 31
0.0
  0
LINE
  5
7A1
330
1D
100
AcDbEntity
  8
0
100
AcDbLine
 10
99.186437584247
 20
13.150104563511
 30
0.0
 11
101.219
 21
13.3969
 31
0.0
  0
LINE
  5
7A2
330
1D
100
AcDbEntity
  8
0
100
AcDbLine
 10
99.2325
 20
13.8487
 30
0.0
 11
101.256
 21
14.1311
 31
0.0
  0
LINE
  5
7A3
330
1D
100
AcDbEntity
  8
0
100
AcDbLine
 10
99.1873
 20
13.15
 30
0.0
 11
101.2194
 21
13.3966
 31
0.0
  0
LINE
  5
7A4
330
1D
100
AcDbEntity
  8
0
100
AcDbLine
 10
101.219
 20
13.3969
 30
0.0
 11
101.753784095667
 21
13.599717350182
 31
0.0
  0
LINE
  5
7A5
330
1D
100
AcDbEntity
  8
0
100
AcDbLine
 10
103.1619
 20
14.9076
 30
0.0
 11
104.8089
 21
16.1546
 31
0.0
  0
LINE
  5
7A6
330
1D
100
AcDbEntity
  8
0
100
AcDbLine
 10
104.8089
 20
16.1546
 30
0.0
 11
106.056
 21
17.8022
 31
0.0
  0
LINE
  5
7A7
330
1D
100
AcDbEntity
  8
0
100
AcDbLine
 10
104.8191
 20
15.2865
 30
0.0
 11
106.1762
 21
16.8182
 31
0.0
  0
LINE
  5
7A8
330
1D
100
AcDbEntity
  8
0
100
AcDbLine
 10
106.8325
 20
19.7072
 30
0.0
 11
107.1148
 21
21.7312
 31
0.0
  0
LINE
  5
7A9
330
1D
100
AcDbEntity
  8
0
100
AcDbLine
 10
107.1274
 20
18.6312
 30
0.0
 11
107.6175
 21
20.6192
 31
0.0
  0
LINE
  5
7AA
330
1D
100
AcDbEntity
  8
0
100
AcDbLine
 10
106.056
 20
25.6602
 30
0.0
 11
106.8325
 21
23.7542
 31
0.0
  0
LINE
  5
7AB
330
1D
100
AcDbEntity
  8
0
100
AcDbLine
 10
106.1762
 20
26.4672
 30
0.0
 11
107.1283
 21
24.6552
 31
0.0
  0
LINE
  5
7AC
330
1D
100
AcDbEntity
  8
0
100
AcDbLine
 10
99.2325
 20
29.6132
 30
0.0
 11
101.256
 21
29.3312
 31
0.0
  0
LINE
  5
7AD
330
1D
100
AcDbEntity
  8
0
100
AcDbLine
 10
101.256
 20
29.3312
 30
0.0
 11
103.1619
 21
28.5542
 31
0.0
  0
LINE
  5
7AE
330
1D
100
AcDbEntity
  8
0
100
AcDbLine
 10
103.1326
 20
29.1632
 30
0.0
 11
104.8191
 21
28.0012
 31
0.0
  0
LINE
  5
7AF
330
1D
100
AcDbEntity
  8
0
100
AcDbLine
 10
101.2194
 20
29.8892
 30
0.0
 11
103.1326
 21
29.1632
 31
0.0
  0
LINE
  5
7B0
330
1D
100
AcDbEntity
  8
0
100
AcDbLine
 10
103.1619
 20
28.5542
 30
0.0
 11
104.8089
 21
27.3072
 31
0.0
  0
LINE
  5
7B1
330
1D
100
AcDbEntity
  8
0
100
AcDbLine
 10
104.8089
 20
27.3072
 30
0.0
 11
106.056
 21
25.6602
 31
0.0
  0
LINE
  5
7B2
330
1D
100
AcDbEntity
  8
0
100
AcDbLine
 10
104.8191
 20
28.0012
 30
0.0
 11
106.1762
 21
26.4672
 31
0.0
  0
LINE
  5
7B3
330
1D
100
AcDbEntity
  8
0
100
AcDbLine
 10
107.1283
 20
24.6552
 30
0.0
 11
107.6179
 21
22.6662
 31
0.0
  0
LINE
  5
7B4
330
1D
100
AcDbEntity
  8
0
100
AcDbLine
 10
107.1275
 20
24.6552
 30
0.0
 11
107.6175
 21
22.6672
 31
0.0
  0
ENDSEC
  0
SECTION
  2
OBJECTS
  0
DICTIONARY
  5
C
330
0
100
AcDbDictionary
281
     1
  3
ACAD_GROUP
350
D
  3
ACAD_LAYOUT
350
1A
  3
ACAD_MLEADERSTYLE
350
6C6
  3
ACAD_MLINESTYLE
350
17
  3
ACAD_PLOTSETTINGS
350
19
  3
ACAD_PLOTSTYLENAME
350
E
  3
ACAD_SCALELIST
350
438
  3
AcDbVariableDictionary
350
7B5
  3
DWGPROPS
350
7B8
  0
DICTIONARY
  5
D
102
{ACAD_REACTORS
330
C
102
}
330
C
100
AcDbDictionary
281
     1
  0
DICTIONARY
  5
1A
102
{ACAD_REACTORS
330
C
102
}
330
C
100
AcDbDictionary
281
     1
  3
Layout1
350
1C
  3
Model
350
1E
  0
DICTIONARY
  5
6C6
102
{ACAD_REACTORS
330
C
102
}
330
C
100
AcDbDictionary
281
     1
  0
DICTIONARY
  5
17
102
{ACAD_REACTORS
330
C
102
}
330
C
100
AcDbDictionary
281
     1
  3
Standard
350
18
  0
DICTIONARY
  5
19
102
{ACAD_REACTORS
330
C
102
}
330
C
100
AcDbDictionary
281
     1
  0
ACDBDICTIONARYWDFLT
  5
E
102
{ACAD_REACTORS
330
C
102
}
330
C
100
AcDbDictionary
281
     1
  3
Normal
350
F
100
AcDbDictionaryWithDefault
340
F
  0
DICTIONARY
  5
438
102
{ACAD_REACTORS
330
C
102
}
330
C
100
AcDbDictionary
281
     1
  3
A0
350
439
  3
A1
350
43A
  3
A2
350
43B
  3
A3
350
43C
  3
A4
350
43D
  3
A5
350
43E
  3
A6
350
43F
  3
A7
350
440
  3
A8
350
441
  3
A9
350
442
  3
B0
350
443
  3
B1
350
444
  3
B2
350
445
  3
B3
350
446
  3
B4
350
447
  3
B5
350
448
  3
B6
350
449
  3
B7
350
44A
  3
B8
350
44B
  3
B9
350
44C
  3
C0
350
44D
  3
C1
350
44E
  3
C2
350
44F
  3
C3
350
450
  3
C4
350
451
  3
C5
350
452
  3
C6
350
453
  3
C7
350
454
  3
C8
350
455
  3
C9
350
456
  3
D0
350
457
  3
D1
350
458
  3
D2
350
459
  0
DICTIONARY
  5
7B5
102
{ACAD_REACTORS
330
C
102
}
330
C
100
AcDbDictionary
281
     1
  3
CANNOSCALE
350
7B6
  0
XRECORD
  5
7B8
102
{ACAD_REACTORS
330
C
102
}
330
C
100
AcDbXrecord
280
     1
  1
DWGPROPS COOKIE
  2

  3

  4

  6

  7

  8
MARTIN
  9

300
=
301
=
302
=
303
=
304
=
305
=
306
=
307
=
308
=
309
=
 40
0.0
 41
2456184.494671655
 42
2456184.533991134
  1

 90
        0
  0
LAYOUT
  5
1C
102
{ACAD_REACTORS
330
1A
102
}
330
1A
100
AcDbPlotSettings
  1

  2
none_device
  4

  6

 40
0.0
 41
0.0
 42
0.0
 43
0.0
 44
0.0
 45
0.0
 46
0.0
 47
0.0
 48
0.0
 49
0.0
140
0.0
141
0.0
142
1.0
143
1.0
 70
   688
 72
     0
 73
     0
 74
     5
  7

 75
    16
147
1.0
148
0.0
149
0.0
100
AcDbLayout
  1
Layout1
 70
     1
 71
     1
 10
0.0
 20
0.0
 11
12.0
 21
9.0
 12
0.0
 22
0.0
 32
0.0
 14
1.000000000000E+20
 24
1.000000000000E+20
 34
1.000000000000E+20
 15
-1.000000000000E+20
 25
-1.000000000000E+20
 35
-1.000000000000E+20
146
0.0
 13
0.0
 23
0.0
 33
0.0
 16
1.0
 26
0.0
 36
0.0
 17
0.0
 27
1.0
 37
0.0
 76
     0
330
1B
  0
LAYOUT
  5
1E
102
{ACAD_REACTORS
330
1A
102
}
330
1A
100
AcDbPlotSettings
  1

  2
none_device
  4

  6

 40
0.0
 41
0.0
 42
0.0
 43
0.0
 44
0.0
 45
0.0
 46
0.0
 47
0.0
 48
0.0
 49
0.0
140
0.0
141
0.0
142
1.0
143
1.0
 70
  1712
 72
     0
 73
     0
 74
     0
  7

 75
     0
147
1.0
148
0.0
149
0.0
100
AcDbLayout
  1
Model
 70
     1
 71
     0
 10
0.0
 20
0.0
 11
12.0
 21
9.0
 12
0.0
 22
0.0
 32
0.0
 14
0.0
 24
0.0
 34
0.0
 15
121.0
 25
121.0
 35
0.0
146
0.0
 13
0.0
 23
0.0
 33
0.0
 16
1.0
 26
0.0
 36
0.0
 17
0.0
 27
1.0
 37
0.0
 76
     0
330
1D
331
433
  0
MLINESTYLE
  5
18
102
{ACAD_REACTORS
330
17
102
}
330
17
100
AcDbMlineStyle
  2
Standard
 70
     0
  3

 62
   256
 51
90.0
 52
90.0
 71
     2
 49
0.5
 62
   256
  6
BYLAYER
 49
-0.5
 62
   256
  6
BYLAYER
  0
ACDBPLACEHOLDER
  5
F
102
{ACAD_REACTORS
330
E
102
}
330
E
  0
SCALE
  5
439
102
{ACAD_REACTORS
330
438
102
}
330
438
100
AcDbScale
 70
     0
300
1:1
140
1.0
141
1.0
290
     1
  0
SCALE
  5
43A
102
{ACAD_REACTORS
330
438
102
}
330
438
100
AcDbScale
 70
     0
300
1:2
140
1.0
141
2.0
290
     0
  0
SCALE
  5
43B
102
{ACAD_REACTORS
330
438
102
}
330
438
100
AcDbScale
 70
     0
300
1:4
140
1.0
141
4.0
290
     0
  0
SCALE
  5
43C
102
{ACAD_REACTORS
330
438
102
}
330
438
100
AcDbScale
 70
     0
300
1:5
140
1.0
141
5.0
290
     0
  0
SCALE
  5
43D
102
{ACAD_REACTORS
330
438
102
}
330
438
100
AcDbScale
 70
     0
300
1:8
140
1.0
141
8.0
290
     0
  0
SCALE
  5
43E
102
{ACAD_REACTORS
330
438
102
}
330
438
100
AcDbScale
 70
     0
300
1:10
140
1.0
141
10.0
290
     0
  0
SCALE
  5
43F
102
{ACAD_REACTORS
330
438
102
}
330
438
100
AcDbScale
 70
     0
300
1:16
140
1.0
141
16.0
290
     0
  0
SCALE
  5
440
102
{ACAD_REACTORS
330
438
102
}
330
438
100
AcDbScale
 70
     0
300
1:20
140
1.0
141
20.0
290
     0
  0
SCALE
  5
441
102
{ACAD_REACTORS
330
438
102
}
330
438
100
AcDbScale
 70
     0
300
1:30
140
1.0
141
30.0
290
     0
  0
SCALE
  5
442
102
{ACAD_REACTORS
330
438
102
}
330
438
100
AcDbScale
 70
     0
300
1:40
140
1.0
141
40.0
290
     0
  0
SCALE
  5
443
102
{ACAD_REACTORS
330
438
102
}
330
438
100
AcDbScale
 70
     0
300
1:50
140
1.0
141
50.0
290
     0
  0
SCALE
  5
444
102
{ACAD_REACTORS
330
438
102
}
330
438
100
AcDbScale
 70
     0
300
1:100
140
1.0
141
100.0
290
     0
  0
SCALE
  5
445
102
{ACAD_REACTORS
330
438
102
}
330
438
100
AcDbScale
 70
     0
300
2:1
140
2.0
141
1.0
290
     0
  0
SCALE
  5
446
102
{ACAD_REACTORS
330
438
102
}
330
438
100
AcDbScale
 70
     0
300
4:1
140
4.0
141
1.0
290
     0
  0
SCALE
  5
447
102
{ACAD_REACTORS
330
438
102
}
330
438
100
AcDbScale
 70
     0
300
8:1
140
8.0
141
1.0
290
     0
  0
SCALE
  5
448
102
{ACAD_REACTORS
330
438
102
}
330
438
100
AcDbScale
 70
     0
300
10:1
140
10.0
141
1.0
290
     0
  0
SCALE
  5
449
102
{ACAD_REACTORS
330
438
102
}
330
438
100
AcDbScale
 70
     0
300
100:1
140
100.0
141
1.0
290
     0
  0
SCALE
  5
44A
102
{ACAD_REACTORS
330
438
102
}
330
438
100
AcDbScale
 70
     0
300
1/128" = 1'-0"
140
0.0078125
141
12.0
290
     0
  0
SCALE
  5
44B
102
{ACAD_REACTORS
330
438
102
}
330
438
100
AcDbScale
 70
     0
300
1/64" = 1'-0"
140
0.015625
141
12.0
290
     0
  0
SCALE
  5
44C
102
{ACAD_REACTORS
330
438
102
}
330
438
100
AcDbScale
 70
     0
300
1/32" = 1'-0"
140
0.03125
141
12.0
290
     0
  0
SCALE
  5
44D
102
{ACAD_REACTORS
330
438
102
}
330
438
100
AcDbScale
 70
     0
300
1/16" = 1'-0"
140
0.0625
141
12.0
290
     0
  0
SCALE
  5
44E
102
{ACAD_REACTORS
330
438
102
}
330
438
100
AcDbScale
 70
     0
300
3/32" = 1'-0"
140
0.09375
141
12.0
290
     0
  0
SCALE
  5
44F
102
{ACAD_REACTORS
330
438
102
}
330
438
100
AcDbScale
 70
     0
300
1/8" = 1'-0"
140
0.125
141
12.0
290
     0
  0
SCALE
  5
450
102
{ACAD_REACTORS
330
438
102
}
330
438
100
AcDbScale
 70
     0
300
3/16" = 1'-0"
140
0.1875
141
12.0
290
     0
  0
SCALE
  5
451
102
{ACAD_REACTORS
330
438
102
}
330
438
100
AcDbScale
 70
     0
300
1/4" = 1'-0"
140
0.25
141
12.0
290
     0
  0
SCALE
  5
452
102
{ACAD_REACTORS
330
438
102
}
330
438
100
AcDbScale
 70
     0
300
3/8" = 1'-0"
140
0.375
141
12.0
290
     0
  0
SCALE
  5
453
102
{ACAD_REACTORS
330
438
102
}
330
438
100
AcDbScale
 70
     0
300
1/2" = 1'-0"
140
0.5
141
12.0
290
     0
  0
SCALE
  5
454
102
{ACAD_REACTORS
330
438
102
}
330
438
100
AcDbScale
 70
     0
300
3/4" = 1'-0"
140
0.75
141
12.0
290
     0
  0
SCALE
  5
455
102
{ACAD_REACTORS
330
438
102
}
330
438
100
AcDbScale
 70
     0
300
1" = 1'-0"
140
1.0
141
12.0
290
     0
  0
SCALE
  5
456
102
{ACAD_REACTORS
330
438
102
}
330
438
100
AcDbScale
 70
     0
300
1-1/2" = 1'-0"
140
1.5
141
12.0
290
     0
  0
SCALE
  5
457
102
{ACAD_REACTORS
330
438
102
}
330
438
100
AcDbScale
 70
     0
300
3" = 1'-0"
140
3.0
141
12.0
290
     0
  0
SCALE
  5
458
102
{ACAD_REACTORS
330
438
102
}
330
438
100
AcDbScale
 70
     0
300
6" = 1'-0"
140
6.0
141
12.0
290
     0
  0
SCALE
  5
459
102
{ACAD_REACTORS
330
438
102
}
330
438
100
AcDbScale
 70
     0
300
1'-0" = 1'-0"
140
12.0
141
12.0
290
     0
  0
DICTIONARYVAR
  5
7B6
102
{ACAD_REACTORS
330
7B5
102
}
330
7B5
100
DictionaryVariables
280
     0
  1
1:1
  0
ENDSEC
  0
SECTION
  2
THUMBNAILIMAGE
 90
    16364
310
28000000B40000005500000001000800000000000000000000000000000000000000000000000000FFFFFF000000FF0000FFFF0000FF0000FFFF0000FF000000FF00FF000000000080808000C0C0C0000000FF007F7FFF000000A5005252A50000007F003F3F7F0000004C0026264C000000260013132600003FFF007F9FFF
310
000029A5005267A500001F7F003F4F7F0000134C00262F4C000009260013172600007FFF007FBFFF000052A500527CA500003F7F003F5F7F0000264C0026394C0000132600131C260000BFFF007FDFFF00007CA5005291A500005F7F003F6F7F0000394C0026424C00001C26001321260000FFFF007FFFFF0000A5A50052A5
310
A500007F7F003F7F7F00004C4C00264C4C00002626001326260000FFBF007FFFDF0000A57C0052A59100007F5F003F7F6F00004C3900264C420000261C001326210000FF7F007FFFBF0000A5520052A57C00007F3F003F7F5F00004C2600264C39000026130013261C0000FF3F007FFF9F0000A5290052A56700007F1F003F
310
7F4F00004C1300264C2F00002609001326170000FF00007FFF7F0000A5000052A55200007F00003F7F3F00004C0000264C260000260000132613003FFF00009FFF7F0029A5000067A552001F7F00004F7F3F00134C00002F4C260009260000172613007FFF0000BFFF7F0052A500007CA552003F7F00005F7F3F00264C0000
310
394C2600132600001C261300BFFF0000DFFF7F007CA5000091A552005F7F00006F7F3F00394C0000424C26001C26000021261300FFFF0000FFFF7F00A5A50000A5A552007F7F00007F7F3F004C4C00004C4C26002626000026261300FFBF0000FFDF7F00A57C0000A59152007F5F00007F6F3F004C3900004C422600261C00
310
0026211300FF7F0000FFBF7F00A5520000A57C52007F3F00007F5F3F004C2600004C39260026130000261C1300FF3F0000FF9F7F00A5290000A56752007F1F00007F4F3F004C1300004C2F26002609000026171300FF000000FF7F7F00A5000000A55252007F0000007F3F3F004C0000004C2626002600000026131300FF00
310
3F00FF7F9F00A5002900A55267007F001F007F3F4F004C0013004C262F002600090026131700FF007F00FF7FBF00A5005200A5527C007F003F007F3F5F004C0026004C2639002600130026131C00FF00BF00FF7FDF00A5007C00A55291007F005F007F3F6F004C0039004C26420026001C0026132100FF00FF00FF7FFF00A5
310
00A500A552A5007F007F007F3F7F004C004C004C264C002600260026132600BF00FF00DF7FFF007C00A5009152A5005F007F006F3F7F0039004C0042264C001C002600211326007F00FF00BF7FFF005200A5007C52A5003F007F005F3F7F0026004C0039264C00130026001C1326003F00FF009F7FFF002900A5006752A500
310
1F007F004F3F7F0013004C002F264C000900260017132600000000002D2D2D005B5B5B0089898900B7B7B700B3B3B30000000000000000000000000000000000000000000000000000000000000000000000000000000000000000000000000007070707070707070707070707070707070707070707070707070707070707
310
07070707070707070707070707070707070707070707070707070707070707070707070707070707070707070707070707070707070700000000000000000000000000000000000000000000000000000000000000000000000000000000000000000000000000000000000000000000000000000000000000000000000000
310
00000000000000000000000000000000000000000000070000000000000000000000000000000000000000000000000000000000000000000000000000000000000000000000000000000000000000000000000000000000000000000000000000000000000000000000070000000000000000000000000000000000000000
310
00000000000000000000000000000000000000000000000000000000000000000000000000000000000000000000000000000000000000000000000000000000000000000000000000000007000000000000000000000000000000000000000000000000000000000000000000000000000000000000000000000000000000
310
00000000000000000000000000000000000000000000000000000000000000000700000000000000000000000000000000000000000000000000000000000000000000000000000000000000000000000000000000000000000000000000000000000000000000000000000000000000000000000000000000000000000000
310
00070000000000000000000000000000000000000000000000000000000000000000000000000000000000000000000000000000000000000000000000000000000000000000000000000000000000000000000000070000000000000000000000000000000000000000000000000000000000000000000000000000000000
310
00000000000000000000000000000000000000000000000000000000000000000000000000000000000000000000000000000000000007000000000000000000000000000000000000000000000000000000000000000000000000000000000000000000000000000000000000000000000000000000000000000000000000
310
00000000000000000000000700000000000000000000000000000000000000000000000000000000000000000000000000000000000000000000000000000000000000000000000000000000000000000000000000000000000000000000000000000000000000000000000700000000000000000000000000000000000000
310
00000000000000000000000000000000000000000000000000000000000000000000000000000000000000000000000000000000000000000000000000000000070000000000000000000000000000000000000000000000000000000000000000000000000000000000000000000000000000000000000000000000000000
310
00000000000000000000000000000000000000000000000000000000000000000007000000000000000000000000000000000000000000000000000000000000000000000000000000000000000000000000000000000000000000000000000000000000000000000000000000000000000000000007000000000000000000
310
00000000000000000000000000000000000000000000000000000000000000000000000000000000000000000000000000000000000000000000000000000000000000000000000000000000000000000000000000000700000000000000000000000000000000000000000000000000000000000000000000000000000000
310
00000000000000000000000000000000000000000000000000000000000000000000000000000000000000070000000000000000000000000000000000000000000000000000000000000000000000000000000000000000000000000000000000000000000000000000000000000000000000000000000000000000000000
310
00000000000000000000000007000000000000000000000000000000000000000000000000000000000000000000000000000000000000000000000000000000000000000000000000000000000000000000000000000000000000000000000007000000000000000000000000000000000000000000000000000000000000
310
00000000000000000000000000000000000000000000000000000000000000000000000000000000000000000000000000000000000000000000000000000000000700000000000000000000000000070707070000000000000000000000000000000000000000000000000000000000000000000000000000000000000000
310
00000000000707070700000000000000000000000000070000000000000000000000000000000000000000000000000000000000000000000000000000000000000000000000000000000000000000000000000000000000000000000000000000000000000000000000000000000000000000000000070000000000000000
310
00000707070700070707070000000000000000000000000000000000000000000000000000000000000000000000000000000000000000000707070700070707070000000000000000000007000000000000000000000000000000000000000000000000000000000000000000000000000000000000000000000000000000
310
00000000000000000000000000000000000000000000000000000000000000000000000000000000000000000700000000000000000007070700000000000007070000000000000000000000000000000000000000000000000000000000000000000000000000000000000007070000000000000707000000000000000000
310
00070000000000000000000000000000000000000000000000000000000000000000000000000000000000000000000000000000000000000000000000000000000000000000000000000000000000000000000000000000000000000000000000070000000000000000000707000000000000000007000000000000000000
310
00000000000000000000000000000000000000000000000000000000000000000007070000000000000000070000000000000000000007000000000000000000000000000000000000000000000000000000000000000000000000000000000000000000000000000000000000000000000000000000000000000000000000
310
00000000000000000000000000000000000000000000000700000000000000000007000000000000000000000700000000000000000000000000000000000000000000000000000000000000000000000000000000000700000000000000000000070000000000000000000700000000000000000000000000000000000000
310
00000000000000000000000000000000000000000000000000000000000000000000000000000000000000000000000000000000000000000000000000000000000000000000000000000000070000000000000000070700000000000000000000070000000000000000000000000000000000000000000000000000000000
310
00000000000000000000000007000000000000000000000700000000000000000007000000000000000000000000000000000000000000000000000000000000000000000000000000000000000000000000000000000000000000000000000000000000000000000000000000000000000000000000000000000000000000
310
00000700000000000000000707000000000000000000000700000000000000000000000000000000000000000000000000000000000000000000000000000000000700000000000000000000070000000000000000000700000000000000000000000000000000000000000000000000000000000000000000000000000000
310
00000000000000000000000000000000000000000000000000000000000000000000000000000000000000000000000000000000000000070000000000000000070700000000000000000000070000000000000000000000000000000000000000000000000000000000000000000000000000000000070000000000000000
310
00000700000000000000000007000000000000000000000000000000000000000000000000000000000000000000000000000000000000000000000000000000000000000000000000000000000000000000000000000000000000000000000000000000000000000000000007000000000000000000070000000000000000
310
00070700000000000000000000000000000000000000000000000000000000000000000000000000000000000700000000000000000007070000000000000000000700000000000000000000000000000000000000000000000000000000000000000000000000000000000000000000000000000000000000000000000000
310
00000000000000000000000000000000000000000000000000000000000000000000070000000000000000000707000000000000000007000000000000000000000000000000000000000000000000000000000000000000000000000000000000000700000000000000000700000000000000000000070000000000000000
310
00000000000000000000000000000000000000000000000000000000000000000000000000000000000000000000000000000000000000000000000000000000000000000000000000000000000000000000000000000007000000000000000000000707070000000007070000000000000000000000000000000000000000
310
00000000000000000000000000000000000000000000000000070700000000070707000000000000000000000700000000000000000000000000000000000000000000000000000000000000000000000000000000000000000000000000000000000000000000000000000000000000000000000000000000000000000000
310
00000000000000000000000000070000000000000000000000070707070707070000000000000000000000000000000000000000000000000000000000000000000000000000000000000000000000070707070707070000000000000000000000070000000000000000000000000000000000000000000000000000000000
310
00000000000000000000000000000000000000000000000000000000000000000000000000000000000000000000000000000000000000000000000000000000000007000000000000000000000000000007070000000000000000000000000000000000000000000000000000000000000000000000000000000000000000
310
00000000000000070700000000000000000000000000000700000000000000000000000000000000000000000000000000000000000000000000000000000000000000000000000000000000000000000000000000000000000000000000000000000000000000000000000000000000000000000000000700000000000000
310
00000000000000000000000000000000000000000000000000000000000000000007000700000000000000000000000000000000000000000000000000000000000000000000000000000000070000000000000000000000000000000000000000000000000000000000000000000000000000000000000000000000000000
310
00000000000000000000000000000000000000000000000000000000000000000000000000000000000000000007000000000000000000000000000000000000000000000000000000000000000000000007070707070000000707070707000000000000000000000000000000000000000000000000000000000000000000
310
00000700000000000000000000000000000000000000000000000000000000000000000000000000000000000000000000000000000000000000000000000000000000000000000000000000000000000000000000000000000000000000000000000700000000000000000000000000000000000000000000000000000000
310
00000000000707000707070707000707070707000707000000000000000000000000000000000000000000000000000000000000000000070000000000000000000000000000000000000000000000000000000000000000000000000000000000000000000000000000000000000000000000000000000000000000000000
310
00000000000000000000000000000000000000000000000007000000000000000000000000000000000000000000000000000000000000000707000007000000000000000000000007000007070000000000000000000000000000000000000000000000000000000000000007000000000000000000000000000000000000
310
00000000000000000000000000000000000000000000000000000000000000000000000000000000000000000000000000000000000000000000000000000000000000000000000000000000000700000000000000000000000000000000000000000000000000000000000007070007070000000000000000000000000007
310
07000707000000000000000000000000000000000000000000000000000000000000070000000000000000000000000000000000000000000000000000000000000000000000000000000000000000000000000000000000000000000000000000000000000000000000000000000000000000000000000000000000000000
310
00000007000000000000000000000000000000000000000000000000000000000707000000000000000000000000000000000000000000000007070000000000000000000000000000000000000000000000000000000007000000000000000000000000000000000000000000000000000000000000000000000000000000
310
00000000000000000000000000000000000000000000000000000000000000000000000000000000000000000000000000000000000000000700000000000000000000000000000000000000000000000000000007000000070000000000000000000000000000000000000007000000070000000000000000000000000000
310
00000000000000000000000000070000000000000000000000000000000000000000000000000000000000000000000000000000000000000000000000000000000000000000000000000000000000000000000000000000000000000000000000000000000000000000000000070000000000000000000000000000000000
310
00000000000000000000070000070000000000000000000000000000000000000000000700000700000000000000000000000000000000000000000000000000000007000000000000000000000000000000000000000000000000000000000000000000000000000000000000000000000000000000000000000000000000
310
00000000000000000000000000000000000000000000000000000000000000000000000700000000000000000000000000000000000000000000000000000700000700000000000000000000000000000000000000000000000700000700000000000000000000000000000000000000000000000000000700000000000000
310
00000000000000000000000000000000000000000000000000000000000000000000000000000000000000000000000000000000000000000000000000000000000000000000000000000000000000000000000000000000070000000000000000000000000000000000000000000000000007000007000000000000000000
310
00000000000000000000000000000007000000070000000000000000000000000000000000000000000000000007000000000000000000000000000000000000000000000000000000000000000000000000000000000000000000000000000000000000000000000000000000000000000000000000000000000000000000
310
00000000000000000000000000000700000000000000000000000000000000000000000000000007000000070000000000000000000000000000000000000000000000000007000000070000000000000000000000000000000000000000000000000700000000000000000000000000000000000000000000000000000000
310
00000000000000000000000000000000000000000000000000000000000000000000000000000000000000000000000000000000000000000000000000000000000000070000000000000000000000000000000000000000000000000700000700000000000000000000000000000000000000000000000000000700000007
310
00000000000000000000000000000000000000000000000007000000000000000000000000000000000000000000000000000000000000000000000000000000000000000000000000000000000000000000000000000000000000000000000000000000000000000000000000000000000000000000000007000000000000
310
00000000000000000000000000000000000007000007000000000000000000000000000000000000000000000000000000070000070000000000000000000000000000000000000000000000000700000000000000000000000000000000000000000000000000000000000000000000000000000000000000000000000000
310
00000000000000000000000000000000000000000000000000000000000000000000000000000000000000000000070000000000000000000000000000000000000000000000070000000700000000000000000000000000000000000000000000000000000007000000070000000000000000000000000000000000000000
310
00000007000000000000000000000000000000000000000000000000000000000000000000000000000000000000000000000000000000000000000000000000000000000000000000000000000000000000000000000000000000000000000000000007000000000000000000000000000000000000000000000007000007
310
00000000000000000000000000000000000000000000000000000000070000000700000000000000000000000000000000000000000000000700000000000000000000000000000000000000000000000000000000000000000000000000000000000000000000000000000000000000000000000000000000000000000000
310
00000000000000000000000000000000000000000000000000070000000000000000000000000000000000000000000000070000070000000000000000000000000000000000000000000000000000000000070000070000000000000000000000000000000000000000000000070000000000000000000000000000000000
310
00000000000000000000000000000000000000000000000000000000000000000000000000000000000000000000000000000000000000000000000000000000000000000000000000000000000007000000000000000000000000000000000000000000000707000007000000000000000000000000000000000000000000
310
00000000000000000700000707000000000000000000000000000000000000000000000700000000000000000000000000000000000000000000000000000000000000000000000000000000000000000000000000000000000000000000000000000000000000000000000000000000000000000000000000000000000000
310
00000000070000000000000000000000000000000000000000000007000000070000000000000000000000000000000000000000000000000000000000070000000700000000000000000000000000000000000000000000070000000000000000000000000000000000000000000000000000000000000000000000000000
310
00000000000000000000000000000000000000000000000000000000000000000000000000000000000000000000000000000000000000000007000000000000000000000000000000000000000000000700000007000000000000000000000000000000000000000000000000000000000007000000070000000000000000
310
00000000000000000000000000000700000000000000000000000000000000000000000000000000000000000000000000000000000000000000000000000000000000000000000000000000000000000000000000000000000000000000000000000000000000000000000000000700000000000000000000000000000000
310
00000000000007000000070000000000000000000000000000000000000000000000000000000000070000000700000000000000000000000000000000000000000000070000000000000000000000000000000000000000000000000000000000000000000000000000000000000000000000000000000000000000000000
310
00000000000000000000000000000000000000000000000000000000000000000000000007000000000000000000000000000000000000000000000700000007000000000000000000000000000000000000000000000000000000000007000000070000000000000000000000000000000000000000000007000000000000
310
00000000000000000000000000000000000000000000000000000000000000000000000000000000000000000000000000000000000000000000000000000000000000000000000000000000000000000000000000000000000700000000000000000000000000000000000000000000070000000700000000000000000000
310
00000000000000000000000000000000000000070000000700000000000000000000000000000000000000000000070000000000000000000000000000000000000000000000000000000000000000000000000000000000000000000000000000000000000000000000000000000000000000000000000000000000000000
310
00000000000000000000000000000007000000000000000000000000000000000000000000000700000007000000000000000000000000000000000000000000000000000000000007000000070000000000000000000000000000000000000000000007000000000000000000000000000000000000000000000000000000
310
00000000000000000000000000000000000000000000000000000000000000000000000000000000000000000000000000000000000000000000000000000000000000000700000000000000000000000000000000000000000000000700000700000000000000000000000000000000000000000000000000000000070000
310
00070000000000000000000000000000000000000000000000070000000000000000000000000000000000000000000000000000000000000000000000000000000000000000000000000000000000000000000000000000000000000000000000000000000000000000000000000000000000000000000000070000000000
310
00000000000000000000000000000000000007000000070000000000000000000000000000000000000000000000000000000700000007000000000000000000000000000000000000000000000007000000000000000000000000000000000000000000000000000000000000000000000000000000000000000000000000
310
00000000000000000000000000000000000000000000000000000000000000000000000000000000000000000000000700000000000000000000000000000000000000000000000700000007000000000000000000000000000000000000000000000000000000070000000700000000000000000000000000000000000000
310
00000000070000000000000000000000000000000000000000000000000000000000000000000000000000000000000000000000000000000000000000000000000000000000000000000000000000000000000000000000000000000000000000000000070000000000000000000000000000000000000000000000070000
310
00000000000000000000000000000000000000000000000000000000000000000007000000000000000000000000000000000000000000000007000000000000000000000000000000000000000000000000000000000000000000000000000000000000000000000000000000000000000000000000000000000000000000
310
00000000000000000000000000000000000000000000000000000700000000000000000000000000000000000000000000000007000000070000000000000000000000000000000000000000000000000007000000070000000000000000000000000000000000000000000000000700000000000000000000000000000000
310
00000000000000000000000000000000000000000000000000000000000000000000000000000000000000000000000000000000000000000000000000000000000000000000000000000000000000070000000000000000000000000000000000000000000000000700000007000000000000000000000000000000000000
310
00000000000000070000000700000000000000000000000000000000000000000000000007000000000000000000000000000000000000000000000000000000000000000000000000000000000000000000000000000000000000000000000000000000000000000000000000000000000000000000000000000000000000
310
00000000000700000000000000000000000000000000000000000000000000070000070000000000000000000000000000000000000000000000000700000007000000000000000000000000000000000000000000000000000700000000000000000000000000000000000000000000000000000000000000000000000000
310
00000000000000000000000000000000000000000000000000000000000000000000000000000000000000000000000000000000000000000000070000000000000000000000000000000000000000000000000007000000070000000000000000000000000000000000000000000000070000000700000000000000000000
310
00000000000000000000000000000007000000000000000000000000000000000000000000000000000000000000000000000000000000000000000000000000000000000000000000000000000000000000000000000000000000000000000000000000000000000000000000000007000000000000000000000000000000
310
00000000000000000000000707000700000000000000000000000000000000000000000000070000070700000000000000000000000000000000000000000000000000000700000000000000000000000000000000000000000000000000000000000000000000000000000000000000000000000000000000000000000000
310
00000000000000000000000000000000000000000000000000000000000000000000000000070000000000000000000000000000000000000000000000000000000700000700000000000000000000000000000000000000000007000007000000000000000000000000000000000000000000000000000000070000000000
310
00000000000000000000000000000000000000000000000000000000000000000000000000000000000000000000000000000000000000000000000000000000000000000000000000000000000000000000000000000000000007000000000000000000000000000000000000000000000000000000000700000700000000
310
00000000000000000000000000000007000007000000000000000000000000000000000000000000000000000000000700000000000000000000000000000000000000000000000000000000000000000000000000000000000000000000000000000000000000000000000000000000000000000000000000000000000000
310
00000000000000000000000000000000070000000000000000000000000000000000000000000000000000000000070007000000000000000000000000000000000000000700070000000000000000000000000000000000000000000000000000000000070000000000000000000000000000000000000000000000000000
310
00000000000000000000000000000000000000000000000000000000000000000000000000000000000000000000000000000000000000000000000000000000000000000007000000000000000000000000000000000000000000000000000000000000070707000000000000000000000000000000000007070700000000
310
00000000000000000000000000000000000000000000000000000700000000000000000000000000000000000000000000000000000000000000000000000000000000000000000000000000000000000000000000000000000000000000000000000000000000000000000000000000000000000000000000000700000000
310
00000000000000000000000000000000000000000000000000000000070700000000000000000000000000000007070000000000000000000000000000000000000000000000000000000000000000070000000000000000000000000000000000000000000000000000000000000000000000000000000000000000000000
310
00000000000000000000000000000000000000000000000000000000000000000000000000000000000000000000000007000000000000000000000000000000000000000000000000000000000000000000070000000000000000000000000000070000000000000000000000000000000000000000000000000000000000
310
00000000000700000000000000000000000000000000000000000000000000000000000000000000000000000000000000000000000000000000000000000000000000000000000000000000000000000000000000000000000000000000000000000000000700000000000000000000000000000000000000000000000000
310
00000000000000000007000000000000000000000000000700000000000000000000000000000000000000000000000000000000000000000000070000000000000000000000000000000000000000000000000000000000000000000000000000000000000000000000000000000000000000000000000000000000000000
310
00000000000000000000000000000000000000000000000000000007000000000000000000000000000000000000000000000000000000000000000000000007070000000000000000000707000000000000000000000000000000000000000000000000000000000000000000000007000000000000000000000000000000
310
00000000000000000000000000000000000000000000000000000000000000000000000000000000000000000000000000000000000000000000000000000000000000000000000000000000000000000700000000000000000000000000000000000000000000000000000000000000000000000007070000000000000007
310
07000000000000000000000000000000000000000000000000000000000000000000000000070000000000000000000000000000000000000000000000000000000000000000000000000000000000000000000000000000000000000000000000000000000000000000000000000000000000000000000000000000000000
310
00000000000007000000000000000000000000000000000000000000000000000000000000000000000000000707070000000707070000000000000000000000000000000000000000000000000000000000000000000000000007000000000000000000000000000000000000000000000000000000000000000000000000
310
00000000000000000000000000000000000000000000000000000000000000000000000000000000000000000000000000000000000000000000000700000000000000000000000000000000000000000000000000000000000000000000000000000007070707070000000000000000000000000000000000000000000000
310
00000000000000000000000000000000070000000000000000000000000000000000000000000000000000000000000000000000000000000000000000000000000000000000000000000000000000000000000000000000000000000000000000000000000000000000000000000000070000000000000000000000000000
310
00000000000000000000000000000000000000000000000000000000000000000000000000000000000000000000000000000000000000000000000000000000000000000007000000000000000000000000000000000000000000000000000000000000000000000000000000000000000000000000000000000000000000
310
00000000000000000000000000000000000000000000000000000000000000000000000000000700000000000000000000000000000000000000000000000000000000000000000000000000000000000000000000000000000000000000000000000000000000000000000000000000000000000000000000000700000000
310
00000000000000000000000000000000000000000000000000000000000000000000000000000000000000000000000000000000000000000000000000000000000000000000000000000000000000000000000000000000000000070000000000000000000000000000000000000000000000000000000000000000000000
310
00000007070707070707000000000000000000000000000000000000000000000000000000000000000000000000000007000000000000000000000000000000000000000000000000000000000000000000000000000000000000000000000000000000000000000000000000000000000000000000000000000000000000
310
00000000000000000000000000000000000700000000000000000000000000000000000000000000000000000000000000000000000000070707000000070707000000000000000000000000000000000000000000000000000000000000000000000000000700000000000000000000000000000000000000000000000000
310
00000000000000000000000000000000000000000000000000000000000000000000000000000000000000000000000000000000000000000000000000000000000000000000070000000000000000000000000000000000000000000000000000000000000000000000000707000000000000000707000000000000000000
310
00000000000000000000000000000000000000000000000000000007000000000000000000000000000000000000000000000000000000000000000000000000000000000000000000000000000000000000000000000000000000000000000000000000000000000000000000000000000000000000000000000007000000
310
00000000000000000000000000000000000000000000000000000000000000000007000000000000000000070000000000000000000000000000000000000000000000000000000000000000000000000700000000000000000000000000000000000000000000000000000000000000000000000000000000000000000000
310
00000000000000000000000000000000000000000000000000000000000000000000000000000000000000000000000000070000000000000000000000000000000000000000000000000000000000000000000000070700000000000000000007000000000000000000000000000000000000000000000000000000000000
310
00000000000007000000000000000000000000000000000000000000000000000000000000000000000000000000000000000000000000000000000000000000000000000000000000000000000000000000000000000000000000000000000000000000000007000000000000000000000000000000000000000000000000
310
00000000000000000000000707000000000000000000070000000000000000000000000000000000000000000000000000000000000000000000000700000000000000000000000000000000000000000000000000000000000000000000000000000000000000000000000000000000000000000000000000000000000000
310
00000000000000000000000000000000000000000000000000000000070000000000000000000000000000000000000000000000000000000000000000000000070700000000000000000000070000000000000000000000000000000000000000000000000000000000000000000000070000000000000000000000000000
310
00000000000000000000000000000000000000000000000000000000000000000000000000000000000000000000000000000000000000000000000000000000000000000000000000000000000000000007000000000000000000000000000000000000000000000000000000000000000000000007070000000000000000
310
00070000000000000000000000000000000000000000000000000000000000000000000000000700000000000000000000000000000000000000000000000000000000000000000000000000000000000000000000000000000000000000000000000000000000000000000000000000000000000000000000000000000000
310
00000000000000070000000000000000000000000000000000000000000000000000000000000000000000000700000000000000000007000000000000000000000000000000000000000000000000000000000000000000000000070000000000000000000000000000000000000000000000000000000000000000000000
310
00000000000000000000000000000000000000000000000000000000000000000000000000000000000000000000000000000000000000000000000007000000000000000000000000000000000000000000000000000000000000000000000000070700000000000000070700000000000000000000000000000000000000
310
00000000000000000000000000000000000700000000000000000000000000000000000000000000000000000000000000000000000000000000000000000000000000000000000000000000000000000000000000000000000000000000000000000000000000000000000000000000000700000000000000000000000000
310
00000000000000000000000000000000000000000000000007070000000000070700000000000000000000000000000000000000000000000000000000000000000000000000070000000000000000000000000000000000000000000000000000000000000000000000000000000000000000000000000000000000000000
310
00000000000000000000000000000000000000000000000000000000000000000000000000000007000000000000000000000000000000000000000000000000000000000000000000000000000007070707070707000000000000000000000000000000000000000000000000000000000000000000000000000007000000
310
00000000000000000000000000000000000000000000000000000000000000000000000000000000000000000000000000000000000000000000000000000000000000000000000000000000000000000000000000000000000000000700000000000000000000000000000000000000000000000000000000000000000000
310
00000000000000000000000000000000000000000000000000000000000000000000000000000000000000000000000000070000000000000000000000000000000000000000000000000000000000000000000000000000000000000000000000000000000000000000000000000000000000000000000000000000000000
310
00000000000000000000000000000000000007000000000000000000000000000000000000000000000000000000000000000000000000000000000000000000000000000000000000000000000000000000000000000000000000000000000000000000000007000000000000000000000000000000000000000000000000
310
00000000000000000000000000000000000000000000000000000000000000000000000000000000000000000000000000000000000000000000000000000000000000000000000700000000000000000000000000000000000000000000000000000000000000000000000000000000000000000000000000000000000000
310
00000000000000000000000000000000000000000000000000000000070000000000000000000000000000000000000000000000000000000000000000000000000000000000000000000000000000000000000000000000000000000000000000000000000000000000000000000000000000000000000000000000070000
310
00000000000000000000000000000000000000000000000000000000000000000000000000000000000000000000000000000000000000000000000000000000000000000000000000000000000000000007000000000000000000000000000000000000000000000000000000000000000000000000000000000000000000
310
00000000000000000000000000000000000000000000000000000000000000000000000000000000000000000000000000000707070707070707070707070707070707070707070707070707070707070707070707070707070707070707070707070707070707070707070707070707070707070707070707070707070707
310
07070707070707070000000000000000000000000000000000000000000000000000000000000000000000000000000000000000000000000000000000000000000000000000000000000000000000000000000000000000000000000000000000000000000000000000000000000000000000000000000000000000000000
310
000000000000000000000000000000000000000000000000000000000000000000000000000000000000000000000000000000000000000000000000000000000000000000000000000000000000000000000000000000000000000000000000000000000000000000000000
  0
ENDSEC
  0
EOF
