  0
SECTION
  2
HEADER
  9
$ACADVER
  1
AC1015
  9
$ACADMAINTVER
 70
     6
  9
$DWGCODEPAGE
  3
ANSI_1252
  9
$INSBASE
 10
0.0
 20
0.0
 30
0.0
  9
$EXTMIN
 10
0.0
 20
0.25
 30
0.0
  9
$EXTMAX
 10
149.0
 20
161.75
 30
0.0
  9
$LIMMIN
 10
0.0
 20
0.0
  9
$LIMMAX
 10
12.0
 20
9.0
  9
$ORTHOMODE
 70
     0
  9
$REGENMODE
 70
     1
  9
$FILLMODE
 70
     1
  9
$QTEXTMODE
 70
     0
  9
$MIRRTEXT
 70
     1
  9
$LTSCALE
 40
1.0
  9
$ATTMODE
 70
     1
  9
$TEXTSIZE
 40
0.2
  9
$TRACEWID
 40
0.05
  9
$TEXTSTYLE
  7
Standard
  9
$CLAYER
  8
0
  9
$CELTYPE
  6
ByBlock
  9
$CECOLOR
 62
   256
  9
$CELTSCALE
 40
1.0
  9
$DISPSILH
 70
     0
  9
$DIMSCALE
 40
1.0
  9
$DIMASZ
 40
0.18
  9
$DIMEXO
 40
0.0625
  9
$DIMDLI
 40
0.38
  9
$DIMRND
 40
0.0
  9
$DIMDLE
 40
0.0
  9
$DIMEXE
 40
0.18
  9
$DIMTP
 40
0.0
  9
$DIMTM
 40
0.0
  9
$DIMTXT
 40
0.18
  9
$DIMCEN
 40
0.09
  9
$DIMTSZ
 40
0.0
  9
$DIMTOL
 70
     0
  9
$DIMLIM
 70
     0
  9
$DIMTIH
 70
     1
  9
$DIMTOH
 70
     1
  9
$DIMSE1
 70
     0
  9
$DIMSE2
 70
     0
  9
$DIMTAD
 70
     0
  9
$DIMZIN
 70
     0
  9
$DIMBLK
  1

  9
$DIMASO
 70
     1
  9
$DIMSHO
 70
     1
  9
$DIMPOST
  1

  9
$DIMAPOST
  1

  9
$DIMALT
 70
     0
  9
$DIMALTD
 70
     2
  9
$DIMALTF
 40
25.4
  9
$DIMLFAC
 40
1.0
  9
$DIMTOFL
 70
     0
  9
$DIMTVP
 40
0.0
  9
$DIMTIX
 70
     0
  9
$DIMSOXD
 70
     0
  9
$DIMSAH
 70
     0
  9
$DIMBLK1
  1

  9
$DIMBLK2
  1

  9
$DIMSTYLE
  2
Standard
  9
$DIMCLRD
 70
     0
  9
$DIMCLRE
 70
     0
  9
$DIMCLRT
 70
     0
  9
$DIMTFAC
 40
1.0
  9
$DIMGAP
 40
0.09
  9
$DIMJUST
 70
     0
  9
$DIMSD1
 70
     0
  9
$DIMSD2
 70
     0
  9
$DIMTOLJ
 70
     1
  9
$DIMTZIN
 70
     0
  9
$DIMALTZ
 70
     0
  9
$DIMALTTZ
 70
     0
  9
$DIMUPT
 70
     0
  9
$DIMDEC
 70
     4
  9
$DIMTDEC
 70
     4
  9
$DIMALTU
 70
     2
  9
$DIMALTTD
 70
     2
  9
$DIMTXSTY
  7
Standard
  9
$DIMAUNIT
 70
     0
  9
$DIMADEC
 70
     0
  9
$DIMALTRND
 40
0.0
  9
$DIMAZIN
 70
     0
  9
$DIMDSEP
 70
    46
  9
$DIMATFIT
 70
     3
  9
$DIMFRAC
 70
     0
  9
$DIMLDRBLK
  1

  9
$DIMLUNIT
 70
     2
  9
$DIMLWD
 70
    -2
  9
$DIMLWE
 70
    -2
  9
$DIMTMOVE
 70
     2
  9
$LUNITS
 70
     2
  9
$LUPREC
 70
     4
  9
$SKETCHINC
 40
0.1
  9
$FILLETRAD
 40
0.5
  9
$AUNITS
 70
     0
  9
$AUPREC
 70
     0
  9
$MENU
  1
.
  9
$ELEVATION
 40
0.0
  9
$PELEVATION
 40
0.0
  9
$THICKNESS
 40
0.0
  9
$LIMCHECK
 70
     0
  9
$CHAMFERA
 40
0.5
  9
$CHAMFERB
 40
0.5
  9
$CHAMFERC
 40
1.0
  9
$CHAMFERD
 40
0.0
  9
$SKPOLY
 70
     0
  9
$TDCREATE
 40
2456184.038663195
  9
$TDUCREATE
 40
2456183.955329861
  9
$TDUPDATE
 40
2456184.041388345
  9
$TDUUPDATE
 40
2456183.958055011
  9
$TDINDWG
 40
0.0027248032
  9
$TDUSRTIMER
 40
0.0027248032
  9
$USRTIMER
 70
     1
  9
$ANGBASE
 50
0.0
  9
$ANGDIR
 70
     0
  9
$PDMODE
 70
     0
  9
$PDSIZE
 40
0.0
  9
$PLINEWID
 40
0.0
  9
$SPLFRAME
 70
     0
  9
$SPLINETYPE
 70
     6
  9
$SPLINESEGS
 70
     8
  9
$HANDSEED
  5
B49
  9
$SURFTAB1
 70
     6
  9
$SURFTAB2
 70
     6
  9
$SURFTYPE
 70
     6
  9
$SURFU
 70
     6
  9
$SURFV
 70
     6
  9
$UCSBASE
  2

  9
$UCSNAME
  2

  9
$UCSORG
 10
0.0
 20
0.0
 30
0.0
  9
$UCSXDIR
 10
1.0
 20
0.0
 30
0.0
  9
$UCSYDIR
 10
0.0
 20
1.0
 30
0.0
  9
$UCSORTHOREF
  2

  9
$UCSORTHOVIEW
 70
     0
  9
$UCSORGTOP
 10
0.0
 20
0.0
 30
0.0
  9
$UCSORGBOTTOM
 10
0.0
 20
0.0
 30
0.0
  9
$UCSORGLEFT
 10
0.0
 20
0.0
 30
0.0
  9
$UCSORGRIGHT
 10
0.0
 20
0.0
 30
0.0
  9
$UCSORGFRONT
 10
0.0
 20
0.0
 30
0.0
  9
$UCSORGBACK
 10
0.0
 20
0.0
 30
0.0
  9
$PUCSBASE
  2

  9
$PUCSNAME
  2

  9
$PUCSORG
 10
0.0
 20
0.0
 30
0.0
  9
$PUCSXDIR
 10
1.0
 20
0.0
 30
0.0
  9
$PUCSYDIR
 10
0.0
 20
1.0
 30
0.0
  9
$PUCSORTHOREF
  2

  9
$PUCSORTHOVIEW
 70
     0
  9
$PUCSORGTOP
 10
0.0
 20
0.0
 30
0.0
  9
$PUCSORGBOTTOM
 10
0.0
 20
0.0
 30
0.0
  9
$PUCSORGLEFT
 10
0.0
 20
0.0
 30
0.0
  9
$PUCSORGRIGHT
 10
0.0
 20
0.0
 30
0.0
  9
$PUCSORGFRONT
 10
0.0
 20
0.0
 30
0.0
  9
$PUCSORGBACK
 10
0.0
 20
0.0
 30
0.0
  9
$USERI1
 70
     0
  9
$USERI2
 70
     0
  9
$USERI3
 70
     0
  9
$USERI4
 70
     0
  9
$USERI5
 70
     0
  9
$USERR1
 40
0.0
  9
$USERR2
 40
0.0
  9
$USERR3
 40
0.0
  9
$USERR4
 40
0.0
  9
$USERR5
 40
0.0
  9
$WORLDVIEW
 70
     1
  9
$SHADEDGE
 70
     3
  9
$SHADEDIF
 70
    70
  9
$TILEMODE
 70
     1
  9
$MAXACTVP
 70
    64
  9
$PINSBASE
 10
0.0
 20
0.0
 30
0.0
  9
$PLIMCHECK
 70
     0
  9
$PEXTMIN
 10
1.000000000000E+20
 20
1.000000000000E+20
 30
1.000000000000E+20
  9
$PEXTMAX
 10
-1.000000000000E+20
 20
-1.000000000000E+20
 30
-1.000000000000E+20
  9
$PLIMMIN
 10
0.0
 20
0.0
  9
$PLIMMAX
 10
12.0
 20
9.0
  9
$UNITMODE
 70
     0
  9
$VISRETAIN
 70
     1
  9
$PLINEGEN
 70
     0
  9
$PSLTSCALE
 70
     1
  9
$TREEDEPTH
 70
  3020
  9
$CMLSTYLE
  2
Standard
  9
$CMLJUST
 70
     0
  9
$CMLSCALE
 40
1.0
  9
$PROXYGRAPHICS
 70
     1
  9
$MEASUREMENT
 70
     0
  9
$CELWEIGHT
370
    -1
  9
$ENDCAPS
280
     0
  9
$JOINSTYLE
280
     0
  9
$LWDISPLAY
290
     0
  9
$INSUNITS
 70
     0
  9
$HYPERLINKBASE
  1

  9
$STYLESHEET
  1

  9
$XEDIT
290
     1
  9
$CEPSNTYPE
380
     0
  9
$PSTYLEMODE
290
     1
  9
$FINGERPRINTGUID
  2
{6B3E9FFB-5534-4FB6-98B7-7E80847517AC}
  9
$VERSIONGUID
  2
{FAEB1C32-E019-11D5-929B-00C0DF256EC4}
  9
$EXTNAMES
290
     1
  9
$PSVPSCALE
 40
0.0
  9
$OLESTARTUP
290
     0
  0
ENDSEC
  0
SECTION
  2
CLASSES
  0
CLASS
  1
ACDBDICTIONARYWDFLT
  2
AcDbDictionaryWithDefault
  3
ObjectDBX Classes
 90
        0
280
     0
281
     0
  0
CLASS
  1
SCALE
  2
AcDbScale
  3
ObjectDBX Classes
 90
     1153
280
     0
281
     0
  0
CLASS
  1
DICTIONARYVAR
  2
AcDbDictionaryVar
  3
ObjectDBX Classes
 90
        0
280
     0
281
     0
  0
CLASS
  1
ACDBPLACEHOLDER
  2
AcDbPlaceHolder
  3
ObjectDBX Classes
 90
        0
280
     0
281
     0
  0
CLASS
  1
LAYOUT
  2
AcDbLayout
  3
ObjectDBX Classes
 90
        0
280
     0
281
     0
  0
ENDSEC
  0
SECTION
  2
TABLES
  0
TABLE
  2
VPORT
  5
8
330
0
100
AcDbSymbolTable
 70
     1
  0
VPORT
  5
51A
330
8
100
AcDbSymbolTableRecord
100
AcDbViewportTableRecord
  2
*Active
 70
     0
 10
0.0
 20
0.0
 11
1.0
 21
1.0
 12
74.5
 22
80.875
 13
0.0
 23
0.0
 14
0.5
 24
0.5
 15
0.5
 25
0.5
 16
0.0
 26
0.0
 36
1.0
 17
0.0
 27
0.0
 37
0.0
 40
164.985
 41
1.863448275862
 42
50.0
 43
0.0
 44
0.0
 50
0.0
 51
0.0
 71
    16
 72
   100
 73
     1
 74
     3
 75
     0
 76
     0
 77
     0
 78
     0
281
     0
 65
     1
110
0.0
120
0.0
130
0.0
111
1.0
121
0.0
131
0.0
112
0.0
122
1.0
132
0.0
 79
     0
146
0.0
  0
ENDTAB
  0
TABLE
  2
LTYPE
  5
5
330
0
100
AcDbSymbolTable
 70
     1
  0
LTYPE
  5
14
330
5
100
AcDbSymbolTableRecord
100
AcDbLinetypeTableRecord
  2
ByBlock
 70
     0
  3

 72
    65
 73
     0
 40
0.0
  0
LTYPE
  5
15
330
5
100
AcDbSymbolTableRecord
100
AcDbLinetypeTableRecord
  2
ByLayer
 70
     0
  3

 72
    65
 73
     0
 40
0.0
  0
LTYPE
  5
16
330
5
100
AcDbSymbolTableRecord
100
AcDbLinetypeTableRecord
  2
Continuous
 70
     0
  3
Solid line
 72
    65
 73
     0
 40
0.0
  0
ENDTAB
  0
TABLE
  2
LAYER
  5
2
330
0
100
AcDbSymbolTable
 70
     1
  0
LAYER
  5
10
330
2
100
AcDbSymbolTableRecord
100
AcDbLayerTableRecord
  2
0
 70
     0
 62
     7
  6
Continuous
370
    -3
390
F
  0
ENDTAB
  0
TABLE
  2
STYLE
  5
3
330
0
100
AcDbSymbolTable
 70
     1
  0
STYLE
  5
11
330
3
100
AcDbSymbolTableRecord
100
AcDbTextStyleTableRecord
  2
Standard
 70
     0
 40
0.0
 41
1.0
 50
0.0
 71
     0
 42
0.2
  3
txt
  4

  0
ENDTAB
  0
TABLE
  2
VIEW
  5
6
330
0
100
AcDbSymbolTable
 70
     0
  0
ENDTAB
  0
TABLE
  2
UCS
  5
7
330
0
100
AcDbSymbolTable
 70
     0
  0
ENDTAB
  0
TABLE
  2
APPID
  5
9
330
0
100
AcDbSymbolTable
 70
     1
  0
APPID
  5
12
330
9
100
AcDbSymbolTableRecord
100
AcDbRegAppTableRecord
  2
ACAD
 70
     0
  0
ENDTAB
  0
TABLE
  2
DIMSTYLE
  5
A
330
0
100
AcDbSymbolTable
 70
     1
100
AcDbDimStyleTable
  0
DIMSTYLE
105
20
330
A
100
AcDbSymbolTableRecord
100
AcDbDimStyleTableRecord
  2
Standard
 70
     0
340
11
  0
ENDTAB
  0
TABLE
  2
BLOCK_RECORD
  5
1
330
0
100
AcDbSymbolTable
 70
     2
  0
BLOCK_RECORD
  5
1D
330
1
100
AcDbSymbolTableRecord
100
AcDbBlockTableRecord
  2
*Model_Space
340
1E
  0
BLOCK_RECORD
  5
1B
330
1
100
AcDbSymbolTableRecord
100
AcDbBlockTableRecord
  2
*Paper_Space
340
1C
  0
ENDTAB
  0
ENDSEC
  0
SECTION
  2
BLOCKS
  0
BLOCK
  5
51D
330
1D
100
AcDbEntity
  8
0
100
AcDbBlockBegin
  2
*Model_Space
 70
     0
 10
0.0
 20
0.0
 30
0.0
  3
*Model_Space
  1
*Model_Space
  0
ENDBLK
  5
51E
330
1D
100
AcDbEntity
  8
0
100
AcDbBlockEnd
  0
BLOCK
  5
51B
330
1B
100
AcDbEntity
 67
     1
  8
0
100
AcDbBlockBegin
  2
*Paper_Space
 70
     0
 10
0.0
 20
0.0
 30
0.0
  3
*Paper_Space
  1
*Paper_Space
  0
ENDBLK
  5
51C
330
1B
100
AcDbEntity
 67
     1
  8
0
100
AcDbBlockEnd
  0
ENDSEC
  0
SECTION
  2
ENTITIES
  0
LINE
  5
21
330
1D
100
AcDbEntity
  8
0
100
AcDbLine
 10
25.1424
 20
33.3018
 30
0.0
 11
37.565
 21
33.1147
 31
0.0
  0
LINE
  5
22
330
1D
100
AcDbEntity
  8
0
100
AcDbLine
 10
12.5709
 20
33.6167
 30
0.0
 11
25.1424
 21
33.3019
 31
0.0
  0
LINE
  5
23
330
1D
100
AcDbEntity
  8
0
100
AcDbLine
 10
0.4832
 20
34.0383
 30
0.0
 11
12.5709
 21
33.6167
 31
0.0
  0
LINE
  5
24
330
1D
100
AcDbEntity
  8
0
100
AcDbLine
 10
12.5709
 20
33.6169
 30
0.0
 11
25.1424
 21
33.3018
 31
0.0
  0
LINE
  5
25
330
1D
100
AcDbEntity
  8
0
100
AcDbLine
 10
25.1424
 20
33.3019
 30
0.0
 11
37.565
 21
33.1145
 31
0.0
  0
LINE
  5
26
330
1D
100
AcDbEntity
  8
0
100
AcDbLine
 10
37.565
 20
33.1147
 30
0.0
 11
49.9883
 21
33.05
 31
0.0
  0
LINE
  5
27
330
1D
100
AcDbEntity
  8
0
100
AcDbLine
 10
0.0641
 20
34.2956
 30
0.0
 11
0.2401
 21
34.1123
 31
0.0
  0
LINE
  5
29
330
1D
100
AcDbEntity
  8
0
100
AcDbLine
 10
0.2401
 20
34.1123
 30
0.0
 11
0.483
 21
34.0384
 31
0.0
  0
LINE
  5
31
330
1D
100
AcDbEntity
  8
0
100
AcDbLine
 10
0.0
 20
34.5416
 30
0.0
 11
0.0641
 21
34.2956
 31
0.0
  0
LINE
  5
32
330
1D
100
AcDbEntity
  8
0
100
AcDbLine
 10
0.0
 20
34.5416
 30
0.0
 11
0.0
 21
34.7219
 31
0.0
  0
LINE
  5
33
330
1D
100
AcDbEntity
  8
0
100
AcDbLine
 10
0.0
 20
34.5415
 30
0.0
 11
0.0
 21
34.7222
 31
0.0
  0
LINE
  5
34
330
1D
100
AcDbEntity
  8
0
100
AcDbLine
 10
0.0
 20
34.5415
 30
0.0
 11
0.0
 21
34.6883
 31
0.0
  0
LINE
  5
36
330
1D
100
AcDbEntity
  8
0
100
AcDbLine
 10
0.0
 20
34.5417
 30
0.0
 11
0.0
 21
34.6884
 31
0.0
  0
LINE
  5
37
330
1D
100
AcDbEntity
  8
0
100
AcDbLine
 10
0.0
 20
34.7222
 30
0.0
 11
0.0
 21
35.1644
 31
0.0
  0
LINE
  5
64
330
1D
100
AcDbEntity
  8
0
100
AcDbLine
 10
0.0
 20
34.7219
 30
0.0
 11
0.0
 21
35.164
 31
0.0
  0
LINE
  5
A3
330
1D
100
AcDbEntity
  8
0
100
AcDbLine
 10
0.4832
 20
34.0384
 30
0.0
 11
12.5709
 21
33.6169
 31
0.0
  0
LINE
  5
A4
330
1D
100
AcDbEntity
  8
0
100
AcDbLine
 10
37.565
 20
33.1145
 30
0.0
 11
49.9883
 21
33.0501
 31
0.0
  0
LINE
  5
10F
330
1D
100
AcDbEntity
  8
0
100
AcDbLine
 10
0.0
 20
93.0918
 30
0.0
 11
0.0
 21
93.4353
 31
0.0
  0
LINE
  5
112
330
1D
100
AcDbEntity
  8
0
100
AcDbLine
 10
0.0
 20
93.4365
 30
0.0
 11
0.0
 21
93.5122
 31
0.0
  0
LINE
  5
113
330
1D
100
AcDbEntity
  8
0
100
AcDbLine
 10
0.0
 20
93.4354
 30
0.0
 11
0.0
 21
93.5119
 31
0.0
  0
LINE
  5
114
330
1D
100
AcDbEntity
  8
0
100
AcDbLine
 10
0.0
 20
93.4369
 30
0.0
 11
0.0
 21
93.5119
 31
0.0
  0
LINE
  5
116
330
1D
100
AcDbEntity
  8
0
100
AcDbLine
 10
0.0
 20
93.5122
 30
0.0
 11
0.0631
 21
93.7562
 31
0.0
  0
LINE
  5
117
330
1D
100
AcDbEntity
  8
0
100
AcDbLine
 10
0.0631
 20
93.7562
 30
0.0
 11
0.2364
 21
93.9395
 31
0.0
  0
LINE
  5
118
330
1D
100
AcDbEntity
  8
0
100
AcDbLine
 10
0.0631
 20
93.7564
 30
0.0
 11
0.2364
 21
93.9394
 31
0.0
  0
LINE
  5
119
330
1D
100
AcDbEntity
  8
0
100
AcDbLine
 10
0.2364
 20
93.9395
 30
0.0
 11
0.4765
 21
94.0152
 31
0.0
  0
LINE
  5
11A
330
1D
100
AcDbEntity
  8
0
100
AcDbLine
 10
0.2364
 20
93.9394
 30
0.0
 11
0.4765
 21
94.0152
 31
0.0
  0
LINE
  5
11B
330
1D
100
AcDbEntity
  8
0
100
AcDbLine
 10
0.0
 20
93.512
 30
0.0
 11
0.0631
 21
93.7564
 31
0.0
  0
LINE
  5
11D
330
1D
100
AcDbEntity
  8
0
100
AcDbLine
 10
0.0
 20
93.1497
 30
0.0
 11
0.0
 21
93.4365
 31
0.0
  0
LINE
  5
11E
330
1D
100
AcDbEntity
  8
0
100
AcDbLine
 10
0.0
 20
93.1497
 30
0.0
 11
0.0
 21
93.4354
 31
0.0
  0
LINE
  5
11F
330
1D
100
AcDbEntity
  8
0
100
AcDbLine
 10
0.0
 20
93.1497
 30
0.0
 11
0.0
 21
93.4369
 31
0.0
  0
LINE
  5
186
330
1D
100
AcDbEntity
  8
0
100
AcDbLine
 10
18.7714
 20
90.6668
 30
0.0
 11
25.0521
 21
89.8025
 31
0.0
  0
LINE
  5
187
330
1D
100
AcDbEntity
  8
0
100
AcDbLine
 10
12.5029
 20
91.723
 30
0.0
 11
18.7714
 21
90.6667
 31
0.0
  0
LINE
  5
188
330
1D
100
AcDbEntity
  8
0
100
AcDbLine
 10
25.0521
 20
89.8024
 30
0.0
 11
29.1954
 21
89.3381
 31
0.0
  0
LINE
  5
189
330
1D
100
AcDbEntity
  8
0
100
AcDbLine
 10
29.1954
 20
89.3381
 30
0.0
 11
33.3439
 21
88.9569
 31
0.0
  0
LINE
  5
18A
330
1D
100
AcDbEntity
  8
0
100
AcDbLine
 10
29.1954
 20
89.3377
 30
0.0
 11
33.3439
 21
88.9569
 31
0.0
  0
LINE
  5
18B
330
1D
100
AcDbEntity
  8
0
100
AcDbLine
 10
37.4978
 20
88.6591
 30
0.0
 11
41.6562
 21
88.4449
 31
0.0
  0
LINE
  5
18C
330
1D
100
AcDbEntity
  8
0
100
AcDbLine
 10
41.6562
 20
88.4449
 30
0.0
 11
45.8199
 21
88.3139
 31
0.0
  0
LINE
  5
18D
330
1D
100
AcDbEntity
  8
0
100
AcDbLine
 10
41.6562
 20
88.4446
 30
0.0
 11
45.8199
 21
88.3138
 31
0.0
  0
LINE
  5
18E
330
1D
100
AcDbEntity
  8
0
100
AcDbLine
 10
37.4978
 20
88.6593
 30
0.0
 11
41.6562
 21
88.4446
 31
0.0
  0
LINE
  5
18F
330
1D
100
AcDbEntity
  8
0
100
AcDbLine
 10
33.3439
 20
88.9569
 30
0.0
 11
37.4978
 21
88.6593
 31
0.0
  0
LINE
  5
190
330
1D
100
AcDbEntity
  8
0
100
AcDbLine
 10
33.3439
 20
88.9569
 30
0.0
 11
37.4978
 21
88.6591
 31
0.0
  0
LINE
  5
191
330
1D
100
AcDbEntity
  8
0
100
AcDbLine
 10
25.0521
 20
89.8025
 30
0.0
 11
29.1954
 21
89.3377
 31
0.0
  0
LINE
  5
192
330
1D
100
AcDbEntity
  8
0
100
AcDbLine
 10
18.7714
 20
90.6667
 30
0.0
 11
25.0521
 21
89.8024
 31
0.0
  0
LINE
  5
193
330
1D
100
AcDbEntity
  8
0
100
AcDbLine
 10
7.1022
 20
92.7893
 30
0.0
 11
12.5029
 21
91.723
 31
0.0
  0
LINE
  5
194
330
1D
100
AcDbEntity
  8
0
100
AcDbLine
 10
7.1022
 20
92.7892
 30
0.0
 11
12.5028
 21
91.723
 31
0.0
  0
LINE
  5
195
330
1D
100
AcDbEntity
  8
0
100
AcDbLine
 10
12.5028
 20
91.723
 30
0.0
 11
18.7714
 21
90.6668
 31
0.0
  0
LINE
  5
197
330
1D
100
AcDbEntity
  8
0
100
AcDbLine
 10
0.4765
 20
94.0151
 30
0.0
 11
1.1402
 21
94.0499
 31
0.0
  0
LINE
  5
199
330
1D
100
AcDbEntity
  8
0
100
AcDbLine
 10
1.1402
 20
94.05
 30
0.0
 11
1.7099
 21
93.9984
 31
0.0
  0
LINE
  5
19A
330
1D
100
AcDbEntity
  8
0
100
AcDbLine
 10
1.1402
 20
94.0499
 30
0.0
 11
1.7099
 21
93.9985
 31
0.0
  0
LINE
  5
19B
330
1D
100
AcDbEntity
  8
0
100
AcDbLine
 10
1.71
 20
93.9983
 30
0.0
 11
7.1022
 21
92.7893
 31
0.0
  0
LINE
  5
19C
330
1D
100
AcDbEntity
  8
0
100
AcDbLine
 10
1.7099
 20
93.9984
 30
0.0
 11
7.1022
 21
92.7892
 31
0.0
  0
LINE
  5
19E
330
1D
100
AcDbEntity
  8
0
100
AcDbLine
 10
45.8199
 20
88.3139
 30
0.0
 11
49.9888
 21
88.266
 31
0.0
  0
LINE
  5
1A4
330
1D
100
AcDbEntity
  8
0
100
AcDbLine
 10
49.9883
 20
33.05
 30
0.0
 11
50.1392
 21
33.0905
 31
0.0
  0
LINE
  5
1A5
330
1D
100
AcDbEntity
  8
0
100
AcDbLine
 10
49.9883
 20
33.0501
 30
0.0
 11
50.1392
 21
33.0905
 31
0.0
  0
LINE
  5
1DC
330
1D
100
AcDbEntity
  8
0
100
AcDbLine
 10
50.1392
 20
33.0905
 30
0.0
 11
50.2497
 21
33.201
 31
0.0
  0
LINE
  5
1DD
330
1D
100
AcDbEntity
  8
0
100
AcDbLine
 10
50.1392
 20
33.0905
 30
0.0
 11
50.2497
 21
33.2012
 31
0.0
  0
LINE
  5
1F0
330
1D
100
AcDbEntity
  8
0
100
AcDbLine
 10
50.2497
 20
33.2012
 30
0.0
 11
50.2901
 21
33.3524
 31
0.0
  0
LINE
  5
1F2
330
1D
100
AcDbEntity
  8
0
100
AcDbLine
 10
50.2497
 20
33.201
 30
0.0
 11
50.2901
 21
33.3523
 31
0.0
  0
LINE
  5
1F5
330
1D
100
AcDbEntity
  8
0
100
AcDbLine
 10
51.3
 20
0.55
 30
0.0
 11
52.0
 21
0.25
 31
0.0
  0
LINE
  5
1F6
330
1D
100
AcDbEntity
  8
0
100
AcDbLine
 10
52.0
 20
0.25
 30
0.0
 11
72.0
 21
0.25
 31
0.0
  0
LINE
  5
1F7
330
1D
100
AcDbEntity
  8
0
100
AcDbLine
 10
72.0
 20
0.25
 30
0.0
 11
72.0
 21
0.55
 31
0.0
  0
LINE
  5
1F8
330
1D
100
AcDbEntity
  8
0
100
AcDbLine
 10
72.0
 20
0.55
 30
0.0
 11
72.0
 21
1.25
 31
0.0
  0
LINE
  5
1F9
330
1D
100
AcDbEntity
  8
0
100
AcDbLine
 10
72.0
 20
0.55
 30
0.0
 11
72.0
 21
0.25
 31
0.0
  0
LINE
  5
1FE
330
1D
100
AcDbEntity
  8
0
100
AcDbLine
 10
51.0
 20
1.25
 30
0.0
 11
51.3
 21
0.55
 31
0.0
  0
LINE
  5
1FF
330
1D
100
AcDbEntity
  8
0
100
AcDbLine
 10
95.0
 20
44.75
 30
0.0
 11
95.0
 21
45.326
 31
0.0
  0
LINE
  5
200
330
1D
100
AcDbEntity
  8
0
100
AcDbLine
 10
95.0
 20
45.326
 30
0.0
 11
95.0
 21
46.75
 31
0.0
  0
LINE
  5
201
330
1D
100
AcDbEntity
  8
0
100
AcDbLine
 10
95.0
 20
45.326
 30
0.0
 11
95.0
 21
44.75
 31
0.0
  0
LINE
  5
202
330
1D
100
AcDbEntity
  8
0
100
AcDbLine
 10
95.0
 20
45.326
 30
0.0
 11
95.0
 21
46.862
 31
0.0
  0
LINE
  5
203
330
1D
100
AcDbEntity
  8
0
100
AcDbLine
 10
72.0
 20
46.75
 30
0.0
 11
95.0
 21
46.75
 31
0.0
  0
LINE
  5
204
330
1D
100
AcDbEntity
  8
0
100
AcDbLine
 10
95.0
 20
46.7031
 30
0.0
 11
95.0
 21
46.1786
 31
0.0
  0
LINE
  5
205
330
1D
100
AcDbEntity
  8
0
100
AcDbLine
 10
95.0
 20
46.7031
 30
0.0
 11
95.0
 21
48.102
 31
0.0
  0
LINE
  5
206
330
1D
100
AcDbEntity
  8
0
100
AcDbLine
 10
95.0
 20
46.1786
 30
0.0
 11
95.0
 21
46.7031
 31
0.0
  0
LINE
  5
207
330
1D
100
AcDbEntity
  8
0
100
AcDbLine
 10
95.0
 20
46.862
 30
0.0
 11
95.0
 21
45.326
 31
0.0
  0
LINE
  5
20A
330
1D
100
AcDbEntity
  8
0
100
AcDbLine
 10
95.0
 20
48.102
 30
0.0
 11
95.0
 21
46.7031
 31
0.0
  0
LINE
  5
20B
330
1D
100
AcDbEntity
  8
0
100
AcDbLine
 10
95.0
 20
46.75
 30
0.0
 11
95.0
 21
45.994
 31
0.0
  0
LINE
  5
20C
330
1D
100
AcDbEntity
  8
0
100
AcDbLine
 10
95.0
 20
46.75
 30
0.0
 11
95.0
 21
45.326
 31
0.0
  0
LINE
  5
20E
330
1D
100
AcDbEntity
  8
0
100
AcDbLine
 10
95.0
 20
45.994
 30
0.0
 11
95.0
 21
46.75
 31
0.0
  0
LINE
  5
20F
330
1D
100
AcDbEntity
  8
0
100
AcDbLine
 10
95.0
 20
45.994
 30
0.0
 11
95.0
 21
48.714
 31
0.0
  0
LINE
  5
2E9
330
1D
100
AcDbEntity
  8
0
100
AcDbLine
 10
72.0
 20
1.25
 30
0.0
 11
72.0
 21
119.25
 31
0.0
  0
LINE
  5
2EE
330
1D
100
AcDbEntity
  8
0
100
AcDbLine
 10
72.0
 20
1.25
 30
0.0
 11
72.0
 21
119.25
 31
0.0
  0
LINE
  5
2EF
330
1D
100
AcDbEntity
  8
0
100
AcDbLine
 10
72.0
 20
1.25
 30
0.0
 11
72.0
 21
0.55
 31
0.0
  0
LINE
  5
30C
330
1D
100
AcDbEntity
  8
0
100
AcDbLine
 10
95.0
 20
48.714
 30
0.0
 11
95.0
 21
45.994
 31
0.0
  0
LINE
  5
35C
330
1D
100
AcDbEntity
  8
0
100
AcDbLine
 10
50.1395
 20
88.2253
 30
0.0
 11
50.2498
 21
88.1146
 31
0.0
  0
LINE
  5
35D
330
1D
100
AcDbEntity
  8
0
100
AcDbLine
 10
50.1395
 20
88.2256
 30
0.0
 11
50.2498
 21
88.1146
 31
0.0
  0
LINE
  5
35E
330
1D
100
AcDbEntity
  8
0
100
AcDbLine
 10
49.9888
 20
88.266
 30
0.0
 11
50.1395
 21
88.2256
 31
0.0
  0
LINE
  5
35F
330
1D
100
AcDbEntity
  8
0
100
AcDbLine
 10
49.9888
 20
88.266
 30
0.0
 11
50.1395
 21
88.2253
 31
0.0
  0
LINE
  5
361
330
1D
100
AcDbEntity
  8
0
100
AcDbLine
 10
50.2498
 20
88.1146
 30
0.0
 11
50.2901
 21
87.9638
 31
0.0
  0
LINE
  5
362
330
1D
100
AcDbEntity
  8
0
100
AcDbLine
 10
50.2498
 20
88.1146
 30
0.0
 11
50.2901
 21
87.9637
 31
0.0
  0
LINE
  5
3CF
330
1D
100
AcDbEntity
  8
0
100
AcDbLine
 10
50.2901
 20
72.746490157116
 30
0.0
 11
51.0
 21
72.746162107209
 31
0.0
  0
LINE
  5
3D2
330
1D
100
AcDbEntity
  8
0
100
AcDbLine
 10
51.0
 20
119.25
 30
0.0
 11
51.3
 21
119.95
 31
0.0
  0
LINE
  5
3D3
330
1D
100
AcDbEntity
  8
0
100
AcDbLine
 10
51.3
 20
119.95
 30
0.0
 11
52.0
 21
120.25
 31
0.0
  0
LINE
  5
420
330
1D
100
AcDbEntity
  8
0
100
AcDbLine
 10
72.0
 20
119.25
 30
0.0
 11
72.0
 21
119.95
 31
0.0
  0
LINE
  5
512
330
1D
100
AcDbEntity
  8
0
100
AcDbLine
 10
72.0
 20
120.25
 30
0.0
 11
72.0
 21
119.95
 31
0.0
  0
LINE
  5
513
330
1D
100
AcDbEntity
  8
0
100
AcDbLine
 10
52.0
 20
120.25
 30
0.0
 11
72.0
 21
120.25
 31
0.0
  0
LINE
  5
514
330
1D
100
AcDbEntity
  8
0
100
AcDbLine
 10
72.0
 20
119.95
 30
0.0
 11
72.0
 21
120.25
 31
0.0
  0
LINE
  5
515
330
1D
100
AcDbEntity
  8
0
100
AcDbLine
 10
72.0
 20
119.95
 30
0.0
 11
72.0
 21
119.25
 31
0.0
  0
LINE
  5
516
330
1D
100
AcDbEntity
  8
0
100
AcDbLine
 10
50.2901
 20
87.9634
 30
0.0
 11
50.2901
 21
87.8557
 31
0.0
  0
LINE
  5
517
330
1D
100
AcDbEntity
  8
0
100
AcDbLine
 10
50.2901
 20
87.8562
 30
0.0
 11
50.2901
 21
87.9638
 31
0.0
  0
LINE
  5
518
330
1D
100
AcDbEntity
  8
0
100
AcDbLine
 10
50.2901
 20
54.8612
 30
0.0
 11
51.0
 21
54.8612
 31
0.0
  0
LINE
  5
519
330
1D
100
AcDbEntity
  8
0
100
AcDbLine
 10
50.2901
 20
54.8611
 30
0.0
 11
51.0
 21
54.8611
 31
0.0
  0
LINE
  5
7E6
330
1D
100
AcDbEntity
  8
0
100
AcDbLine
 10
115.0
 20
20.75
 30
0.0
 11
115.576
 21
20.75
 31
0.0
  0
LINE
  5
7E7
330
1D
100
AcDbEntity
  8
0
100
AcDbLine
 10
115.0
 20
20.75
 30
0.0
 11
115.0
 21
43.75
 31
0.0
  0
LINE
  5
7E8
330
1D
100
AcDbEntity
  8
0
100
AcDbLine
 10
103.0
 20
8.75
 30
0.0
 11
115.0
 21
8.75
 31
0.0
  0
LINE
  5
7E9
330
1D
100
AcDbEntity
  8
0
100
AcDbLine
 10
103.0
 20
8.75
 30
0.0
 11
103.0
 21
32.75
 31
0.0
  0
LINE
  5
7EA
330
1D
100
AcDbEntity
  8
0
100
AcDbLine
 10
115.576
 20
20.75
 30
0.0
 11
117.112
 21
20.75
 31
0.0
  0
LINE
  5
7EB
330
1D
100
AcDbEntity
  8
0
100
AcDbLine
 10
115.0
 20
8.75
 30
0.0
 11
115.0
 21
21.75
 31
0.0
  0
LINE
  5
7EC
330
1D
100
AcDbEntity
  8
0
100
AcDbLine
 10
115.0
 20
43.75
 30
0.0
 11
115.0
 21
20.75
 31
0.0
  0
LINE
  5
7ED
330
1D
100
AcDbEntity
  8
0
100
AcDbLine
 10
103.0
 20
32.75
 30
0.0
 11
103.0
 21
8.75
 31
0.0
  0
LINE
  5
7EE
330
1D
100
AcDbEntity
  8
0
100
AcDbLine
 10
103.0
 20
32.75
 30
0.0
 11
115.0
 21
42.75
 31
0.0
  0
LINE
  5
7EF
330
1D
100
AcDbEntity
  8
0
100
AcDbLine
 10
115.0
 20
21.75
 30
0.0
 11
115.0
 21
8.75
 31
0.0
  0
LINE
  5
7F0
330
1D
100
AcDbEntity
  8
0
100
AcDbLine
 10
95.0
 20
43.75
 30
0.0
 11
115.0
 21
43.75
 31
0.0
  0
LINE
  5
7F1
330
1D
100
AcDbEntity
  8
0
100
AcDbLine
 10
95.0
 20
43.75
 30
0.0
 11
95.0
 21
44.362
 31
0.0
  0
LINE
  5
7F2
330
1D
100
AcDbEntity
  8
0
100
AcDbLine
 10
95.0
 20
43.75
 30
0.0
 11
115.0
 21
43.75
 31
0.0
  0
LINE
  5
7F3
330
1D
100
AcDbEntity
  8
0
100
AcDbLine
 10
95.0
 20
44.75
 30
0.0
 11
95.0
 21
45.326
 31
0.0
  0
LINE
  5
7F4
330
1D
100
AcDbEntity
  8
0
100
AcDbLine
 10
95.0
 20
45.326
 30
0.0
 11
95.0
 21
46.75
 31
0.0
  0
LINE
  5
7F5
330
1D
100
AcDbEntity
  8
0
100
AcDbLine
 10
95.0
 20
45.326
 30
0.0
 11
95.0
 21
44.75
 31
0.0
  0
LINE
  5
7F6
330
1D
100
AcDbEntity
  8
0
100
AcDbLine
 10
95.0
 20
45.326
 30
0.0
 11
95.0
 21
46.862
 31
0.0
  0
LINE
  5
7F7
330
1D
100
AcDbEntity
  8
0
100
AcDbLine
 10
72.0
 20
46.75
 30
0.0
 11
95.0
 21
46.75
 31
0.0
  0
LINE
  5
7F8
330
1D
100
AcDbEntity
  8
0
100
AcDbLine
 10
72.0
 20
46.75
 30
0.0
 11
72.0
 21
47.254
 31
0.0
  0
LINE
  5
7F9
330
1D
100
AcDbEntity
  8
0
100
AcDbLine
 10
72.0
 20
46.75
 30
0.0
 11
95.0
 21
46.75
 31
0.0
  0
LINE
  5
7FA
330
1D
100
AcDbEntity
  8
0
100
AcDbLine
 10
95.0
 20
46.7031
 30
0.0
 11
95.0
 21
46.1786
 31
0.0
  0
LINE
  5
7FB
330
1D
100
AcDbEntity
  8
0
100
AcDbLine
 10
95.0
 20
46.7031
 30
0.0
 11
95.0
 21
48.102
 31
0.0
  0
LINE
  5
7FC
330
1D
100
AcDbEntity
  8
0
100
AcDbLine
 10
95.0
 20
46.1786
 30
0.0
 11
95.0
 21
46.7031
 31
0.0
  0
LINE
  5
7FD
330
1D
100
AcDbEntity
  8
0
100
AcDbLine
 10
72.0
 20
47.254
 30
0.0
 11
72.0
 21
46.75
 31
0.0
  0
LINE
  5
7FE
330
1D
100
AcDbEntity
  8
0
100
AcDbLine
 10
95.0
 20
46.862
 30
0.0
 11
95.0
 21
45.326
 31
0.0
  0
LINE
  5
7FF
330
1D
100
AcDbEntity
  8
0
100
AcDbLine
 10
95.0
 20
46.862
 30
0.0
 11
95.0
 21
49.422
 31
0.0
  0
LINE
  5
800
330
1D
100
AcDbEntity
  8
0
100
AcDbLine
 10
95.0
 20
49.422
 30
0.0
 11
95.0
 21
46.862
 31
0.0
  0
LINE
  5
801
330
1D
100
AcDbEntity
  8
0
100
AcDbLine
 10
95.0
 20
49.422
 30
0.0
 11
95.0
 21
52.814
 31
0.0
  0
LINE
  5
802
330
1D
100
AcDbEntity
  8
0
100
AcDbLine
 10
95.0
 20
52.814
 30
0.0
 11
95.0
 21
49.422
 31
0.0
  0
LINE
  5
803
330
1D
100
AcDbEntity
  8
0
100
AcDbLine
 10
95.0
 20
52.814
 30
0.0
 11
95.0
 21
56.654
 31
0.0
  0
LINE
  5
804
330
1D
100
AcDbEntity
  8
0
100
AcDbLine
 10
95.0
 20
56.654
 30
0.0
 11
95.0
 21
52.814
 31
0.0
  0
LINE
  5
805
330
1D
100
AcDbEntity
  8
0
100
AcDbLine
 10
95.0
 20
56.654
 30
0.0
 11
95.0
 21
60.75
 31
0.0
  0
LINE
  5
806
330
1D
100
AcDbEntity
  8
0
100
AcDbLine
 10
95.0
 20
57.0197
 30
0.0
 11
95.0
 21
60.75
 31
0.0
  0
LINE
  5
807
330
1D
100
AcDbEntity
  8
0
100
AcDbLine
 10
95.0
 20
57.0197
 30
0.0
 11
95.0
 21
53.5226
 31
0.0
  0
LINE
  5
808
330
1D
100
AcDbEntity
  8
0
100
AcDbLine
 10
95.0
 20
56.398
 30
0.0
 11
95.0
 21
52.318
 31
0.0
  0
LINE
  5
809
330
1D
100
AcDbEntity
  8
0
100
AcDbLine
 10
95.0
 20
56.398
 30
0.0
 11
95.0
 21
60.75
 31
0.0
  0
LINE
  5
80A
330
1D
100
AcDbEntity
  8
0
100
AcDbLine
 10
95.0
 20
53.5226
 30
0.0
 11
95.0
 21
57.0197
 31
0.0
  0
LINE
  5
80B
330
1D
100
AcDbEntity
  8
0
100
AcDbLine
 10
95.0
 20
53.5226
 30
0.0
 11
95.0
 21
50.4334
 31
0.0
  0
LINE
  5
80C
330
1D
100
AcDbEntity
  8
0
100
AcDbLine
 10
95.0
 20
52.318
 30
0.0
 11
95.0
 21
48.714
 31
0.0
  0
LINE
  5
80D
330
1D
100
AcDbEntity
  8
0
100
AcDbLine
 10
95.0
 20
52.318
 30
0.0
 11
95.0
 21
56.398
 31
0.0
  0
LINE
  5
80E
330
1D
100
AcDbEntity
  8
0
100
AcDbLine
 10
95.0
 20
50.4334
 30
0.0
 11
95.0
 21
53.5226
 31
0.0
  0
LINE
  5
80F
330
1D
100
AcDbEntity
  8
0
100
AcDbLine
 10
95.0
 20
50.4334
 30
0.0
 11
95.0
 21
48.102
 31
0.0
  0
LINE
  5
810
330
1D
100
AcDbEntity
  8
0
100
AcDbLine
 10
95.0
 20
48.714
 30
0.0
 11
95.0
 21
45.994
 31
0.0
  0
LINE
  5
811
330
1D
100
AcDbEntity
  8
0
100
AcDbLine
 10
95.0
 20
48.714
 30
0.0
 11
95.0
 21
52.318
 31
0.0
  0
LINE
  5
812
330
1D
100
AcDbEntity
  8
0
100
AcDbLine
 10
95.0
 20
48.102
 30
0.0
 11
95.0
 21
50.4334
 31
0.0
  0
LINE
  5
813
330
1D
100
AcDbEntity
  8
0
100
AcDbLine
 10
95.0
 20
48.102
 30
0.0
 11
95.0
 21
46.7031
 31
0.0
  0
LINE
  5
814
330
1D
100
AcDbEntity
  8
0
100
AcDbLine
 10
95.0
 20
68.686
 30
0.0
 11
95.0
 21
64.846
 31
0.0
  0
LINE
  5
815
330
1D
100
AcDbEntity
  8
0
100
AcDbLine
 10
95.0
 20
68.686
 30
0.0
 11
95.0
 21
72.078
 31
0.0
  0
LINE
  5
816
330
1D
100
AcDbEntity
  8
0
100
AcDbLine
 10
95.0
 20
64.846
 30
0.0
 11
95.0
 21
60.75
 31
0.0
  0
LINE
  5
817
330
1D
100
AcDbEntity
  8
0
100
AcDbLine
 10
95.0
 20
64.846
 30
0.0
 11
95.0
 21
68.686
 31
0.0
  0
LINE
  5
818
330
1D
100
AcDbEntity
  8
0
100
AcDbLine
 10
95.0
 20
64.4803
 30
0.0
 11
95.0
 21
60.75
 31
0.0
  0
LINE
  5
819
330
1D
100
AcDbEntity
  8
0
100
AcDbLine
 10
95.0
 20
64.4803
 30
0.0
 11
95.0
 21
67.9774
 31
0.0
  0
LINE
  5
81A
330
1D
100
AcDbEntity
  8
0
100
AcDbLine
 10
95.0
 20
67.9774
 30
0.0
 11
95.0
 21
64.4803
 31
0.0
  0
LINE
  5
81B
330
1D
100
AcDbEntity
  8
0
100
AcDbLine
 10
95.0
 20
67.9774
 30
0.0
 11
95.0
 21
71.0666
 31
0.0
  0
LINE
  5
81C
330
1D
100
AcDbEntity
  8
0
100
AcDbLine
 10
95.0
 20
60.75
 30
0.0
 11
95.0
 21
65.102
 31
0.0
  0
LINE
  5
81D
330
1D
100
AcDbEntity
  8
0
100
AcDbLine
 10
95.0
 20
60.75
 30
0.0
 11
95.0
 21
64.4803
 31
0.0
  0
LINE
  5
81E
330
1D
100
AcDbEntity
  8
0
100
AcDbLine
 10
95.0
 20
60.75
 30
0.0
 11
95.0
 21
56.398
 31
0.0
  0
LINE
  5
81F
330
1D
100
AcDbEntity
  8
0
100
AcDbLine
 10
95.0
 20
60.75
 30
0.0
 11
95.0
 21
57.0197
 31
0.0
  0
LINE
  5
820
330
1D
100
AcDbEntity
  8
0
100
AcDbLine
 10
95.0
 20
60.75
 30
0.0
 11
95.0
 21
56.654
 31
0.0
  0
LINE
  5
821
330
1D
100
AcDbEntity
  8
0
100
AcDbLine
 10
95.0
 20
60.75
 30
0.0
 11
95.0
 21
64.846
 31
0.0
  0
LINE
  5
822
330
1D
100
AcDbEntity
  8
0
100
AcDbLine
 10
95.0
 20
65.102
 30
0.0
 11
95.0
 21
69.182
 31
0.0
  0
LINE
  5
823
330
1D
100
AcDbEntity
  8
0
100
AcDbLine
 10
95.0
 20
65.102
 30
0.0
 11
95.0
 21
60.75
 31
0.0
  0
LINE
  5
824
330
1D
100
AcDbEntity
  8
0
100
AcDbLine
 10
72.0
 20
74.246
 30
0.0
 11
72.0
 21
74.75
 31
0.0
  0
LINE
  5
825
330
1D
100
AcDbEntity
  8
0
100
AcDbLine
 10
72.0
 20
74.75
 30
0.0
 11
95.0
 21
74.75
 31
0.0
  0
LINE
  5
826
330
1D
100
AcDbEntity
  8
0
100
AcDbLine
 10
72.0
 20
74.75
 30
0.0
 11
72.0
 21
74.246
 31
0.0
  0
LINE
  5
827
330
1D
100
AcDbEntity
  8
0
100
AcDbLine
 10
72.0
 20
74.75
 30
0.0
 11
95.0
 21
74.75
 31
0.0
  0
LINE
  5
828
330
1D
100
AcDbEntity
  8
0
100
AcDbLine
 10
95.0
 20
74.638
 30
0.0
 11
95.0
 21
72.078
 31
0.0
  0
LINE
  5
829
330
1D
100
AcDbEntity
  8
0
100
AcDbLine
 10
95.0
 20
74.638
 30
0.0
 11
95.0
 21
76.174
 31
0.0
  0
LINE
  5
82A
330
1D
100
AcDbEntity
  8
0
100
AcDbLine
 10
95.0
 20
72.078
 30
0.0
 11
95.0
 21
68.686
 31
0.0
  0
LINE
  5
82B
330
1D
100
AcDbEntity
  8
0
100
AcDbLine
 10
95.0
 20
72.078
 30
0.0
 11
95.0
 21
74.638
 31
0.0
  0
LINE
  5
82C
330
1D
100
AcDbEntity
  8
0
100
AcDbLine
 10
95.0
 20
71.0666
 30
0.0
 11
95.0
 21
67.9774
 31
0.0
  0
LINE
  5
82D
330
1D
100
AcDbEntity
  8
0
100
AcDbLine
 10
95.0
 20
71.0666
 30
0.0
 11
95.0
 21
73.398
 31
0.0
  0
LINE
  5
82E
330
1D
100
AcDbEntity
  8
0
100
AcDbLine
 10
95.0
 20
73.398
 30
0.0
 11
95.0
 21
71.0666
 31
0.0
  0
LINE
  5
82F
330
1D
100
AcDbEntity
  8
0
100
AcDbLine
 10
95.0
 20
73.398
 30
0.0
 11
95.0
 21
74.7969
 31
0.0
  0
LINE
  5
830
330
1D
100
AcDbEntity
  8
0
100
AcDbLine
 10
95.0
 20
69.182
 30
0.0
 11
95.0
 21
72.786
 31
0.0
  0
LINE
  5
831
330
1D
100
AcDbEntity
  8
0
100
AcDbLine
 10
95.0
 20
69.182
 30
0.0
 11
95.0
 21
65.102
 31
0.0
  0
LINE
  5
832
330
1D
100
AcDbEntity
  8
0
100
AcDbLine
 10
95.0
 20
72.786
 30
0.0
 11
95.0
 21
75.506
 31
0.0
  0
LINE
  5
833
330
1D
100
AcDbEntity
  8
0
100
AcDbLine
 10
95.0
 20
72.786
 30
0.0
 11
95.0
 21
69.182
 31
0.0
  0
LINE
  5
834
330
1D
100
AcDbEntity
  8
0
100
AcDbLine
 10
95.0
 20
74.75
 30
0.0
 11
95.0
 21
75.506
 31
0.0
  0
LINE
  5
835
330
1D
100
AcDbEntity
  8
0
100
AcDbLine
 10
95.0
 20
74.75
 30
0.0
 11
95.0
 21
76.174
 31
0.0
  0
LINE
  5
836
330
1D
100
AcDbEntity
  8
0
100
AcDbLine
 10
95.0
 20
74.7969
 30
0.0
 11
95.0
 21
75.3214
 31
0.0
  0
LINE
  5
837
330
1D
100
AcDbEntity
  8
0
100
AcDbLine
 10
95.0
 20
74.7969
 30
0.0
 11
95.0
 21
73.398
 31
0.0
  0
LINE
  5
838
330
1D
100
AcDbEntity
  8
0
100
AcDbLine
 10
95.0
 20
76.75
 30
0.0
 11
95.0
 21
76.174
 31
0.0
  0
LINE
  5
839
330
1D
100
AcDbEntity
  8
0
100
AcDbLine
 10
95.0
 20
76.174
 30
0.0
 11
95.0
 21
74.638
 31
0.0
  0
LINE
  5
83A
330
1D
100
AcDbEntity
  8
0
100
AcDbLine
 10
95.0
 20
76.174
 30
0.0
 11
95.0
 21
76.75
 31
0.0
  0
LINE
  5
83B
330
1D
100
AcDbEntity
  8
0
100
AcDbLine
 10
95.0
 20
76.174
 30
0.0
 11
95.0
 21
74.75
 31
0.0
  0
LINE
  5
83C
330
1D
100
AcDbEntity
  8
0
100
AcDbLine
 10
95.0
 20
77.75
 30
0.0
 11
115.0
 21
77.75
 31
0.0
  0
LINE
  5
83D
330
1D
100
AcDbEntity
  8
0
100
AcDbLine
 10
95.0
 20
77.75
 30
0.0
 11
95.0
 21
77.138
 31
0.0
  0
LINE
  5
83E
330
1D
100
AcDbEntity
  8
0
100
AcDbLine
 10
95.0
 20
77.75
 30
0.0
 11
115.0
 21
77.75
 31
0.0
  0
LINE
  5
83F
330
1D
100
AcDbEntity
  8
0
100
AcDbLine
 10
95.0
 20
75.506
 30
0.0
 11
95.0
 21
77.138
 31
0.0
  0
LINE
  5
840
330
1D
100
AcDbEntity
  8
0
100
AcDbLine
 10
95.0
 20
75.506
 30
0.0
 11
95.0
 21
74.75
 31
0.0
  0
LINE
  5
841
330
1D
100
AcDbEntity
  8
0
100
AcDbLine
 10
95.0
 20
75.506
 30
0.0
 11
95.0
 21
72.786
 31
0.0
  0
LINE
  5
842
330
1D
100
AcDbEntity
  8
0
100
AcDbLine
 10
95.0
 20
75.3214
 30
0.0
 11
95.0
 21
74.7969
 31
0.0
  0
LINE
  5
843
330
1D
100
AcDbEntity
  8
0
100
AcDbLine
 10
95.0
 20
77.138
 30
0.0
 11
95.0
 21
77.75
 31
0.0
  0
LINE
  5
844
330
1D
100
AcDbEntity
  8
0
100
AcDbLine
 10
95.0
 20
77.138
 30
0.0
 11
95.0
 21
75.506
 31
0.0
  0
LINE
  5
845
330
1D
100
AcDbEntity
  8
0
100
AcDbLine
 10
95.0
 20
46.75
 30
0.0
 11
95.0
 21
45.994
 31
0.0
  0
LINE
  5
846
330
1D
100
AcDbEntity
  8
0
100
AcDbLine
 10
95.0
 20
46.75
 30
0.0
 11
95.0
 21
45.326
 31
0.0
  0
LINE
  5
847
330
1D
100
AcDbEntity
  8
0
100
AcDbLine
 10
103.0
 20
150.25
 30
0.0
 11
103.0
 21
140.25
 31
0.0
  0
LINE
  5
848
330
1D
100
AcDbEntity
  8
0
100
AcDbLine
 10
103.0
 20
150.25
 30
0.0
 11
115.0
 21
150.25
 31
0.0
  0
LINE
  5
849
330
1D
100
AcDbEntity
  8
0
100
AcDbLine
 10
103.0
 20
150.25
 30
0.0
 11
115.0
 21
150.25
 31
0.0
  0
LINE
  5
84A
330
1D
100
AcDbEntity
  8
0
100
AcDbLine
 10
103.0
 20
140.25
 30
0.0
 11
115.0
 21
126.25
 31
0.0
  0
LINE
  5
84B
330
1D
100
AcDbEntity
  8
0
100
AcDbLine
 10
103.0
 20
140.25
 30
0.0
 11
103.0
 21
150.25
 31
0.0
  0
LINE
  5
84C
330
1D
100
AcDbEntity
  8
0
100
AcDbLine
 10
113.0
 20
60.75
 30
0.0
 11
113.612
 21
56.398
 31
0.0
  0
LINE
  5
84D
330
1D
100
AcDbEntity
  8
0
100
AcDbLine
 10
113.0
 20
60.75
 30
0.0
 11
113.612
 21
65.102
 31
0.0
  0
LINE
  5
84E
330
1D
100
AcDbEntity
  8
0
100
AcDbLine
 10
113.612
 20
65.102
 30
0.0
 11
115.244
 21
69.182
 31
0.0
  0
LINE
  5
84F
330
1D
100
AcDbEntity
  8
0
100
AcDbLine
 10
115.0
 20
77.487714285714
 30
0.0
 11
115.0
 21
126.25
 31
0.0
  0
LINE
  5
850
330
1D
100
AcDbEntity
  8
0
100
AcDbLine
 10
115.0
 20
150.25
 30
0.0
 11
115.0
 21
150.75
 31
0.0
  0
LINE
  5
851
330
1D
100
AcDbEntity
  8
0
100
AcDbLine
 10
115.0
 20
77.487714285714
 30
0.0
 11
115.0
 21
126.25
 31
0.0
  0
LINE
  5
852
330
1D
100
AcDbEntity
  8
0
100
AcDbLine
 10
115.0
 20
150.75
 30
0.0
 11
115.0
 21
150.25
 31
0.0
  0
LINE
  5
853
330
1D
100
AcDbEntity
  8
0
100
AcDbLine
 10
115.0
 20
150.75
 30
0.0
 11
115.576
 21
150.75
 31
0.0
  0
LINE
  5
854
330
1D
100
AcDbEntity
  8
0
100
AcDbLine
 10
115.244
 20
69.182
 30
0.0
 11
117.964
 21
72.786
 31
0.0
  0
LINE
  5
855
330
1D
100
AcDbEntity
  8
0
100
AcDbLine
 10
116.0
 20
153.75
 30
0.0
 11
116.54
 21
153.75
 31
0.0
  0
LINE
  5
856
330
1D
100
AcDbEntity
  8
0
100
AcDbLine
 10
116.0
 20
153.75
 30
0.0
 11
116.0
 21
155.75
 31
0.0
  0
LINE
  5
857
330
1D
100
AcDbEntity
  8
0
100
AcDbLine
 10
116.0
 20
155.75
 30
0.0
 11
116.54
 21
155.75
 31
0.0
  0
LINE
  5
858
330
1D
100
AcDbEntity
  8
0
100
AcDbLine
 10
116.0
 20
155.75
 30
0.0
 11
116.0
 21
153.75
 31
0.0
  0
LINE
  5
859
330
1D
100
AcDbEntity
  8
0
100
AcDbLine
 10
116.54
 20
155.75
 30
0.0
 11
117.98
 21
155.75
 31
0.0
  0
LINE
  5
85A
330
1D
100
AcDbEntity
  8
0
100
AcDbLine
 10
116.54
 20
153.75
 30
0.0
 11
117.0
 21
153.75
 31
0.0
  0
LINE
  5
85B
330
1D
100
AcDbEntity
  8
0
100
AcDbLine
 10
116.54
 20
153.75
 30
0.0
 11
117.98
 21
153.75
 31
0.0
  0
LINE
  5
85C
330
1D
100
AcDbEntity
  8
0
100
AcDbLine
 10
115.576
 20
150.75
 30
0.0
 11
117.112
 21
150.75
 31
0.0
  0
LINE
  5
85D
330
1D
100
AcDbEntity
  8
0
100
AcDbLine
 10
115.9531
 20
64.4803
 30
0.0
 11
117.352
 21
67.9774
 31
0.0
  0
LINE
  5
85E
330
1D
100
AcDbEntity
  8
0
100
AcDbLine
 10
115.4286
 20
60.75
 30
0.0
 11
115.9531
 21
57.0197
 31
0.0
  0
LINE
  5
85F
330
1D
100
AcDbEntity
  8
0
100
AcDbLine
 10
115.4286
 20
60.75
 30
0.0
 11
115.9531
 21
64.4803
 31
0.0
  0
LINE
  5
860
330
1D
100
AcDbEntity
  8
0
100
AcDbLine
 10
115.9531
 20
57.0197
 30
0.0
 11
117.352
 21
53.5226
 31
0.0
  0
LINE
  5
861
330
1D
100
AcDbEntity
  8
0
100
AcDbLine
 10
113.612
 20
56.398
 30
0.0
 11
115.244
 21
52.318
 31
0.0
  0
LINE
  5
862
330
1D
100
AcDbEntity
  8
0
100
AcDbLine
 10
115.244
 20
52.318
 30
0.0
 11
117.964
 21
48.714
 31
0.0
  0
LINE
  5
863
330
1D
100
AcDbEntity
  8
0
100
AcDbLine
 10
95.0
 20
45.994
 30
0.0
 11
95.0
 21
44.362
 31
0.0
  0
LINE
  5
864
330
1D
100
AcDbEntity
  8
0
100
AcDbLine
 10
95.0
 20
45.994
 30
0.0
 11
95.0
 21
46.75
 31
0.0
  0
LINE
  5
865
330
1D
100
AcDbEntity
  8
0
100
AcDbLine
 10
95.0
 20
45.994
 30
0.0
 11
95.0
 21
48.714
 31
0.0
  0
LINE
  5
866
330
1D
100
AcDbEntity
  8
0
100
AcDbLine
 10
95.0
 20
44.362
 30
0.0
 11
95.0
 21
43.75
 31
0.0
  0
LINE
  5
867
330
1D
100
AcDbEntity
  8
0
100
AcDbLine
 10
95.0
 20
44.362
 30
0.0
 11
95.0
 21
45.994
 31
0.0
  0
LINE
  5
868
330
1D
100
AcDbEntity
  8
0
100
AcDbLine
 10
117.0
 20
153.75
 30
0.0
 11
117.0
 21
150.75
 31
0.0
  0
LINE
  5
869
330
1D
100
AcDbEntity
  8
0
100
AcDbLine
 10
116.0
 20
159.75
 30
0.0
 11
116.54
 21
159.75
 31
0.0
  0
LINE
  5
86A
330
1D
100
AcDbEntity
  8
0
100
AcDbLine
 10
116.0
 20
159.75
 30
0.0
 11
116.0
 21
157.75
 31
0.0
  0
LINE
  5
86B
330
1D
100
AcDbEntity
  8
0
100
AcDbLine
 10
116.54
 20
159.75
 30
0.0
 11
117.98
 21
159.75
 31
0.0
  0
LINE
  5
86C
330
1D
100
AcDbEntity
  8
0
100
AcDbLine
 10
116.0
 20
157.75
 30
0.0
 11
116.54
 21
157.75
 31
0.0
  0
LINE
  5
86D
330
1D
100
AcDbEntity
  8
0
100
AcDbLine
 10
116.0
 20
157.75
 30
0.0
 11
116.0
 21
159.75
 31
0.0
  0
LINE
  5
86E
330
1D
100
AcDbEntity
  8
0
100
AcDbLine
 10
116.54
 20
157.75
 30
0.0
 11
117.0
 21
157.75
 31
0.0
  0
LINE
  5
86F
330
1D
100
AcDbEntity
  8
0
100
AcDbLine
 10
116.54
 20
157.75
 30
0.0
 11
117.98
 21
157.75
 31
0.0
  0
LINE
  5
870
330
1D
100
AcDbEntity
  8
0
100
AcDbLine
 10
117.0
 20
155.75
 30
0.0
 11
117.0
 21
157.75
 31
0.0
  0
LINE
  5
871
330
1D
100
AcDbEntity
  8
0
100
AcDbLine
 10
117.112
 20
20.75
 30
0.0
 11
119.672
 21
20.75
 31
0.0
  0
LINE
  5
872
330
1D
100
AcDbEntity
  8
0
100
AcDbLine
 10
119.672
 20
20.75
 30
0.0
 11
123.064
 21
20.75
 31
0.0
  0
LINE
  5
873
330
1D
100
AcDbEntity
  8
0
100
AcDbLine
 10
123.064
 20
20.75
 30
0.0
 11
126.904
 21
20.75
 31
0.0
  0
LINE
  5
874
330
1D
100
AcDbEntity
  8
0
100
AcDbLine
 10
126.904
 20
20.75
 30
0.0
 11
131.0
 21
20.75
 31
0.0
  0
LINE
  5
875
330
1D
100
AcDbEntity
  8
0
100
AcDbLine
 10
119.6834
 20
50.4334
 30
0.0
 11
122.7726
 21
48.102
 31
0.0
  0
LINE
  5
876
330
1D
100
AcDbEntity
  8
0
100
AcDbLine
 10
117.964
 20
48.714
 30
0.0
 11
121.568
 21
45.994
 31
0.0
  0
LINE
  5
877
330
1D
100
AcDbEntity
  8
0
100
AcDbLine
 10
130.0
 20
46.1786
 30
0.0
 11
133.7303
 21
46.7031
 31
0.0
  0
LINE
  5
878
330
1D
100
AcDbEntity
  8
0
100
AcDbLine
 10
122.7726
 20
48.102
 30
0.0
 11
126.2697
 21
46.7031
 31
0.0
  0
LINE
  5
879
330
1D
100
AcDbEntity
  8
0
100
AcDbLine
 10
126.2697
 20
46.7031
 30
0.0
 11
130.0
 21
46.1786
 31
0.0
  0
LINE
  5
87A
330
1D
100
AcDbEntity
  8
0
100
AcDbLine
 10
121.568
 20
45.994
 30
0.0
 11
125.648
 21
44.362
 31
0.0
  0
LINE
  5
87B
330
1D
100
AcDbEntity
  8
0
100
AcDbLine
 10
125.648
 20
44.362
 30
0.0
 11
130.0
 21
43.75
 31
0.0
  0
LINE
  5
87C
330
1D
100
AcDbEntity
  8
0
100
AcDbLine
 10
131.0
 20
43.75
 30
0.0
 11
131.0
 21
20.75
 31
0.0
  0
LINE
  5
87D
330
1D
100
AcDbEntity
  8
0
100
AcDbLine
 10
137.0
 20
9.75
 30
0.0
 11
147.0
 21
9.75
 31
0.0
  0
LINE
  5
87E
330
1D
100
AcDbEntity
  8
0
100
AcDbLine
 10
137.0
 20
9.75
 30
0.0
 11
137.0
 21
9.966
 31
0.0
  0
LINE
  5
87F
330
1D
100
AcDbEntity
  8
0
100
AcDbLine
 10
137.0
 20
9.966
 30
0.0
 11
137.0
 21
9.75
 31
0.0
  0
LINE
  5
880
330
1D
100
AcDbEntity
  8
0
100
AcDbLine
 10
137.0
 20
9.966
 30
0.0
 11
137.0
 21
10.542
 31
0.0
  0
LINE
  5
881
330
1D
100
AcDbEntity
  8
0
100
AcDbLine
 10
137.0
 20
10.542
 30
0.0
 11
137.0
 21
9.966
 31
0.0
  0
LINE
  5
882
330
1D
100
AcDbEntity
  8
0
100
AcDbLine
 10
137.0
 20
10.542
 30
0.0
 11
137.0
 21
11.502
 31
0.0
  0
LINE
  5
883
330
1D
100
AcDbEntity
  8
0
100
AcDbLine
 10
137.0
 20
11.502
 30
0.0
 11
137.0
 21
10.542
 31
0.0
  0
LINE
  5
884
330
1D
100
AcDbEntity
  8
0
100
AcDbLine
 10
137.0
 20
11.502
 30
0.0
 11
137.0
 21
12.774
 31
0.0
  0
LINE
  5
885
330
1D
100
AcDbEntity
  8
0
100
AcDbLine
 10
137.0
 20
12.774
 30
0.0
 11
137.0
 21
11.502
 31
0.0
  0
LINE
  5
886
330
1D
100
AcDbEntity
  8
0
100
AcDbLine
 10
137.0
 20
12.774
 30
0.0
 11
137.0
 21
14.214
 31
0.0
  0
LINE
  5
887
330
1D
100
AcDbEntity
  8
0
100
AcDbLine
 10
137.0
 20
20.1035
 30
0.0
 11
137.0
 21
20.75
 31
0.0
  0
LINE
  5
888
330
1D
100
AcDbEntity
  8
0
100
AcDbLine
 10
137.0
 20
20.1035
 30
0.0
 11
137.0
 21
18.726
 31
0.0
  0
LINE
  5
889
330
1D
100
AcDbEntity
  8
0
100
AcDbLine
 10
137.0
 20
18.726
 30
0.0
 11
137.0
 21
20.1035
 31
0.0
  0
LINE
  5
88A
330
1D
100
AcDbEntity
  8
0
100
AcDbLine
 10
137.0
 20
18.726
 30
0.0
 11
137.0
 21
17.286
 31
0.0
  0
LINE
  5
88B
330
1D
100
AcDbEntity
  8
0
100
AcDbLine
 10
137.0
 20
20.75
 30
0.0
 11
137.0
 21
17.286
 31
0.0
  0
LINE
  5
88C
330
1D
100
AcDbEntity
  8
0
100
AcDbLine
 10
137.0
 20
20.75
 30
0.0
 11
137.0
 21
20.1035
 31
0.0
  0
LINE
  5
88D
330
1D
100
AcDbEntity
  8
0
100
AcDbLine
 10
137.0
 20
17.286
 30
0.0
 11
137.0
 21
15.75
 31
0.0
  0
LINE
  5
88E
330
1D
100
AcDbEntity
  8
0
100
AcDbLine
 10
137.0
 20
17.286
 30
0.0
 11
137.0
 21
20.75
 31
0.0
  0
LINE
  5
88F
330
1D
100
AcDbEntity
  8
0
100
AcDbLine
 10
137.0
 20
17.286
 30
0.0
 11
137.0
 21
18.726
 31
0.0
  0
LINE
  5
890
330
1D
100
AcDbEntity
  8
0
100
AcDbLine
 10
137.0
 20
17.286
 30
0.0
 11
137.0
 21
28.75
 31
0.0
  0
LINE
  5
891
330
1D
100
AcDbEntity
  8
0
100
AcDbLine
 10
137.0
 20
14.214
 30
0.0
 11
137.0
 21
12.774
 31
0.0
  0
LINE
  5
892
330
1D
100
AcDbEntity
  8
0
100
AcDbLine
 10
137.0
 20
14.214
 30
0.0
 11
137.0
 21
15.75
 31
0.0
  0
LINE
  5
893
330
1D
100
AcDbEntity
  8
0
100
AcDbLine
 10
137.0
 20
15.75
 30
0.0
 11
137.0
 21
14.214
 31
0.0
  0
LINE
  5
894
330
1D
100
AcDbEntity
  8
0
100
AcDbLine
 10
137.0
 20
15.75
 30
0.0
 11
137.0
 21
17.286
 31
0.0
  0
LINE
  5
895
330
1D
100
AcDbEntity
  8
0
100
AcDbLine
 10
137.0
 20
28.75
 30
0.0
 11
137.0
 21
29.55
 31
0.0
  0
LINE
  5
896
330
1D
100
AcDbEntity
  8
0
100
AcDbLine
 10
137.0
 20
28.75
 30
0.0
 11
137.0
 21
17.286
 31
0.0
  0
LINE
  5
897
330
1D
100
AcDbEntity
  8
0
100
AcDbLine
 10
142.0
 20
23.75
 30
0.0
 11
142.0
 21
24.11
 31
0.0
  0
LINE
  5
898
330
1D
100
AcDbEntity
  8
0
100
AcDbLine
 10
142.0
 20
24.11
 30
0.0
 11
142.0
 21
25.07
 31
0.0
  0
LINE
  5
899
330
1D
100
AcDbEntity
  8
0
100
AcDbLine
 10
142.0
 20
24.11
 30
0.0
 11
142.0
 21
23.75
 31
0.0
  0
LINE
  5
89A
330
1D
100
AcDbEntity
  8
0
100
AcDbLine
 10
142.0
 20
25.07
 30
0.0
 11
142.0
 21
26.67
 31
0.0
  0
LINE
  5
89B
330
1D
100
AcDbEntity
  8
0
100
AcDbLine
 10
142.0
 20
25.07
 30
0.0
 11
142.0
 21
24.11
 31
0.0
  0
LINE
  5
89C
330
1D
100
AcDbEntity
  8
0
100
AcDbLine
 10
140.0
 20
27.3059
 30
0.0
 11
140.0
 21
27.0588
 31
0.0
  0
LINE
  5
89D
330
1D
100
AcDbEntity
  8
0
100
AcDbLine
 10
140.0
 20
27.0588
 30
0.0
 11
140.0
 21
27.3059
 31
0.0
  0
LINE
  5
89E
330
1D
100
AcDbEntity
  8
0
100
AcDbLine
 10
140.0
 20
27.0588
 30
0.0
 11
140.0962
 21
26.8529
 31
0.0
  0
LINE
  5
89F
330
1D
100
AcDbEntity
  8
0
100
AcDbLine
 10
140.0
 20
29.0147
 30
0.0
 11
140.0
 21
27.9647
 31
0.0
  0
LINE
  5
8A0
330
1D
100
AcDbEntity
  8
0
100
AcDbLine
 10
140.0
 20
27.3059
 30
0.0
 11
140.0
 21
29.0147
 31
0.0
  0
LINE
  5
8A1
330
1D
100
AcDbEntity
  8
0
100
AcDbLine
 10
140.0962
 20
27.7794
 30
0.0
 11
140.0962
 21
28.8706
 31
0.0
  0
LINE
  5
8A2
330
1D
100
AcDbEntity
  8
0
100
AcDbLine
 10
140.0962
 20
27.7794
 30
0.0
 11
140.0962
 21
27.1
 31
0.0
  0
LINE
  5
8A3
330
1D
100
AcDbEntity
  8
0
100
AcDbLine
 10
140.0962
 20
27.1
 30
0.0
 11
140.0962
 21
27.7794
 31
0.0
  0
LINE
  5
8A4
330
1D
100
AcDbEntity
  8
0
100
AcDbLine
 10
140.0962
 20
27.1
 30
0.0
 11
140.0962
 21
26.8529
 31
0.0
  0
LINE
  5
8A5
330
1D
100
AcDbEntity
  8
0
100
AcDbLine
 10
140.0962
 20
26.8529
 30
0.0
 11
140.2885
 21
26.75
 31
0.0
  0
LINE
  5
8A6
330
1D
100
AcDbEntity
  8
0
100
AcDbLine
 10
140.0962
 20
26.8529
 30
0.0
 11
140.0962
 21
27.1
 31
0.0
  0
LINE
  5
8A7
330
1D
100
AcDbEntity
  8
0
100
AcDbLine
 10
142.0
 20
28.8088
 30
0.0
 11
142.0
 21
27.6971
 31
0.0
  0
LINE
  5
8A8
330
1D
100
AcDbEntity
  8
0
100
AcDbLine
 10
142.0
 20
27.6971
 30
0.0
 11
142.0
 21
26.9971
 31
0.0
  0
LINE
  5
8A9
330
1D
100
AcDbEntity
  8
0
100
AcDbLine
 10
142.0
 20
26.9971
 30
0.0
 11
142.0
 21
26.75
 31
0.0
  0
LINE
  5
8AA
330
1D
100
AcDbEntity
  8
0
100
AcDbLine
 10
140.2885
 20
26.75
 30
0.0
 11
142.0
 21
26.75
 31
0.0
  0
LINE
  5
8AB
330
1D
100
AcDbEntity
  8
0
100
AcDbLine
 10
140.0962
 20
28.8706
 30
0.0
 11
140.0962
 21
30.3118
 31
0.0
  0
LINE
  5
8AC
330
1D
100
AcDbEntity
  8
0
100
AcDbLine
 10
140.0962
 20
28.8706
 30
0.0
 11
140.0962
 21
27.7794
 31
0.0
  0
LINE
  5
8AD
330
1D
100
AcDbEntity
  8
0
100
AcDbLine
 10
140.0
 20
29.0147
 30
0.0
 11
140.0
 21
32.0206
 31
0.0
  0
LINE
  5
8AE
330
1D
100
AcDbEntity
  8
0
100
AcDbLine
 10
140.0962
 20
30.3118
 30
0.0
 11
140.0962
 21
31.9794
 31
0.0
  0
LINE
  5
8AF
330
1D
100
AcDbEntity
  8
0
100
AcDbLine
 10
140.0962
 20
30.3118
 30
0.0
 11
140.0962
 21
28.8706
 31
0.0
  0
LINE
  5
8B0
330
1D
100
AcDbEntity
  8
0
100
AcDbLine
 10
142.0
 20
30.2706
 30
0.0
 11
142.0
 21
28.8088
 31
0.0
  0
LINE
  5
8B1
330
1D
100
AcDbEntity
  8
0
100
AcDbLine
 10
142.0
 20
26.67
 30
0.0
 11
142.0
 21
28.79
 31
0.0
  0
LINE
  5
8B2
330
1D
100
AcDbEntity
  8
0
100
AcDbLine
 10
142.0
 20
26.67
 30
0.0
 11
142.0
 21
25.07
 31
0.0
  0
LINE
  5
8B3
330
1D
100
AcDbEntity
  8
0
100
AcDbLine
 10
142.0
 20
28.79
 30
0.0
 11
142.0
 21
31.19
 31
0.0
  0
LINE
  5
8B4
330
1D
100
AcDbEntity
  8
0
100
AcDbLine
 10
142.0
 20
28.79
 30
0.0
 11
142.0
 21
26.67
 31
0.0
  0
LINE
  5
8B5
330
1D
100
AcDbEntity
  8
0
100
AcDbLine
 10
140.0
 20
35.4794
 30
0.0
 11
140.0
 21
38.4853
 31
0.0
  0
LINE
  5
8B6
330
1D
100
AcDbEntity
  8
0
100
AcDbLine
 10
140.0
 20
35.4794
 30
0.0
 11
140.0
 21
33.75
 31
0.0
  0
LINE
  5
8B7
330
1D
100
AcDbEntity
  8
0
100
AcDbLine
 10
140.0962
 20
35.5206
 30
0.0
 11
140.0962
 21
37.1882
 31
0.0
  0
LINE
  5
8B8
330
1D
100
AcDbEntity
  8
0
100
AcDbLine
 10
140.0962
 20
35.5206
 30
0.0
 11
140.0962
 21
33.75
 31
0.0
  0
LINE
  5
8B9
330
1D
100
AcDbEntity
  8
0
100
AcDbLine
 10
140.0
 20
33.75
 30
0.0
 11
140.0
 21
32.0206
 31
0.0
  0
LINE
  5
8BA
330
1D
100
AcDbEntity
  8
0
100
AcDbLine
 10
140.0
 20
33.75
 30
0.0
 11
140.0
 21
35.4794
 31
0.0
  0
LINE
  5
8BB
330
1D
100
AcDbEntity
  8
0
100
AcDbLine
 10
140.0
 20
32.0206
 30
0.0
 11
140.0
 21
29.0147
 31
0.0
  0
LINE
  5
8BC
330
1D
100
AcDbEntity
  8
0
100
AcDbLine
 10
140.0
 20
32.0206
 30
0.0
 11
140.0
 21
33.75
 31
0.0
  0
LINE
  5
8BD
330
1D
100
AcDbEntity
  8
0
100
AcDbLine
 10
142.0
 20
35.5412
 30
0.0
 11
142.0
 21
33.75
 31
0.0
  0
LINE
  5
8BE
330
1D
100
AcDbEntity
  8
0
100
AcDbLine
 10
140.0962
 20
33.75
 30
0.0
 11
140.0962
 21
31.9794
 31
0.0
  0
LINE
  5
8BF
330
1D
100
AcDbEntity
  8
0
100
AcDbLine
 10
140.0962
 20
33.75
 30
0.0
 11
140.0962
 21
35.5206
 31
0.0
  0
LINE
  5
8C0
330
1D
100
AcDbEntity
  8
0
100
AcDbLine
 10
140.0962
 20
31.9794
 30
0.0
 11
140.0962
 21
33.75
 31
0.0
  0
LINE
  5
8C1
330
1D
100
AcDbEntity
  8
0
100
AcDbLine
 10
140.0962
 20
31.9794
 30
0.0
 11
140.0962
 21
30.3118
 31
0.0
  0
LINE
  5
8C2
330
1D
100
AcDbEntity
  8
0
100
AcDbLine
 10
142.0
 20
31.9588
 30
0.0
 11
142.0
 21
30.2706
 31
0.0
  0
LINE
  5
8C3
330
1D
100
AcDbEntity
  8
0
100
AcDbLine
 10
142.0
 20
31.19
 30
0.0
 11
142.0
 21
33.75
 31
0.0
  0
LINE
  5
8C4
330
1D
100
AcDbEntity
  8
0
100
AcDbLine
 10
142.0
 20
31.19
 30
0.0
 11
142.0
 21
28.79
 31
0.0
  0
LINE
  5
8C5
330
1D
100
AcDbEntity
  8
0
100
AcDbLine
 10
137.0
 20
29.55
 30
0.0
 11
140.0
 21
29.55
 31
0.0
  0
LINE
  5
8C6
330
1D
100
AcDbEntity
  8
0
100
AcDbLine
 10
137.0
 20
29.55
 30
0.0
 11
137.0
 21
28.75
 31
0.0
  0
LINE
  5
8C7
330
1D
100
AcDbEntity
  8
0
100
AcDbLine
 10
140.0
 20
38.4853
 30
0.0
 11
140.0
 21
35.4794
 31
0.0
  0
LINE
  5
8C8
330
1D
100
AcDbEntity
  8
0
100
AcDbLine
 10
140.0
 20
38.4853
 30
0.0
 11
140.0
 21
39.5353
 31
0.0
  0
LINE
  5
8C9
330
1D
100
AcDbEntity
  8
0
100
AcDbLine
 10
140.0
 20
39.5353
 30
0.0
 11
140.0
 21
38.4853
 31
0.0
  0
LINE
  5
8CA
330
1D
100
AcDbEntity
  8
0
100
AcDbLine
 10
140.0
 20
39.5353
 30
0.0
 11
140.0
 21
40.1941
 31
0.0
  0
LINE
  5
8CB
330
1D
100
AcDbEntity
  8
0
100
AcDbLine
 10
140.0
 20
40.1941
 30
0.0
 11
140.0
 21
39.5353
 31
0.0
  0
LINE
  5
8CC
330
1D
100
AcDbEntity
  8
0
100
AcDbLine
 10
140.0
 20
40.1941
 30
0.0
 11
140.0
 21
40.4412
 31
0.0
  0
LINE
  5
8CD
330
1D
100
AcDbEntity
  8
0
100
AcDbLine
 10
140.0962
 20
37.1882
 30
0.0
 11
140.0962
 21
38.6294
 31
0.0
  0
LINE
  5
8CE
330
1D
100
AcDbEntity
  8
0
100
AcDbLine
 10
140.0962
 20
37.1882
 30
0.0
 11
140.0962
 21
35.5206
 31
0.0
  0
LINE
  5
8CF
330
1D
100
AcDbEntity
  8
0
100
AcDbLine
 10
140.0962
 20
38.6294
 30
0.0
 11
140.0962
 21
39.7206
 31
0.0
  0
LINE
  5
8D0
330
1D
100
AcDbEntity
  8
0
100
AcDbLine
 10
140.0962
 20
38.6294
 30
0.0
 11
140.0962
 21
37.1882
 31
0.0
  0
LINE
  5
8D1
330
1D
100
AcDbEntity
  8
0
100
AcDbLine
 10
140.0962
 20
39.7206
 30
0.0
 11
140.0962
 21
40.4
 31
0.0
  0
LINE
  5
8D2
330
1D
100
AcDbEntity
  8
0
100
AcDbLine
 10
140.0962
 20
39.7206
 30
0.0
 11
140.0962
 21
38.6294
 31
0.0
  0
LINE
  5
8D3
330
1D
100
AcDbEntity
  8
0
100
AcDbLine
 10
140.0962
 20
40.4
 30
0.0
 11
140.0962
 21
40.6471
 31
0.0
  0
LINE
  5
8D4
330
1D
100
AcDbEntity
  8
0
100
AcDbLine
 10
140.0962
 20
40.4
 30
0.0
 11
140.0962
 21
39.7206
 31
0.0
  0
LINE
  5
8D5
330
1D
100
AcDbEntity
  8
0
100
AcDbLine
 10
140.0
 20
40.4412
 30
0.0
 11
140.0962
 21
40.6471
 31
0.0
  0
LINE
  5
8D6
330
1D
100
AcDbEntity
  8
0
100
AcDbLine
 10
140.0
 20
40.4412
 30
0.0
 11
140.0
 21
40.1941
 31
0.0
  0
LINE
  5
8D7
330
1D
100
AcDbEntity
  8
0
100
AcDbLine
 10
140.0962
 20
40.6471
 30
0.0
 11
140.2885
 21
40.75
 31
0.0
  0
LINE
  5
8D8
330
1D
100
AcDbEntity
  8
0
100
AcDbLine
 10
140.0962
 20
40.6471
 30
0.0
 11
140.0962
 21
40.4
 31
0.0
  0
LINE
  5
8D9
330
1D
100
AcDbEntity
  8
0
100
AcDbLine
 10
142.0
 20
38.6912
 30
0.0
 11
142.0
 21
37.2294
 31
0.0
  0
LINE
  5
8DA
330
1D
100
AcDbEntity
  8
0
100
AcDbLine
 10
142.0
 20
37.2294
 30
0.0
 11
142.0
 21
35.5412
 31
0.0
  0
LINE
  5
8DB
330
1D
100
AcDbEntity
  8
0
100
AcDbLine
 10
142.0
 20
39.8029
 30
0.0
 11
142.0
 21
38.6912
 31
0.0
  0
LINE
  5
8DC
330
1D
100
AcDbEntity
  8
0
100
AcDbLine
 10
142.0
 20
40.5029
 30
0.0
 11
142.0
 21
39.8029
 31
0.0
  0
LINE
  5
8DD
330
1D
100
AcDbEntity
  8
0
100
AcDbLine
 10
142.0
 20
40.75
 30
0.0
 11
142.0
 21
40.5029
 31
0.0
  0
LINE
  5
8DE
330
1D
100
AcDbEntity
  8
0
100
AcDbLine
 10
140.2885
 20
40.75
 30
0.0
 11
142.0
 21
40.75
 31
0.0
  0
LINE
  5
8DF
330
1D
100
AcDbEntity
  8
0
100
AcDbLine
 10
142.0
 20
36.31
 30
0.0
 11
142.0
 21
49.6523
 31
0.0
  0
LINE
  5
8E0
330
1D
100
AcDbEntity
  8
0
100
AcDbLine
 10
142.0
 20
36.31
 30
0.0
 11
142.0
 21
33.75
 31
0.0
  0
LINE
  5
8E1
330
1D
100
AcDbEntity
  8
0
100
AcDbLine
 10
142.0
 20
33.75
 30
0.0
 11
142.0
 21
36.31
 31
0.0
  0
LINE
  5
8E2
330
1D
100
AcDbEntity
  8
0
100
AcDbLine
 10
142.0
 20
33.75
 30
0.0
 11
142.0
 21
31.19
 31
0.0
  0
LINE
  5
8E3
330
1D
100
AcDbEntity
  8
0
100
AcDbLine
 10
142.0
 20
33.75
 30
0.0
 11
142.0
 21
31.9588
 31
0.0
  0
LINE
  5
8E4
330
1D
100
AcDbEntity
  8
0
100
AcDbLine
 10
135.096
 20
20.75
 30
0.0
 11
137.0
 21
20.75
 31
0.0
  0
LINE
  5
8E5
330
1D
100
AcDbEntity
  8
0
100
AcDbLine
 10
131.0
 20
20.75
 30
0.0
 11
137.0
 21
20.75
 31
0.0
  0
LINE
  5
8E6
330
1D
100
AcDbEntity
  8
0
100
AcDbLine
 10
131.0
 20
20.75
 30
0.0
 11
135.096
 21
20.75
 31
0.0
  0
LINE
  5
8E7
330
1D
100
AcDbEntity
  8
0
100
AcDbLine
 10
142.0
 20
49.6523
 30
0.0
 11
147.0
 21
49.9286
 31
0.0
  0
LINE
  5
8E8
330
1D
100
AcDbEntity
  8
0
100
AcDbLine
 10
142.0
 20
49.6523
 30
0.0
 11
142.0
 21
36.31
 31
0.0
  0
LINE
  5
8E9
330
1D
100
AcDbEntity
  8
0
100
AcDbLine
 10
144.756
 20
52.318
 30
0.0
 11
146.388
 21
56.398
 31
0.0
  0
LINE
  5
8EA
330
1D
100
AcDbEntity
  8
0
100
AcDbLine
 10
140.3166
 20
50.4334
 30
0.0
 11
142.648
 21
53.5226
 31
0.0
  0
LINE
  5
8EB
330
1D
100
AcDbEntity
  8
0
100
AcDbLine
 10
142.858750370151
 20
49.80414424045
 30
0.0
 11
144.756
 21
52.318
 31
0.0
  0
LINE
  5
8EC
330
1D
100
AcDbEntity
  8
0
100
AcDbLine
 10
137.2274
 20
48.102
 30
0.0
 11
140.3166
 21
50.4334
 31
0.0
  0
LINE
  5
8ED
330
1D
100
AcDbEntity
  8
0
100
AcDbLine
 10
138.432
 20
45.994
 30
0.0
 11
142.0
 21
48.686830188679
 31
0.0
  0
LINE
  5
8EE
330
1D
100
AcDbEntity
  8
0
100
AcDbLine
 10
133.7303
 20
46.7031
 30
0.0
 11
137.2274
 21
48.102
 31
0.0
  0
LINE
  5
8EF
330
1D
100
AcDbEntity
  8
0
100
AcDbLine
 10
134.352
 20
44.362
 30
0.0
 11
138.432
 21
45.994
 31
0.0
  0
LINE
  5
8F0
330
1D
100
AcDbEntity
  8
0
100
AcDbLine
 10
130.0
 20
43.75
 30
0.0
 11
134.352
 21
44.362
 31
0.0
  0
LINE
  5
8F1
330
1D
100
AcDbEntity
  8
0
100
AcDbLine
 10
130.0
 20
43.75
 30
0.0
 11
142.0
 21
43.75
 31
0.0
  0
LINE
  5
8F2
330
1D
100
AcDbEntity
  8
0
100
AcDbLine
 10
117.352
 20
67.9774
 30
0.0
 11
119.6834
 21
71.0666
 31
0.0
  0
LINE
  5
8F3
330
1D
100
AcDbEntity
  8
0
100
AcDbLine
 10
117.964
 20
72.786
 30
0.0
 11
121.568
 21
75.506
 31
0.0
  0
LINE
  5
8F4
330
1D
100
AcDbEntity
  8
0
100
AcDbLine
 10
119.6834
 20
71.0666
 30
0.0
 11
122.7726
 21
73.398
 31
0.0
  0
LINE
  5
8F5
330
1D
100
AcDbEntity
  8
0
100
AcDbLine
 10
121.568
 20
75.506
 30
0.0
 11
125.648
 21
77.138
 31
0.0
  0
LINE
  5
8F6
330
1D
100
AcDbEntity
  8
0
100
AcDbLine
 10
122.7726
 20
73.398
 30
0.0
 11
126.2697
 21
74.7969
 31
0.0
  0
LINE
  5
8F7
330
1D
100
AcDbEntity
  8
0
100
AcDbLine
 10
117.112
 20
150.75
 30
0.0
 11
119.672
 21
150.75
 31
0.0
  0
LINE
  5
8F8
330
1D
100
AcDbEntity
  8
0
100
AcDbLine
 10
117.98
 20
155.75
 30
0.0
 11
120.38
 21
155.75
 31
0.0
  0
LINE
  5
8F9
330
1D
100
AcDbEntity
  8
0
100
AcDbLine
 10
120.38
 20
155.75
 30
0.0
 11
123.56
 21
155.75
 31
0.0
  0
LINE
  5
8FA
330
1D
100
AcDbEntity
  8
0
100
AcDbLine
 10
117.98
 20
153.75
 30
0.0
 11
120.38
 21
153.75
 31
0.0
  0
LINE
  5
8FB
330
1D
100
AcDbEntity
  8
0
100
AcDbLine
 10
120.38
 20
153.75
 30
0.0
 11
123.56
 21
153.75
 31
0.0
  0
LINE
  5
8FC
330
1D
100
AcDbEntity
  8
0
100
AcDbLine
 10
117.98
 20
157.75
 30
0.0
 11
120.38
 21
157.75
 31
0.0
  0
LINE
  5
8FD
330
1D
100
AcDbEntity
  8
0
100
AcDbLine
 10
120.38
 20
157.75
 30
0.0
 11
123.56
 21
157.75
 31
0.0
  0
LINE
  5
8FE
330
1D
100
AcDbEntity
  8
0
100
AcDbLine
 10
119.672
 20
150.75
 30
0.0
 11
123.064
 21
150.75
 31
0.0
  0
LINE
  5
8FF
330
1D
100
AcDbEntity
  8
0
100
AcDbLine
 10
123.56
 20
155.75
 30
0.0
 11
127.16
 21
155.75
 31
0.0
  0
LINE
  5
900
330
1D
100
AcDbEntity
  8
0
100
AcDbLine
 10
123.56
 20
153.75
 30
0.0
 11
127.16
 21
153.75
 31
0.0
  0
LINE
  5
901
330
1D
100
AcDbEntity
  8
0
100
AcDbLine
 10
123.56
 20
157.75
 30
0.0
 11
127.16
 21
157.75
 31
0.0
  0
LINE
  5
902
330
1D
100
AcDbEntity
  8
0
100
AcDbLine
 10
123.064
 20
150.75
 30
0.0
 11
126.904
 21
150.75
 31
0.0
  0
LINE
  5
903
330
1D
100
AcDbEntity
  8
0
100
AcDbLine
 10
125.648
 20
77.138
 30
0.0
 11
130.0
 21
77.75
 31
0.0
  0
LINE
  5
904
330
1D
100
AcDbEntity
  8
0
100
AcDbLine
 10
130.0
 20
75.3214
 30
0.0
 11
133.7303
 21
74.7969
 31
0.0
  0
LINE
  5
905
330
1D
100
AcDbEntity
  8
0
100
AcDbLine
 10
127.0
 20
130.75
 30
0.0
 11
127.0
 21
140.542
 31
0.0
  0
LINE
  5
906
330
1D
100
AcDbEntity
  8
0
100
AcDbLine
 10
127.0
 20
140.542
 30
0.0
 11
127.0
 21
130.75
 31
0.0
  0
LINE
  5
907
330
1D
100
AcDbEntity
  8
0
100
AcDbLine
 10
127.0
 20
140.542
 30
0.0
 11
127.0
 21
141.502
 31
0.0
  0
LINE
  5
908
330
1D
100
AcDbEntity
  8
0
100
AcDbLine
 10
127.0
 20
141.502
 30
0.0
 11
127.0
 21
140.542
 31
0.0
  0
LINE
  5
909
330
1D
100
AcDbEntity
  8
0
100
AcDbLine
 10
127.0
 20
141.502
 30
0.0
 11
127.0
 21
142.774
 31
0.0
  0
LINE
  5
90A
330
1D
100
AcDbEntity
  8
0
100
AcDbLine
 10
127.0
 20
142.774
 30
0.0
 11
127.0
 21
141.502
 31
0.0
  0
LINE
  5
90B
330
1D
100
AcDbEntity
  8
0
100
AcDbLine
 10
127.0
 20
142.774
 30
0.0
 11
127.0
 21
144.214
 31
0.0
  0
LINE
  5
90C
330
1D
100
AcDbEntity
  8
0
100
AcDbLine
 10
127.0
 20
149.998
 30
0.0
 11
127.0
 21
148.726
 31
0.0
  0
LINE
  5
90D
330
1D
100
AcDbEntity
  8
0
100
AcDbLine
 10
127.0
 20
149.998
 30
0.0
 11
127.0
 21
150.958
 31
0.0
  0
LINE
  5
90E
330
1D
100
AcDbEntity
  8
0
100
AcDbLine
 10
127.0
 20
148.726
 30
0.0
 11
127.0
 21
147.286
 31
0.0
  0
LINE
  5
90F
330
1D
100
AcDbEntity
  8
0
100
AcDbLine
 10
127.0
 20
148.726
 30
0.0
 11
127.0
 21
149.998
 31
0.0
  0
LINE
  5
910
330
1D
100
AcDbEntity
  8
0
100
AcDbLine
 10
127.0
 20
147.286
 30
0.0
 11
127.0
 21
145.75
 31
0.0
  0
LINE
  5
911
330
1D
100
AcDbEntity
  8
0
100
AcDbLine
 10
127.0
 20
147.286
 30
0.0
 11
127.0
 21
148.726
 31
0.0
  0
LINE
  5
912
330
1D
100
AcDbEntity
  8
0
100
AcDbLine
 10
127.0
 20
144.214
 30
0.0
 11
127.0
 21
142.774
 31
0.0
  0
LINE
  5
913
330
1D
100
AcDbEntity
  8
0
100
AcDbLine
 10
127.0
 20
144.214
 30
0.0
 11
127.0
 21
145.75
 31
0.0
  0
LINE
  5
914
330
1D
100
AcDbEntity
  8
0
100
AcDbLine
 10
127.0
 20
145.75
 30
0.0
 11
127.0
 21
144.214
 31
0.0
  0
LINE
  5
915
330
1D
100
AcDbEntity
  8
0
100
AcDbLine
 10
127.0
 20
145.75
 30
0.0
 11
127.0
 21
147.286
 31
0.0
  0
LINE
  5
916
330
1D
100
AcDbEntity
  8
0
100
AcDbLine
 10
126.904
 20
150.75
 30
0.0
 11
127.0
 21
150.75
 31
0.0
  0
LINE
  5
917
330
1D
100
AcDbEntity
  8
0
100
AcDbLine
 10
127.0
 20
151.75
 30
0.0
 11
137.0
 21
151.75
 31
0.0
  0
LINE
  5
918
330
1D
100
AcDbEntity
  8
0
100
AcDbLine
 10
127.0
 20
151.75
 30
0.0
 11
127.0
 21
151.534
 31
0.0
  0
LINE
  5
919
330
1D
100
AcDbEntity
  8
0
100
AcDbLine
 10
127.0
 20
151.534
 30
0.0
 11
127.0
 21
151.75
 31
0.0
  0
LINE
  5
91A
330
1D
100
AcDbEntity
  8
0
100
AcDbLine
 10
127.0
 20
151.534
 30
0.0
 11
127.0
 21
150.958
 31
0.0
  0
LINE
  5
91B
330
1D
100
AcDbEntity
  8
0
100
AcDbLine
 10
127.0
 20
150.958
 30
0.0
 11
127.0
 21
151.534
 31
0.0
  0
LINE
  5
91C
330
1D
100
AcDbEntity
  8
0
100
AcDbLine
 10
127.0
 20
150.958
 30
0.0
 11
127.0
 21
150.415
 31
0.0
  0
LINE
  5
91D
330
1D
100
AcDbEntity
  8
0
100
AcDbLine
 10
127.0
 20
150.958
 30
0.0
 11
127.0
 21
149.998
 31
0.0
  0
LINE
  5
91E
330
1D
100
AcDbEntity
  8
0
100
AcDbLine
 10
127.0
 20
150.415
 30
0.0
 11
127.0
 21
150.958
 31
0.0
  0
LINE
  5
91F
330
1D
100
AcDbEntity
  8
0
100
AcDbLine
 10
127.0
 20
150.415
 30
0.0
 11
127.0
 21
150.25
 31
0.0
  0
LINE
  5
920
330
1D
100
AcDbEntity
  8
0
100
AcDbLine
 10
127.16
 20
155.75
 30
0.0
 11
131.0
 21
155.75
 31
0.0
  0
LINE
  5
921
330
1D
100
AcDbEntity
  8
0
100
AcDbLine
 10
127.16
 20
153.75
 30
0.0
 11
131.0
 21
153.75
 31
0.0
  0
LINE
  5
922
330
1D
100
AcDbEntity
  8
0
100
AcDbLine
 10
127.16
 20
157.75
 30
0.0
 11
131.0
 21
157.75
 31
0.0
  0
LINE
  5
923
330
1D
100
AcDbEntity
  8
0
100
AcDbLine
 10
127.0
 20
150.25
 30
0.0
 11
127.0
 21
150.415
 31
0.0
  0
LINE
  5
924
330
1D
100
AcDbEntity
  8
0
100
AcDbLine
 10
130.0
 20
77.75
 30
0.0
 11
134.352
 21
77.138
 31
0.0
  0
LINE
  5
925
330
1D
100
AcDbEntity
  8
0
100
AcDbLine
 10
130.0
 20
77.75
 30
0.0
 11
142.036
 21
77.75
 31
0.0
  0
LINE
  5
926
330
1D
100
AcDbEntity
  8
0
100
AcDbLine
 10
126.2697
 20
74.7969
 30
0.0
 11
130.0
 21
75.3214
 31
0.0
  0
LINE
  5
927
330
1D
100
AcDbEntity
  8
0
100
AcDbLine
 10
117.352
 20
53.5226
 30
0.0
 11
119.6834
 21
50.4334
 31
0.0
  0
LINE
  5
928
330
1D
100
AcDbEntity
  8
0
100
AcDbLine
 10
137.2274
 20
73.398
 30
0.0
 11
140.3166
 21
71.0666
 31
0.0
  0
LINE
  5
929
330
1D
100
AcDbEntity
  8
0
100
AcDbLine
 10
133.7303
 20
74.7969
 30
0.0
 11
137.2274
 21
73.398
 31
0.0
  0
LINE
  5
92A
330
1D
100
AcDbEntity
  8
0
100
AcDbLine
 10
142.648
 20
53.5226
 30
0.0
 11
144.0469
 21
57.0197
 31
0.0
  0
LINE
  5
92B
330
1D
100
AcDbEntity
  8
0
100
AcDbLine
 10
144.0469
 20
57.0197
 30
0.0
 11
144.5714
 21
60.75
 31
0.0
  0
LINE
  5
92C
330
1D
100
AcDbEntity
  8
0
100
AcDbLine
 10
144.0469
 20
64.4803
 30
0.0
 11
144.5714
 21
60.75
 31
0.0
  0
LINE
  5
92D
330
1D
100
AcDbEntity
  8
0
100
AcDbLine
 10
142.648
 20
67.9774
 30
0.0
 11
144.0469
 21
64.4803
 31
0.0
  0
LINE
  5
92E
330
1D
100
AcDbEntity
  8
0
100
AcDbLine
 10
140.3166
 20
71.0666
 30
0.0
 11
142.648
 21
67.9774
 31
0.0
  0
LINE
  5
92F
330
1D
100
AcDbEntity
  8
0
100
AcDbLine
 10
144.888
 20
68.852
 30
0.0
 11
144.888
 21
110.75
 31
0.0
  0
LINE
  5
930
330
1D
100
AcDbEntity
  8
0
100
AcDbLine
 10
144.888
 20
68.852
 30
0.0
 11
144.888
 21
110.75
 31
0.0
  0
LINE
  5
931
330
1D
100
AcDbEntity
  8
0
100
AcDbLine
 10
144.756
 20
69.182
 30
0.0
 11
146.388
 21
65.102
 31
0.0
  0
LINE
  5
932
330
1D
100
AcDbEntity
  8
0
100
AcDbLine
 10
142.036
 20
72.786
 30
0.0
 11
144.756
 21
69.182
 31
0.0
  0
LINE
  5
933
330
1D
100
AcDbEntity
  8
0
100
AcDbLine
 10
142.036
 20
72.786
 30
0.0
 11
142.036
 21
77.75
 31
0.0
  0
LINE
  5
934
330
1D
100
AcDbEntity
  8
0
100
AcDbLine
 10
138.432
 20
75.506
 30
0.0
 11
142.036
 21
72.786
 31
0.0
  0
LINE
  5
935
330
1D
100
AcDbEntity
  8
0
100
AcDbLine
 10
131.0
 20
155.75
 30
0.0
 11
134.84
 21
155.75
 31
0.0
  0
LINE
  5
936
330
1D
100
AcDbEntity
  8
0
100
AcDbLine
 10
131.0
 20
153.75
 30
0.0
 11
134.84
 21
153.75
 31
0.0
  0
LINE
  5
937
330
1D
100
AcDbEntity
  8
0
100
AcDbLine
 10
131.0
 20
157.75
 30
0.0
 11
134.84
 21
157.75
 31
0.0
  0
LINE
  5
938
330
1D
100
AcDbEntity
  8
0
100
AcDbLine
 10
137.0
 20
130.75
 30
0.0
 11
137.0
 21
140.542
 31
0.0
  0
LINE
  5
939
330
1D
100
AcDbEntity
  8
0
100
AcDbLine
 10
137.0
 20
140.542
 30
0.0
 11
137.0
 21
130.75
 31
0.0
  0
LINE
  5
93A
330
1D
100
AcDbEntity
  8
0
100
AcDbLine
 10
137.0
 20
140.542
 30
0.0
 11
137.0
 21
141.502
 31
0.0
  0
LINE
  5
93B
330
1D
100
AcDbEntity
  8
0
100
AcDbLine
 10
137.0
 20
141.502
 30
0.0
 11
137.0
 21
140.542
 31
0.0
  0
LINE
  5
93C
330
1D
100
AcDbEntity
  8
0
100
AcDbLine
 10
137.0
 20
141.502
 30
0.0
 11
137.0
 21
142.774
 31
0.0
  0
LINE
  5
93D
330
1D
100
AcDbEntity
  8
0
100
AcDbLine
 10
137.0
 20
142.774
 30
0.0
 11
137.0
 21
141.502
 31
0.0
  0
LINE
  5
93E
330
1D
100
AcDbEntity
  8
0
100
AcDbLine
 10
137.0
 20
142.774
 30
0.0
 11
137.0
 21
144.214
 31
0.0
  0
LINE
  5
93F
330
1D
100
AcDbEntity
  8
0
100
AcDbLine
 10
137.0
 20
150.75
 30
0.0
 11
138.936
 21
150.75
 31
0.0
  0
LINE
  5
940
330
1D
100
AcDbEntity
  8
0
100
AcDbLine
 10
134.84
 20
155.75
 30
0.0
 11
138.44
 21
155.75
 31
0.0
  0
LINE
  5
941
330
1D
100
AcDbEntity
  8
0
100
AcDbLine
 10
134.84
 20
153.75
 30
0.0
 11
138.44
 21
153.75
 31
0.0
  0
LINE
  5
942
330
1D
100
AcDbEntity
  8
0
100
AcDbLine
 10
134.84
 20
157.75
 30
0.0
 11
138.44
 21
157.75
 31
0.0
  0
LINE
  5
943
330
1D
100
AcDbEntity
  8
0
100
AcDbLine
 10
137.0
 20
151.75
 30
0.0
 11
137.0
 21
151.534
 31
0.0
  0
LINE
  5
944
330
1D
100
AcDbEntity
  8
0
100
AcDbLine
 10
137.0
 20
151.534
 30
0.0
 11
137.0
 21
150.958
 31
0.0
  0
LINE
  5
945
330
1D
100
AcDbEntity
  8
0
100
AcDbLine
 10
137.0
 20
151.534
 30
0.0
 11
137.0
 21
151.75
 31
0.0
  0
LINE
  5
946
330
1D
100
AcDbEntity
  8
0
100
AcDbLine
 10
137.0
 20
150.958
 30
0.0
 11
137.0
 21
149.998
 31
0.0
  0
LINE
  5
947
330
1D
100
AcDbEntity
  8
0
100
AcDbLine
 10
137.0
 20
150.958
 30
0.0
 11
137.0
 21
151.534
 31
0.0
  0
LINE
  5
948
330
1D
100
AcDbEntity
  8
0
100
AcDbLine
 10
137.0
 20
149.998
 30
0.0
 11
137.0
 21
148.726
 31
0.0
  0
LINE
  5
949
330
1D
100
AcDbEntity
  8
0
100
AcDbLine
 10
137.0
 20
149.998
 30
0.0
 11
137.0
 21
150.958
 31
0.0
  0
LINE
  5
94A
330
1D
100
AcDbEntity
  8
0
100
AcDbLine
 10
137.0
 20
148.726
 30
0.0
 11
137.0
 21
147.286
 31
0.0
  0
LINE
  5
94B
330
1D
100
AcDbEntity
  8
0
100
AcDbLine
 10
137.0
 20
148.726
 30
0.0
 11
137.0
 21
149.998
 31
0.0
  0
LINE
  5
94C
330
1D
100
AcDbEntity
  8
0
100
AcDbLine
 10
137.0
 20
147.286
 30
0.0
 11
137.0
 21
145.75
 31
0.0
  0
LINE
  5
94D
330
1D
100
AcDbEntity
  8
0
100
AcDbLine
 10
137.0
 20
147.286
 30
0.0
 11
137.0
 21
148.726
 31
0.0
  0
LINE
  5
94E
330
1D
100
AcDbEntity
  8
0
100
AcDbLine
 10
137.0
 20
144.214
 30
0.0
 11
137.0
 21
142.774
 31
0.0
  0
LINE
  5
94F
330
1D
100
AcDbEntity
  8
0
100
AcDbLine
 10
137.0
 20
144.214
 30
0.0
 11
137.0
 21
145.75
 31
0.0
  0
LINE
  5
950
330
1D
100
AcDbEntity
  8
0
100
AcDbLine
 10
142.0
 20
110.75
 30
0.0
 11
142.0
 21
111.11
 31
0.0
  0
LINE
  5
951
330
1D
100
AcDbEntity
  8
0
100
AcDbLine
 10
142.0
 20
111.11
 30
0.0
 11
142.0
 21
112.07
 31
0.0
  0
LINE
  5
952
330
1D
100
AcDbEntity
  8
0
100
AcDbLine
 10
142.0
 20
111.11
 30
0.0
 11
142.0
 21
110.75
 31
0.0
  0
LINE
  5
953
330
1D
100
AcDbEntity
  8
0
100
AcDbLine
 10
142.0
 20
112.07
 30
0.0
 11
142.0
 21
113.67
 31
0.0
  0
LINE
  5
954
330
1D
100
AcDbEntity
  8
0
100
AcDbLine
 10
142.0
 20
112.07
 30
0.0
 11
142.0
 21
111.11
 31
0.0
  0
LINE
  5
955
330
1D
100
AcDbEntity
  8
0
100
AcDbLine
 10
140.0
 20
114.306
 30
0.0
 11
140.0
 21
114.059
 31
0.0
  0
LINE
  5
956
330
1D
100
AcDbEntity
  8
0
100
AcDbLine
 10
140.0
 20
114.306
 30
0.0
 11
140.0
 21
114.965
 31
0.0
  0
LINE
  5
957
330
1D
100
AcDbEntity
  8
0
100
AcDbLine
 10
140.0
 20
114.059
 30
0.0
 11
140.0962
 21
113.853
 31
0.0
  0
LINE
  5
958
330
1D
100
AcDbEntity
  8
0
100
AcDbLine
 10
140.0
 20
114.059
 30
0.0
 11
140.0
 21
114.306
 31
0.0
  0
LINE
  5
959
330
1D
100
AcDbEntity
  8
0
100
AcDbLine
 10
140.0
 20
116.015
 30
0.0
 11
140.0
 21
114.965
 31
0.0
  0
LINE
  5
95A
330
1D
100
AcDbEntity
  8
0
100
AcDbLine
 10
140.0
 20
116.015
 30
0.0
 11
140.0
 21
117.415
 31
0.0
  0
LINE
  5
95B
330
1D
100
AcDbEntity
  8
0
100
AcDbLine
 10
140.0
 20
114.965
 30
0.0
 11
140.0
 21
114.306
 31
0.0
  0
LINE
  5
95C
330
1D
100
AcDbEntity
  8
0
100
AcDbLine
 10
140.0
 20
114.965
 30
0.0
 11
140.0
 21
116.015
 31
0.0
  0
LINE
  5
95D
330
1D
100
AcDbEntity
  8
0
100
AcDbLine
 10
140.0962
 20
114.779
 30
0.0
 11
140.0962
 21
115.871
 31
0.0
  0
LINE
  5
95E
330
1D
100
AcDbEntity
  8
0
100
AcDbLine
 10
140.0962
 20
114.779
 30
0.0
 11
140.0962
 21
114.1
 31
0.0
  0
LINE
  5
95F
330
1D
100
AcDbEntity
  8
0
100
AcDbLine
 10
140.0962
 20
114.1
 30
0.0
 11
140.0962
 21
114.779
 31
0.0
  0
LINE
  5
960
330
1D
100
AcDbEntity
  8
0
100
AcDbLine
 10
140.0962
 20
114.1
 30
0.0
 11
140.0962
 21
113.853
 31
0.0
  0
LINE
  5
961
330
1D
100
AcDbEntity
  8
0
100
AcDbLine
 10
140.0962
 20
113.853
 30
0.0
 11
140.2885
 21
113.75
 31
0.0
  0
LINE
  5
962
330
1D
100
AcDbEntity
  8
0
100
AcDbLine
 10
140.0962
 20
113.853
 30
0.0
 11
140.0962
 21
114.1
 31
0.0
  0
LINE
  5
963
330
1D
100
AcDbEntity
  8
0
100
AcDbLine
 10
142.0
 20
115.809
 30
0.0
 11
142.0
 21
114.697
 31
0.0
  0
LINE
  5
964
330
1D
100
AcDbEntity
  8
0
100
AcDbLine
 10
142.0
 20
114.697
 30
0.0
 11
142.0
 21
113.997
 31
0.0
  0
LINE
  5
965
330
1D
100
AcDbEntity
  8
0
100
AcDbLine
 10
142.0
 20
113.997
 30
0.0
 11
142.0
 21
113.75
 31
0.0
  0
LINE
  5
966
330
1D
100
AcDbEntity
  8
0
100
AcDbLine
 10
140.2885
 20
113.75
 30
0.0
 11
142.0
 21
113.75
 31
0.0
  0
LINE
  5
967
330
1D
100
AcDbEntity
  8
0
100
AcDbLine
 10
140.0962
 20
115.871
 30
0.0
 11
140.0962
 21
117.312
 31
0.0
  0
LINE
  5
968
330
1D
100
AcDbEntity
  8
0
100
AcDbLine
 10
140.0962
 20
115.871
 30
0.0
 11
140.0962
 21
114.779
 31
0.0
  0
LINE
  5
969
330
1D
100
AcDbEntity
  8
0
100
AcDbLine
 10
140.0
 20
117.415
 30
0.0
 11
140.0
 21
116.015
 31
0.0
  0
LINE
  5
96A
330
1D
100
AcDbEntity
  8
0
100
AcDbLine
 10
140.0
 20
117.415
 30
0.0
 11
140.0
 21
119.021
 31
0.0
  0
LINE
  5
96B
330
1D
100
AcDbEntity
  8
0
100
AcDbLine
 10
140.0962
 20
117.312
 30
0.0
 11
140.0962
 21
118.979
 31
0.0
  0
LINE
  5
96C
330
1D
100
AcDbEntity
  8
0
100
AcDbLine
 10
140.0962
 20
117.312
 30
0.0
 11
140.0962
 21
115.871
 31
0.0
  0
LINE
  5
96D
330
1D
100
AcDbEntity
  8
0
100
AcDbLine
 10
142.0
 20
117.271
 30
0.0
 11
142.0
 21
115.809
 31
0.0
  0
LINE
  5
96E
330
1D
100
AcDbEntity
  8
0
100
AcDbLine
 10
142.0
 20
113.67
 30
0.0
 11
142.0
 21
115.79
 31
0.0
  0
LINE
  5
96F
330
1D
100
AcDbEntity
  8
0
100
AcDbLine
 10
142.0
 20
113.67
 30
0.0
 11
142.0
 21
112.07
 31
0.0
  0
LINE
  5
970
330
1D
100
AcDbEntity
  8
0
100
AcDbLine
 10
142.0
 20
115.79
 30
0.0
 11
142.0
 21
118.19
 31
0.0
  0
LINE
  5
971
330
1D
100
AcDbEntity
  8
0
100
AcDbLine
 10
142.0
 20
115.79
 30
0.0
 11
142.0
 21
113.67
 31
0.0
  0
LINE
  5
972
330
1D
100
AcDbEntity
  8
0
100
AcDbLine
 10
140.0
 20
119.021
 30
0.0
 11
140.0
 21
117.415
 31
0.0
  0
LINE
  5
973
330
1D
100
AcDbEntity
  8
0
100
AcDbLine
 10
140.0
 20
119.021
 30
0.0
 11
140.0
 21
120.75
 31
0.0
  0
LINE
  5
974
330
1D
100
AcDbEntity
  8
0
100
AcDbLine
 10
140.0
 20
122.479
 30
0.0
 11
140.0
 21
120.75
 31
0.0
  0
LINE
  5
975
330
1D
100
AcDbEntity
  8
0
100
AcDbLine
 10
140.0
 20
122.479
 30
0.0
 11
140.0
 21
124.085
 31
0.0
  0
LINE
  5
976
330
1D
100
AcDbEntity
  8
0
100
AcDbLine
 10
140.0962
 20
122.521
 30
0.0
 11
140.0962
 21
124.188
 31
0.0
  0
LINE
  5
977
330
1D
100
AcDbEntity
  8
0
100
AcDbLine
 10
140.0962
 20
122.521
 30
0.0
 11
140.0962
 21
120.75
 31
0.0
  0
LINE
  5
978
330
1D
100
AcDbEntity
  8
0
100
AcDbLine
 10
140.0
 20
120.75
 30
0.0
 11
140.0
 21
119.021
 31
0.0
  0
LINE
  5
979
330
1D
100
AcDbEntity
  8
0
100
AcDbLine
 10
140.0
 20
120.75
 30
0.0
 11
140.0
 21
122.479
 31
0.0
  0
LINE
  5
97A
330
1D
100
AcDbEntity
  8
0
100
AcDbLine
 10
142.0
 20
122.541
 30
0.0
 11
142.0
 21
120.75
 31
0.0
  0
LINE
  5
97B
330
1D
100
AcDbEntity
  8
0
100
AcDbLine
 10
140.0962
 20
120.75
 30
0.0
 11
140.0962
 21
118.979
 31
0.0
  0
LINE
  5
97C
330
1D
100
AcDbEntity
  8
0
100
AcDbLine
 10
140.0962
 20
120.75
 30
0.0
 11
140.0962
 21
122.521
 31
0.0
  0
LINE
  5
97D
330
1D
100
AcDbEntity
  8
0
100
AcDbLine
 10
140.0962
 20
118.979
 30
0.0
 11
140.0962
 21
120.75
 31
0.0
  0
LINE
  5
97E
330
1D
100
AcDbEntity
  8
0
100
AcDbLine
 10
140.0962
 20
118.979
 30
0.0
 11
140.0962
 21
117.312
 31
0.0
  0
LINE
  5
97F
330
1D
100
AcDbEntity
  8
0
100
AcDbLine
 10
142.0
 20
118.959
 30
0.0
 11
142.0
 21
117.271
 31
0.0
  0
LINE
  5
980
330
1D
100
AcDbEntity
  8
0
100
AcDbLine
 10
140.0
 20
124.085
 30
0.0
 11
140.0
 21
122.479
 31
0.0
  0
LINE
  5
981
330
1D
100
AcDbEntity
  8
0
100
AcDbLine
 10
140.0
 20
124.085
 30
0.0
 11
140.0
 21
125.485
 31
0.0
  0
LINE
  5
982
330
1D
100
AcDbEntity
  8
0
100
AcDbLine
 10
140.0
 20
125.485
 30
0.0
 11
140.0
 21
126.535
 31
0.0
  0
LINE
  5
983
330
1D
100
AcDbEntity
  8
0
100
AcDbLine
 10
140.0
 20
125.485
 30
0.0
 11
140.0
 21
124.085
 31
0.0
  0
LINE
  5
984
330
1D
100
AcDbEntity
  8
0
100
AcDbLine
 10
140.0
 20
126.535
 30
0.0
 11
140.0
 21
125.485
 31
0.0
  0
LINE
  5
985
330
1D
100
AcDbEntity
  8
0
100
AcDbLine
 10
140.0
 20
126.535
 30
0.0
 11
140.0
 21
127.194
 31
0.0
  0
LINE
  5
986
330
1D
100
AcDbEntity
  8
0
100
AcDbLine
 10
140.0
 20
127.194
 30
0.0
 11
140.0
 21
126.535
 31
0.0
  0
LINE
  5
987
330
1D
100
AcDbEntity
  8
0
100
AcDbLine
 10
140.0
 20
127.194
 30
0.0
 11
140.0
 21
127.441
 31
0.0
  0
LINE
  5
988
330
1D
100
AcDbEntity
  8
0
100
AcDbLine
 10
140.0962
 20
124.188
 30
0.0
 11
140.0962
 21
125.629
 31
0.0
  0
LINE
  5
989
330
1D
100
AcDbEntity
  8
0
100
AcDbLine
 10
140.0962
 20
124.188
 30
0.0
 11
140.0962
 21
122.521
 31
0.0
  0
LINE
  5
98A
330
1D
100
AcDbEntity
  8
0
100
AcDbLine
 10
140.0962
 20
125.629
 30
0.0
 11
140.0962
 21
126.721
 31
0.0
  0
LINE
  5
98B
330
1D
100
AcDbEntity
  8
0
100
AcDbLine
 10
140.0962
 20
125.629
 30
0.0
 11
140.0962
 21
124.188
 31
0.0
  0
LINE
  5
98C
330
1D
100
AcDbEntity
  8
0
100
AcDbLine
 10
140.0962
 20
126.721
 30
0.0
 11
140.0962
 21
127.4
 31
0.0
  0
LINE
  5
98D
330
1D
100
AcDbEntity
  8
0
100
AcDbLine
 10
140.0962
 20
126.721
 30
0.0
 11
140.0962
 21
125.629
 31
0.0
  0
LINE
  5
98E
330
1D
100
AcDbEntity
  8
0
100
AcDbLine
 10
140.0962
 20
127.4
 30
0.0
 11
140.0962
 21
127.647
 31
0.0
  0
LINE
  5
98F
330
1D
100
AcDbEntity
  8
0
100
AcDbLine
 10
140.0962
 20
127.4
 30
0.0
 11
140.0962
 21
126.721
 31
0.0
  0
LINE
  5
990
330
1D
100
AcDbEntity
  8
0
100
AcDbLine
 10
140.0
 20
127.441
 30
0.0
 11
140.0962
 21
127.647
 31
0.0
  0
LINE
  5
991
330
1D
100
AcDbEntity
  8
0
100
AcDbLine
 10
140.0
 20
127.441
 30
0.0
 11
140.0
 21
127.194
 31
0.0
  0
LINE
  5
992
330
1D
100
AcDbEntity
  8
0
100
AcDbLine
 10
140.0962
 20
127.647
 30
0.0
 11
140.2885
 21
127.75
 31
0.0
  0
LINE
  5
993
330
1D
100
AcDbEntity
  8
0
100
AcDbLine
 10
140.0962
 20
127.647
 30
0.0
 11
140.0962
 21
127.4
 31
0.0
  0
LINE
  5
994
330
1D
100
AcDbEntity
  8
0
100
AcDbLine
 10
142.0
 20
125.691
 30
0.0
 11
142.0
 21
124.229
 31
0.0
  0
LINE
  5
995
330
1D
100
AcDbEntity
  8
0
100
AcDbLine
 10
142.0
 20
124.229
 30
0.0
 11
142.0
 21
122.541
 31
0.0
  0
LINE
  5
996
330
1D
100
AcDbEntity
  8
0
100
AcDbLine
 10
142.0
 20
126.803
 30
0.0
 11
142.0
 21
125.691
 31
0.0
  0
LINE
  5
997
330
1D
100
AcDbEntity
  8
0
100
AcDbLine
 10
142.0
 20
127.503
 30
0.0
 11
142.0
 21
126.803
 31
0.0
  0
LINE
  5
998
330
1D
100
AcDbEntity
  8
0
100
AcDbLine
 10
142.0
 20
127.75
 30
0.0
 11
142.0
 21
127.503
 31
0.0
  0
LINE
  5
999
330
1D
100
AcDbEntity
  8
0
100
AcDbLine
 10
140.2885
 20
127.75
 30
0.0
 11
142.0
 21
127.75
 31
0.0
  0
LINE
  5
99A
330
1D
100
AcDbEntity
  8
0
100
AcDbLine
 10
138.44
 20
155.75
 30
0.0
 11
141.62
 21
155.75
 31
0.0
  0
LINE
  5
99B
330
1D
100
AcDbEntity
  8
0
100
AcDbLine
 10
138.44
 20
153.75
 30
0.0
 11
141.62
 21
153.75
 31
0.0
  0
LINE
  5
99C
330
1D
100
AcDbEntity
  8
0
100
AcDbLine
 10
141.62
 20
153.75
 30
0.0
 11
144.02
 21
153.75
 31
0.0
  0
LINE
  5
99D
330
1D
100
AcDbEntity
  8
0
100
AcDbLine
 10
141.62
 20
155.75
 30
0.0
 11
144.02
 21
155.75
 31
0.0
  0
LINE
  5
99E
330
1D
100
AcDbEntity
  8
0
100
AcDbLine
 10
141.62
 20
157.75
 30
0.0
 11
144.02
 21
157.75
 31
0.0
  0
LINE
  5
99F
330
1D
100
AcDbEntity
  8
0
100
AcDbLine
 10
138.44
 20
157.75
 30
0.0
 11
141.62
 21
157.75
 31
0.0
  0
LINE
  5
9A0
330
1D
100
AcDbEntity
  8
0
100
AcDbLine
 10
138.936
 20
150.75
 30
0.0
 11
142.328
 21
150.75
 31
0.0
  0
LINE
  5
9A1
330
1D
100
AcDbEntity
  8
0
100
AcDbLine
 10
142.0
 20
130.75
 30
0.0
 11
142.0
 21
130.39
 31
0.0
  0
LINE
  5
9A2
330
1D
100
AcDbEntity
  8
0
100
AcDbLine
 10
142.0
 20
130.39
 30
0.0
 11
142.0
 21
130.75
 31
0.0
  0
LINE
  5
9A3
330
1D
100
AcDbEntity
  8
0
100
AcDbLine
 10
142.0
 20
130.39
 30
0.0
 11
142.0
 21
129.43
 31
0.0
  0
LINE
  5
9A4
330
1D
100
AcDbEntity
  8
0
100
AcDbLine
 10
142.0
 20
129.43
 30
0.0
 11
142.0
 21
130.39
 31
0.0
  0
LINE
  5
9A5
330
1D
100
AcDbEntity
  8
0
100
AcDbLine
 10
142.0
 20
129.43
 30
0.0
 11
142.0
 21
127.83
 31
0.0
  0
LINE
  5
9A6
330
1D
100
AcDbEntity
  8
0
100
AcDbLine
 10
142.0
 20
127.83
 30
0.0
 11
142.0
 21
129.43
 31
0.0
  0
LINE
  5
9A7
330
1D
100
AcDbEntity
  8
0
100
AcDbLine
 10
142.0
 20
127.83
 30
0.0
 11
142.0
 21
125.71
 31
0.0
  0
LINE
  5
9A8
330
1D
100
AcDbEntity
  8
0
100
AcDbLine
 10
142.0
 20
125.71
 30
0.0
 11
142.0
 21
127.83
 31
0.0
  0
LINE
  5
9A9
330
1D
100
AcDbEntity
  8
0
100
AcDbLine
 10
142.0
 20
125.71
 30
0.0
 11
142.0
 21
123.31
 31
0.0
  0
LINE
  5
9AA
330
1D
100
AcDbEntity
  8
0
100
AcDbLine
 10
142.0
 20
123.31
 30
0.0
 11
142.0
 21
125.71
 31
0.0
  0
LINE
  5
9AB
330
1D
100
AcDbEntity
  8
0
100
AcDbLine
 10
142.0
 20
123.31
 30
0.0
 11
142.0
 21
120.75
 31
0.0
  0
LINE
  5
9AC
330
1D
100
AcDbEntity
  8
0
100
AcDbLine
 10
144.888
 20
150.75
 30
0.0
 11
146.424
 21
150.75
 31
0.0
  0
LINE
  5
9AD
330
1D
100
AcDbEntity
  8
0
100
AcDbLine
 10
144.02
 20
153.75
 30
0.0
 11
145.46
 21
153.75
 31
0.0
  0
LINE
  5
9AE
330
1D
100
AcDbEntity
  8
0
100
AcDbLine
 10
144.02
 20
155.75
 30
0.0
 11
145.46
 21
155.75
 31
0.0
  0
LINE
  5
9AF
330
1D
100
AcDbEntity
  8
0
100
AcDbLine
 10
144.02
 20
157.75
 30
0.0
 11
145.46
 21
157.75
 31
0.0
  0
LINE
  5
9B0
330
1D
100
AcDbEntity
  8
0
100
AcDbLine
 10
142.328
 20
150.75
 30
0.0
 11
144.888
 21
150.75
 31
0.0
  0
LINE
  5
9B1
330
1D
100
AcDbEntity
  8
0
100
AcDbLine
 10
142.0
 20
120.75
 30
0.0
 11
142.0
 21
118.19
 31
0.0
  0
LINE
  5
9B2
330
1D
100
AcDbEntity
  8
0
100
AcDbLine
 10
142.0
 20
120.75
 30
0.0
 11
142.0
 21
123.31
 31
0.0
  0
LINE
  5
9B3
330
1D
100
AcDbEntity
  8
0
100
AcDbLine
 10
142.0
 20
120.75
 30
0.0
 11
142.0
 21
118.959
 31
0.0
  0
LINE
  5
9B4
330
1D
100
AcDbEntity
  8
0
100
AcDbLine
 10
142.0
 20
118.19
 30
0.0
 11
142.0
 21
120.75
 31
0.0
  0
LINE
  5
9B5
330
1D
100
AcDbEntity
  8
0
100
AcDbLine
 10
142.0
 20
118.19
 30
0.0
 11
142.0
 21
115.79
 31
0.0
  0
LINE
  5
9B6
330
1D
100
AcDbEntity
  8
0
100
AcDbLine
 10
137.0
 20
145.75
 30
0.0
 11
137.0
 21
144.214
 31
0.0
  0
LINE
  5
9B7
330
1D
100
AcDbEntity
  8
0
100
AcDbLine
 10
137.0
 20
145.75
 30
0.0
 11
137.0
 21
147.286
 31
0.0
  0
LINE
  5
9B8
330
1D
100
AcDbEntity
  8
0
100
AcDbLine
 10
142.036
 20
77.75
 30
0.0
 11
142.036
 21
72.786
 31
0.0
  0
LINE
  5
9B9
330
1D
100
AcDbEntity
  8
0
100
AcDbLine
 10
131.0
 20
130.75
 30
0.0
 11
147.0
 21
130.75
 31
0.0
  0
LINE
  5
9BA
330
1D
100
AcDbEntity
  8
0
100
AcDbLine
 10
131.0
 20
130.75
 30
0.0
 11
131.0
 21
77.75
 31
0.0
  0
LINE
  5
9BB
330
1D
100
AcDbEntity
  8
0
100
AcDbLine
 10
134.352
 20
77.138
 30
0.0
 11
138.432
 21
75.506
 31
0.0
  0
LINE
  5
9BC
330
1D
100
AcDbEntity
  8
0
100
AcDbLine
 10
145.0
 20
153.75
 30
0.0
 11
145.0
 21
150.75
 31
0.0
  0
LINE
  5
9BD
330
1D
100
AcDbEntity
  8
0
100
AcDbLine
 10
145.0
 20
153.75
 30
0.0
 11
145.46
 21
153.75
 31
0.0
  0
LINE
  5
9BE
330
1D
100
AcDbEntity
  8
0
100
AcDbLine
 10
117.98
 20
159.75
 30
0.0
 11
120.38
 21
159.75
 31
0.0
  0
LINE
  5
9BF
330
1D
100
AcDbEntity
  8
0
100
AcDbLine
 10
120.38
 20
159.75
 30
0.0
 11
123.56
 21
159.75
 31
0.0
  0
LINE
  5
9C0
330
1D
100
AcDbEntity
  8
0
100
AcDbLine
 10
123.56
 20
159.75
 30
0.0
 11
127.16
 21
159.75
 31
0.0
  0
LINE
  5
9C1
330
1D
100
AcDbEntity
  8
0
100
AcDbLine
 10
144.02
 20
159.75
 30
0.0
 11
145.46
 21
159.75
 31
0.0
  0
LINE
  5
9C2
330
1D
100
AcDbEntity
  8
0
100
AcDbLine
 10
141.62
 20
159.75
 30
0.0
 11
144.02
 21
159.75
 31
0.0
  0
LINE
  5
9C3
330
1D
100
AcDbEntity
  8
0
100
AcDbLine
 10
138.44
 20
159.75
 30
0.0
 11
141.62
 21
159.75
 31
0.0
  0
LINE
  5
9C4
330
1D
100
AcDbEntity
  8
0
100
AcDbLine
 10
134.84
 20
159.75
 30
0.0
 11
138.44
 21
159.75
 31
0.0
  0
LINE
  5
9C5
330
1D
100
AcDbEntity
  8
0
100
AcDbLine
 10
131.0
 20
159.75
 30
0.0
 11
134.84
 21
159.75
 31
0.0
  0
LINE
  5
9C6
330
1D
100
AcDbEntity
  8
0
100
AcDbLine
 10
127.16
 20
159.75
 30
0.0
 11
131.0
 21
159.75
 31
0.0
  0
LINE
  5
9C7
330
1D
100
AcDbEntity
  8
0
100
AcDbLine
 10
145.0
 20
157.75
 30
0.0
 11
145.0
 21
155.75
 31
0.0
  0
LINE
  5
9C8
330
1D
100
AcDbEntity
  8
0
100
AcDbLine
 10
145.0
 20
157.75
 30
0.0
 11
145.46
 21
157.75
 31
0.0
  0
LINE
  5
9C9
330
1D
100
AcDbEntity
  8
0
100
AcDbLine
 10
145.0
 20
155.75
 30
0.0
 11
145.0
 21
157.75
 31
0.0
  0
LINE
  5
9CA
330
1D
100
AcDbEntity
  8
0
100
AcDbLine
 10
145.0
 20
159.75
 30
0.0
 11
145.0
 21
161.75
 31
0.0
  0
LINE
  5
9CB
330
1D
100
AcDbEntity
  8
0
100
AcDbLine
 10
147.0
 20
9.75
 30
0.0
 11
147.0
 21
9.966
 31
0.0
  0
LINE
  5
9CC
330
1D
100
AcDbEntity
  8
0
100
AcDbLine
 10
147.0
 20
9.966
 30
0.0
 11
147.0
 21
10.542
 31
0.0
  0
LINE
  5
9CD
330
1D
100
AcDbEntity
  8
0
100
AcDbLine
 10
147.0
 20
9.966
 30
0.0
 11
147.0
 21
9.75
 31
0.0
  0
LINE
  5
9CE
330
1D
100
AcDbEntity
  8
0
100
AcDbLine
 10
147.0
 20
10.542
 30
0.0
 11
147.0
 21
11.502
 31
0.0
  0
LINE
  5
9CF
330
1D
100
AcDbEntity
  8
0
100
AcDbLine
 10
147.0
 20
10.542
 30
0.0
 11
147.0
 21
9.966
 31
0.0
  0
LINE
  5
9D0
330
1D
100
AcDbEntity
  8
0
100
AcDbLine
 10
147.0
 20
11.502
 30
0.0
 11
147.0
 21
12.774
 31
0.0
  0
LINE
  5
9D1
330
1D
100
AcDbEntity
  8
0
100
AcDbLine
 10
147.0
 20
11.502
 30
0.0
 11
147.0
 21
10.542
 31
0.0
  0
LINE
  5
9D2
330
1D
100
AcDbEntity
  8
0
100
AcDbLine
 10
147.0
 20
12.774
 30
0.0
 11
147.0
 21
14.214
 31
0.0
  0
LINE
  5
9D3
330
1D
100
AcDbEntity
  8
0
100
AcDbLine
 10
147.0
 20
12.774
 30
0.0
 11
147.0
 21
11.502
 31
0.0
  0
LINE
  5
9D4
330
1D
100
AcDbEntity
  8
0
100
AcDbLine
 10
147.0
 20
14.214
 30
0.0
 11
147.0
 21
15.75
 31
0.0
  0
LINE
  5
9D5
330
1D
100
AcDbEntity
  8
0
100
AcDbLine
 10
147.0
 20
14.214
 30
0.0
 11
147.0
 21
12.774
 31
0.0
  0
LINE
  5
9D6
330
1D
100
AcDbEntity
  8
0
100
AcDbLine
 10
147.0
 20
24.11
 30
0.0
 11
147.0
 21
25.07
 31
0.0
  0
LINE
  5
9D7
330
1D
100
AcDbEntity
  8
0
100
AcDbLine
 10
147.0
 20
24.11
 30
0.0
 11
147.0
 21
23.75
 31
0.0
  0
LINE
  5
9D8
330
1D
100
AcDbEntity
  8
0
100
AcDbLine
 10
147.0
 20
25.07
 30
0.0
 11
147.0
 21
26.67
 31
0.0
  0
LINE
  5
9D9
330
1D
100
AcDbEntity
  8
0
100
AcDbLine
 10
147.0
 20
25.07
 30
0.0
 11
147.0
 21
24.11
 31
0.0
  0
LINE
  5
9DA
330
1D
100
AcDbEntity
  8
0
100
AcDbLine
 10
147.0
 20
26.75
 30
0.0
 11
148.7115
 21
26.75
 31
0.0
  0
LINE
  5
9DB
330
1D
100
AcDbEntity
  8
0
100
AcDbLine
 10
147.0
 20
29.55
 30
0.0
 11
147.0
 21
110.75
 31
0.0
  0
LINE
  5
9DC
330
1D
100
AcDbEntity
  8
0
100
AcDbLine
 10
147.0
 20
29.55
 30
0.0
 11
147.0
 21
110.75
 31
0.0
  0
LINE
  5
9DD
330
1D
100
AcDbEntity
  8
0
100
AcDbLine
 10
147.0
 20
26.67
 30
0.0
 11
147.0
 21
28.79
 31
0.0
  0
LINE
  5
9DE
330
1D
100
AcDbEntity
  8
0
100
AcDbLine
 10
147.0
 20
26.67
 30
0.0
 11
147.0
 21
25.07
 31
0.0
  0
LINE
  5
9DF
330
1D
100
AcDbEntity
  8
0
100
AcDbLine
 10
147.0
 20
28.79
 30
0.0
 11
147.0
 21
31.19
 31
0.0
  0
LINE
  5
9E0
330
1D
100
AcDbEntity
  8
0
100
AcDbLine
 10
147.0
 20
28.79
 30
0.0
 11
147.0
 21
26.67
 31
0.0
  0
LINE
  5
9E1
330
1D
100
AcDbEntity
  8
0
100
AcDbLine
 10
147.0
 20
31.19
 30
0.0
 11
147.0
 21
33.75
 31
0.0
  0
LINE
  5
9E2
330
1D
100
AcDbEntity
  8
0
100
AcDbLine
 10
147.0
 20
31.19
 30
0.0
 11
147.0
 21
28.79
 31
0.0
  0
LINE
  5
9E3
330
1D
100
AcDbEntity
  8
0
100
AcDbLine
 10
147.0
 20
23.75
 30
0.0
 11
147.0
 21
17.286
 31
0.0
  0
LINE
  5
9E4
330
1D
100
AcDbEntity
  8
0
100
AcDbLine
 10
147.0
 20
23.75
 30
0.0
 11
147.0
 21
24.11
 31
0.0
  0
LINE
  5
9E5
330
1D
100
AcDbEntity
  8
0
100
AcDbLine
 10
147.0
 20
17.286
 30
0.0
 11
147.0
 21
23.75
 31
0.0
  0
LINE
  5
9E6
330
1D
100
AcDbEntity
  8
0
100
AcDbLine
 10
147.0
 20
17.286
 30
0.0
 11
147.0
 21
15.75
 31
0.0
  0
LINE
  5
9E7
330
1D
100
AcDbEntity
  8
0
100
AcDbLine
 10
148.9038
 20
27.7794
 30
0.0
 11
148.9038
 21
28.8706
 31
0.0
  0
LINE
  5
9E8
330
1D
100
AcDbEntity
  8
0
100
AcDbLine
 10
148.9038
 20
27.7794
 30
0.0
 11
148.9038
 21
27.1
 31
0.0
  0
LINE
  5
9E9
330
1D
100
AcDbEntity
  8
0
100
AcDbLine
 10
148.9038
 20
27.1
 30
0.0
 11
148.9038
 21
27.7794
 31
0.0
  0
LINE
  5
9EA
330
1D
100
AcDbEntity
  8
0
100
AcDbLine
 10
148.9038
 20
27.1
 30
0.0
 11
148.9038
 21
26.8529
 31
0.0
  0
LINE
  5
9EB
330
1D
100
AcDbEntity
  8
0
100
AcDbLine
 10
148.7115
 20
26.75
 30
0.0
 11
148.9038
 21
26.8529
 31
0.0
  0
LINE
  5
9EC
330
1D
100
AcDbEntity
  8
0
100
AcDbLine
 10
148.9038
 20
26.8529
 30
0.0
 11
148.9038
 21
27.1
 31
0.0
  0
LINE
  5
9ED
330
1D
100
AcDbEntity
  8
0
100
AcDbLine
 10
148.9038
 20
26.8529
 30
0.0
 11
149.0
 21
27.0588
 31
0.0
  0
LINE
  5
9EE
330
1D
100
AcDbEntity
  8
0
100
AcDbLine
 10
148.9038
 20
28.8706
 30
0.0
 11
148.9038
 21
30.3118
 31
0.0
  0
LINE
  5
9EF
330
1D
100
AcDbEntity
  8
0
100
AcDbLine
 10
148.9038
 20
28.8706
 30
0.0
 11
148.9038
 21
27.7794
 31
0.0
  0
LINE
  5
9F0
330
1D
100
AcDbEntity
  8
0
100
AcDbLine
 10
149.0
 20
27.3059
 30
0.0
 11
149.0
 21
27.0588
 31
0.0
  0
LINE
  5
9F1
330
1D
100
AcDbEntity
  8
0
100
AcDbLine
 10
149.0
 20
29.0147
 30
0.0
 11
149.0
 21
27.9647
 31
0.0
  0
LINE
  5
9F2
330
1D
100
AcDbEntity
  8
0
100
AcDbLine
 10
149.0
 20
27.3059
 30
0.0
 11
149.0
 21
29.0147
 31
0.0
  0
LINE
  5
9F3
330
1D
100
AcDbEntity
  8
0
100
AcDbLine
 10
149.0
 20
27.0588
 30
0.0
 11
149.0
 21
27.3059
 31
0.0
  0
LINE
  5
9F4
330
1D
100
AcDbEntity
  8
0
100
AcDbLine
 10
149.0
 20
29.0147
 30
0.0
 11
149.0
 21
32.0206
 31
0.0
  0
LINE
  5
9F5
330
1D
100
AcDbEntity
  8
0
100
AcDbLine
 10
148.9038
 20
30.3118
 30
0.0
 11
148.9038
 21
31.9794
 31
0.0
  0
LINE
  5
9F6
330
1D
100
AcDbEntity
  8
0
100
AcDbLine
 10
148.9038
 20
30.3118
 30
0.0
 11
148.9038
 21
28.8706
 31
0.0
  0
LINE
  5
9F7
330
1D
100
AcDbEntity
  8
0
100
AcDbLine
 10
149.0
 20
33.75
 30
0.0
 11
149.0
 21
32.0206
 31
0.0
  0
LINE
  5
9F8
330
1D
100
AcDbEntity
  8
0
100
AcDbLine
 10
149.0
 20
33.75
 30
0.0
 11
149.0
 21
35.4794
 31
0.0
  0
LINE
  5
9F9
330
1D
100
AcDbEntity
  8
0
100
AcDbLine
 10
148.9038
 20
33.75
 30
0.0
 11
148.9038
 21
31.9794
 31
0.0
  0
LINE
  5
9FA
330
1D
100
AcDbEntity
  8
0
100
AcDbLine
 10
148.9038
 20
33.75
 30
0.0
 11
148.9038
 21
35.5206
 31
0.0
  0
LINE
  5
9FB
330
1D
100
AcDbEntity
  8
0
100
AcDbLine
 10
149.0
 20
32.0206
 30
0.0
 11
149.0
 21
33.75
 31
0.0
  0
LINE
  5
9FC
330
1D
100
AcDbEntity
  8
0
100
AcDbLine
 10
149.0
 20
32.0206
 30
0.0
 11
149.0
 21
29.0147
 31
0.0
  0
LINE
  5
9FD
330
1D
100
AcDbEntity
  8
0
100
AcDbLine
 10
148.9038
 20
31.9794
 30
0.0
 11
148.9038
 21
33.75
 31
0.0
  0
LINE
  5
9FE
330
1D
100
AcDbEntity
  8
0
100
AcDbLine
 10
148.9038
 20
31.9794
 30
0.0
 11
148.9038
 21
30.3118
 31
0.0
  0
LINE
  5
9FF
330
1D
100
AcDbEntity
  8
0
100
AcDbLine
 10
147.0
 20
15.75
 30
0.0
 11
147.0
 21
17.286
 31
0.0
  0
LINE
  5
A00
330
1D
100
AcDbEntity
  8
0
100
AcDbLine
 10
147.0
 20
15.75
 30
0.0
 11
147.0
 21
14.214
 31
0.0
  0
LINE
  5
A01
330
1D
100
AcDbEntity
  8
0
100
AcDbLine
 10
147.0
 20
40.75
 30
0.0
 11
148.7115
 21
40.75
 31
0.0
  0
LINE
  5
A02
330
1D
100
AcDbEntity
  8
0
100
AcDbLine
 10
147.0
 20
49.9286
 30
0.0
 11
147.0
 21
50.5364
 31
0.0
  0
LINE
  5
A03
330
1D
100
AcDbEntity
  8
0
100
AcDbLine
 10
147.0
 20
49.9286
 30
0.0
 11
147.0
 21
36.31
 31
0.0
  0
LINE
  5
A04
330
1D
100
AcDbEntity
  8
0
100
AcDbLine
 10
147.0
 20
51.2547
 30
0.0
 11
147.0
 21
50.5364
 31
0.0
  0
LINE
  5
A05
330
1D
100
AcDbEntity
  8
0
100
AcDbLine
 10
147.0
 20
50.5364
 30
0.0
 11
147.0
 21
51.2547
 31
0.0
  0
LINE
  5
A06
330
1D
100
AcDbEntity
  8
0
100
AcDbLine
 10
147.0
 20
50.5364
 30
0.0
 11
147.0
 21
49.9286
 31
0.0
  0
LINE
  5
A07
330
1D
100
AcDbEntity
  8
0
100
AcDbLine
 10
148.9038
 20
37.1882
 30
0.0
 11
148.9038
 21
38.6294
 31
0.0
  0
LINE
  5
A08
330
1D
100
AcDbEntity
  8
0
100
AcDbLine
 10
148.9038
 20
37.1882
 30
0.0
 11
148.9038
 21
35.5206
 31
0.0
  0
LINE
  5
A09
330
1D
100
AcDbEntity
  8
0
100
AcDbLine
 10
148.9038
 20
35.5206
 30
0.0
 11
148.9038
 21
37.1882
 31
0.0
  0
LINE
  5
A0A
330
1D
100
AcDbEntity
  8
0
100
AcDbLine
 10
148.9038
 20
35.5206
 30
0.0
 11
148.9038
 21
33.75
 31
0.0
  0
LINE
  5
A0B
330
1D
100
AcDbEntity
  8
0
100
AcDbLine
 10
148.9038
 20
38.6294
 30
0.0
 11
148.9038
 21
39.7206
 31
0.0
  0
LINE
  5
A0C
330
1D
100
AcDbEntity
  8
0
100
AcDbLine
 10
148.9038
 20
38.6294
 30
0.0
 11
148.9038
 21
37.1882
 31
0.0
  0
LINE
  5
A0D
330
1D
100
AcDbEntity
  8
0
100
AcDbLine
 10
148.9038
 20
39.7206
 30
0.0
 11
148.9038
 21
40.4
 31
0.0
  0
LINE
  5
A0E
330
1D
100
AcDbEntity
  8
0
100
AcDbLine
 10
148.9038
 20
39.7206
 30
0.0
 11
148.9038
 21
38.6294
 31
0.0
  0
LINE
  5
A0F
330
1D
100
AcDbEntity
  8
0
100
AcDbLine
 10
148.9038
 20
40.4
 30
0.0
 11
148.9038
 21
40.6471
 31
0.0
  0
LINE
  5
A10
330
1D
100
AcDbEntity
  8
0
100
AcDbLine
 10
148.9038
 20
40.4
 30
0.0
 11
148.9038
 21
39.7206
 31
0.0
  0
LINE
  5
A11
330
1D
100
AcDbEntity
  8
0
100
AcDbLine
 10
149.0
 20
37.0853
 30
0.0
 11
149.0
 21
38.4853
 31
0.0
  0
LINE
  5
A12
330
1D
100
AcDbEntity
  8
0
100
AcDbLine
 10
149.0
 20
37.0853
 30
0.0
 11
149.0
 21
35.4794
 31
0.0
  0
LINE
  5
A13
330
1D
100
AcDbEntity
  8
0
100
AcDbLine
 10
149.0
 20
35.4794
 30
0.0
 11
149.0
 21
37.0853
 31
0.0
  0
LINE
  5
A14
330
1D
100
AcDbEntity
  8
0
100
AcDbLine
 10
149.0
 20
35.4794
 30
0.0
 11
149.0
 21
33.75
 31
0.0
  0
LINE
  5
A15
330
1D
100
AcDbEntity
  8
0
100
AcDbLine
 10
149.0
 20
38.4853
 30
0.0
 11
149.0
 21
39.5353
 31
0.0
  0
LINE
  5
A16
330
1D
100
AcDbEntity
  8
0
100
AcDbLine
 10
149.0
 20
38.4853
 30
0.0
 11
149.0
 21
37.0853
 31
0.0
  0
LINE
  5
A17
330
1D
100
AcDbEntity
  8
0
100
AcDbLine
 10
149.0
 20
39.5353
 30
0.0
 11
149.0
 21
40.1941
 31
0.0
  0
LINE
  5
A18
330
1D
100
AcDbEntity
  8
0
100
AcDbLine
 10
149.0
 20
39.5353
 30
0.0
 11
149.0
 21
38.4853
 31
0.0
  0
LINE
  5
A19
330
1D
100
AcDbEntity
  8
0
100
AcDbLine
 10
149.0
 20
40.4412
 30
0.0
 11
149.0
 21
40.1941
 31
0.0
  0
LINE
  5
A1A
330
1D
100
AcDbEntity
  8
0
100
AcDbLine
 10
149.0
 20
40.1941
 30
0.0
 11
149.0
 21
40.4412
 31
0.0
  0
LINE
  5
A1B
330
1D
100
AcDbEntity
  8
0
100
AcDbLine
 10
149.0
 20
40.1941
 30
0.0
 11
149.0
 21
39.5353
 31
0.0
  0
LINE
  5
A1C
330
1D
100
AcDbEntity
  8
0
100
AcDbLine
 10
148.9038
 20
40.6471
 30
0.0
 11
149.0
 21
40.4412
 31
0.0
  0
LINE
  5
A1D
330
1D
100
AcDbEntity
  8
0
100
AcDbLine
 10
148.9038
 20
40.6471
 30
0.0
 11
148.9038
 21
40.4
 31
0.0
  0
LINE
  5
A1E
330
1D
100
AcDbEntity
  8
0
100
AcDbLine
 10
148.7115
 20
40.75
 30
0.0
 11
148.9038
 21
40.6471
 31
0.0
  0
LINE
  5
A1F
330
1D
100
AcDbEntity
  8
0
100
AcDbLine
 10
147.0
 20
36.31
 30
0.0
 11
147.0
 21
49.9286
 31
0.0
  0
LINE
  5
A20
330
1D
100
AcDbEntity
  8
0
100
AcDbLine
 10
147.0
 20
36.31
 30
0.0
 11
147.0
 21
33.75
 31
0.0
  0
LINE
  5
A21
330
1D
100
AcDbEntity
  8
0
100
AcDbLine
 10
147.0
 20
33.75
 30
0.0
 11
147.0
 21
36.31
 31
0.0
  0
LINE
  5
A22
330
1D
100
AcDbEntity
  8
0
100
AcDbLine
 10
147.0
 20
33.75
 30
0.0
 11
147.0
 21
31.19
 31
0.0
  0
LINE
  5
A23
330
1D
100
AcDbEntity
  8
0
100
AcDbLine
 10
146.388
 20
56.398
 30
0.0
 11
147.0
 21
60.75
 31
0.0
  0
LINE
  5
A24
330
1D
100
AcDbEntity
  8
0
100
AcDbLine
 10
147.0
 20
110.75
 30
0.0
 11
147.0
 21
111.11
 31
0.0
  0
LINE
  5
A25
330
1D
100
AcDbEntity
  8
0
100
AcDbLine
 10
147.0
 20
111.11
 30
0.0
 11
147.0
 21
112.07
 31
0.0
  0
LINE
  5
A26
330
1D
100
AcDbEntity
  8
0
100
AcDbLine
 10
147.0
 20
111.11
 30
0.0
 11
147.0
 21
110.75
 31
0.0
  0
LINE
  5
A27
330
1D
100
AcDbEntity
  8
0
100
AcDbLine
 10
147.0
 20
113.75
 30
0.0
 11
148.7115
 21
113.75
 31
0.0
  0
LINE
  5
A28
330
1D
100
AcDbEntity
  8
0
100
AcDbLine
 10
147.0
 20
112.07
 30
0.0
 11
147.0
 21
113.67
 31
0.0
  0
LINE
  5
A29
330
1D
100
AcDbEntity
  8
0
100
AcDbLine
 10
147.0
 20
112.07
 30
0.0
 11
147.0
 21
111.11
 31
0.0
  0
LINE
  5
A2A
330
1D
100
AcDbEntity
  8
0
100
AcDbLine
 10
147.0
 20
113.67
 30
0.0
 11
147.0
 21
115.79
 31
0.0
  0
LINE
  5
A2B
330
1D
100
AcDbEntity
  8
0
100
AcDbLine
 10
147.0
 20
113.67
 30
0.0
 11
147.0
 21
112.07
 31
0.0
  0
LINE
  5
A2C
330
1D
100
AcDbEntity
  8
0
100
AcDbLine
 10
147.0
 20
127.75
 30
0.0
 11
148.7115
 21
127.75
 31
0.0
  0
LINE
  5
A2D
330
1D
100
AcDbEntity
  8
0
100
AcDbLine
 10
146.424
 20
150.75
 30
0.0
 11
147.0
 21
150.75
 31
0.0
  0
LINE
  5
A2E
330
1D
100
AcDbEntity
  8
0
100
AcDbLine
 10
145.46
 20
153.75
 30
0.0
 11
146.0
 21
153.75
 31
0.0
  0
LINE
  5
A2F
330
1D
100
AcDbEntity
  8
0
100
AcDbLine
 10
145.46
 20
155.75
 30
0.0
 11
146.0
 21
155.75
 31
0.0
  0
LINE
  5
A30
330
1D
100
AcDbEntity
  8
0
100
AcDbLine
 10
145.46
 20
157.75
 30
0.0
 11
146.0
 21
157.75
 31
0.0
  0
LINE
  5
A31
330
1D
100
AcDbEntity
  8
0
100
AcDbLine
 10
146.0
 20
155.75
 30
0.0
 11
146.0
 21
153.75
 31
0.0
  0
LINE
  5
A32
330
1D
100
AcDbEntity
  8
0
100
AcDbLine
 10
146.0
 20
153.75
 30
0.0
 11
146.0
 21
155.75
 31
0.0
  0
LINE
  5
A33
330
1D
100
AcDbEntity
  8
0
100
AcDbLine
 10
146.0
 20
159.75
 30
0.0
 11
146.0
 21
157.75
 31
0.0
  0
LINE
  5
A34
330
1D
100
AcDbEntity
  8
0
100
AcDbLine
 10
146.0
 20
157.75
 30
0.0
 11
146.0
 21
159.75
 31
0.0
  0
LINE
  5
A35
330
1D
100
AcDbEntity
  8
0
100
AcDbLine
 10
145.46
 20
159.75
 30
0.0
 11
146.0
 21
159.75
 31
0.0
  0
LINE
  5
A36
330
1D
100
AcDbEntity
  8
0
100
AcDbLine
 10
147.0
 20
150.75
 30
0.0
 11
147.0
 21
130.75
 31
0.0
  0
LINE
  5
A37
330
1D
100
AcDbEntity
  8
0
100
AcDbLine
 10
147.0
 20
130.75
 30
0.0
 11
147.0
 21
130.39
 31
0.0
  0
LINE
  5
A38
330
1D
100
AcDbEntity
  8
0
100
AcDbLine
 10
147.0
 20
130.75
 30
0.0
 11
147.0
 21
150.75
 31
0.0
  0
LINE
  5
A39
330
1D
100
AcDbEntity
  8
0
100
AcDbLine
 10
147.0
 20
130.39
 30
0.0
 11
147.0
 21
130.75
 31
0.0
  0
LINE
  5
A3A
330
1D
100
AcDbEntity
  8
0
100
AcDbLine
 10
147.0
 20
130.39
 30
0.0
 11
147.0
 21
129.43
 31
0.0
  0
LINE
  5
A3B
330
1D
100
AcDbEntity
  8
0
100
AcDbLine
 10
147.0
 20
129.43
 30
0.0
 11
147.0
 21
130.39
 31
0.0
  0
LINE
  5
A3C
330
1D
100
AcDbEntity
  8
0
100
AcDbLine
 10
147.0
 20
129.43
 30
0.0
 11
147.0
 21
127.83
 31
0.0
  0
LINE
  5
A3D
330
1D
100
AcDbEntity
  8
0
100
AcDbLine
 10
147.0
 20
127.83
 30
0.0
 11
147.0
 21
129.43
 31
0.0
  0
LINE
  5
A3E
330
1D
100
AcDbEntity
  8
0
100
AcDbLine
 10
147.0
 20
127.83
 30
0.0
 11
147.0
 21
125.71
 31
0.0
  0
LINE
  5
A3F
330
1D
100
AcDbEntity
  8
0
100
AcDbLine
 10
147.0
 20
125.71
 30
0.0
 11
147.0
 21
127.83
 31
0.0
  0
LINE
  5
A40
330
1D
100
AcDbEntity
  8
0
100
AcDbLine
 10
147.0
 20
125.71
 30
0.0
 11
147.0
 21
123.31
 31
0.0
  0
LINE
  5
A41
330
1D
100
AcDbEntity
  8
0
100
AcDbLine
 10
147.0
 20
123.31
 30
0.0
 11
147.0
 21
125.71
 31
0.0
  0
LINE
  5
A42
330
1D
100
AcDbEntity
  8
0
100
AcDbLine
 10
147.0
 20
123.31
 30
0.0
 11
147.0
 21
120.75
 31
0.0
  0
LINE
  5
A43
330
1D
100
AcDbEntity
  8
0
100
AcDbLine
 10
147.0
 20
120.75
 30
0.0
 11
147.0
 21
118.19
 31
0.0
  0
LINE
  5
A44
330
1D
100
AcDbEntity
  8
0
100
AcDbLine
 10
147.0
 20
120.75
 30
0.0
 11
147.0
 21
123.31
 31
0.0
  0
LINE
  5
A45
330
1D
100
AcDbEntity
  8
0
100
AcDbLine
 10
147.0
 20
115.79
 30
0.0
 11
147.0
 21
118.19
 31
0.0
  0
LINE
  5
A46
330
1D
100
AcDbEntity
  8
0
100
AcDbLine
 10
147.0
 20
115.79
 30
0.0
 11
147.0
 21
113.67
 31
0.0
  0
LINE
  5
A47
330
1D
100
AcDbEntity
  8
0
100
AcDbLine
 10
148.9038
 20
114.779
 30
0.0
 11
148.9038
 21
115.871
 31
0.0
  0
LINE
  5
A48
330
1D
100
AcDbEntity
  8
0
100
AcDbLine
 10
148.9038
 20
114.779
 30
0.0
 11
148.9038
 21
114.1
 31
0.0
  0
LINE
  5
A49
330
1D
100
AcDbEntity
  8
0
100
AcDbLine
 10
148.9038
 20
114.1
 30
0.0
 11
148.9038
 21
114.779
 31
0.0
  0
LINE
  5
A4A
330
1D
100
AcDbEntity
  8
0
100
AcDbLine
 10
148.9038
 20
114.1
 30
0.0
 11
148.9038
 21
113.853
 31
0.0
  0
LINE
  5
A4B
330
1D
100
AcDbEntity
  8
0
100
AcDbLine
 10
148.9038
 20
113.853
 30
0.0
 11
148.9038
 21
114.1
 31
0.0
  0
LINE
  5
A4C
330
1D
100
AcDbEntity
  8
0
100
AcDbLine
 10
148.9038
 20
113.853
 30
0.0
 11
149.0
 21
114.059
 31
0.0
  0
LINE
  5
A4D
330
1D
100
AcDbEntity
  8
0
100
AcDbLine
 10
148.9038
 20
115.871
 30
0.0
 11
148.9038
 21
117.312
 31
0.0
  0
LINE
  5
A4E
330
1D
100
AcDbEntity
  8
0
100
AcDbLine
 10
148.9038
 20
115.871
 30
0.0
 11
148.9038
 21
114.779
 31
0.0
  0
LINE
  5
A4F
330
1D
100
AcDbEntity
  8
0
100
AcDbLine
 10
148.9038
 20
124.188
 30
0.0
 11
148.9038
 21
125.629
 31
0.0
  0
LINE
  5
A50
330
1D
100
AcDbEntity
  8
0
100
AcDbLine
 10
148.9038
 20
124.188
 30
0.0
 11
148.9038
 21
122.521
 31
0.0
  0
LINE
  5
A51
330
1D
100
AcDbEntity
  8
0
100
AcDbLine
 10
148.9038
 20
122.521
 30
0.0
 11
148.9038
 21
124.188
 31
0.0
  0
LINE
  5
A52
330
1D
100
AcDbEntity
  8
0
100
AcDbLine
 10
148.9038
 20
122.521
 30
0.0
 11
148.9038
 21
120.75
 31
0.0
  0
LINE
  5
A53
330
1D
100
AcDbEntity
  8
0
100
AcDbLine
 10
148.9038
 20
125.629
 30
0.0
 11
148.9038
 21
126.721
 31
0.0
  0
LINE
  5
A54
330
1D
100
AcDbEntity
  8
0
100
AcDbLine
 10
148.9038
 20
125.629
 30
0.0
 11
148.9038
 21
124.188
 31
0.0
  0
LINE
  5
A55
330
1D
100
AcDbEntity
  8
0
100
AcDbLine
 10
148.9038
 20
126.721
 30
0.0
 11
148.9038
 21
127.4
 31
0.0
  0
LINE
  5
A56
330
1D
100
AcDbEntity
  8
0
100
AcDbLine
 10
148.9038
 20
126.721
 30
0.0
 11
148.9038
 21
125.629
 31
0.0
  0
LINE
  5
A57
330
1D
100
AcDbEntity
  8
0
100
AcDbLine
 10
148.9038
 20
127.4
 30
0.0
 11
148.9038
 21
127.647
 31
0.0
  0
LINE
  5
A58
330
1D
100
AcDbEntity
  8
0
100
AcDbLine
 10
148.9038
 20
127.4
 30
0.0
 11
148.9038
 21
126.721
 31
0.0
  0
LINE
  5
A59
330
1D
100
AcDbEntity
  8
0
100
AcDbLine
 10
148.9038
 20
127.647
 30
0.0
 11
149.0
 21
127.441
 31
0.0
  0
LINE
  5
A5A
330
1D
100
AcDbEntity
  8
0
100
AcDbLine
 10
148.9038
 20
127.647
 30
0.0
 11
148.9038
 21
127.4
 31
0.0
  0
LINE
  5
A5B
330
1D
100
AcDbEntity
  8
0
100
AcDbLine
 10
148.7115
 20
127.75
 30
0.0
 11
148.9038
 21
127.647
 31
0.0
  0
LINE
  5
A5C
330
1D
100
AcDbEntity
  8
0
100
AcDbLine
 10
148.9038
 20
120.75
 30
0.0
 11
148.9038
 21
118.979
 31
0.0
  0
LINE
  5
A5D
330
1D
100
AcDbEntity
  8
0
100
AcDbLine
 10
148.9038
 20
120.75
 30
0.0
 11
148.9038
 21
122.521
 31
0.0
  0
LINE
  5
A5E
330
1D
100
AcDbEntity
  8
0
100
AcDbLine
 10
148.9038
 20
117.312
 30
0.0
 11
148.9038
 21
118.979
 31
0.0
  0
LINE
  5
A5F
330
1D
100
AcDbEntity
  8
0
100
AcDbLine
 10
148.9038
 20
117.312
 30
0.0
 11
148.9038
 21
115.871
 31
0.0
  0
LINE
  5
A60
330
1D
100
AcDbEntity
  8
0
100
AcDbLine
 10
149.0
 20
114.059
 30
0.0
 11
149.0
 21
116.015
 31
0.0
  0
LINE
  5
A61
330
1D
100
AcDbEntity
  8
0
100
AcDbLine
 10
149.0
 20
119.021
 30
0.0
 11
149.0
 21
116.015
 31
0.0
  0
LINE
  5
A62
330
1D
100
AcDbEntity
  8
0
100
AcDbLine
 10
149.0
 20
116.015
 30
0.0
 11
149.0
 21
119.021
 31
0.0
  0
LINE
  5
A63
330
1D
100
AcDbEntity
  8
0
100
AcDbLine
 10
149.0
 20
116.015
 30
0.0
 11
149.0
 21
114.059
 31
0.0
  0
LINE
  5
A64
330
1D
100
AcDbEntity
  8
0
100
AcDbLine
 10
149.0
 20
124.085
 30
0.0
 11
149.0
 21
125.485
 31
0.0
  0
LINE
  5
A65
330
1D
100
AcDbEntity
  8
0
100
AcDbLine
 10
149.0
 20
124.085
 30
0.0
 11
149.0
 21
122.479
 31
0.0
  0
LINE
  5
A66
330
1D
100
AcDbEntity
  8
0
100
AcDbLine
 10
149.0
 20
122.479
 30
0.0
 11
149.0
 21
124.085
 31
0.0
  0
LINE
  5
A67
330
1D
100
AcDbEntity
  8
0
100
AcDbLine
 10
149.0
 20
122.479
 30
0.0
 11
149.0
 21
120.75
 31
0.0
  0
LINE
  5
A68
330
1D
100
AcDbEntity
  8
0
100
AcDbLine
 10
149.0
 20
125.485
 30
0.0
 11
149.0
 21
126.535
 31
0.0
  0
LINE
  5
A69
330
1D
100
AcDbEntity
  8
0
100
AcDbLine
 10
149.0
 20
125.485
 30
0.0
 11
149.0
 21
124.085
 31
0.0
  0
LINE
  5
A6A
330
1D
100
AcDbEntity
  8
0
100
AcDbLine
 10
149.0
 20
127.441
 30
0.0
 11
149.0
 21
126.535
 31
0.0
  0
LINE
  5
A6B
330
1D
100
AcDbEntity
  8
0
100
AcDbLine
 10
149.0
 20
126.535
 30
0.0
 11
149.0
 21
127.441
 31
0.0
  0
LINE
  5
A6C
330
1D
100
AcDbEntity
  8
0
100
AcDbLine
 10
149.0
 20
126.535
 30
0.0
 11
149.0
 21
125.485
 31
0.0
  0
LINE
  5
A6D
330
1D
100
AcDbEntity
  8
0
100
AcDbLine
 10
149.0
 20
120.75
 30
0.0
 11
149.0
 21
119.021
 31
0.0
  0
LINE
  5
A6E
330
1D
100
AcDbEntity
  8
0
100
AcDbLine
 10
149.0
 20
120.75
 30
0.0
 11
149.0
 21
122.479
 31
0.0
  0
LINE
  5
A6F
330
1D
100
AcDbEntity
  8
0
100
AcDbLine
 10
149.0
 20
119.021
 30
0.0
 11
149.0
 21
120.75
 31
0.0
  0
LINE
  5
A70
330
1D
100
AcDbEntity
  8
0
100
AcDbLine
 10
148.9038
 20
118.979
 30
0.0
 11
148.9038
 21
120.75
 31
0.0
  0
LINE
  5
A71
330
1D
100
AcDbEntity
  8
0
100
AcDbLine
 10
148.9038
 20
118.979
 30
0.0
 11
148.9038
 21
117.312
 31
0.0
  0
LINE
  5
A72
330
1D
100
AcDbEntity
  8
0
100
AcDbLine
 10
148.7115
 20
113.75
 30
0.0
 11
148.9038
 21
113.853
 31
0.0
  0
LINE
  5
A73
330
1D
100
AcDbEntity
  8
0
100
AcDbLine
 10
147.0
 20
118.19
 30
0.0
 11
147.0
 21
120.75
 31
0.0
  0
LINE
  5
A74
330
1D
100
AcDbEntity
  8
0
100
AcDbLine
 10
147.0
 20
118.19
 30
0.0
 11
147.0
 21
115.79
 31
0.0
  0
LINE
  5
A75
330
1D
100
AcDbEntity
  8
0
100
AcDbLine
 10
146.388
 20
65.102
 30
0.0
 11
147.0
 21
60.75
 31
0.0
  0
LINE
  5
A76
330
1D
100
AcDbEntity
  8
0
100
AcDbLine
 10
145.0
 20
150.75
 30
0.0
 11
145.0
 21
153.75
 31
0.0
  0
LINE
  5
A77
330
1D
100
AcDbEntity
  8
0
100
AcDbLine
 10
117.0
 20
161.75
 30
0.0
 11
117.504
 21
161.75
 31
0.0
  0
LINE
  5
A78
330
1D
100
AcDbEntity
  8
0
100
AcDbLine
 10
117.0
 20
161.75
 30
0.0
 11
117.0
 21
159.75
 31
0.0
  0
LINE
  5
A79
330
1D
100
AcDbEntity
  8
0
100
AcDbLine
 10
117.504
 20
161.75
 30
0.0
 11
118.848
 21
161.75
 31
0.0
  0
LINE
  5
A7A
330
1D
100
AcDbEntity
  8
0
100
AcDbLine
 10
118.848
 20
161.75
 30
0.0
 11
121.088
 21
161.75
 31
0.0
  0
LINE
  5
A7B
330
1D
100
AcDbEntity
  8
0
100
AcDbLine
 10
121.088
 20
161.75
 30
0.0
 11
124.056
 21
161.75
 31
0.0
  0
LINE
  5
A7C
330
1D
100
AcDbEntity
  8
0
100
AcDbLine
 10
124.056
 20
161.75
 30
0.0
 11
127.416
 21
161.75
 31
0.0
  0
LINE
  5
A7D
330
1D
100
AcDbEntity
  8
0
100
AcDbLine
 10
145.0
 20
161.75
 30
0.0
 11
145.0
 21
159.75
 31
0.0
  0
LINE
  5
A7E
330
1D
100
AcDbEntity
  8
0
100
AcDbLine
 10
144.496
 20
161.75
 30
0.0
 11
145.0
 21
161.75
 31
0.0
  0
LINE
  5
A7F
330
1D
100
AcDbEntity
  8
0
100
AcDbLine
 10
143.152
 20
161.75
 30
0.0
 11
144.496
 21
161.75
 31
0.0
  0
LINE
  5
A80
330
1D
100
AcDbEntity
  8
0
100
AcDbLine
 10
140.912
 20
161.75
 30
0.0
 11
143.152
 21
161.75
 31
0.0
  0
LINE
  5
A81
330
1D
100
AcDbEntity
  8
0
100
AcDbLine
 10
137.944
 20
161.75
 30
0.0
 11
140.912
 21
161.75
 31
0.0
  0
LINE
  5
A82
330
1D
100
AcDbEntity
  8
0
100
AcDbLine
 10
134.584
 20
161.75
 30
0.0
 11
137.944
 21
161.75
 31
0.0
  0
LINE
  5
A83
330
1D
100
AcDbEntity
  8
0
100
AcDbLine
 10
131.0
 20
161.75
 30
0.0
 11
134.584
 21
161.75
 31
0.0
  0
LINE
  5
A84
330
1D
100
AcDbEntity
  8
0
100
AcDbLine
 10
127.416
 20
161.75
 30
0.0
 11
131.0
 21
161.75
 31
0.0
  0
LINE
  5
A85
330
1D
100
AcDbEntity
  8
0
100
AcDbLine
 10
117.0
 20
159.75
 30
0.0
 11
117.0
 21
161.75
 31
0.0
  0
LINE
  5
A86
330
1D
100
AcDbEntity
  8
0
100
AcDbLine
 10
117.0
 20
150.75
 30
0.0
 11
117.0
 21
153.75
 31
0.0
  0
LINE
  5
A87
330
1D
100
AcDbEntity
  8
0
100
AcDbLine
 10
142.0
 20
110.75
 30
0.0
 11
147.0
 21
110.75
 31
0.0
  0
LINE
  5
B40
330
1D
100
AcDbEntity
  8
0
  6
ByBlock
100
AcDbLine
 10
51.0
 20
119.25
 30
0.0
 11
51.0
 21
1.25
 31
0.0
  0
LINE
  5
B41
330
1D
100
AcDbEntity
  8
0
  6
ByBlock
100
AcDbLine
 10
50.2901
 20
33.3523
 30
0.0
 11
50.2901
 21
87.8562
 31
0.0
  0
LINE
  5
B42
330
1D
100
AcDbEntity
  8
0
  6
ByBlock
100
AcDbLine
 10
0.0
 20
93.1497
 30
0.0
 11
0.0
 21
35.164
 31
0.0
  0
ENDSEC
  0
SECTION
  2
OBJECTS
  0
DICTIONARY
  5
C
330
0
100
AcDbDictionary
281
     1
  3
ACAD_GROUP
350
D
  3
ACAD_LAYOUT
350
1A
  3
ACAD_MLEADERSTYLE
350
B45
  3
ACAD_MLINESTYLE
350
17
  3
ACAD_PLOTSETTINGS
350
19
  3
ACAD_PLOTSTYLENAME
350
E
  3
ACAD_SCALELIST
350
51F
  3
AcDbVariableDictionary
350
B43
  3
DWGPROPS
350
B48
  0
DICTIONARY
  5
D
102
{ACAD_REACTORS
330
C
102
}
330
C
100
AcDbDictionary
281
     1
  0
DICTIONARY
  5
1A
102
{ACAD_REACTORS
330
C
102
}
330
C
100
AcDbDictionary
281
     1
  3
Layout1
350
1C
  3
Model
350
1E
  0
DICTIONARY
  5
B45
102
{ACAD_REACTORS
330
C
102
}
330
C
100
AcDbDictionary
281
     1
  0
DICTIONARY
  5
17
102
{ACAD_REACTORS
330
C
102
}
330
C
100
AcDbDictionary
281
     1
  3
Standard
350
18
  0
DICTIONARY
  5
19
102
{ACAD_REACTORS
330
C
102
}
330
C
100
AcDbDictionary
281
     1
  0
ACDBDICTIONARYWDFLT
  5
E
102
{ACAD_REACTORS
330
C
102
}
330
C
100
AcDbDictionary
281
     1
  3
Normal
350
F
100
AcDbDictionaryWithDefault
340
F
  0
DICTIONARY
  5
51F
102
{ACAD_REACTORS
330
C
102
}
330
C
100
AcDbDictionary
281
     1
  3
A0
350
520
  3
A1
350
521
  3
A2
350
522
  3
A3
350
523
  3
A4
350
524
  3
A5
350
525
  3
A6
350
526
  3
A7
350
527
  3
A8
350
528
  3
A9
350
529
  3
B0
350
52A
  3
B1
350
52B
  3
B2
350
52C
  3
B3
350
52D
  3
B4
350
52E
  3
B5
350
52F
  3
B6
350
530
  3
B7
350
531
  3
B8
350
532
  3
B9
350
533
  3
C0
350
534
  3
C1
350
535
  3
C2
350
536
  3
C3
350
537
  3
C4
350
538
  3
C5
350
539
  3
C6
350
53A
  3
C7
350
53B
  3
C8
350
53C
  3
C9
350
53D
  3
D0
350
53E
  3
D1
350
53F
  3
D2
350
540
  0
DICTIONARY
  5
B43
102
{ACAD_REACTORS
330
C
102
}
330
C
100
AcDbDictionary
281
     1
  3
CANNOSCALE
350
B46
  0
XRECORD
  5
B48
102
{ACAD_REACTORS
330
C
102
}
330
C
100
AcDbXrecord
280
     1
  1
DWGPROPS COOKIE
  2

  3

  4

  6

  7

  8
MARTIN
  9

300
=
301
=
302
=
303
=
304
=
305
=
306
=
307
=
308
=
309
=
 40
0.0
 41
2456183.955329861
 42
2456183.958055011
  1

 90
        0
  0
LAYOUT
  5
1C
102
{ACAD_REACTORS
330
1A
102
}
330
1A
100
AcDbPlotSettings
  1

  2
none_device
  4

  6

 40
0.0
 41
0.0
 42
0.0
 43
0.0
 44
0.0
 45
0.0
 46
0.0
 47
0.0
 48
0.0
 49
0.0
140
0.0
141
0.0
142
1.0
143
1.0
 70
   688
 72
     0
 73
     0
 74
     5
  7

 75
    16
147
1.0
148
0.0
149
0.0
100
AcDbLayout
  1
Layout1
 70
     1
 71
     1
 10
0.0
 20
0.0
 11
12.0
 21
9.0
 12
0.0
 22
0.0
 32
0.0
 14
1.000000000000E+20
 24
1.000000000000E+20
 34
1.000000000000E+20
 15
-1.000000000000E+20
 25
-1.000000000000E+20
 35
-1.000000000000E+20
146
0.0
 13
0.0
 23
0.0
 33
0.0
 16
1.0
 26
0.0
 36
0.0
 17
0.0
 27
1.0
 37
0.0
 76
     0
330
1B
  0
LAYOUT
  5
1E
102
{ACAD_REACTORS
330
1A
102
}
330
1A
100
AcDbPlotSettings
  1

  2
none_device
  4

  6

 40
0.0
 41
0.0
 42
0.0
 43
0.0
 44
0.0
 45
0.0
 46
0.0
 47
0.0
 48
0.0
 49
0.0
140
0.0
141
0.0
142
1.0
143
1.0
 70
  1712
 72
     0
 73
     0
 74
     0
  7

 75
     0
147
1.0
148
0.0
149
0.0
100
AcDbLayout
  1
Model
 70
     1
 71
     0
 10
0.0
 20
0.0
 11
12.0
 21
9.0
 12
0.0
 22
0.0
 32
0.0
 14
0.0
 24
0.25
 34
0.0
 15
149.0
 25
161.75
 35
0.0
146
0.0
 13
0.0
 23
0.0
 33
0.0
 16
1.0
 26
0.0
 36
0.0
 17
0.0
 27
1.0
 37
0.0
 76
     0
330
1D
331
51A
  0
MLINESTYLE
  5
18
102
{ACAD_REACTORS
330
17
102
}
330
17
100
AcDbMlineStyle
  2
Standard
 70
     0
  3

 62
   256
 51
90.0
 52
90.0
 71
     2
 49
0.5
 62
   256
  6
BYLAYER
 49
-0.5
 62
   256
  6
BYLAYER
  0
ACDBPLACEHOLDER
  5
F
102
{ACAD_REACTORS
330
E
102
}
330
E
  0
SCALE
  5
520
102
{ACAD_REACTORS
330
51F
102
}
330
51F
100
AcDbScale
 70
     0
300
1:1
140
1.0
141
1.0
290
     1
  0
SCALE
  5
521
102
{ACAD_REACTORS
330
51F
102
}
330
51F
100
AcDbScale
 70
     0
300
1:2
140
1.0
141
2.0
290
     0
  0
SCALE
  5
522
102
{ACAD_REACTORS
330
51F
102
}
330
51F
100
AcDbScale
 70
     0
300
1:4
140
1.0
141
4.0
290
     0
  0
SCALE
  5
523
102
{ACAD_REACTORS
330
51F
102
}
330
51F
100
AcDbScale
 70
     0
300
1:5
140
1.0
141
5.0
290
     0
  0
SCALE
  5
524
102
{ACAD_REACTORS
330
51F
102
}
330
51F
100
AcDbScale
 70
     0
300
1:8
140
1.0
141
8.0
290
     0
  0
SCALE
  5
525
102
{ACAD_REACTORS
330
51F
102
}
330
51F
100
AcDbScale
 70
     0
300
1:10
140
1.0
141
10.0
290
     0
  0
SCALE
  5
526
102
{ACAD_REACTORS
330
51F
102
}
330
51F
100
AcDbScale
 70
     0
300
1:16
140
1.0
141
16.0
290
     0
  0
SCALE
  5
527
102
{ACAD_REACTORS
330
51F
102
}
330
51F
100
AcDbScale
 70
     0
300
1:20
140
1.0
141
20.0
290
     0
  0
SCALE
  5
528
102
{ACAD_REACTORS
330
51F
102
}
330
51F
100
AcDbScale
 70
     0
300
1:30
140
1.0
141
30.0
290
     0
  0
SCALE
  5
529
102
{ACAD_REACTORS
330
51F
102
}
330
51F
100
AcDbScale
 70
     0
300
1:40
140
1.0
141
40.0
290
     0
  0
SCALE
  5
52A
102
{ACAD_REACTORS
330
51F
102
}
330
51F
100
AcDbScale
 70
     0
300
1:50
140
1.0
141
50.0
290
     0
  0
SCALE
  5
52B
102
{ACAD_REACTORS
330
51F
102
}
330
51F
100
AcDbScale
 70
     0
300
1:100
140
1.0
141
100.0
290
     0
  0
SCALE
  5
52C
102
{ACAD_REACTORS
330
51F
102
}
330
51F
100
AcDbScale
 70
     0
300
2:1
140
2.0
141
1.0
290
     0
  0
SCALE
  5
52D
102
{ACAD_REACTORS
330
51F
102
}
330
51F
100
AcDbScale
 70
     0
300
4:1
140
4.0
141
1.0
290
     0
  0
SCALE
  5
52E
102
{ACAD_REACTORS
330
51F
102
}
330
51F
100
AcDbScale
 70
     0
300
8:1
140
8.0
141
1.0
290
     0
  0
SCALE
  5
52F
102
{ACAD_REACTORS
330
51F
102
}
330
51F
100
AcDbScale
 70
     0
300
10:1
140
10.0
141
1.0
290
     0
  0
SCALE
  5
530
102
{ACAD_REACTORS
330
51F
102
}
330
51F
100
AcDbScale
 70
     0
300
100:1
140
100.0
141
1.0
290
     0
  0
SCALE
  5
531
102
{ACAD_REACTORS
330
51F
102
}
330
51F
100
AcDbScale
 70
     0
300
1/128" = 1'-0"
140
0.0078125
141
12.0
290
     0
  0
SCALE
  5
532
102
{ACAD_REACTORS
330
51F
102
}
330
51F
100
AcDbScale
 70
     0
300
1/64" = 1'-0"
140
0.015625
141
12.0
290
     0
  0
SCALE
  5
533
102
{ACAD_REACTORS
330
51F
102
}
330
51F
100
AcDbScale
 70
     0
300
1/32" = 1'-0"
140
0.03125
141
12.0
290
     0
  0
SCALE
  5
534
102
{ACAD_REACTORS
330
51F
102
}
330
51F
100
AcDbScale
 70
     0
300
1/16" = 1'-0"
140
0.0625
141
12.0
290
     0
  0
SCALE
  5
535
102
{ACAD_REACTORS
330
51F
102
}
330
51F
100
AcDbScale
 70
     0
300
3/32" = 1'-0"
140
0.09375
141
12.0
290
     0
  0
SCALE
  5
536
102
{ACAD_REACTORS
330
51F
102
}
330
51F
100
AcDbScale
 70
     0
300
1/8" = 1'-0"
140
0.125
141
12.0
290
     0
  0
SCALE
  5
537
102
{ACAD_REACTORS
330
51F
102
}
330
51F
100
AcDbScale
 70
     0
300
3/16" = 1'-0"
140
0.1875
141
12.0
290
     0
  0
SCALE
  5
538
102
{ACAD_REACTORS
330
51F
102
}
330
51F
100
AcDbScale
 70
     0
300
1/4" = 1'-0"
140
0.25
141
12.0
290
     0
  0
SCALE
  5
539
102
{ACAD_REACTORS
330
51F
102
}
330
51F
100
AcDbScale
 70
     0
300
3/8" = 1'-0"
140
0.375
141
12.0
290
     0
  0
SCALE
  5
53A
102
{ACAD_REACTORS
330
51F
102
}
330
51F
100
AcDbScale
 70
     0
300
1/2" = 1'-0"
140
0.5
141
12.0
290
     0
  0
SCALE
  5
53B
102
{ACAD_REACTORS
330
51F
102
}
330
51F
100
AcDbScale
 70
     0
300
3/4" = 1'-0"
140
0.75
141
12.0
290
     0
  0
SCALE
  5
53C
102
{ACAD_REACTORS
330
51F
102
}
330
51F
100
AcDbScale
 70
     0
300
1" = 1'-0"
140
1.0
141
12.0
290
     0
  0
SCALE
  5
53D
102
{ACAD_REACTORS
330
51F
102
}
330
51F
100
AcDbScale
 70
     0
300
1-1/2" = 1'-0"
140
1.5
141
12.0
290
     0
  0
SCALE
  5
53E
102
{ACAD_REACTORS
330
51F
102
}
330
51F
100
AcDbScale
 70
     0
300
3" = 1'-0"
140
3.0
141
12.0
290
     0
  0
SCALE
  5
53F
102
{ACAD_REACTORS
330
51F
102
}
330
51F
100
AcDbScale
 70
     0
300
6" = 1'-0"
140
6.0
141
12.0
290
     0
  0
SCALE
  5
540
102
{ACAD_REACTORS
330
51F
102
}
330
51F
100
AcDbScale
 70
     0
300
1'-0" = 1'-0"
140
12.0
141
12.0
290
     0
  0
DICTIONARYVAR
  5
B46
102
{ACAD_REACTORS
330
B43
102
}
330
B43
100
DictionaryVariables
280
     0
  1
1:1
  0
ENDSEC
  0
SECTION
  2
THUMBNAILIMAGE
 90
    16364
310
28000000B40000005500000001000800000000000000000000000000000000000000000000000000FFFFFF000000FF0000FFFF0000FF0000FFFF0000FF000000FF00FF000000000080808000C0C0C0000000FF007F7FFF000000A5005252A50000007F003F3F7F0000004C0026264C000000260013132600003FFF007F9FFF
310
000029A5005267A500001F7F003F4F7F0000134C00262F4C000009260013172600007FFF007FBFFF000052A500527CA500003F7F003F5F7F0000264C0026394C0000132600131C260000BFFF007FDFFF00007CA5005291A500005F7F003F6F7F0000394C0026424C00001C26001321260000FFFF007FFFFF0000A5A50052A5
310
A500007F7F003F7F7F00004C4C00264C4C00002626001326260000FFBF007FFFDF0000A57C0052A59100007F5F003F7F6F00004C3900264C420000261C001326210000FF7F007FFFBF0000A5520052A57C00007F3F003F7F5F00004C2600264C39000026130013261C0000FF3F007FFF9F0000A5290052A56700007F1F003F
310
7F4F00004C1300264C2F00002609001326170000FF00007FFF7F0000A5000052A55200007F00003F7F3F00004C0000264C260000260000132613003FFF00009FFF7F0029A5000067A552001F7F00004F7F3F00134C00002F4C260009260000172613007FFF0000BFFF7F0052A500007CA552003F7F00005F7F3F00264C0000
310
394C2600132600001C261300BFFF0000DFFF7F007CA5000091A552005F7F00006F7F3F00394C0000424C26001C26000021261300FFFF0000FFFF7F00A5A50000A5A552007F7F00007F7F3F004C4C00004C4C26002626000026261300FFBF0000FFDF7F00A57C0000A59152007F5F00007F6F3F004C3900004C422600261C00
310
0026211300FF7F0000FFBF7F00A5520000A57C52007F3F00007F5F3F004C2600004C39260026130000261C1300FF3F0000FF9F7F00A5290000A56752007F1F00007F4F3F004C1300004C2F26002609000026171300FF000000FF7F7F00A5000000A55252007F0000007F3F3F004C0000004C2626002600000026131300FF00
310
3F00FF7F9F00A5002900A55267007F001F007F3F4F004C0013004C262F002600090026131700FF007F00FF7FBF00A5005200A5527C007F003F007F3F5F004C0026004C2639002600130026131C00FF00BF00FF7FDF00A5007C00A55291007F005F007F3F6F004C0039004C26420026001C0026132100FF00FF00FF7FFF00A5
310
00A500A552A5007F007F007F3F7F004C004C004C264C002600260026132600BF00FF00DF7FFF007C00A5009152A5005F007F006F3F7F0039004C0042264C001C002600211326007F00FF00BF7FFF005200A5007C52A5003F007F005F3F7F0026004C0039264C00130026001C1326003F00FF009F7FFF002900A5006752A500
310
1F007F004F3F7F0013004C002F264C000900260017132600000000002D2D2D005B5B5B0089898900B7B7B700B3B3B30000000000000000000000000000000000000000000000000000000000000000000000000000000000000000000000000000000000000000000000000000000000000000000000000000000000000007
310
07070707070707070707070000000000000000000000000000000000000000000000000000000000000000000000000000000000000000000000000000000000000000000000000000000000000000000000000000000000000000000000000000000000000000000000000000000000000000000000000000000000000000
310
00000000000000000000000000000000000000000000000000000000000000000000000000000000000000000000000000000000070000000000000000000007000000000000000000000000000000000000000000000000000000000000000000000000000000000000000000000000000000000000000000000000000000
310
00000000000000000000000000000000000000000000000000000000000000000000000000000000000000000000000000000000000000000000000000000000000000000000000000000000000000000000000000000000000000000000000000000000000000000007000000000000000000000700000000000000000000
310
00000000000000000000000000000000000000000000000000000000000000000000000000000000000000000000000000000000000000000000000000000000000000000000000000000000000000000000000000000000000000000000000000000000000000000000000000000000000000000000000000000000000000
310
00000000000000000000000000000000000000000000000000000000000000070000000000000000000007000000000000000000000000000000000000000000000000000000000000000000000000000000000000000000000000000000000000000000000000000000000000000000000000000000000000000000000000
310
00000000000000000000000000000000000000000000000000000000000000000000000000000000000000000000000000000000000000000000000000000000000000000000000000000000000000000000000007000000000000000000000700000000000000000000000000000007070707070707000000000000000000
310
00000000000000000000000000000000000000000000000000000000000000000000000000000000000000000000000000000000000000000000000000000000000000000000000000000000000000000000000000000000000000000000000000000000000000000000000000000000000000000000000000000000000000
310
00000000000000000000070000000000000000000007000000000000000000000000000000070000000000070000000000000000000007070707070700000000000000000000000000000000000000000000000000000000000000000000000000000000000000000000000000000000000000000000000000000000000000
310
00000000000000000000000000000000000000000000000000000000000000000000000000000000000000000000000000000000000000000000000000000007000000000000000000000700000000000000000000000000000007000000000007000000000000000000000700000000070000000000000000000000000000
310
00000000000000000000000000000000000000000000000000000000000000000000000000000000000000000000000000000000000000000000000000000000000000000000000000000000000000000000000000000000000000000000000000000000000000000000000000000000000000000700000000000000000000
310
07000000000000000000000000000000070000000000070000000000000000000007000000000700000000000000000000000000000000000000000000000000000000000000000000000000000000000000000000000000000000000000000000000000000000000000000000000000000000000000000000000000000000
310
00000000000000000000000000000000000000000000000000000000000000000000000000000000000007000000000000000000000700000000000000000000000000000007000000000007000000000000000000000700000000070000000000000000000000000000000000000000000000000000000000000000000000
310
00000000000000000000000000000000000000000000000000000000000000000000000000000000000000000000000000000000000000000000000000000000000000000000000000000000000000000000000000000000000000000000000700000000000000000000070000000000000000000000000000000700000000
310
00070000000000000000000007000000000700000000000000000000000000000000000000000000000000000000000000000000000000000000000000000000000000000000000000000000000000000000000000000000000000000000000000000000000000000000000000000000000000000000000000000000000000
310
00000000000000000000000000000000000000000007000000000000000000000700000000000000000000000000000007000000000007000000000000000000000700000000070000000000000000000000000000000000000000000000000000000000000000000000000000000000000000000000000000000000000000
310
00000000000000000000000000000000000000000000000000000000000000000000000000000000000000000000000000000000000000000000000000000000000000000000000000000700000000000000000000070000000000000000000000000000000700000000000707070707070707070707070000000007000000
310
00000000000000000000000000000000000000000000000000000000000000000000000000000000000000000000000000000000000000000000000000000000000000000000000000000000000000000000000000000000000000000000000000000000000000000000000000000000000000000000000000000000000000
310
07000000000000000000000700000000000000000000000000000007000000000007000000000000000700000700000700070000000000000000000000000000000000000000000000000000000000000000000000000000000000000000000000000000000000000000000000000000000000000000000000000000000000
310
00000000000000000000000000000000000000000000000000000000000000000000000000000000000000000000000000000000000700000000000000000000070000000000000000000000000000000700000000000700000000000000070000070000070007000000000000000000000000000000000000000000000000
310
00000000000000000000000000000000000000000000000000000000000000000000000000000000000000000000000000000000000000000000000000000000000000000000000000000000000000000000000000000000000000000000000000000000000000000000070000000000000000000007000000000000000000
310
00000000000007000000000007000000000000000700000700070700070700000000000000000000000000000000000000000000000000000000000000000000000000000000000000000000000000000000000000000000000000000000000000000000000000000000000000000000000000000000000000000000000000
310
00000000000000000000000000000000000000000000000000000000000000000700000000000000000000070000000000000000000000000000000700000000000700000000000000070000070707070007070000000000000000000000000000000000000000000000000000000000000000000000000000000000000000
310
00000000000000000000000000000000000000000000000000000000000000000000000000000000000000000000000000000000000000000000000000000000000000000000000000000000000000000000000000070000000000000000000007000000000000000000000000000000070000000000070000000000000007
310
00000000070700070700000000000000000000000000000000000000000000000000000000000000000000000000000000000000000000000000000000000000000000000000000000000000000000000000000000000000000000000000000000000000000000000000000000000000070707070707070707070707070707
310
07070707070707070707070700000000000000000000070000000000000000000000000000000700000000000700000000000000070000000007070007070000000000000000000000000000000000000000000000000000000000000000000000000000000000000000000000000000000000000000000000000000000000
310
00000000000000000000000000000000000000000000000000000000000000000000000000000700000000000000000000000000000000000000000000000000070000000000000000000007000000000000000000000000000000000700000000070000000000000007000000000707000707000000000000000000000000
310
00000000000000000000000000000000000000000000000000000000000000000000000000000000000000000000000000000000000000000000000000000000000000000000000000000000000000000000000000000000000000070000000000000000000000000000000000000000000000000007000000000000000000
310
00070000000000000000000000000000000000070000000700000000000000070000000007070007070000000000000000000000000000000000000000000000000000000000000000000000000000000000000000000000000000000000000000000000000000000000000000000000000000000000000000000000000000
310
00000000000000000000000000000000000700000000000000000000000000000000000000000000000000070000000000000000000007000000000000000000000000000000000000070700070000000000000007000000000707000707000000000000000000000000000000000000000000000000000000000000000000
310
00000000000000000000000000000000000000000000000000000000000000000000000000000000000000000000000000000000000000000000000000000000000000000000070000000000000000000000000000000000000000000000000007000000000000000000000700000000000000000000000000000000000000
310
00070700000000000000070000000007070007070000000000000000000000000000000000000000000000000000000000000000000000000000000000000000000000000000000000000000000000000000000000000000000000000000000000000000000000000000000000000000000000000000000000000007000000
310
00000000000000000000000000000000000000000000070000000000000000000007000000000000000000000007070707070707070707070000000000000707070707070707000700000000000000000000000000000000000000000000000000000000000000000000000000000000000000000000000000000000000000
310
00000000000000000000000000000000000000000000000000000000000000000000000000000000000000000000000000070000000000000000000000000000000000000000000000000007000000000000000000000700000000000000000000000700000000000000000000000000000707000007070000000700070000
310
00000000000000000000000000000000000000000000000000000000000000000000000000000000000000000000000000000000000000000000000000000000000000000000000000000000000000000000000000000000000000000000000000000000000007000000000000000000000000000000000000000000000000
310
00070000000000000000000007070707070707070707070707000000000000000000000000070700070707070707070007000700000000000000000000000000000000000000000000000000000000000000000000000000000000000000000000000000000000000000000000000000000000000000000000000000000000
310
00000000000000000000000000000000000000000000000000000000070000000000000000000000000000000000000000000000000007000000000000000000000700000000000000000000000700000000000000000000070700070700000000000700070700070000000000000000000000000000000000000000000000
310
00000000000000000000000000000000000000000000000000000000000000000000000000000000000000000000000000000000000000000000000000000000000000000000000000000000000000000007000000000000000000000000000000000000000000000000000700000000000000000000070000000000000000
310
00000007000000000000000000070007070000000000000000070707070700000000000000000000000000000000000000000000000000000000000000000000000000000000000000000000000000000000000000000000000000000000000000000000000000000000000000000000000000000000000000000000000000
310
00000000000000070000000000000000000000000000000000000000000000000007000000000000000000000700000000000000000000000700000000000000000007070000000000000000000000000707070000000000000000000000000000000000000000000000000000000000000000000000000000000000000000
310
00000000000000000000000000000000000000000000000000000000000000000000000000000000000000000000000000000000000000000000000007000000000000000000000000000000000000000000000000000700000000000000000000070000000000000000000000070000000000000000070700000000000000
310
00000000000007070700000000000000000000000000000000000000000000000000000000000000000000000000000000000000000000000000000000000000000000000000000000000000000000000000000000000000000000000000000000000000000000000000000000000000000700000000000000000000000000
310
00000000000000000000000007000000000000000000000700000000000000000000000700000000000000000707000000000000000000000000000007070000000000000000000000000000000000000000000000000000000000000000000000000000000000000000000000000000000000000000000000000000000000
310
00000000000000000000000000000000000000000000000000000000000000000000000000000007000000000000000000000000000000000000000000000000000700000000000000000000070000000000000000000000070000000000000000070700000000000000000000000000000707000000000000000000000000
310
00000000000000000000000000000000000000000000000000000000000000000000000000000000000000000000000000000000000000000000000000000000000000000000000000000000000000000000000000000000000000000700000000000000000000000000000000000000000000000000070000000000000000
310
00000700000000000000000000000700000000000000000707000000000000000000000000000000070000000000000000000000000000000000000000000000000000000000000000000000000000000000000000000000000000000000000000000000000000000000000000000000000000000000000000000000000000
310
00000000000000000000000000000000000007000000000000000000000000000000000000000000000000000700000000000000000000070000000000000000000000070000000000000000070700000000000000000000000000000707000000000000000000000000000000000000000000000000000000000000000000
310
00000000000000000000000000000000000000000000000000000000000000000000000000000000000000000000000000000000000000000000000000000000000000000000000700000000000000000000000000000000000000000000000000070000000000000000000007000000000000000000000007000000000000
310
00000707000000000000000000000000000007070000000000000000000000000000000000000000000000000000000000000000000000000000000000000000000000000000000000000000000000000000000000000000000000000000000000000000000000000000000000000000000000000000000000000000070000
310
00000000000000000000000000000000000000000000000700000000000000000000070000000000000000000000070000000000000000070700000000000000000000000000070707000000000000000000000000000000000000000000000000000000000000000000000000000000000000000000000000000000000000
310
00000000000000000000000000000000000000000000000000000000000000000000000000000000000000000000000000000700000000000000000000000000000000000000000000000000070000000000000000000007000000000000000000000007000000000000000000070700000000000000000000000007070700
310
00000000000000000000000000000000000000000000000000000000000000000000000000000000000000000000000000000000000000000000000000000000000000000000000000000000000000000000000000000000000000000000000000000000000000070000000000000000000000000000000000000000000000
310
00000700000000000000000000070000000000000000000000070000000000000000000700070000000000000000000007070707000000000000000000000000000000000000000000000000000000000000000000000000000000000000000000000000000000000000000000000000000000000000000000000000000000
310
00000000000000000000000000000000000000000000000000000000000700000000000000000000000000000000000000000000000000070000000000000000000007000000000000000000000007000000000000000000000700070000000000000000070007070700000000000000000000000000000000000000000000
310
00000000000000000000000000000000000000000000000000000000000000000000000000000000000000000000000000000000000000000000000000000000000000000000000000000000000000000000070000000000000000000000000000000000000000000000000007000000000000000000000707070707070707
310
07070707070000000000000000000000070007070700000007070007070707000000000000000000000000000000000000000000000000000000000000000000000000000000000000000000000000000000000000000000000000000000000000000000000000000000000000000000000000000000000000000000000000
310
00000000000000000700000000000000000000000000000000000000000000000000070000000000000000000007000000000000000000000007000000000000000000000000070000000707070000070007070700000000000000000000000000000000000000000000000000000000000000000000000000000000000000
310
00000000000000000000000000000000000000000000000000000000000000000000000000000000000000000000000000000000000000000000000000070000000000000000000000000000000000000000000000000007000000000000000000000700000000000000000000000707070707070707070707000000070707
310
07070707070707070707000000000000000000000000000000000000000000000000000000000000000000000000000000000000000000000000000000000000000000000000000000000000000000000000000000000000000000000000000000000000000000000000000000000000000007000000000000000000000000
310
00000000000000000000000000070000000000000000000007000000000000000000000000000000000000000000070000000000000007000000000000070700000000000000000000000000000000000000000000000000000000000000000000000000000000000000000000000000000000000000000000000000000000
310
00000000000000000000000000000000000000000000000000000000000000000000000000000000070000000000000000000000000000000000000000000000000007000000000000000000000700000000000000000000000000000000000000000007000000000000000700000000000007070000000000000000000000
310
00000000000000000000000000000000000000000000000000000000000000000000000000000000000000000000000000000000000000000000000000000000000000000000000000000000000000000000000000000000000000000007000000000000000000000000000000000000000000000000000700000000000000
310
00000007000000000000000000000000000000000000000000070000000000000007000000000000070700000000000000000000000000000000000000000000000000000000000000000000000000000000000000000000000000000000000000000000000000000000000000000000000000000000000000000000000000
310
00000000000000000000000000000000000000070000000000000000000000000000000000000000000000000007000000000000000000000700000000000000000000000000000000000000000007000000000000000700000000000007070000000000000000000000000000000000000000000000000000000000000000
310
00000000000000000000000000000000000000000000000000000000000000000000000000000000000000000000000000000000000000000000000000000000000000000000000007000000000000000000000000000000000000000007070707070700000000000000000000070000000000000000000000000000000000
310
00000000070000000000000007000000000000070700000000000000000000000000000000000000000000000000000000000000000000000000000000000000000000000000000000000000000000000000000000000000000000000000000000000000000000000000000000000000000000000000000000000000000700
310
00000000000000000000070707070707070707000000000007000000000000000000000700000000000000000000000000000000000000000007000000000000000700000000000007070000000000000000000000000000000000000000000000000000000000000000000000000000000000000000000000000000000000
310
00000000000000000000000000000000000000000000000000000000000000000000000000000000000000000000000000000007000000000707070707070700000000000000000000000000000700000000000000000000070000000000000000000000000000000000000000000700000000000000070000000000000707
310
00000000000000000000000000000000000000000000000000000000000000000000000000000000000000000000000000000000000000000000000000000000000000000000000000000000000000000000000000000000000000000000000000000000000000000707070707000000000000000000000000000000000000
310
00000007000000000000000000000700000000000000000000000000000000000000000007000000000000000700000000000007070000000000000000000000000000000000000000000000000000000000000000000000000000000000000000000000000000000000000000000000000000000000000000000000000000
310
00000000000000000000000000000000000000000000000000000000000000000000000000000000000000000000000000000000000000000700000000000000000000070000000000000000000000000000000000000000000700000000000000070000000000000707000000000000000000000000000000000000000000
310
00000000000000000000000000000000000000000000000000000000000000000000000000000000000000000000000000000000000000000000000000000000000000000000000000000000000000000000000000000000000000000000000000000000000000000000000000070000000000000000000007000000000000
310
00000000000000000000000000000007000000000000000700000000000007070000000000000000000000000000000000000000000000000000000000000000000000000000000000000000000000000000000000000000000000000000000000000000000000000000000000000000000000000000000000000000000000
310
00000000000000000000000000000000000000000000000000000000000000000000000700000000000000000000070000000000000000000000000000000000000000000700000000000000070000000000000707000000000000000000000000000000000000000000000000000000000000000000000000000000000000
310
00000000000000000000000000000000000000000000000000000000000000000000000000000000000000000000000000000000000000000000000000000000000000000000000000000000000000000000000000000000070000000000000000000007000000000000000000000000000000000000000000070000000000
310
00000700000000000007070000000000000000000000000000000000000000000000000000000000000000000000000000000000000000000000000000000000000000000000000000000000000000000000000000000000000000000000000000000000000000000000000000000000000000000000000000000000000000
310
00000000000000000000000000000700000000000000000000070000000000000000000000000000000000000000000700000000000000070000000000000707000000000000000000000000000000000000000000000000000000000000000000000000000000000000000000000000000000000000000000000000000000
310
00000000000000000000000000000000000000000000000000000000000000000000000000000000000000000000000000000000000000000000000000000000000000070000000000000000000007000000000000000000000000000000000000000000070000000000000007000000000000070700000000000000000000
310
00000000000000000000000000000000000000000000000000000000000000000000000000000000000000000000000000000000000000000000000000000000000000000000000000000000000000000000000000000000000000000000000000000000000000000000000000000000000000000000000007000000000000
310
00000000070000000000000000000000000000000000000000000700000000000000070000000000000707000000000000000000000000000000000000000000000000000000000000000000000000000000000000000000000000000000000000000000000000000000000000000000000000000000000000000000000000
310
00000000000000000000000000000000000000000000000000000000000000000000000000000000000000000000070000000000000000000007000000000000000000000000000000000000000000070000000000000007000000000000070700000000000000000000000000000000000000000000000000000000000000
310
00000000000000000000000000000000000000000000000000000000000000000000000000000000000000000000000000000000000000000000000000000000000000000000000000000000000000000000000000000000000000000000000000000007000000000000000000000700000000000000000000000000000000
310
00000000000700000000000000070000000000070707000000000000000000000000000000000000000000000000000000000000000000000000000000000000000000000000000000000000000000000000000000000000000000000000000000000000000000000000000000000000000000000000000000000000000000
310
00000000000000000000000000000000000000000000000000070000000000000000000007000000000000000000000000000000000000000000070000000000000007000000000707000707000000000000000000000000000000000000000000000000000000000000000000000000000000000000000000000000000000
310
00000000000000000000000000000000000000000000000000000000000000000000000000000000000000000000000000000000000000000000000000000000000000000000000000000000000007000000000000000000000700000000000000000000000000000000000000000007000000000000000700000000070700
310
07070000000000000000000000000000000000000000000000000000000000000000000000000000000000000000000000000000000000000000000000000000000000000000000000000000000000000000000000000000000000000000000000000000000000000000000000000000000000000000000000000000000000
310
00000000070000000000000000000007000000000000000000000000000000000000000000070000000000000007000000000707000707000000000000000000000000000000000000000000000000000000000000000000000000000000000000000000000000000000000000000000000000000000000000000000000000
310
00000000000000000000000000000000000000000000000000000000000000000000000000000000000000000000000000000000000000000007000000000000000000000700000000000000000000000000000000000000000007000000000000000700000000070700070700000000000000000000000000000000000000
310
00000000000000000000000000000000000000000000000000000000000000000000000000000000000000000000000000000000000000000000000000000000000000000000000000000000000000000000000000000000000000000000000000000000000000000000000000000707070707070707070707070000000000
310
00000000000000000000000000000000070000000000000007000000000707000707000000000000000000000000000000000000000000000000000000000000000000000000000000000000000000000000000000000000000000000000000000000000000000000000000000000000000000000000000000000000000000
310
00000000000000000000000000000000000000000000000000000000000000000000000000000000000000000000000000000000000000000000000000000000000000000007000000000000000700000000070700070700000000000000000000000000000000000000000000000000000000000000000000000000000000
310
00000000000000000000000000000000000000000000000000000000000000000000000000000000000000000000000000000000000000000000000000000000000000000000000000000000000000000000000000000000000000000000000000000000000000000000000000000000000000000000000000000700000000
310
00000007000000000707000707000000000000000000000000000000000000000000000000000000000000000000000000000000000000000000000000000000000000000000000000000000000000000000000000000000000000000000000000000000000000000000000000000000000000000000000000000000000000
310
00000000000000000000000000000000000000000000000000000000000000000000000000000000000000000000000000000000000000000700000000070700070700000000000000000000000000000000000000000000000000000000000000000000000000000000000000000000000000000000000000000000000000
310
00000000000000000000000000000000000000000000000000000000000000000000000000000000000000000000000000000000000000000000000000000000000000000000000000000000000000000000000000000000000000000000000000000000070000000000000000070000000007070007070000000000000000
310
00000000000000000000000000000000000000000000000000000000000000000000000000000000000000000000000000000000000000000000000000000000000000000000000000000000000000000000000000000000000000000000000000000000000000000000000000000000000000000000000000000000000000
310
00000000000000000000000000000000000000000000000000070000000000000007000707070707070707070000000000000000000000000000000000000000000000000000000000000000000000000000000000000000000000000000000000000000000000000000000000000000000000000000000000000000000000
310
00000000000000000000000000000000000000000000000000000000000000000000000000000000000000000000000000000000000000000000000000000000000000000000000000000000000700000000000000000700000000070000000007000000000000000000000000000000000000000000000000000000000000
310
00000000000000000000000000000000000000000000000000000000000000000000000000000000000000000000000000000000000000000000000000000000000000000000000000000000000000000000000000000000000000000000000000000000000000000000000000000000000000000000000000000000000000
310
00000007000000000000000007000000000700000000070000000000000000000000000000000000000000000000000000000000000000000000000000000000000000000000000000000000000000000000000000000000000000000000000000000000000000000000000000000000000000000000000000000000000000
310
00000000000000000000000000000000000000000000000000000000000000000000000000000000000000000000000000000000000000070000000000000000000700000000070000000007000000000000000000000000000000000000000000000000000000000000000000000000000000000000000000000000000000
310
00000000000000000000000000000000000000000000000000000000000000000000000000000000000000000000000000000000000000000000000000000000000000000000000000000000000000000000000000000000000000000000000000000000000000000000000700000000000000000000070000000007000000
310
00070000000000000000000000000000000000000000000000000000000000000000000000000000000000000000000000000000000000000000000000000000000000000000000000000000000000000000000000000000000000000000000000000000000000000000000000000000000000000000000000000000000000
310
00000000000000000000000000000000000000000000000000000000000000000700000000000000000000000700000000070000000007000000000000000000000000000000000000000000000000000000000000000000000000000000000000000000000000000000000000000000000000000000000000000000000000
310
00000000000000000000000000000000000000000000000000000000000000000000000000000000000000000000000000000000000000000000000000000000000000000000000000000000000000000000000000070000000000000000000000070000000007000000000700000000000000000000000000000000000000
310
00000000000000000000000000000000000000000000000000000000000000000000000000000000000000000000000000000000000000000000000000000000000000000000000000000000000000000000000000000000000000000000000000000000000000000000000000000000000000000000000000000000000000
310
00000000000000000000000700000000000000000000000700000000070000000007000000000000000000000000000000000000000000000000000000000000000000000000000000000000000000000000000000000000000000000000000000000000000000000000000000000000000000000000000000000000000000
310
00000000000000000000000000000000000000000000000000000000000000000000000000000000000000000000000000000000000000000000000000000000070000000000000000000000070000000007000000000700000000000000000000000000000000000000000000000000000000000000000000000000000000
310
00000000000000000000000000000000000000000000000000000000000000000000000000000000000000000000000000000000000000000000000000000000000000000000000000000000000000000000000000000000000000000000000000000000000000000000000000000000000000000007000000000000000000
310
00000700000000070000000007000000000000000000000000000000000000000000000000000000000000000000000000000000000000000000000000000000000000000000000000000000000000000000000000000000000000000000000000000000000000000000000000000000000000000000000000000000000000
310
00000000000000000000000000000000000000000000000000000000000000000000000000000000000000070707070707070707070707070000000007070707070700000000000000000000000000000000000000000000000000000000000000000000000000000000000000000000000000000000000000000000000000
310
00000000000000000000000000000000000000000000000000000000000000000000000000000000000000000000000000000000000000000000000000000000000000000000000000000000000000000000000000000000000000000000000000000000000000070000000007070707070700000007000000000000000000
310
00000000000000000000000000000000000000000000000000000000000000000000000000000000000000000000000000000000000000000000000000000000000000000000000000000000000000000000000000000000000000000000000000000000000000000000000000000000000000000000000000000000000000
310
00000000000000000000000000000000000000000000000000000000070707070707070707070707070707070700000000000000000000000000000000000000000000000000000000000000000000000000000000000000000000000000000000000000000000000000000000000000000000000000000000000000000000
310
00000000000000000000000000000000000000000000000000000000000000000000000000000000000000000000000000000000000000000000000000000000000000000000000000000000000000000007070707070707070707070707070707070000000000000000000000000000000000000000000000000000000000
310
00000000000000000000000000000000000000000000000000000000000000000000000000000000000000000000000000000000000000000000000000000000000000000000000000000000000000000000000000000000000000000000000000000000000000000000000000000000000000000000000000000000000000
310
00000000000000070707070707070707070707070707070700000000000000000000000000000000000000000000000000000000000000000000000000000000000000000000000000000000000000000000000000000000000000000000000000000000000000000000000000000000000000000000000000000000000000
310
00000000000000000000000000000000000000000000000000000000000000000000000000000000000000000000000000000000000000000000000007070707070707070707070707070707070000000000000000000000000000000000000000000000000000000000000000000000000000000000000000000000000000
310
00000000000000000000000000000000000000000000000000000000000000000000000000000000000000000000000000000000000000000000000000000000000000000000000000000000000000000000000000000000000000000000000000000000000000000000000000000000000007070707070707070707070707
310
07070000000000000000000000000000000000000000000000000000000000000000000000000000000000000000000000000000000000000000000000000000000000000000000000000000000000000000000000000000000000000000000000000000000000000000000000000000000000000000000000000000000000
310
000000000000000000000000000000000000000000000000000000000000000000000000000000000000000000000000000000000000000000000000000000000000000000000000000000000000000000000000000000000000000000000000000000000000000000000000
  0
ENDSEC
  0
EOF
