  0
SECTION
  2
HEADER
  9
$ACADVER
  1
AC1015
  9
$ACADMAINTVER
 70
     6
  9
$DWGCODEPAGE
  3
ANSI_1252
  9
$INSBASE
 10
0.0
 20
0.0
 30
0.0
  9
$EXTMIN
 10
0.0
 20
0.0
 30
0.0
  9
$EXTMAX
 10
48.0
 20
155.0
 30
0.0
  9
$LIMMIN
 10
0.0
 20
0.0
  9
$LIMMAX
 10
12.0
 20
9.0
  9
$ORTHOMODE
 70
     0
  9
$REGENMODE
 70
     1
  9
$FILLMODE
 70
     1
  9
$QTEXTMODE
 70
     0
  9
$MIRRTEXT
 70
     1
  9
$LTSCALE
 40
1.0
  9
$ATTMODE
 70
     1
  9
$TEXTSIZE
 40
0.2
  9
$TRACEWID
 40
0.05
  9
$TEXTSTYLE
  7
Standard
  9
$CLAYER
  8
0
  9
$CELTYPE
  6
ByBlock
  9
$CECOLOR
 62
   256
  9
$CELTSCALE
 40
1.0
  9
$DISPSILH
 70
     0
  9
$DIMSCALE
 40
1.0
  9
$DIMASZ
 40
0.18
  9
$DIMEXO
 40
0.0625
  9
$DIMDLI
 40
0.38
  9
$DIMRND
 40
0.0
  9
$DIMDLE
 40
0.0
  9
$DIMEXE
 40
0.18
  9
$DIMTP
 40
0.0
  9
$DIMTM
 40
0.0
  9
$DIMTXT
 40
0.18
  9
$DIMCEN
 40
0.09
  9
$DIMTSZ
 40
0.0
  9
$DIMTOL
 70
     0
  9
$DIMLIM
 70
     0
  9
$DIMTIH
 70
     1
  9
$DIMTOH
 70
     1
  9
$DIMSE1
 70
     0
  9
$DIMSE2
 70
     0
  9
$DIMTAD
 70
     0
  9
$DIMZIN
 70
     0
  9
$DIMBLK
  1

  9
$DIMASO
 70
     1
  9
$DIMSHO
 70
     1
  9
$DIMPOST
  1

  9
$DIMAPOST
  1

  9
$DIMALT
 70
     0
  9
$DIMALTD
 70
     2
  9
$DIMALTF
 40
25.4
  9
$DIMLFAC
 40
1.0
  9
$DIMTOFL
 70
     0
  9
$DIMTVP
 40
0.0
  9
$DIMTIX
 70
     0
  9
$DIMSOXD
 70
     0
  9
$DIMSAH
 70
     0
  9
$DIMBLK1
  1

  9
$DIMBLK2
  1

  9
$DIMSTYLE
  2
Standard
  9
$DIMCLRD
 70
     0
  9
$DIMCLRE
 70
     0
  9
$DIMCLRT
 70
     0
  9
$DIMTFAC
 40
1.0
  9
$DIMGAP
 40
0.09
  9
$DIMJUST
 70
     0
  9
$DIMSD1
 70
     0
  9
$DIMSD2
 70
     0
  9
$DIMTOLJ
 70
     1
  9
$DIMTZIN
 70
     0
  9
$DIMALTZ
 70
     0
  9
$DIMALTTZ
 70
     0
  9
$DIMUPT
 70
     0
  9
$DIMDEC
 70
     4
  9
$DIMTDEC
 70
     4
  9
$DIMALTU
 70
     2
  9
$DIMALTTD
 70
     2
  9
$DIMTXSTY
  7
Standard
  9
$DIMAUNIT
 70
     0
  9
$DIMADEC
 70
     0
  9
$DIMALTRND
 40
0.0
  9
$DIMAZIN
 70
     0
  9
$DIMDSEP
 70
    46
  9
$DIMATFIT
 70
     3
  9
$DIMFRAC
 70
     0
  9
$DIMLDRBLK
  1

  9
$DIMLUNIT
 70
     2
  9
$DIMLWD
 70
    -2
  9
$DIMLWE
 70
    -2
  9
$DIMTMOVE
 70
     2
  9
$LUNITS
 70
     2
  9
$LUPREC
 70
     4
  9
$SKETCHINC
 40
0.1
  9
$FILLETRAD
 40
0.5
  9
$AUNITS
 70
     0
  9
$AUPREC
 70
     0
  9
$MENU
  1
.
  9
$ELEVATION
 40
0.0
  9
$PELEVATION
 40
0.0
  9
$THICKNESS
 40
0.0
  9
$LIMCHECK
 70
     0
  9
$CHAMFERA
 40
0.5
  9
$CHAMFERB
 40
0.5
  9
$CHAMFERC
 40
1.0
  9
$CHAMFERD
 40
0.0
  9
$SKPOLY
 70
     0
  9
$TDCREATE
 40
2456184.055893553
  9
$TDUCREATE
 40
2456183.97256022
  9
$TDUPDATE
 40
2456184.06110044
  9
$TDUUPDATE
 40
2456183.977767107
  9
$TDINDWG
 40
0.0052065394
  9
$TDUSRTIMER
 40
0.0052065394
  9
$USRTIMER
 70
     1
  9
$ANGBASE
 50
0.0
  9
$ANGDIR
 70
     0
  9
$PDMODE
 70
     0
  9
$PDSIZE
 40
0.0
  9
$PLINEWID
 40
0.0
  9
$SPLFRAME
 70
     0
  9
$SPLINETYPE
 70
     6
  9
$SPLINESEGS
 70
     8
  9
$HANDSEED
  5
A62
  9
$SURFTAB1
 70
     6
  9
$SURFTAB2
 70
     6
  9
$SURFTYPE
 70
     6
  9
$SURFU
 70
     6
  9
$SURFV
 70
     6
  9
$UCSBASE
  2

  9
$UCSNAME
  2

  9
$UCSORG
 10
0.0
 20
0.0
 30
0.0
  9
$UCSXDIR
 10
1.0
 20
0.0
 30
0.0
  9
$UCSYDIR
 10
0.0
 20
1.0
 30
0.0
  9
$UCSORTHOREF
  2

  9
$UCSORTHOVIEW
 70
     0
  9
$UCSORGTOP
 10
0.0
 20
0.0
 30
0.0
  9
$UCSORGBOTTOM
 10
0.0
 20
0.0
 30
0.0
  9
$UCSORGLEFT
 10
0.0
 20
0.0
 30
0.0
  9
$UCSORGRIGHT
 10
0.0
 20
0.0
 30
0.0
  9
$UCSORGFRONT
 10
0.0
 20
0.0
 30
0.0
  9
$UCSORGBACK
 10
0.0
 20
0.0
 30
0.0
  9
$PUCSBASE
  2

  9
$PUCSNAME
  2

  9
$PUCSORG
 10
0.0
 20
0.0
 30
0.0
  9
$PUCSXDIR
 10
1.0
 20
0.0
 30
0.0
  9
$PUCSYDIR
 10
0.0
 20
1.0
 30
0.0
  9
$PUCSORTHOREF
  2

  9
$PUCSORTHOVIEW
 70
     0
  9
$PUCSORGTOP
 10
0.0
 20
0.0
 30
0.0
  9
$PUCSORGBOTTOM
 10
0.0
 20
0.0
 30
0.0
  9
$PUCSORGLEFT
 10
0.0
 20
0.0
 30
0.0
  9
$PUCSORGRIGHT
 10
0.0
 20
0.0
 30
0.0
  9
$PUCSORGFRONT
 10
0.0
 20
0.0
 30
0.0
  9
$PUCSORGBACK
 10
0.0
 20
0.0
 30
0.0
  9
$USERI1
 70
     0
  9
$USERI2
 70
     0
  9
$USERI3
 70
     0
  9
$USERI4
 70
     0
  9
$USERI5
 70
     0
  9
$USERR1
 40
0.0
  9
$USERR2
 40
0.0
  9
$USERR3
 40
0.0
  9
$USERR4
 40
0.0
  9
$USERR5
 40
0.0
  9
$WORLDVIEW
 70
     1
  9
$SHADEDGE
 70
     3
  9
$SHADEDIF
 70
    70
  9
$TILEMODE
 70
     1
  9
$MAXACTVP
 70
    64
  9
$PINSBASE
 10
0.0
 20
0.0
 30
0.0
  9
$PLIMCHECK
 70
     0
  9
$PEXTMIN
 10
1.000000000000E+20
 20
1.000000000000E+20
 30
1.000000000000E+20
  9
$PEXTMAX
 10
-1.000000000000E+20
 20
-1.000000000000E+20
 30
-1.000000000000E+20
  9
$PLIMMIN
 10
0.0
 20
0.0
  9
$PLIMMAX
 10
12.0
 20
9.0
  9
$UNITMODE
 70
     0
  9
$VISRETAIN
 70
     1
  9
$PLINEGEN
 70
     0
  9
$PSLTSCALE
 70
     1
  9
$TREEDEPTH
 70
  3020
  9
$CMLSTYLE
  2
Standard
  9
$CMLJUST
 70
     0
  9
$CMLSCALE
 40
1.0
  9
$PROXYGRAPHICS
 70
     1
  9
$MEASUREMENT
 70
     0
  9
$CELWEIGHT
370
    -1
  9
$ENDCAPS
280
     0
  9
$JOINSTYLE
280
     0
  9
$LWDISPLAY
290
     0
  9
$INSUNITS
 70
     0
  9
$HYPERLINKBASE
  1

  9
$STYLESHEET
  1

  9
$XEDIT
290
     1
  9
$CEPSNTYPE
380
     0
  9
$PSTYLEMODE
290
     1
  9
$FINGERPRINTGUID
  2
{B3BB0605-971E-4EDF-B727-681F69950F15}
  9
$VERSIONGUID
  2
{FAEB1C32-E019-11D5-929B-00C0DF256EC4}
  9
$EXTNAMES
290
     1
  9
$PSVPSCALE
 40
0.0
  9
$OLESTARTUP
290
     0
  0
ENDSEC
  0
SECTION
  2
CLASSES
  0
CLASS
  1
ACDBDICTIONARYWDFLT
  2
AcDbDictionaryWithDefault
  3
ObjectDBX Classes
 90
        0
280
     0
281
     0
  0
CLASS
  1
SCALE
  2
AcDbScale
  3
ObjectDBX Classes
 90
     1153
280
     0
281
     0
  0
CLASS
  1
DICTIONARYVAR
  2
AcDbDictionaryVar
  3
ObjectDBX Classes
 90
        0
280
     0
281
     0
  0
CLASS
  1
ACDBPLACEHOLDER
  2
AcDbPlaceHolder
  3
ObjectDBX Classes
 90
        0
280
     0
281
     0
  0
CLASS
  1
LAYOUT
  2
AcDbLayout
  3
ObjectDBX Classes
 90
        0
280
     0
281
     0
  0
ENDSEC
  0
SECTION
  2
TABLES
  0
TABLE
  2
VPORT
  5
8
330
0
100
AcDbSymbolTable
 70
     1
  0
VPORT
  5
A35
330
8
100
AcDbSymbolTableRecord
100
AcDbViewportTableRecord
  2
*Active
 70
     0
 10
0.0
 20
0.0
 11
1.0
 21
1.0
 12
24.0
 22
77.5
 13
0.0
 23
0.0
 14
0.5
 24
0.5
 15
0.5
 25
0.5
 16
0.0
 26
0.0
 36
1.0
 17
0.0
 27
0.0
 37
0.0
 40
158.1
 41
1.863448275862
 42
50.0
 43
0.0
 44
0.0
 50
0.0
 51
0.0
 71
    16
 72
   100
 73
     1
 74
     3
 75
     0
 76
     0
 77
     0
 78
     0
281
     0
 65
     1
110
0.0
120
0.0
130
0.0
111
1.0
121
0.0
131
0.0
112
0.0
122
1.0
132
0.0
 79
     0
146
0.0
  0
ENDTAB
  0
TABLE
  2
LTYPE
  5
5
330
0
100
AcDbSymbolTable
 70
     1
  0
LTYPE
  5
14
330
5
100
AcDbSymbolTableRecord
100
AcDbLinetypeTableRecord
  2
ByBlock
 70
     0
  3

 72
    65
 73
     0
 40
0.0
  0
LTYPE
  5
15
330
5
100
AcDbSymbolTableRecord
100
AcDbLinetypeTableRecord
  2
ByLayer
 70
     0
  3

 72
    65
 73
     0
 40
0.0
  0
LTYPE
  5
16
330
5
100
AcDbSymbolTableRecord
100
AcDbLinetypeTableRecord
  2
Continuous
 70
     0
  3
Solid line
 72
    65
 73
     0
 40
0.0
  0
ENDTAB
  0
TABLE
  2
LAYER
  5
2
330
0
100
AcDbSymbolTable
 70
     1
  0
LAYER
  5
10
330
2
100
AcDbSymbolTableRecord
100
AcDbLayerTableRecord
  2
0
 70
     0
 62
     7
  6
Continuous
370
    -3
390
F
  0
ENDTAB
  0
TABLE
  2
STYLE
  5
3
330
0
100
AcDbSymbolTable
 70
     1
  0
STYLE
  5
11
330
3
100
AcDbSymbolTableRecord
100
AcDbTextStyleTableRecord
  2
Standard
 70
     0
 40
0.0
 41
1.0
 50
0.0
 71
     0
 42
0.2
  3
txt
  4

  0
ENDTAB
  0
TABLE
  2
VIEW
  5
6
330
0
100
AcDbSymbolTable
 70
     0
  0
ENDTAB
  0
TABLE
  2
UCS
  5
7
330
0
100
AcDbSymbolTable
 70
     0
  0
ENDTAB
  0
TABLE
  2
APPID
  5
9
330
0
100
AcDbSymbolTable
 70
     1
  0
APPID
  5
12
330
9
100
AcDbSymbolTableRecord
100
AcDbRegAppTableRecord
  2
ACAD
 70
     0
  0
ENDTAB
  0
TABLE
  2
DIMSTYLE
  5
A
330
0
100
AcDbSymbolTable
 70
     1
100
AcDbDimStyleTable
  0
DIMSTYLE
105
20
330
A
100
AcDbSymbolTableRecord
100
AcDbDimStyleTableRecord
  2
Standard
 70
     0
340
11
  0
ENDTAB
  0
TABLE
  2
BLOCK_RECORD
  5
1
330
0
100
AcDbSymbolTable
 70
     0
  0
BLOCK_RECORD
  5
1D
330
1
100
AcDbSymbolTableRecord
100
AcDbBlockTableRecord
  2
*Model_Space
340
1E
  0
BLOCK_RECORD
  5
1B
330
1
100
AcDbSymbolTableRecord
100
AcDbBlockTableRecord
  2
*Paper_Space
340
1C
  0
ENDTAB
  0
ENDSEC
  0
SECTION
  2
BLOCKS
  0
BLOCK
  5
A38
330
1D
100
AcDbEntity
  8
0
100
AcDbBlockBegin
  2
*Model_Space
 70
     0
 10
0.0
 20
0.0
 30
0.0
  3
*Model_Space
  1
*Model_Space
  0
ENDBLK
  5
A39
330
1D
100
AcDbEntity
  8
0
100
AcDbBlockEnd
  0
BLOCK
  5
A36
330
1B
100
AcDbEntity
 67
     1
  8
0
100
AcDbBlockBegin
  2
*Paper_Space
 70
     0
 10
0.0
 20
0.0
 30
0.0
  3
*Paper_Space
  1
*Paper_Space
  0
ENDBLK
  5
A37
330
1B
100
AcDbEntity
 67
     1
  8
0
100
AcDbBlockEnd
  0
ENDSEC
  0
SECTION
  2
ENTITIES
  0
LINE
  5
21
330
1D
100
AcDbEntity
  8
0
100
AcDbLine
 10
0.576
 20
30.0
 30
0.0
 11
1.44
 21
30.0
 31
0.0
  0
LINE
  5
22
330
1D
100
AcDbEntity
  8
0
100
AcDbLine
 10
1.44
 20
30.0
 30
0.0
 11
3.744
 21
30.0
 31
0.0
  0
LINE
  5
23
330
1D
100
AcDbEntity
  8
0
100
AcDbLine
 10
1.44
 20
30.0
 30
0.0
 11
3.744
 21
30.0
 31
0.0
  0
LINE
  5
24
330
1D
100
AcDbEntity
  8
0
100
AcDbLine
 10
3.744
 20
30.0
 30
0.0
 11
7.488
 21
30.0
 31
0.0
  0
LINE
  5
25
330
1D
100
AcDbEntity
  8
0
100
AcDbLine
 10
3.744
 20
30.0
 30
0.0
 11
7.488
 21
30.0
 31
0.0
  0
LINE
  5
26
330
1D
100
AcDbEntity
  8
0
100
AcDbLine
 10
7.488
 20
30.0
 30
0.0
 11
12.384
 21
30.0
 31
0.0
  0
LINE
  5
27
330
1D
100
AcDbEntity
  8
0
100
AcDbLine
 10
12.384
 20
30.0
 30
0.0
 11
17.952
 21
30.0
 31
0.0
  0
LINE
  5
28
330
1D
100
AcDbEntity
  8
0
100
AcDbLine
 10
7.488
 20
30.0
 30
0.0
 11
12.384
 21
30.0
 31
0.0
  0
LINE
  5
29
330
1D
100
AcDbEntity
  8
0
100
AcDbLine
 10
18.3507
 20
0.599795
 30
0.0
 11
18.9683
 21
0.0
 31
0.0
  0
LINE
  5
2A
330
1D
100
AcDbEntity
  8
0
100
AcDbLine
 10
18.3507
 20
0.599795
 30
0.0
 11
18.9683
 21
0.0
 31
0.0
  0
LINE
  5
2B
330
1D
100
AcDbEntity
  8
0
100
AcDbLine
 10
18.9934
 20
0.0
 30
0.0
 11
19.2397
 21
0.0
 31
0.0
  0
LINE
  5
2C
330
1D
100
AcDbEntity
  8
0
100
AcDbLine
 10
18.9683
 20
0.0
 30
0.0
 11
19.1653
 21
0.0
 31
0.0
  0
LINE
  5
2D
330
1D
100
AcDbEntity
  8
0
100
AcDbLine
 10
17.9648
 20
0.998713
 30
0.0
 11
17.9648
 21
10.3866
 31
0.0
  0
LINE
  5
2E
330
1D
100
AcDbEntity
  8
0
100
AcDbLine
 10
17.9648
 20
0.998713
 30
0.0
 11
18.3361
 21
0.614558
 31
0.0
  0
LINE
  5
2F
330
1D
100
AcDbEntity
  8
0
100
AcDbLine
 10
17.9648
 20
0.998713
 30
0.0
 11
18.3362
 21
0.614513
 31
0.0
  0
LINE
  5
30
330
1D
100
AcDbEntity
  8
0
100
AcDbLine
 10
17.9648
 20
10.3866
 30
0.0
 11
18.3361
 21
10.7708
 31
0.0
  0
LINE
  5
31
330
1D
100
AcDbEntity
  8
0
100
AcDbLine
 10
17.9648
 20
10.3866
 30
0.0
 11
17.9648
 21
0.998713
 31
0.0
  0
LINE
  5
32
330
1D
100
AcDbEntity
  8
0
100
AcDbLine
 10
17.9648
 20
10.3866
 30
0.0
 11
18.3362
 21
10.7708
 31
0.0
  0
LINE
  5
33
330
1D
100
AcDbEntity
  8
0
100
AcDbLine
 10
17.9867
 20
10.3866
 30
0.0
 11
17.9867
 21
0.998713
 31
0.0
  0
LINE
  5
34
330
1D
100
AcDbEntity
  8
0
100
AcDbLine
 10
17.9867
 20
10.3866
 30
0.0
 11
18.4168
 21
10.7708
 31
0.0
  0
LINE
  5
35
330
1D
100
AcDbEntity
  8
0
100
AcDbLine
 10
18.1279
 20
0.998713
 30
0.0
 11
18.1929
 21
0.998713
 31
0.0
  0
LINE
  5
36
330
1D
100
AcDbEntity
  8
0
100
AcDbLine
 10
18.1279
 20
0.998713
 30
0.0
 11
18.4291
 21
0.614513
 31
0.0
  0
LINE
  5
37
330
1D
100
AcDbEntity
  8
0
100
AcDbLine
 10
17.9867
 20
0.998713
 30
0.0
 11
18.4168
 21
0.614513
 31
0.0
  0
LINE
  5
38
330
1D
100
AcDbEntity
  8
0
100
AcDbLine
 10
17.9867
 20
0.998713
 30
0.0
 11
17.9867
 21
10.3866
 31
0.0
  0
LINE
  5
39
330
1D
100
AcDbEntity
  8
0
100
AcDbLine
 10
18.1279
 20
10.3866
 30
0.0
 11
18.4291
 21
10.7708
 31
0.0
  0
LINE
  5
3A
330
1D
100
AcDbEntity
  8
0
100
AcDbLine
 10
18.1279
 20
10.3866
 30
0.0
 11
18.1279
 21
0.998706
 31
0.0
  0
LINE
  5
3B
330
1D
100
AcDbEntity
  8
0
100
AcDbLine
 10
18.1279
 20
10.3866
 30
0.0
 11
18.1929
 21
10.3866
 31
0.0
  0
LINE
  5
3C
330
1D
100
AcDbEntity
  8
0
100
AcDbLine
 10
18.1929
 20
10.3866
 30
0.0
 11
18.1929
 21
0.998713
 31
0.0
  0
LINE
  5
3D
330
1D
100
AcDbEntity
  8
0
100
AcDbLine
 10
18.1929
 20
10.3866
 30
0.0
 11
18.6688
 21
10.7708
 31
0.0
  0
LINE
  5
3E
330
1D
100
AcDbEntity
  8
0
100
AcDbLine
 10
18.1929
 20
0.998713
 30
0.0
 11
18.6688
 21
0.614558
 31
0.0
  0
LINE
  5
3F
330
1D
100
AcDbEntity
  8
0
100
AcDbLine
 10
18.1929
 20
0.998713
 30
0.0
 11
18.1929
 21
10.3866
 31
0.0
  0
LINE
  5
40
330
1D
100
AcDbEntity
  8
0
100
AcDbLine
 10
18.1929
 20
0.998713
 30
0.0
 11
18.6688
 21
0.614513
 31
0.0
  0
LINE
  5
41
330
1D
100
AcDbEntity
  8
0
100
AcDbLine
 10
18.5771
 20
0.998713
 30
0.0
 11
19.0843
 21
0.614513
 31
0.0
  0
LINE
  5
42
330
1D
100
AcDbEntity
  8
0
100
AcDbLine
 10
18.471
 20
0.998713
 30
0.0
 11
18.693
 21
0.614558
 31
0.0
  0
LINE
  5
43
330
1D
100
AcDbEntity
  8
0
100
AcDbLine
 10
18.471
 20
0.998713
 30
0.0
 11
18.471
 21
10.3866
 31
0.0
  0
LINE
  5
44
330
1D
100
AcDbEntity
  8
0
100
AcDbLine
 10
18.471
 20
0.998713
 30
0.0
 11
18.5771
 21
0.998706
 31
0.0
  0
LINE
  5
45
330
1D
100
AcDbEntity
  8
0
100
AcDbLine
 10
18.471
 20
0.998713
 30
0.0
 11
18.5771
 21
0.998713
 31
0.0
  0
LINE
  5
46
330
1D
100
AcDbEntity
  8
0
100
AcDbLine
 10
18.471
 20
0.998713
 30
0.0
 11
18.6929
 21
0.614513
 31
0.0
  0
LINE
  5
47
330
1D
100
AcDbEntity
  8
0
100
AcDbLine
 10
18.5771
 20
0.998706
 30
0.0
 11
19.0843
 21
0.614558
 31
0.0
  0
LINE
  5
48
330
1D
100
AcDbEntity
  8
0
100
AcDbLine
 10
18.5771
 20
0.998706
 30
0.0
 11
18.5771
 21
10.3866
 31
0.0
  0
LINE
  5
49
330
1D
100
AcDbEntity
  8
0
100
AcDbLine
 10
18.471
 20
10.3866
 30
0.0
 11
18.693
 21
10.7708
 31
0.0
  0
LINE
  5
4A
330
1D
100
AcDbEntity
  8
0
100
AcDbLine
 10
18.471
 20
10.3866
 30
0.0
 11
18.471
 21
0.998713
 31
0.0
  0
LINE
  5
4B
330
1D
100
AcDbEntity
  8
0
100
AcDbLine
 10
18.471
 20
10.3866
 30
0.0
 11
18.5771
 21
10.3866
 31
0.0
  0
LINE
  5
4C
330
1D
100
AcDbEntity
  8
0
100
AcDbLine
 10
18.471
 20
10.3866
 30
0.0
 11
18.6929
 21
10.7708
 31
0.0
  0
LINE
  5
4D
330
1D
100
AcDbEntity
  8
0
100
AcDbLine
 10
18.5771
 20
10.3866
 30
0.0
 11
18.5771
 21
0.998706
 31
0.0
  0
LINE
  5
4E
330
1D
100
AcDbEntity
  8
0
100
AcDbLine
 10
18.5771
 20
10.3866
 30
0.0
 11
19.0843
 21
10.7708
 31
0.0
  0
LINE
  5
4F
330
1D
100
AcDbEntity
  8
0
100
AcDbLine
 10
18.9838
 20
10.3866
 30
0.0
 11
19.1197
 21
10.7708
 31
0.0
  0
LINE
  5
50
330
1D
100
AcDbEntity
  8
0
100
AcDbLine
 10
18.9838
 20
10.3866
 30
0.0
 11
18.9838
 21
0.998713
 31
0.0
  0
LINE
  5
51
330
1D
100
AcDbEntity
  8
0
100
AcDbLine
 10
18.9838
 20
10.3866
 30
0.0
 11
19.1277
 21
10.3866
 31
0.0
  0
LINE
  5
52
330
1D
100
AcDbEntity
  8
0
100
AcDbLine
 10
18.9838
 20
0.998713
 30
0.0
 11
19.1197
 21
0.614558
 31
0.0
  0
LINE
  5
53
330
1D
100
AcDbEntity
  8
0
100
AcDbLine
 10
18.9838
 20
0.998713
 30
0.0
 11
18.9838
 21
10.3866
 31
0.0
  0
LINE
  5
54
330
1D
100
AcDbEntity
  8
0
100
AcDbLine
 10
18.9838
 20
0.998713
 30
0.0
 11
19.1277
 21
0.998713
 31
0.0
  0
LINE
  5
55
330
1D
100
AcDbEntity
  8
0
100
AcDbLine
 10
18.9838
 20
0.998713
 30
0.0
 11
19.1197
 21
0.614513
 31
0.0
  0
LINE
  5
56
330
1D
100
AcDbEntity
  8
0
100
AcDbLine
 10
18.1279
 20
0.998706
 30
0.0
 11
18.4291
 21
0.614558
 31
0.0
  0
LINE
  5
57
330
1D
100
AcDbEntity
  8
0
100
AcDbLine
 10
18.1279
 20
0.998706
 30
0.0
 11
18.1279
 21
10.3866
 31
0.0
  0
LINE
  5
58
330
1D
100
AcDbEntity
  8
0
100
AcDbLine
 10
18.1279
 20
0.998706
 30
0.0
 11
18.1929
 21
0.998713
 31
0.0
  0
LINE
  5
59
330
1D
100
AcDbEntity
  8
0
100
AcDbLine
 10
18.4378
 20
0.801025335575
 30
0.0
 11
18.6688
 21
0.614558
 31
0.0
  0
LINE
  5
5A
330
1D
100
AcDbEntity
  8
0
100
AcDbLine
 10
19.2397
 20
0.0
 30
0.0
 11
19.6963
 21
0.0
 31
0.0
  0
LINE
  5
5B
330
1D
100
AcDbEntity
  8
0
100
AcDbLine
 10
19.2397
 20
0.0
 30
0.0
 11
19.6964
 21
0.0
 31
0.0
  0
LINE
  5
5C
330
1D
100
AcDbEntity
  8
0
100
AcDbLine
 10
19.5576
 20
0.0
 30
0.0
 11
19.7215
 21
0.0
 31
0.0
  0
LINE
  5
5D
330
1D
100
AcDbEntity
  8
0
100
AcDbLine
 10
19.5576
 20
0.0
 30
0.0
 11
19.6191
 21
0.0
 31
0.0
  0
LINE
  5
5E
330
1D
100
AcDbEntity
  8
0
100
AcDbLine
 10
19.1653
 20
0.0
 30
0.0
 11
19.5759
 21
0.0
 31
0.0
  0
LINE
  5
5F
330
1D
100
AcDbEntity
  8
0
100
AcDbLine
 10
19.1653
 20
0.0
 30
0.0
 11
19.576
 21
0.0
 31
0.0
  0
LINE
  5
60
330
1D
100
AcDbEntity
  8
0
100
AcDbLine
 10
19.5759
 20
0.0
 30
0.0
 11
20.1823
 21
0.0
 31
0.0
  0
LINE
  5
61
330
1D
100
AcDbEntity
  8
0
100
AcDbLine
 10
19.6191
 20
0.0
 30
0.0
 11
19.9027
 21
0.0
 31
0.0
  0
LINE
  5
62
330
1D
100
AcDbEntity
  8
0
100
AcDbLine
 10
19.576
 20
0.0
 30
0.0
 11
20.1823
 21
0.0
 31
0.0
  0
LINE
  5
63
330
1D
100
AcDbEntity
  8
0
100
AcDbLine
 10
19.6964
 20
0.0
 30
0.0
 11
20.3434
 21
0.0
 31
0.0
  0
LINE
  5
64
330
1D
100
AcDbEntity
  8
0
100
AcDbLine
 10
19.6963
 20
0.0
 30
0.0
 11
20.3434
 21
0.0
 31
0.0
  0
LINE
  5
65
330
1D
100
AcDbEntity
  8
0
100
AcDbLine
 10
19.9027
 20
0.0
 30
0.0
 11
20.3946
 21
0.0
 31
0.0
  0
LINE
  5
66
330
1D
100
AcDbEntity
  8
0
100
AcDbLine
 10
19.7215
 20
0.0
 30
0.0
 11
20.1027
 21
0.0
 31
0.0
  0
LINE
  5
67
330
1D
100
AcDbEntity
  8
0
100
AcDbLine
 10
20.1823
 20
0.0
 30
0.0
 11
20.9579
 21
0.0
 31
0.0
  0
LINE
  5
68
330
1D
100
AcDbEntity
  8
0
100
AcDbLine
 10
20.1823
 20
0.0
 30
0.0
 11
20.9577
 21
0.0
 31
0.0
  0
LINE
  5
69
330
1D
100
AcDbEntity
  8
0
100
AcDbLine
 10
20.3434
 20
0.0
 30
0.0
 11
21.1526
 21
0.0
 31
0.0
  0
LINE
  5
6A
330
1D
100
AcDbEntity
  8
0
100
AcDbLine
 10
20.1027
 20
0.0
 30
0.0
 11
20.682
 21
0.0
 31
0.0
  0
LINE
  5
6B
330
1D
100
AcDbEntity
  8
0
100
AcDbLine
 10
19.6506
 20
0.998706
 30
0.0
 11
19.6963
 21
0.614558
 31
0.0
  0
LINE
  5
6C
330
1D
100
AcDbEntity
  8
0
100
AcDbLine
 10
19.6506
 20
0.998706
 30
0.0
 11
19.6506
 21
10.3866
 31
0.0
  0
LINE
  5
6D
330
1D
100
AcDbEntity
  8
0
100
AcDbLine
 10
19.6506
 20
0.998706
 30
0.0
 11
19.828
 21
0.998713
 31
0.0
  0
LINE
  5
6E
330
1D
100
AcDbEntity
  8
0
100
AcDbLine
 10
20.3946
 20
0.0
 30
0.0
 11
21.0699
 21
0.0
 31
0.0
  0
LINE
  5
6F
330
1D
100
AcDbEntity
  8
0
100
AcDbLine
 10
20.4053
 20
0.614558
 30
0.0
 11
20.4511
 21
0.998713
 31
0.0
  0
LINE
  5
70
330
1D
100
AcDbEntity
  8
0
100
AcDbLine
 10
20.4054
 20
0.614513
 30
0.0
 11
20.451
 21
0.998713
 31
0.0
  0
LINE
  5
71
330
1D
100
AcDbEntity
  8
0
100
AcDbLine
 10
20.4053
 20
0.614558
 30
0.0
 11
20.428700953401
 21
0.810833752116
 31
0.0
  0
LINE
  5
72
330
1D
100
AcDbEntity
  8
0
100
AcDbLine
 10
19.6506
 20
0.998713
 30
0.0
 11
19.828
 21
0.998713
 31
0.0
  0
LINE
  5
73
330
1D
100
AcDbEntity
  8
0
100
AcDbLine
 10
19.6506
 20
0.998713
 30
0.0
 11
19.6963
 21
0.614513
 31
0.0
  0
LINE
  5
74
330
1D
100
AcDbEntity
  8
0
100
AcDbLine
 10
19.127700000002
 20
0.998712999998
 30
0.0
 11
19.6509
 21
0.614558
 31
0.0
  0
LINE
  5
75
330
1D
100
AcDbEntity
  8
0
100
AcDbLine
 10
19.1277
 20
10.3866
 30
0.0
 11
19.1277
 21
0.998713
 31
0.0
  0
LINE
  5
76
330
1D
100
AcDbEntity
  8
0
100
AcDbLine
 10
19.1277
 20
10.3866
 30
0.0
 11
19.6509
 21
10.7708
 31
0.0
  0
LINE
  5
77
330
1D
100
AcDbEntity
  8
0
100
AcDbLine
 10
19.1277
 20
10.3866
 30
0.0
 11
19.6508
 21
10.7708
 31
0.0
  0
LINE
  5
78
330
1D
100
AcDbEntity
  8
0
100
AcDbLine
 10
19.1277
 20
0.998713
 30
0.0
 11
19.6509
 21
0.614558
 31
0.0
  0
LINE
  5
79
330
1D
100
AcDbEntity
  8
0
100
AcDbLine
 10
19.1277
 20
0.998713
 30
0.0
 11
19.1277
 21
10.3866
 31
0.0
  0
LINE
  5
7A
330
1D
100
AcDbEntity
  8
0
100
AcDbLine
 10
19.1277
 20
0.998713
 30
0.0
 11
19.6508
 21
0.614513
 31
0.0
  0
LINE
  5
7B
330
1D
100
AcDbEntity
  8
0
100
AcDbLine
 10
19.6506
 20
10.3866
 30
0.0
 11
19.6963
 21
10.7708
 31
0.0
  0
LINE
  5
7C
330
1D
100
AcDbEntity
  8
0
100
AcDbLine
 10
19.6506
 20
10.3866
 30
0.0
 11
19.6506
 21
0.998706
 31
0.0
  0
LINE
  5
7D
330
1D
100
AcDbEntity
  8
0
100
AcDbLine
 10
19.6506
 20
10.3866
 30
0.0
 11
19.828
 21
10.3866
 31
0.0
  0
LINE
  5
7E
330
1D
100
AcDbEntity
  8
0
100
AcDbLine
 10
19.828
 20
10.3866
 30
0.0
 11
19.828
 21
0.998713
 31
0.0
  0
LINE
  5
7F
330
1D
100
AcDbEntity
  8
0
100
AcDbLine
 10
19.828
 20
10.3866
 30
0.0
 11
20.3511
 21
10.7708
 31
0.0
  0
LINE
  5
80
330
1D
100
AcDbEntity
  8
0
100
AcDbLine
 10
19.828
 20
0.998713
 30
0.0
 11
20.3511
 21
0.614558
 31
0.0
  0
LINE
  5
81
330
1D
100
AcDbEntity
  8
0
100
AcDbLine
 10
19.828
 20
0.998713
 30
0.0
 11
19.828
 21
10.3866
 31
0.0
  0
LINE
  5
82
330
1D
100
AcDbEntity
  8
0
100
AcDbLine
 10
19.828
 20
0.998713
 30
0.0
 11
20.3511
 21
0.614513
 31
0.0
  0
LINE
  5
83
330
1D
100
AcDbEntity
  8
0
100
AcDbLine
 10
20.4053
 20
10.7708
 30
0.0
 11
20.4511
 21
10.3866
 31
0.0
  0
LINE
  5
84
330
1D
100
AcDbEntity
  8
0
100
AcDbLine
 10
19.828000000006
 20
0.998712999996
 30
0.0
 11
20.3511
 21
0.614558
 31
0.0
  0
LINE
  5
85
330
1D
100
AcDbEntity
  8
0
100
AcDbLine
 10
20.4054
 20
10.7708
 30
0.0
 11
20.451
 21
10.3866
 31
0.0
  0
LINE
  5
86
330
1D
100
AcDbEntity
  8
0
100
AcDbLine
 10
20.9579
 20
0.0
 30
0.0
 11
21.8686
 21
0.0
 31
0.0
  0
LINE
  5
87
330
1D
100
AcDbEntity
  8
0
100
AcDbLine
 10
20.9577
 20
0.0
 30
0.0
 11
21.8686
 21
0.0
 31
0.0
  0
LINE
  5
88
330
1D
100
AcDbEntity
  8
0
100
AcDbLine
 10
21.1526
 20
0.0
 30
0.0
 11
22.0885
 21
0.0
 31
0.0
  0
LINE
  5
89
330
1D
100
AcDbEntity
  8
0
100
AcDbLine
 10
21.0699
 20
0.0
 30
0.0
 11
21.8948
 21
0.0
 31
0.0
  0
LINE
  5
8A
330
1D
100
AcDbEntity
  8
0
100
AcDbLine
 10
20.682
 20
0.0
 30
0.0
 11
21.4303
 21
0.0
 31
0.0
  0
LINE
  5
8B
330
1D
100
AcDbEntity
  8
0
100
AcDbLine
 10
21.8686
 20
0.0
 30
0.0
 11
22.8749
 21
0.0
 31
0.0
  0
LINE
  5
8C
330
1D
100
AcDbEntity
  8
0
100
AcDbLine
 10
21.8686
 20
0.0
 30
0.0
 11
22.8748
 21
0.0
 31
0.0
  0
LINE
  5
8D
330
1D
100
AcDbEntity
  8
0
100
AcDbLine
 10
22.0885
 20
0.0
 30
0.0
 11
23.1103
 21
0.0
 31
0.0
  0
LINE
  5
8E
330
1D
100
AcDbEntity
  8
0
100
AcDbLine
 10
22.0885
 20
0.0
 30
0.0
 11
23.1103
 21
0.0
 31
0.0
  0
LINE
  5
8F
330
1D
100
AcDbEntity
  8
0
100
AcDbLine
 10
21.8948
 20
0.0
 30
0.0
 11
22.8281
 21
0.0
 31
0.0
  0
LINE
  5
90
330
1D
100
AcDbEntity
  8
0
100
AcDbLine
 10
21.4303
 20
0.0
 30
0.0
 11
22.3101
 21
0.0
 31
0.0
  0
LINE
  5
91
330
1D
100
AcDbEntity
  8
0
100
AcDbLine
 10
22.8749
 20
0.0
 30
0.0
 11
23.9325
 21
0.0
 31
0.0
  0
LINE
  5
92
330
1D
100
AcDbEntity
  8
0
100
AcDbLine
 10
22.8748
 20
0.0
 30
0.0
 11
23.9325
 21
0.0
 31
0.0
  0
LINE
  5
93
330
1D
100
AcDbEntity
  8
0
100
AcDbLine
 10
23.1103
 20
0.0
 30
0.0
 11
24.1732
 21
0.0
 31
0.0
  0
LINE
  5
94
330
1D
100
AcDbEntity
  8
0
100
AcDbLine
 10
23.8226
 20
0.0
 30
0.0
 11
24.8287
 21
0.0
 31
0.0
  0
LINE
  5
95
330
1D
100
AcDbEntity
  8
0
100
AcDbLine
 10
23.1103
 20
0.0
 30
0.0
 11
24.1732
 21
0.0
 31
0.0
  0
LINE
  5
96
330
1D
100
AcDbEntity
  8
0
100
AcDbLine
 10
22.8281
 20
0.0
 30
0.0
 11
23.8226
 21
0.0
 31
0.0
  0
LINE
  5
97
330
1D
100
AcDbEntity
  8
0
100
AcDbLine
 10
22.3101
 20
0.0
 30
0.0
 11
23.2771
 21
0.0
 31
0.0
  0
LINE
  5
98
330
1D
100
AcDbEntity
  8
0
100
AcDbLine
 10
23.2771
 20
0.0
 30
0.0
 11
24.2833
 21
0.0
 31
0.0
  0
LINE
  5
99
330
1D
100
AcDbEntity
  8
0
100
AcDbLine
 10
23.9325
 20
0.0
 30
0.0
 11
24.9955
 21
0.0
 31
0.0
  0
LINE
  5
9A
330
1D
100
AcDbEntity
  8
0
100
AcDbLine
 10
23.9325
 20
0.0
 30
0.0
 11
24.9955
 21
0.0
 31
0.0
  0
LINE
  5
9B
330
1D
100
AcDbEntity
  8
0
100
AcDbLine
 10
24.9955
 20
0.0
 30
0.0
 11
26.0173
 21
0.0
 31
0.0
  0
LINE
  5
9C
330
1D
100
AcDbEntity
  8
0
100
AcDbLine
 10
24.8287
 20
0.0
 30
0.0
 11
25.7957
 21
0.0
 31
0.0
  0
LINE
  5
9D
330
1D
100
AcDbEntity
  8
0
100
AcDbLine
 10
24.2833
 20
0.0
 30
0.0
 11
25.2778
 21
0.0
 31
0.0
  0
LINE
  5
9E
330
1D
100
AcDbEntity
  8
0
100
AcDbLine
 10
24.9955
 20
0.0
 30
0.0
 11
26.0173
 21
0.0
 31
0.0
  0
LINE
  5
9F
330
1D
100
AcDbEntity
  8
0
100
AcDbLine
 10
24.1732
 20
0.0
 30
0.0
 11
25.2311
 21
0.0
 31
0.0
  0
LINE
  5
A0
330
1D
100
AcDbEntity
  8
0
100
AcDbLine
 10
24.1732
 20
0.0
 30
0.0
 11
25.231
 21
0.0
 31
0.0
  0
LINE
  5
A1
330
1D
100
AcDbEntity
  8
0
100
AcDbLine
 10
25.231
 20
0.0
 30
0.0
 11
26.2372
 21
0.0
 31
0.0
  0
LINE
  5
A2
330
1D
100
AcDbEntity
  8
0
100
AcDbLine
 10
25.2778
 20
0.0
 30
0.0
 11
26.211
 21
0.0
 31
0.0
  0
LINE
  5
A3
330
1D
100
AcDbEntity
  8
0
100
AcDbLine
 10
26.211
 20
0.0
 30
0.0
 11
27.0359
 21
0.0
 31
0.0
  0
LINE
  5
A4
330
1D
100
AcDbEntity
  8
0
100
AcDbLine
 10
26.2372
 20
0.0
 30
0.0
 11
27.1479
 21
0.0
 31
0.0
  0
LINE
  5
A5
330
1D
100
AcDbEntity
  8
0
100
AcDbLine
 10
26.2372
 20
0.0
 30
0.0
 11
27.1481
 21
0.0
 31
0.0
  0
LINE
  5
A6
330
1D
100
AcDbEntity
  8
0
100
AcDbLine
 10
26.6756
 20
0.0
 30
0.0
 11
27.4238
 21
0.0
 31
0.0
  0
LINE
  5
A7
330
1D
100
AcDbEntity
  8
0
100
AcDbLine
 10
25.7957
 20
0.0
 30
0.0
 11
26.6756
 21
0.0
 31
0.0
  0
LINE
  5
A8
330
1D
100
AcDbEntity
  8
0
100
AcDbLine
 10
26.0173
 20
0.0
 30
0.0
 11
26.9532
 21
0.0
 31
0.0
  0
LINE
  5
A9
330
1D
100
AcDbEntity
  8
0
100
AcDbLine
 10
25.2311
 20
0.0
 30
0.0
 11
26.2372
 21
0.0
 31
0.0
  0
LINE
  5
AA
330
1D
100
AcDbEntity
  8
0
100
AcDbLine
 10
26.9532
 20
0.0
 30
0.0
 11
27.7624
 21
0.0
 31
0.0
  0
LINE
  5
AB
330
1D
100
AcDbEntity
  8
0
100
AcDbLine
 10
27.1479
 20
0.0
 30
0.0
 11
27.9236
 21
0.0
 31
0.0
  0
LINE
  5
AC
330
1D
100
AcDbEntity
  8
0
100
AcDbLine
 10
27.1481
 20
0.0
 30
0.0
 11
27.9235
 21
0.0
 31
0.0
  0
LINE
  5
AD
330
1D
100
AcDbEntity
  8
0
100
AcDbLine
 10
27.0359
 20
0.0
 30
0.0
 11
27.7112
 21
0.0
 31
0.0
  0
LINE
  5
AE
330
1D
100
AcDbEntity
  8
0
100
AcDbLine
 10
27.7112
 20
0.0
 30
0.0
 11
28.2031
 21
0.0
 31
0.0
  0
LINE
  5
AF
330
1D
100
AcDbEntity
  8
0
100
AcDbLine
 10
27.4238
 20
0.0
 30
0.0
 11
28.0031
 21
0.0
 31
0.0
  0
LINE
  5
B0
330
1D
100
AcDbEntity
  8
0
100
AcDbLine
 10
27.7624
 20
0.0
 30
0.0
 11
28.4095
 21
0.0
 31
0.0
  0
LINE
  5
B1
330
1D
100
AcDbEntity
  8
0
100
AcDbLine
 10
27.7624
 20
0.0
 30
0.0
 11
28.4094
 21
0.0
 31
0.0
  0
LINE
  5
B2
330
1D
100
AcDbEntity
  8
0
100
AcDbLine
 10
28.2031
 20
0.0
 30
0.0
 11
28.4868
 21
0.0
 31
0.0
  0
LINE
  5
B3
330
1D
100
AcDbEntity
  8
0
100
AcDbLine
 10
28.4094
 20
0.0
 30
0.0
 11
28.8661
 21
0.0
 31
0.0
  0
LINE
  5
B4
330
1D
100
AcDbEntity
  8
0
100
AcDbLine
 10
28.3843
 20
0.0
 30
0.0
 11
28.5482
 21
0.0
 31
0.0
  0
LINE
  5
B5
330
1D
100
AcDbEntity
  8
0
100
AcDbLine
 10
27.9236
 20
0.0
 30
0.0
 11
28.5298
 21
0.0
 31
0.0
  0
LINE
  5
B6
330
1D
100
AcDbEntity
  8
0
100
AcDbLine
 10
28.0031
 20
0.0
 30
0.0
 11
28.3843
 21
0.0
 31
0.0
  0
LINE
  5
B7
330
1D
100
AcDbEntity
  8
0
100
AcDbLine
 10
27.9235
 20
0.0
 30
0.0
 11
28.5299
 21
0.0
 31
0.0
  0
LINE
  5
B8
330
1D
100
AcDbEntity
  8
0
100
AcDbLine
 10
21.2251
 20
0.614513
 30
0.0
 11
21.3611
 21
0.998713
 31
0.0
  0
LINE
  5
B9
330
1D
100
AcDbEntity
  8
0
100
AcDbLine
 10
22.1309
 20
0.614513
 30
0.0
 11
22.3528
 21
0.998713
 31
0.0
  0
LINE
  5
BA
330
1D
100
AcDbEntity
  8
0
100
AcDbLine
 10
21.2251
 20
0.614513
 30
0.0
 11
21.3611
 21
0.998713
 31
0.0
  0
LINE
  5
BB
330
1D
100
AcDbEntity
  8
0
100
AcDbLine
 10
25.0804
 20
0.614513
 30
0.0
 11
25.5106
 21
0.998713
 31
0.0
  0
LINE
  5
BC
330
1D
100
AcDbEntity
  8
0
100
AcDbLine
 10
26.0414
 20
0.614513
 30
0.0
 11
26.5174
 21
0.998713
 31
0.0
  0
LINE
  5
BD
330
1D
100
AcDbEntity
  8
0
100
AcDbLine
 10
23.0951
 20
0.614513
 30
0.0
 11
23.396294514308
 21
0.998706002646
 31
0.0
  0
LINE
  5
BE
330
1D
100
AcDbEntity
  8
0
100
AcDbLine
 10
22.1309
 20
0.614513
 30
0.0
 11
22.3528
 21
0.998713
 31
0.0
  0
LINE
  5
BF
330
1D
100
AcDbEntity
  8
0
100
AcDbLine
 10
27.7547
 20
0.614513
 30
0.0
 11
28.27789999463
 21
0.998712996057
 31
0.0
  0
LINE
  5
C0
330
1D
100
AcDbEntity
  8
0
100
AcDbLine
 10
26.9419
 20
0.614513
 30
0.0
 11
27.130957135398
 21
0.757722289077
 31
0.0
  0
LINE
  5
C1
330
1D
100
AcDbEntity
  8
0
100
AcDbLine
 10
26.0414
 20
0.614513
 30
0.0
 11
26.5173
 21
0.998706
 31
0.0
  0
LINE
  5
C2
330
1D
100
AcDbEntity
  8
0
100
AcDbLine
 10
26.9419
 20
0.614513
 30
0.0
 11
27.4491
 21
0.998713
 31
0.0
  0
LINE
  5
C3
330
1D
100
AcDbEntity
  8
0
100
AcDbLine
 10
28.4095
 20
0.0
 30
0.0
 11
28.8661
 21
0.0
 31
0.0
  0
LINE
  5
C4
330
1D
100
AcDbEntity
  8
0
100
AcDbLine
 10
28.8661
 20
0.0
 30
0.0
 11
29.1124
 21
0.0
 31
0.0
  0
LINE
  5
C5
330
1D
100
AcDbEntity
  8
0
100
AcDbLine
 10
28.4868
 20
0.0
 30
0.0
 11
28.5482
 21
0.0
 31
0.0
  0
LINE
  5
C6
330
1D
100
AcDbEntity
  8
0
100
AcDbLine
 10
28.9405
 20
0.0
 30
0.0
 11
29.1375
 21
0.0
 31
0.0
  0
LINE
  5
C7
330
1D
100
AcDbEntity
  8
0
100
AcDbLine
 10
28.5298
 20
0.0
 30
0.0
 11
28.9405
 21
0.0
 31
0.0
  0
LINE
  5
C8
330
1D
100
AcDbEntity
  8
0
100
AcDbLine
 10
28.5299
 20
0.0
 30
0.0
 11
28.9405
 21
0.0
 31
0.0
  0
LINE
  5
C9
330
1D
100
AcDbEntity
  8
0
100
AcDbLine
 10
29.1375
 20
0.0
 30
0.0
 11
29.7551
 21
0.599795
 31
0.0
  0
LINE
  5
CA
330
1D
100
AcDbEntity
  8
0
100
AcDbLine
 10
29.1375
 20
0.0
 30
0.0
 11
29.7551
 21
0.599795
 31
0.0
  0
LINE
  5
CB
330
1D
100
AcDbEntity
  8
0
100
AcDbLine
 10
28.455
 20
0.614513
 30
0.0
 11
28.9782
 21
0.998713
 31
0.0
  0
LINE
  5
CC
330
1D
100
AcDbEntity
  8
0
100
AcDbLine
 10
28.455
 20
0.614513
 30
0.0
 11
28.9781
 21
0.998713
 31
0.0
  0
LINE
  5
CD
330
1D
100
AcDbEntity
  8
0
100
AcDbLine
 10
28.9862
 20
0.614513
 30
0.0
 11
29.122
 21
0.998713
 31
0.0
  0
LINE
  5
CE
330
1D
100
AcDbEntity
  8
0
100
AcDbLine
 10
29.437
 20
0.614513
 30
0.0
 11
29.913
 21
0.998713
 31
0.0
  0
LINE
  5
CF
330
1D
100
AcDbEntity
  8
0
100
AcDbLine
 10
29.6767
 20
0.614513
 30
0.0
 11
29.9779
 21
0.998713
 31
0.0
  0
LINE
  5
D0
330
1D
100
AcDbEntity
  8
0
100
AcDbLine
 10
29.437
 20
0.614513
 30
0.0
 11
29.668
 21
0.800963
 31
0.0
  0
LINE
  5
D1
330
1D
100
AcDbEntity
  8
0
100
AcDbLine
 10
29.0215
 20
0.614513
 30
0.0
 11
29.1608
 21
0.717854
 31
0.0
  0
LINE
  5
D2
330
1D
100
AcDbEntity
  8
0
100
AcDbLine
 10
29.4129
 20
0.614513
 30
0.0
 11
29.6348
 21
0.998713
 31
0.0
  0
LINE
  5
D3
330
1D
100
AcDbEntity
  8
0
100
AcDbLine
 10
28.4094
 20
0.614513
 30
0.0
 11
28.4552
 21
0.998713
 31
0.0
  0
LINE
  5
D4
330
1D
100
AcDbEntity
  8
0
100
AcDbLine
 10
20.451
 20
0.998713
 30
0.0
 11
20.6567
 21
0.998713
 31
0.0
  0
LINE
  5
D5
330
1D
100
AcDbEntity
  8
0
100
AcDbLine
 10
24.0882
 20
0.614513
 30
0.0
 11
24.4596
 21
0.998713
 31
0.0
  0
LINE
  5
D6
330
1D
100
AcDbEntity
  8
0
100
AcDbLine
 10
23.0951
 20
0.614513
 30
0.0
 11
23.3963
 21
0.998713
 31
0.0
  0
LINE
  5
D7
330
1D
100
AcDbEntity
  8
0
100
AcDbLine
 10
25.0804
 20
0.614513
 30
0.0
 11
25.5106
 21
0.998713
 31
0.0
  0
LINE
  5
D8
330
1D
100
AcDbEntity
  8
0
100
AcDbLine
 10
25.0804
 20
0.614558
 30
0.0
 11
25.5106
 21
0.998713
 31
0.0
  0
LINE
  5
D9
330
1D
100
AcDbEntity
  8
0
100
AcDbLine
 10
26.9419
 20
0.614558
 30
0.0
 11
27.120597776352
 21
0.749875156298
 31
0.0
  0
LINE
  5
DA
330
1D
100
AcDbEntity
  8
0
100
AcDbLine
 10
22.1309
 20
0.614558
 30
0.0
 11
22.322928846151
 21
0.946993769226
 31
0.0
  0
LINE
  5
DB
330
1D
100
AcDbEntity
  8
0
100
AcDbLine
 10
22.1309
 20
0.614558
 30
0.0
 11
22.3528
 21
0.998713
 31
0.0
  0
LINE
  5
DC
330
1D
100
AcDbEntity
  8
0
100
AcDbLine
 10
26.0414
 20
0.614558
 30
0.0
 11
26.5173
 21
0.998713
 31
0.0
  0
LINE
  5
DD
330
1D
100
AcDbEntity
  8
0
100
AcDbLine
 10
26.9419
 20
0.614558
 30
0.0
 11
27.4492
 21
0.998713
 31
0.0
  0
LINE
  5
DE
330
1D
100
AcDbEntity
  8
0
100
AcDbLine
 10
21.2251
 20
0.614558
 30
0.0
 11
21.3611
 21
0.998713
 31
0.0
  0
LINE
  5
DF
330
1D
100
AcDbEntity
  8
0
100
AcDbLine
 10
20.6567
 20
0.998713
 30
0.0
 11
21.1639
 21
0.614513
 31
0.0
  0
LINE
  5
E0
330
1D
100
AcDbEntity
  8
0
100
AcDbLine
 10
20.985202223651
 20
0.749875156296
 30
0.0
 11
21.1639
 21
0.614558
 31
0.0
  0
LINE
  5
E1
330
1D
100
AcDbEntity
  8
0
100
AcDbLine
 10
21.8940366204
 20
0.752049479181
 30
0.0
 11
22.0644
 21
0.614558
 31
0.0
  0
LINE
  5
E2
330
1D
100
AcDbEntity
  8
0
100
AcDbLine
 10
23.095
 20
0.614558
 30
0.0
 11
23.3962
 21
0.998706
 31
0.0
  0
LINE
  5
E3
330
1D
100
AcDbEntity
  8
0
100
AcDbLine
 10
24.0883
 20
0.614558
 30
0.0
 11
24.4596
 21
0.998713
 31
0.0
  0
LINE
  5
E4
330
1D
100
AcDbEntity
  8
0
100
AcDbLine
 10
25.0804
 20
0.614558
 30
0.0
 11
25.5106
 21
0.998713
 31
0.0
  0
LINE
  5
E5
330
1D
100
AcDbEntity
  8
0
100
AcDbLine
 10
23.3962
 20
0.998706
 30
0.0
 11
23.3962
 21
10.3866
 31
0.0
  0
LINE
  5
E6
330
1D
100
AcDbEntity
  8
0
100
AcDbLine
 10
23.3962
 20
0.998706
 30
0.0
 11
23.6462
 21
0.998713
 31
0.0
  0
LINE
  5
E7
330
1D
100
AcDbEntity
  8
0
100
AcDbLine
 10
26.7448
 20
0.998706
 30
0.0
 11
26.8807
 21
0.614558
 31
0.0
  0
LINE
  5
E8
330
1D
100
AcDbEntity
  8
0
100
AcDbLine
 10
26.7448
 20
0.998706
 30
0.0
 11
26.7448
 21
10.3866
 31
0.0
  0
LINE
  5
E9
330
1D
100
AcDbEntity
  8
0
100
AcDbLine
 10
24.721339499087
 20
0.983733539524
 30
0.0
 11
25.0108
 21
0.614558
 31
0.0
  0
LINE
  5
EA
330
1D
100
AcDbEntity
  8
0
100
AcDbLine
 10
23.696182692313
 20
0.946993769226
 30
0.0
 11
24.0175
 21
0.614558
 31
0.0
  0
LINE
  5
EB
330
1D
100
AcDbEntity
  8
0
100
AcDbLine
 10
22.595200000007
 20
0.998712999993
 30
0.0
 11
23.0254
 21
0.614558
 31
0.0
  0
LINE
  5
EC
330
1D
100
AcDbEntity
  8
0
100
AcDbLine
 10
21.5885
 20
0.998713
 30
0.0
 11
22.0644
 21
0.614558
 31
0.0
  0
LINE
  5
ED
330
1D
100
AcDbEntity
  8
0
100
AcDbLine
 10
21.5885
 20
0.998713
 30
0.0
 11
21.5885
 21
10.3866
 31
0.0
  0
LINE
  5
EE
330
1D
100
AcDbEntity
  8
0
100
AcDbLine
 10
21.5885
 20
0.998713
 30
0.0
 11
22.0644
 21
0.614513
 31
0.0
  0
LINE
  5
EF
330
1D
100
AcDbEntity
  8
0
100
AcDbLine
 10
26.5174
 20
0.998713
 30
0.0
 11
26.7448
 21
0.998713
 31
0.0
  0
LINE
  5
F0
330
1D
100
AcDbEntity
  8
0
100
AcDbLine
 10
26.7448
 20
0.998713
 30
0.0
 11
26.8808
 21
0.614513
 31
0.0
  0
LINE
  5
F1
330
1D
100
AcDbEntity
  8
0
100
AcDbLine
 10
26.5173
 20
0.998713
 30
0.0
 11
26.5173
 21
10.3866
 31
0.0
  0
LINE
  5
F2
330
1D
100
AcDbEntity
  8
0
100
AcDbLine
 10
26.5173
 20
0.998713
 30
0.0
 11
26.7448
 21
0.998706
 31
0.0
  0
LINE
  5
F3
330
1D
100
AcDbEntity
  8
0
100
AcDbLine
 10
27.4492
 20
0.998713
 30
0.0
 11
27.4492
 21
10.3866
 31
0.0
  0
LINE
  5
F4
330
1D
100
AcDbEntity
  8
0
100
AcDbLine
 10
27.4492
 20
0.998713
 30
0.0
 11
27.6547
 21
0.998713
 31
0.0
  0
LINE
  5
F5
330
1D
100
AcDbEntity
  8
0
100
AcDbLine
 10
21.588500000007
 20
0.998712999994
 30
0.0
 11
22.0644
 21
0.614558
 31
0.0
  0
LINE
  5
F6
330
1D
100
AcDbEntity
  8
0
100
AcDbLine
 10
21.3611
 20
0.998713
 30
0.0
 11
21.3611
 21
10.3866
 31
0.0
  0
LINE
  5
F7
330
1D
100
AcDbEntity
  8
0
100
AcDbLine
 10
21.3611
 20
0.998713
 30
0.0
 11
21.5885
 21
0.998713
 31
0.0
  0
LINE
  5
F8
330
1D
100
AcDbEntity
  8
0
100
AcDbLine
 10
21.2251
 20
0.614558
 30
0.0
 11
21.3611
 21
0.998713
 31
0.0
  0
LINE
  5
F9
330
1D
100
AcDbEntity
  8
0
100
AcDbLine
 10
20.6566
 20
0.998713
 30
0.0
 11
20.6566
 21
10.3866
 31
0.0
  0
LINE
  5
FA
330
1D
100
AcDbEntity
  8
0
100
AcDbLine
 10
20.6566
 20
0.998713
 30
0.0
 11
21.1639
 21
0.614558
 31
0.0
  0
LINE
  5
FB
330
1D
100
AcDbEntity
  8
0
100
AcDbLine
 10
20.4511
 20
0.998713
 30
0.0
 11
20.6566
 21
0.998713
 31
0.0
  0
LINE
  5
FC
330
1D
100
AcDbEntity
  8
0
100
AcDbLine
 10
20.4511
 20
0.998713
 30
0.0
 11
20.4511
 21
10.3866
 31
0.0
  0
LINE
  5
FD
330
1D
100
AcDbEntity
  8
0
100
AcDbLine
 10
27.7547
 20
0.614558
 30
0.0
 11
28.2778
 21
0.998706
 31
0.0
  0
LINE
  5
FE
330
1D
100
AcDbEntity
  8
0
100
AcDbLine
 10
27.677004365462
 20
0.811631482229
 30
0.0
 11
27.7004
 21
0.614513
 31
0.0
  0
LINE
  5
FF
330
1D
100
AcDbEntity
  8
0
100
AcDbLine
 10
27.6547
 20
0.998713
 30
0.0
 11
27.7005
 21
0.614558
 31
0.0
  0
LINE
  5
100
330
1D
100
AcDbEntity
  8
0
100
AcDbLine
 10
28.2778
 20
0.998713
 30
0.0
 11
28.2778
 21
10.3866
 31
0.0
  0
LINE
  5
101
330
1D
100
AcDbEntity
  8
0
100
AcDbLine
 10
28.2778
 20
0.998713
 30
0.0
 11
28.4553
 21
0.998706
 31
0.0
  0
LINE
  5
102
330
1D
100
AcDbEntity
  8
0
100
AcDbLine
 10
27.7547
 20
0.614558
 30
0.0
 11
28.2778
 21
0.998713
 31
0.0
  0
LINE
  5
103
330
1D
100
AcDbEntity
  8
0
100
AcDbLine
 10
27.6547
 20
0.998713
 30
0.0
 11
27.7004
 21
0.614513
 31
0.0
  0
LINE
  5
104
330
1D
100
AcDbEntity
  8
0
100
AcDbLine
 10
27.6547
 20
0.998713
 30
0.0
 11
27.7005
 21
0.614558
 31
0.0
  0
LINE
  5
105
330
1D
100
AcDbEntity
  8
0
100
AcDbLine
 10
27.6547
 20
0.998713
 30
0.0
 11
27.6547
 21
10.3866
 31
0.0
  0
LINE
  5
106
330
1D
100
AcDbEntity
  8
0
100
AcDbLine
 10
20.451
 20
10.3866
 30
0.0
 11
20.6567
 21
10.3866
 31
0.0
  0
LINE
  5
107
330
1D
100
AcDbEntity
  8
0
100
AcDbLine
 10
22.3528
 20
0.998713
 30
0.0
 11
22.3528
 21
10.3866
 31
0.0
  0
LINE
  5
108
330
1D
100
AcDbEntity
  8
0
100
AcDbLine
 10
22.3528
 20
0.998713
 30
0.0
 11
22.5952
 21
0.998713
 31
0.0
  0
LINE
  5
109
330
1D
100
AcDbEntity
  8
0
100
AcDbLine
 10
23.3963
 20
0.998713
 30
0.0
 11
23.6462
 21
0.998713
 31
0.0
  0
LINE
  5
10A
330
1D
100
AcDbEntity
  8
0
100
AcDbLine
 10
22.5952
 20
0.998713
 30
0.0
 11
23.0254
 21
0.614558
 31
0.0
  0
LINE
  5
10B
330
1D
100
AcDbEntity
  8
0
100
AcDbLine
 10
22.5952
 20
0.998713
 30
0.0
 11
22.5952
 21
10.3866
 31
0.0
  0
LINE
  5
10C
330
1D
100
AcDbEntity
  8
0
100
AcDbLine
 10
22.5952
 20
0.998713
 30
0.0
 11
23.0254
 21
0.614513
 31
0.0
  0
LINE
  5
10D
330
1D
100
AcDbEntity
  8
0
100
AcDbLine
 10
23.6462
 20
0.998713
 30
0.0
 11
24.0175
 21
0.614558
 31
0.0
  0
LINE
  5
10E
330
1D
100
AcDbEntity
  8
0
100
AcDbLine
 10
23.6462
 20
0.998713
 30
0.0
 11
23.6462
 21
10.3866
 31
0.0
  0
LINE
  5
10F
330
1D
100
AcDbEntity
  8
0
100
AcDbLine
 10
23.6462
 20
0.998713
 30
0.0
 11
24.0175
 21
0.614513
 31
0.0
  0
LINE
  5
110
330
1D
100
AcDbEntity
  8
0
100
AcDbLine
 10
24.4596
 20
0.998713
 30
0.0
 11
24.4596
 21
10.3866
 31
0.0
  0
LINE
  5
111
330
1D
100
AcDbEntity
  8
0
100
AcDbLine
 10
24.4596
 20
0.998713
 30
0.0
 11
24.7096
 21
0.998713
 31
0.0
  0
LINE
  5
112
330
1D
100
AcDbEntity
  8
0
100
AcDbLine
 10
20.6567
 20
10.3866
 30
0.0
 11
21.1639
 21
10.7708
 31
0.0
  0
LINE
  5
113
330
1D
100
AcDbEntity
  8
0
100
AcDbLine
 10
21.3611
 20
10.3866
 30
0.0
 11
21.3611
 21
0.998713
 31
0.0
  0
LINE
  5
114
330
1D
100
AcDbEntity
  8
0
100
AcDbLine
 10
21.3611
 20
10.3866
 30
0.0
 11
21.5885
 21
10.3866
 31
0.0
  0
LINE
  5
115
330
1D
100
AcDbEntity
  8
0
100
AcDbLine
 10
23.3963
 20
10.3866
 30
0.0
 11
23.6462
 21
10.3866
 31
0.0
  0
LINE
  5
116
330
1D
100
AcDbEntity
  8
0
100
AcDbLine
 10
22.3528
 20
10.3866
 30
0.0
 11
22.3528
 21
0.998713
 31
0.0
  0
LINE
  5
117
330
1D
100
AcDbEntity
  8
0
100
AcDbLine
 10
22.3528
 20
10.3866
 30
0.0
 11
22.5952
 21
10.3866
 31
0.0
  0
LINE
  5
118
330
1D
100
AcDbEntity
  8
0
100
AcDbLine
 10
23.3962
 20
10.3866
 30
0.0
 11
23.3962
 21
0.998706
 31
0.0
  0
LINE
  5
119
330
1D
100
AcDbEntity
  8
0
100
AcDbLine
 10
23.3962
 20
10.3866
 30
0.0
 11
23.6462
 21
10.3866
 31
0.0
  0
LINE
  5
11A
330
1D
100
AcDbEntity
  8
0
100
AcDbLine
 10
21.5885
 20
10.3866
 30
0.0
 11
21.5885
 21
0.998713
 31
0.0
  0
LINE
  5
11B
330
1D
100
AcDbEntity
  8
0
100
AcDbLine
 10
21.5885
 20
10.3866
 30
0.0
 11
22.0644
 21
10.7708
 31
0.0
  0
LINE
  5
11C
330
1D
100
AcDbEntity
  8
0
100
AcDbLine
 10
22.5952
 20
10.3866
 30
0.0
 11
22.5952
 21
0.998713
 31
0.0
  0
LINE
  5
11D
330
1D
100
AcDbEntity
  8
0
100
AcDbLine
 10
22.5952
 20
10.3866
 30
0.0
 11
23.0254
 21
10.7708
 31
0.0
  0
LINE
  5
11E
330
1D
100
AcDbEntity
  8
0
100
AcDbLine
 10
24.4596
 20
10.3866
 30
0.0
 11
24.4596
 21
0.998713
 31
0.0
  0
LINE
  5
11F
330
1D
100
AcDbEntity
  8
0
100
AcDbLine
 10
24.4596
 20
10.3866
 30
0.0
 11
24.7096
 21
10.3866
 31
0.0
  0
LINE
  5
120
330
1D
100
AcDbEntity
  8
0
100
AcDbLine
 10
23.6462
 20
10.3866
 30
0.0
 11
23.6462
 21
0.998713
 31
0.0
  0
LINE
  5
121
330
1D
100
AcDbEntity
  8
0
100
AcDbLine
 10
23.6462
 20
10.3866
 30
0.0
 11
24.0175
 21
10.7708
 31
0.0
  0
LINE
  5
122
330
1D
100
AcDbEntity
  8
0
100
AcDbLine
 10
24.7096
 20
0.998713
 30
0.0
 11
25.0108
 21
0.614558
 31
0.0
  0
LINE
  5
123
330
1D
100
AcDbEntity
  8
0
100
AcDbLine
 10
24.7096
 20
0.998713
 30
0.0
 11
24.7096
 21
10.3866
 31
0.0
  0
LINE
  5
124
330
1D
100
AcDbEntity
  8
0
100
AcDbLine
 10
24.7096
 20
0.998713
 30
0.0
 11
25.0107
 21
0.614513
 31
0.0
  0
LINE
  5
125
330
1D
100
AcDbEntity
  8
0
100
AcDbLine
 10
25.5106
 20
10.3866
 30
0.0
 11
25.5106
 21
0.998713
 31
0.0
  0
LINE
  5
126
330
1D
100
AcDbEntity
  8
0
100
AcDbLine
 10
25.5106
 20
10.3866
 30
0.0
 11
25.753
 21
10.3866
 31
0.0
  0
LINE
  5
127
330
1D
100
AcDbEntity
  8
0
100
AcDbLine
 10
25.5106
 20
0.998713
 30
0.0
 11
25.5106
 21
10.3866
 31
0.0
  0
LINE
  5
128
330
1D
100
AcDbEntity
  8
0
100
AcDbLine
 10
25.5106
 20
0.998713
 30
0.0
 11
25.753
 21
0.998713
 31
0.0
  0
LINE
  5
129
330
1D
100
AcDbEntity
  8
0
100
AcDbLine
 10
25.753
 20
10.3866
 30
0.0
 11
25.753
 21
0.998713
 31
0.0
  0
LINE
  5
12A
330
1D
100
AcDbEntity
  8
0
100
AcDbLine
 10
25.753
 20
10.3866
 30
0.0
 11
25.9749
 21
10.7708
 31
0.0
  0
LINE
  5
12B
330
1D
100
AcDbEntity
  8
0
100
AcDbLine
 10
25.753
 20
10.3866
 30
0.0
 11
25.975
 21
10.7708
 31
0.0
  0
LINE
  5
12C
330
1D
100
AcDbEntity
  8
0
100
AcDbLine
 10
26.5174
 20
10.3866
 30
0.0
 11
26.7448
 21
10.3866
 31
0.0
  0
LINE
  5
12D
330
1D
100
AcDbEntity
  8
0
100
AcDbLine
 10
26.5173
 20
10.3866
 30
0.0
 11
26.5173
 21
0.998713
 31
0.0
  0
LINE
  5
12E
330
1D
100
AcDbEntity
  8
0
100
AcDbLine
 10
26.5173
 20
10.3866
 30
0.0
 11
26.7448
 21
10.3866
 31
0.0
  0
LINE
  5
12F
330
1D
100
AcDbEntity
  8
0
100
AcDbLine
 10
27.4492
 20
10.3866
 30
0.0
 11
27.4492
 21
0.998713
 31
0.0
  0
LINE
  5
130
330
1D
100
AcDbEntity
  8
0
100
AcDbLine
 10
27.4492
 20
10.3866
 30
0.0
 11
27.6547
 21
10.3866
 31
0.0
  0
LINE
  5
131
330
1D
100
AcDbEntity
  8
0
100
AcDbLine
 10
25.753
 20
0.998713
 30
0.0
 11
25.9749
 21
0.614558
 31
0.0
  0
LINE
  5
132
330
1D
100
AcDbEntity
  8
0
100
AcDbLine
 10
25.753
 20
0.998713
 30
0.0
 11
25.753
 21
10.3866
 31
0.0
  0
LINE
  5
133
330
1D
100
AcDbEntity
  8
0
100
AcDbLine
 10
25.753
 20
0.998713
 30
0.0
 11
25.975
 21
0.614513
 31
0.0
  0
LINE
  5
134
330
1D
100
AcDbEntity
  8
0
100
AcDbLine
 10
26.7448
 20
10.3866
 30
0.0
 11
26.7448
 21
0.998706
 31
0.0
  0
LINE
  5
135
330
1D
100
AcDbEntity
  8
0
100
AcDbLine
 10
26.7448
 20
10.3866
 30
0.0
 11
26.8807
 21
10.7708
 31
0.0
  0
LINE
  5
136
330
1D
100
AcDbEntity
  8
0
100
AcDbLine
 10
26.7448
 20
10.3866
 30
0.0
 11
26.8808
 21
10.7708
 31
0.0
  0
LINE
  5
137
330
1D
100
AcDbEntity
  8
0
100
AcDbLine
 10
24.7096
 20
10.3866
 30
0.0
 11
25.0108
 21
10.7708
 31
0.0
  0
LINE
  5
138
330
1D
100
AcDbEntity
  8
0
100
AcDbLine
 10
24.7096
 20
10.3866
 30
0.0
 11
24.7096
 21
0.998713
 31
0.0
  0
LINE
  5
139
330
1D
100
AcDbEntity
  8
0
100
AcDbLine
 10
24.7096
 20
10.3866
 30
0.0
 11
25.0107
 21
10.7708
 31
0.0
  0
LINE
  5
13A
330
1D
100
AcDbEntity
  8
0
100
AcDbLine
 10
20.6566
 20
10.3866
 30
0.0
 11
20.6566
 21
0.998713
 31
0.0
  0
LINE
  5
13B
330
1D
100
AcDbEntity
  8
0
100
AcDbLine
 10
20.6566
 20
10.3866
 30
0.0
 11
21.1639
 21
10.7708
 31
0.0
  0
LINE
  5
13C
330
1D
100
AcDbEntity
  8
0
100
AcDbLine
 10
28.2778
 20
10.3866
 30
0.0
 11
28.2778
 21
0.998713
 31
0.0
  0
LINE
  5
13D
330
1D
100
AcDbEntity
  8
0
100
AcDbLine
 10
28.2778
 20
10.3866
 30
0.0
 11
28.4553
 21
10.3866
 31
0.0
  0
LINE
  5
13E
330
1D
100
AcDbEntity
  8
0
100
AcDbLine
 10
28.2779
 20
10.3866
 30
0.0
 11
28.4552
 21
10.3866
 31
0.0
  0
LINE
  5
13F
330
1D
100
AcDbEntity
  8
0
100
AcDbLine
 10
27.6547
 20
10.3866
 30
0.0
 11
27.7004
 21
10.7708
 31
0.0
  0
LINE
  5
140
330
1D
100
AcDbEntity
  8
0
100
AcDbLine
 10
27.6547
 20
10.3866
 30
0.0
 11
27.6547
 21
0.998713
 31
0.0
  0
LINE
  5
141
330
1D
100
AcDbEntity
  8
0
100
AcDbLine
 10
27.6547
 20
10.3866
 30
0.0
 11
27.7005
 21
10.7708
 31
0.0
  0
LINE
  5
142
330
1D
100
AcDbEntity
  8
0
100
AcDbLine
 10
22.1309
 20
10.7708
 30
0.0
 11
22.3528
 21
10.3866
 31
0.0
  0
LINE
  5
143
330
1D
100
AcDbEntity
  8
0
100
AcDbLine
 10
24.0882
 20
10.7708
 30
0.0
 11
24.4596
 21
10.3866
 31
0.0
  0
LINE
  5
144
330
1D
100
AcDbEntity
  8
0
100
AcDbLine
 10
23.0951
 20
10.7708
 30
0.0
 11
23.3963
 21
10.3866
 31
0.0
  0
LINE
  5
145
330
1D
100
AcDbEntity
  8
0
100
AcDbLine
 10
23.095
 20
10.7708
 30
0.0
 11
23.3962
 21
10.3866
 31
0.0
  0
LINE
  5
146
330
1D
100
AcDbEntity
  8
0
100
AcDbLine
 10
24.0883
 20
10.7708
 30
0.0
 11
24.4596
 21
10.3866
 31
0.0
  0
LINE
  5
147
330
1D
100
AcDbEntity
  8
0
100
AcDbLine
 10
25.0804
 20
10.7708
 30
0.0
 11
25.5106
 21
10.3866
 31
0.0
  0
LINE
  5
148
330
1D
100
AcDbEntity
  8
0
100
AcDbLine
 10
26.0414
 20
10.7708
 30
0.0
 11
26.5174
 21
10.3866
 31
0.0
  0
LINE
  5
149
330
1D
100
AcDbEntity
  8
0
100
AcDbLine
 10
26.0414
 20
10.7708
 30
0.0
 11
26.5173
 21
10.3866
 31
0.0
  0
LINE
  5
14A
330
1D
100
AcDbEntity
  8
0
100
AcDbLine
 10
26.0414
 20
10.7708
 30
0.0
 11
26.5174
 21
10.3866
 31
0.0
  0
LINE
  5
14B
330
1D
100
AcDbEntity
  8
0
100
AcDbLine
 10
21.2251
 20
10.7708
 30
0.0
 11
21.3611
 21
10.3866
 31
0.0
  0
LINE
  5
14C
330
1D
100
AcDbEntity
  8
0
100
AcDbLine
 10
27.6776
 20
10.5787
 30
0.0
 11
27.7004
 21
10.7708
 31
0.0
  0
LINE
  5
14D
330
1D
100
AcDbEntity
  8
0
100
AcDbLine
 10
27.7547
 20
10.7708
 30
0.0
 11
28.2778
 21
10.3866
 31
0.0
  0
LINE
  5
14E
330
1D
100
AcDbEntity
  8
0
100
AcDbLine
 10
27.7547
 20
10.7708
 30
0.0
 11
28.2779
 21
10.3866
 31
0.0
  0
LINE
  5
14F
330
1D
100
AcDbEntity
  8
0
100
AcDbLine
 10
27.7548
 20
10.7708
 30
0.0
 11
28.2779
 21
10.3866
 31
0.0
  0
LINE
  5
150
330
1D
100
AcDbEntity
  8
0
100
AcDbLine
 10
26.9419
 20
10.7708
 30
0.0
 11
27.4491
 21
10.3866
 31
0.0
  0
LINE
  5
151
330
1D
100
AcDbEntity
  8
0
100
AcDbLine
 10
26.9419
 20
10.7708
 30
0.0
 11
27.4492
 21
10.3866
 31
0.0
  0
LINE
  5
152
330
1D
100
AcDbEntity
  8
0
100
AcDbLine
 10
27.4491
 20
10.3866
 30
0.0
 11
27.6547
 21
10.3866
 31
0.0
  0
LINE
  5
153
330
1D
100
AcDbEntity
  8
0
100
AcDbLine
 10
20.4511
 20
10.3866
 30
0.0
 11
20.4511
 21
0.998713
 31
0.0
  0
LINE
  5
154
330
1D
100
AcDbEntity
  8
0
100
AcDbLine
 10
20.4511
 20
10.3866
 30
0.0
 11
20.6566
 21
10.3866
 31
0.0
  0
LINE
  5
155
330
1D
100
AcDbEntity
  8
0
100
AcDbLine
 10
27.4491
 20
0.998713
 30
0.0
 11
27.6547
 21
0.998713
 31
0.0
  0
LINE
  5
156
330
1D
100
AcDbEntity
  8
0
100
AcDbLine
 10
28.4095
 20
10.7708
 30
0.0
 11
28.4553
 21
10.3866
 31
0.0
  0
LINE
  5
157
330
1D
100
AcDbEntity
  8
0
100
AcDbLine
 10
28.4095
 20
0.614558
 30
0.0
 11
28.4553
 21
0.998706
 31
0.0
  0
LINE
  5
158
330
1D
100
AcDbEntity
  8
0
100
AcDbLine
 10
28.455
 20
10.7708
 30
0.0
 11
28.9781
 21
10.3866
 31
0.0
  0
LINE
  5
159
330
1D
100
AcDbEntity
  8
0
100
AcDbLine
 10
28.455
 20
10.7708
 30
0.0
 11
28.9782
 21
10.3866
 31
0.0
  0
LINE
  5
15A
330
1D
100
AcDbEntity
  8
0
100
AcDbLine
 10
29.0215
 20
0.614558
 30
0.0
 11
29.1608
 21
0.717854
 31
0.0
  0
LINE
  5
15B
330
1D
100
AcDbEntity
  8
0
100
AcDbLine
 10
28.9861
 20
0.614558
 30
0.0
 11
29.122
 21
0.998713
 31
0.0
  0
LINE
  5
15C
330
1D
100
AcDbEntity
  8
0
100
AcDbLine
 10
29.4128
 20
0.614558
 30
0.0
 11
29.6348
 21
0.998713
 31
0.0
  0
LINE
  5
15D
330
1D
100
AcDbEntity
  8
0
100
AcDbLine
 10
28.4553
 20
0.998706
 30
0.0
 11
28.4553
 21
10.3866
 31
0.0
  0
LINE
  5
15E
330
1D
100
AcDbEntity
  8
0
100
AcDbLine
 10
29.1608
 20
0.717854
 30
0.0
 11
29.5287
 21
0.998713
 31
0.0
  0
LINE
  5
15F
330
1D
100
AcDbEntity
  8
0
100
AcDbLine
 10
29.1608
 20
0.717854
 30
0.0
 11
29.5287
 21
0.998706
 31
0.0
  0
LINE
  5
160
330
1D
100
AcDbEntity
  8
0
100
AcDbLine
 10
28.9782
 20
0.998713
 30
0.0
 11
29.122
 21
0.998713
 31
0.0
  0
LINE
  5
161
330
1D
100
AcDbEntity
  8
0
100
AcDbLine
 10
29.5287
 20
0.998713
 30
0.0
 11
29.6348
 21
0.998713
 31
0.0
  0
LINE
  5
162
330
1D
100
AcDbEntity
  8
0
100
AcDbLine
 10
29.122
 20
0.998713
 30
0.0
 11
29.122
 21
10.3866
 31
0.0
  0
LINE
  5
163
330
1D
100
AcDbEntity
  8
0
100
AcDbLine
 10
29.6348
 20
0.998713
 30
0.0
 11
29.6348
 21
10.3866
 31
0.0
  0
LINE
  5
164
330
1D
100
AcDbEntity
  8
0
100
AcDbLine
 10
29.5287
 20
0.998706
 30
0.0
 11
29.6348
 21
0.998713
 31
0.0
  0
LINE
  5
165
330
1D
100
AcDbEntity
  8
0
100
AcDbLine
 10
29.5287
 20
0.998706
 30
0.0
 11
29.5287
 21
10.3866
 31
0.0
  0
LINE
  5
166
330
1D
100
AcDbEntity
  8
0
100
AcDbLine
 10
29.437
 20
0.614558
 30
0.0
 11
29.913
 21
0.998713
 31
0.0
  0
LINE
  5
167
330
1D
100
AcDbEntity
  8
0
100
AcDbLine
 10
29.6767
 20
0.614558
 30
0.0
 11
29.9779
 21
0.998706
 31
0.0
  0
LINE
  5
168
330
1D
100
AcDbEntity
  8
0
100
AcDbLine
 10
28.9782
 20
10.3866
 30
0.0
 11
29.122
 21
10.3866
 31
0.0
  0
LINE
  5
169
330
1D
100
AcDbEntity
  8
0
100
AcDbLine
 10
28.9781
 20
10.3866
 30
0.0
 11
28.9781
 21
0.998713
 31
0.0
  0
LINE
  5
16A
330
1D
100
AcDbEntity
  8
0
100
AcDbLine
 10
28.9781
 20
10.3866
 30
0.0
 11
29.122
 21
10.3866
 31
0.0
  0
LINE
  5
16B
330
1D
100
AcDbEntity
  8
0
100
AcDbLine
 10
29.122
 20
10.3866
 30
0.0
 11
29.122
 21
0.998713
 31
0.0
  0
LINE
  5
16C
330
1D
100
AcDbEntity
  8
0
100
AcDbLine
 10
29.1608
 20
10.6674
 30
0.0
 11
29.5287
 21
10.3866
 31
0.0
  0
LINE
  5
16D
330
1D
100
AcDbEntity
  8
0
100
AcDbLine
 10
29.0215
 20
10.7708
 30
0.0
 11
29.1608
 21
10.6674
 31
0.0
  0
LINE
  5
16E
330
1D
100
AcDbEntity
  8
0
100
AcDbLine
 10
28.9862
 20
10.7708
 30
0.0
 11
29.122
 21
10.3866
 31
0.0
  0
LINE
  5
16F
330
1D
100
AcDbEntity
  8
0
100
AcDbLine
 10
29.1608
 20
10.6675
 30
0.0
 11
29.5287
 21
10.3866
 31
0.0
  0
LINE
  5
170
330
1D
100
AcDbEntity
  8
0
100
AcDbLine
 10
28.9861
 20
10.7708
 30
0.0
 11
29.122
 21
10.3866
 31
0.0
  0
LINE
  5
171
330
1D
100
AcDbEntity
  8
0
100
AcDbLine
 10
29.4129
 20
10.7708
 30
0.0
 11
29.6348
 21
10.3866
 31
0.0
  0
LINE
  5
172
330
1D
100
AcDbEntity
  8
0
100
AcDbLine
 10
29.4128
 20
10.7708
 30
0.0
 11
29.6348
 21
10.3866
 31
0.0
  0
LINE
  5
173
330
1D
100
AcDbEntity
  8
0
100
AcDbLine
 10
29.5287
 20
10.3866
 30
0.0
 11
29.5287
 21
0.998706
 31
0.0
  0
LINE
  5
174
330
1D
100
AcDbEntity
  8
0
100
AcDbLine
 10
29.5287
 20
10.3866
 30
0.0
 11
29.6348
 21
10.3866
 31
0.0
  0
LINE
  5
175
330
1D
100
AcDbEntity
  8
0
100
AcDbLine
 10
29.6348
 20
10.3866
 30
0.0
 11
29.6348
 21
0.998713
 31
0.0
  0
LINE
  5
176
330
1D
100
AcDbEntity
  8
0
100
AcDbLine
 10
29.437
 20
10.7708
 30
0.0
 11
29.913
 21
10.3866
 31
0.0
  0
LINE
  5
177
330
1D
100
AcDbEntity
  8
0
100
AcDbLine
 10
29.6767
 20
10.7708
 30
0.0
 11
29.9779
 21
10.3866
 31
0.0
  0
LINE
  5
178
330
1D
100
AcDbEntity
  8
0
100
AcDbLine
 10
28.4553
 20
10.3866
 30
0.0
 11
28.4553
 21
0.998706
 31
0.0
  0
LINE
  5
179
330
1D
100
AcDbEntity
  8
0
100
AcDbLine
 10
28.9781
 20
0.998713
 30
0.0
 11
28.9781
 21
10.3866
 31
0.0
  0
LINE
  5
17A
330
1D
100
AcDbEntity
  8
0
100
AcDbLine
 10
28.9781
 20
0.998713
 30
0.0
 11
29.122
 21
0.998713
 31
0.0
  0
LINE
  5
17B
330
1D
100
AcDbEntity
  8
0
100
AcDbLine
 10
28.455
 20
0.614558
 30
0.0
 11
28.9781
 21
0.998713
 31
0.0
  0
LINE
  5
17C
330
1D
100
AcDbEntity
  8
0
100
AcDbLine
 10
28.4094
 20
10.7708
 30
0.0
 11
28.4552
 21
10.3866
 31
0.0
  0
LINE
  5
17D
330
1D
100
AcDbEntity
  8
0
100
AcDbLine
 10
28.2779
 20
0.998713
 30
0.0
 11
28.4552
 21
0.998713
 31
0.0
  0
LINE
  5
17E
330
1D
100
AcDbEntity
  8
0
100
AcDbLine
 10
27.7548
 20
0.614513
 30
0.0
 11
28.2779
 21
0.998713
 31
0.0
  0
LINE
  5
17F
330
1D
100
AcDbEntity
  8
0
100
AcDbLine
 10
18.3507
 20
10.7855
 30
0.0
 11
19.5575
 21
11.9845
 31
0.0
  0
LINE
  5
180
330
1D
100
AcDbEntity
  8
0
100
AcDbLine
 10
19.5575
 20
11.9845
 30
0.0
 11
19.619
 21
11.9845
 31
0.0
  0
LINE
  5
181
330
1D
100
AcDbEntity
  8
0
100
AcDbLine
 10
19.5576
 20
11.9845
 30
0.0
 11
19.619
 21
11.9845
 31
0.0
  0
LINE
  5
182
330
1D
100
AcDbEntity
  8
0
100
AcDbLine
 10
19.5576
 20
11.9845
 30
0.0
 11
19.5576
 21
17.9768
 31
0.0
  0
LINE
  5
183
330
1D
100
AcDbEntity
  8
0
100
AcDbLine
 10
19.619
 20
11.9845
 30
0.0
 11
19.9028
 21
11.9845
 31
0.0
  0
LINE
  5
184
330
1D
100
AcDbEntity
  8
0
100
AcDbLine
 10
19.9028
 20
11.9845
 30
0.0
 11
20.3947
 21
11.9845
 31
0.0
  0
LINE
  5
185
330
1D
100
AcDbEntity
  8
0
100
AcDbLine
 10
19.9028
 20
11.9845
 30
0.0
 11
20.3946
 21
11.9845
 31
0.0
  0
LINE
  5
186
330
1D
100
AcDbEntity
  8
0
100
AcDbLine
 10
20.3946
 20
11.9845
 30
0.0
 11
21.07
 21
11.9845
 31
0.0
  0
LINE
  5
187
330
1D
100
AcDbEntity
  8
0
100
AcDbLine
 10
20.3947
 20
11.9845
 30
0.0
 11
21.07
 21
11.9845
 31
0.0
  0
LINE
  5
188
330
1D
100
AcDbEntity
  8
0
100
AcDbLine
 10
21.07
 20
11.9845
 30
0.0
 11
21.8949
 21
11.9845
 31
0.0
  0
LINE
  5
189
330
1D
100
AcDbEntity
  8
0
100
AcDbLine
 10
21.07
 20
11.9845
 30
0.0
 11
21.895
 21
11.9845
 31
0.0
  0
LINE
  5
18A
330
1D
100
AcDbEntity
  8
0
100
AcDbLine
 10
21.895
 20
11.9845
 30
0.0
 11
22.8281
 21
11.9845
 31
0.0
  0
LINE
  5
18B
330
1D
100
AcDbEntity
  8
0
100
AcDbLine
 10
21.8949
 20
11.9845
 30
0.0
 11
22.8281
 21
11.9845
 31
0.0
  0
LINE
  5
18C
330
1D
100
AcDbEntity
  8
0
100
AcDbLine
 10
22.8281
 20
11.9845
 30
0.0
 11
23.8225
 21
11.9845
 31
0.0
  0
LINE
  5
18D
330
1D
100
AcDbEntity
  8
0
100
AcDbLine
 10
25.7957
 20
11.9845
 30
0.0
 11
26.6756
 21
11.9845
 31
0.0
  0
LINE
  5
18E
330
1D
100
AcDbEntity
  8
0
100
AcDbLine
 10
23.8225
 20
11.9845
 30
0.0
 11
24.8286
 21
11.9845
 31
0.0
  0
LINE
  5
18F
330
1D
100
AcDbEntity
  8
0
100
AcDbLine
 10
24.8286
 20
11.9845
 30
0.0
 11
25.7958
 21
11.9845
 31
0.0
  0
LINE
  5
190
330
1D
100
AcDbEntity
  8
0
100
AcDbLine
 10
24.8286
 20
11.9845
 30
0.0
 11
25.7957
 21
11.9845
 31
0.0
  0
LINE
  5
191
330
1D
100
AcDbEntity
  8
0
100
AcDbLine
 10
25.7958
 20
11.9845
 30
0.0
 11
26.6756
 21
11.9845
 31
0.0
  0
LINE
  5
192
330
1D
100
AcDbEntity
  8
0
100
AcDbLine
 10
26.6756
 20
11.9845
 30
0.0
 11
27.4239
 21
11.9845
 31
0.0
  0
LINE
  5
193
330
1D
100
AcDbEntity
  8
0
100
AcDbLine
 10
26.6756
 20
11.9845
 30
0.0
 11
27.4238
 21
11.9845
 31
0.0
  0
LINE
  5
194
330
1D
100
AcDbEntity
  8
0
100
AcDbLine
 10
27.4238
 20
11.9845
 30
0.0
 11
28.0031
 21
11.9845
 31
0.0
  0
LINE
  5
195
330
1D
100
AcDbEntity
  8
0
100
AcDbLine
 10
28.5483
 20
11.9845
 30
0.0
 11
28.5483
 21
17.9768
 31
0.0
  0
LINE
  5
196
330
1D
100
AcDbEntity
  8
0
100
AcDbLine
 10
28.5483
 20
11.9845
 30
0.0
 11
29.7551
 21
10.7855
 31
0.0
  0
LINE
  5
197
330
1D
100
AcDbEntity
  8
0
100
AcDbLine
 10
28.3843
 20
11.9845
 30
0.0
 11
28.5483
 21
11.9845
 31
0.0
  0
LINE
  5
198
330
1D
100
AcDbEntity
  8
0
100
AcDbLine
 10
27.4239
 20
11.9845
 30
0.0
 11
28.0031
 21
11.9845
 31
0.0
  0
LINE
  5
199
330
1D
100
AcDbEntity
  8
0
100
AcDbLine
 10
19.5576
 20
17.9768
 30
0.0
 11
19.5576
 21
11.9845
 31
0.0
  0
LINE
  5
19A
330
1D
100
AcDbEntity
  8
0
100
AcDbLine
 10
19.5576
 20
17.9768
 30
0.0
 11
19.619
 21
17.9768
 31
0.0
  0
LINE
  5
19B
330
1D
100
AcDbEntity
  8
0
100
AcDbLine
 10
19.619
 20
17.9768
 30
0.0
 11
19.9028
 21
17.9768
 31
0.0
  0
LINE
  5
19C
330
1D
100
AcDbEntity
  8
0
100
AcDbLine
 10
19.9028
 20
17.9768
 30
0.0
 11
20.3947
 21
17.9768
 31
0.0
  0
LINE
  5
19D
330
1D
100
AcDbEntity
  8
0
100
AcDbLine
 10
20.3947
 20
17.9768
 30
0.0
 11
21.07
 21
17.9768
 31
0.0
  0
LINE
  5
19E
330
1D
100
AcDbEntity
  8
0
100
AcDbLine
 10
21.07
 20
17.9768
 30
0.0
 11
21.8949
 21
17.9768
 31
0.0
  0
LINE
  5
19F
330
1D
100
AcDbEntity
  8
0
100
AcDbLine
 10
22.8279
 20
17.9768
 30
0.0
 11
23.8225
 21
17.9768
 31
0.0
  0
LINE
  5
1A0
330
1D
100
AcDbEntity
  8
0
100
AcDbLine
 10
21.8949
 20
17.9768
 30
0.0
 11
22.8281
 21
17.9768
 31
0.0
  0
LINE
  5
1A1
330
1D
100
AcDbEntity
  8
0
100
AcDbLine
 10
21.8949
 20
17.9768
 30
0.0
 11
22.8279
 21
17.9768
 31
0.0
  0
LINE
  5
1A2
330
1D
100
AcDbEntity
  8
0
100
AcDbLine
 10
22.8281
 20
17.9768
 30
0.0
 11
23.8225
 21
17.9768
 31
0.0
  0
LINE
  5
1A3
330
1D
100
AcDbEntity
  8
0
100
AcDbLine
 10
24.8285
 20
17.9768
 30
0.0
 11
25.7958
 21
17.9768
 31
0.0
  0
LINE
  5
1A4
330
1D
100
AcDbEntity
  8
0
100
AcDbLine
 10
23.8225
 20
17.9768
 30
0.0
 11
24.8286
 21
17.9768
 31
0.0
  0
LINE
  5
1A5
330
1D
100
AcDbEntity
  8
0
100
AcDbLine
 10
23.8225
 20
17.9768
 30
0.0
 11
24.8285
 21
17.9768
 31
0.0
  0
LINE
  5
1A6
330
1D
100
AcDbEntity
  8
0
100
AcDbLine
 10
24.8286
 20
17.9768
 30
0.0
 11
25.7958
 21
17.9768
 31
0.0
  0
LINE
  5
1A7
330
1D
100
AcDbEntity
  8
0
100
AcDbLine
 10
25.7958
 20
17.9768
 30
0.0
 11
26.6756
 21
17.9768
 31
0.0
  0
LINE
  5
1A8
330
1D
100
AcDbEntity
  8
0
100
AcDbLine
 10
26.6756
 20
17.9768
 30
0.0
 11
27.4239
 21
17.9768
 31
0.0
  0
LINE
  5
1A9
330
1D
100
AcDbEntity
  8
0
100
AcDbLine
 10
26.6756
 20
17.9768
 30
0.0
 11
27.424
 21
17.9768
 31
0.0
  0
LINE
  5
1AA
330
1D
100
AcDbEntity
  8
0
100
AcDbLine
 10
27.424
 20
17.9768
 30
0.0
 11
28.0032
 21
17.9768
 31
0.0
  0
LINE
  5
1AB
330
1D
100
AcDbEntity
  8
0
100
AcDbLine
 10
17.5857
 20
27.1649
 30
0.0
 11
17.7606
 21
27.1649
 31
0.0
  0
LINE
  5
1AC
330
1D
100
AcDbEntity
  8
0
100
AcDbLine
 10
17.5857
 20
23.9691
 30
0.0
 11
17.5857
 21
19.9492
 31
0.0
  0
LINE
  5
1AD
330
1D
100
AcDbEntity
  8
0
100
AcDbLine
 10
17.5857
 20
23.9691
 30
0.0
 11
17.7605
 21
23.9691
 31
0.0
  0
LINE
  5
1AE
330
1D
100
AcDbEntity
  8
0
100
AcDbLine
 10
17.5857
 20
23.9691
 30
0.0
 11
17.7606
 21
23.9691
 31
0.0
  0
LINE
  5
1B0
330
1D
100
AcDbEntity
  8
0
100
AcDbLine
 10
17.5857
 20
19.9492
 30
0.0
 11
17.5857
 21
23.9691
 31
0.0
  0
LINE
  5
1B1
330
1D
100
AcDbEntity
  8
0
100
AcDbLine
 10
17.5857
 20
19.9492
 30
0.0
 11
19.5576
 21
17.9768
 31
0.0
  0
LINE
  5
1B2
330
1D
100
AcDbEntity
  8
0
100
AcDbLine
 10
17.5857
 20
28.9626
 30
0.0
 11
17.5857
 21
27.165
 31
0.0
  0
LINE
  5
1B3
330
1D
100
AcDbEntity
  8
0
100
AcDbLine
 10
17.5857
 20
28.9626
 30
0.0
 11
17.7605
 21
28.9626
 31
0.0
  0
LINE
  5
1B4
330
1D
100
AcDbEntity
  8
0
100
AcDbLine
 10
17.5857
 20
28.9626
 30
0.0
 11
17.7606
 21
28.9626
 31
0.0
  0
LINE
  5
1B5
330
1D
100
AcDbEntity
  8
0
100
AcDbLine
 10
17.6311
 20
27.1649
 30
0.0
 11
17.840730133211
 21
27.164979375287
 31
0.0
  0
LINE
  5
1B6
330
1D
100
AcDbEntity
  8
0
100
AcDbLine
 10
17.7605
 20
23.9691
 30
0.0
 11
18.1495
 21
23.9691
 31
0.0
  0
LINE
  5
1B8
330
1D
100
AcDbEntity
  8
0
100
AcDbLine
 10
17.6311
 20
27.165
 30
0.0
 11
17.7605
 21
27.165
 31
0.0
  0
LINE
  5
1B9
330
1D
100
AcDbEntity
  8
0
100
AcDbLine
 10
17.5857
 20
27.165
 30
0.0
 11
17.7605
 21
27.165
 31
0.0
  0
LINE
  5
1BA
330
1D
100
AcDbEntity
  8
0
100
AcDbLine
 10
17.5857
 20
27.165
 30
0.0
 11
17.5857
 21
28.9626
 31
0.0
  0
LINE
  5
1BB
330
1D
100
AcDbEntity
  8
0
100
AcDbLine
 10
17.7605
 20
28.9626
 30
0.0
 11
18.1495
 21
28.9626
 31
0.0
  0
LINE
  5
1BC
330
1D
100
AcDbEntity
  8
0
100
AcDbLine
 10
17.7606
 20
23.9691
 30
0.0
 11
18.1496
 21
23.9691
 31
0.0
  0
LINE
  5
1BD
330
1D
100
AcDbEntity
  8
0
100
AcDbLine
 10
17.7606
 20
27.1649
 30
0.0
 11
18.1496
 21
27.1649
 31
0.0
  0
LINE
  5
1BE
330
1D
100
AcDbEntity
  8
0
100
AcDbLine
 10
17.7606
 20
28.9626
 30
0.0
 11
18.1497
 21
28.9626
 31
0.0
  0
LINE
  5
1BF
330
1D
100
AcDbEntity
  8
0
100
AcDbLine
 10
18.1495
 20
23.9691
 30
0.0
 11
18.7397
 21
23.9691
 31
0.0
  0
LINE
  5
1C2
330
1D
100
AcDbEntity
  8
0
100
AcDbLine
 10
17.7605
 20
27.165
 30
0.0
 11
18.1495
 21
27.1649
 31
0.0
  0
LINE
  5
1C3
330
1D
100
AcDbEntity
  8
0
100
AcDbLine
 10
18.1495
 20
28.9626
 30
0.0
 11
18.7397
 21
28.9626
 31
0.0
  0
LINE
  5
1C5
330
1D
100
AcDbEntity
  8
0
100
AcDbLine
 10
18.1496
 20
23.9691
 30
0.0
 11
18.7397
 21
23.9691
 31
0.0
  0
LINE
  5
1C6
330
1D
100
AcDbEntity
  8
0
100
AcDbLine
 10
18.324
 20
23.9691
 30
0.0
 11
18.8447
 21
24.4684
 31
0.0
  0
LINE
  5
1C7
330
1D
100
AcDbEntity
  8
0
100
AcDbLine
 10
18.1496
 20
27.1649
 30
0.0
 11
18.7397
 21
27.1649
 31
0.0
  0
LINE
  5
1C8
330
1D
100
AcDbEntity
  8
0
100
AcDbLine
 10
18.324
 20
27.1649
 30
0.0
 11
18.534
 21
27.1649
 31
0.0
  0
LINE
  5
1C9
330
1D
100
AcDbEntity
  8
0
100
AcDbLine
 10
18.334596956348
 20
27.1649
 30
0.0
 11
18.8187
 21
26.6656
 31
0.0
  0
LINE
  5
1CA
330
1D
100
AcDbEntity
  8
0
100
AcDbLine
 10
18.534
 20
27.1649
 30
0.0
 11
18.956
 21
27.1649
 31
0.0
  0
LINE
  5
1CB
330
1D
100
AcDbEntity
  8
0
100
AcDbLine
 10
18.1497
 20
28.9626
 30
0.0
 11
18.7398
 21
28.9626
 31
0.0
  0
LINE
  5
1CC
330
1D
100
AcDbEntity
  8
0
100
AcDbLine
 10
18.7397
 20
23.9691
 30
0.0
 11
19.5108
 21
23.9691
 31
0.0
  0
LINE
  5
1CE
330
1D
100
AcDbEntity
  8
0
100
AcDbLine
 10
18.1495
 20
27.1649
 30
0.0
 11
18.7397
 21
27.1649
 31
0.0
  0
LINE
  5
1CF
330
1D
100
AcDbEntity
  8
0
100
AcDbLine
 10
18.7397
 20
28.9626
 30
0.0
 11
19.5109
 21
28.9626
 31
0.0
  0
LINE
  5
1D0
330
1D
100
AcDbEntity
  8
0
100
AcDbLine
 10
18.793880930931
 20
24.419669519519
 30
0.0
 11
18.8187
 21
24.4684
 31
0.0
  0
LINE
  5
1D1
330
1D
100
AcDbEntity
  8
0
100
AcDbLine
 10
18.8187
 20
24.4684
 30
0.0
 11
18.8187
 21
26.6656
 31
0.0
  0
LINE
  5
1D5
330
1D
100
AcDbEntity
  8
0
100
AcDbLine
 10
19.5108
 20
23.9691
 30
0.0
 11
20.4366
 21
23.9691
 31
0.0
  0
LINE
  5
1D6
330
1D
100
AcDbEntity
  8
0
100
AcDbLine
 10
19.5108
 20
23.9691
 30
0.0
 11
20.4367
 21
23.9691
 31
0.0
  0
LINE
  5
1DB
330
1D
100
AcDbEntity
  8
0
100
AcDbLine
 10
18.8187
 20
26.6656
 30
0.0
 11
18.8187
 21
24.4684
 31
0.0
  0
LINE
  5
1DC
330
1D
100
AcDbEntity
  8
0
100
AcDbLine
 10
18.956
 20
27.1649
 30
0.0
 11
19.5738
 21
27.1649
 31
0.0
  0
LINE
  5
1DD
330
1D
100
AcDbEntity
  8
0
100
AcDbLine
 10
18.7398
 20
28.9626
 30
0.0
 11
19.5109
 21
28.9626
 31
0.0
  0
LINE
  5
1DF
330
1D
100
AcDbEntity
  8
0
100
AcDbLine
 10
19.5108
 20
27.1649
 30
0.0
 11
20.4366
 21
27.1649
 31
0.0
  0
LINE
  5
1E2
330
1D
100
AcDbEntity
  8
0
100
AcDbLine
 10
18.7397
 20
27.1649
 30
0.0
 11
19.5109
 21
27.1649
 31
0.0
  0
LINE
  5
1E3
330
1D
100
AcDbEntity
  8
0
100
AcDbLine
 10
18.7397
 20
27.1649
 30
0.0
 11
19.5108
 21
27.1649
 31
0.0
  0
LINE
  5
1E4
330
1D
100
AcDbEntity
  8
0
100
AcDbLine
 10
19.5109
 20
28.9626
 30
0.0
 11
20.4366
 21
28.9626
 31
0.0
  0
LINE
  5
1E5
330
1D
100
AcDbEntity
  8
0
100
AcDbLine
 10
19.5109
 20
28.9626
 30
0.0
 11
20.4367
 21
28.9626
 31
0.0
  0
LINE
  5
1E6
330
1D
100
AcDbEntity
  8
0
100
AcDbLine
 10
20.4366
 20
23.9691
 30
0.0
 11
21.4855
 21
23.9691
 31
0.0
  0
LINE
  5
1E9
330
1D
100
AcDbEntity
  8
0
100
AcDbLine
 10
19.5738
 20
27.1649
 30
0.0
 11
20.3636
 21
27.1649
 31
0.0
  0
LINE
  5
1EC
330
1D
100
AcDbEntity
  8
0
100
AcDbLine
 10
20.3636
 20
27.1649
 30
0.0
 11
21.2954
 21
27.1649
 31
0.0
  0
LINE
  5
1F0
330
1D
100
AcDbEntity
  8
0
100
AcDbLine
 10
19.5109
 20
27.1649
 30
0.0
 11
20.4366
 21
27.1649
 31
0.0
  0
LINE
  5
1F1
330
1D
100
AcDbEntity
  8
0
100
AcDbLine
 10
20.4366
 20
28.9626
 30
0.0
 11
21.4855
 21
28.9626
 31
0.0
  0
LINE
  5
1F2
330
1D
100
AcDbEntity
  8
0
100
AcDbLine
 10
20.4367
 20
23.9691
 30
0.0
 11
21.4855
 21
23.9691
 31
0.0
  0
LINE
  5
1F3
330
1D
100
AcDbEntity
  8
0
100
AcDbLine
 10
21.4855
 20
23.9691
 30
0.0
 11
22.6217
 21
23.9691
 31
0.0
  0
LINE
  5
1F6
330
1D
100
AcDbEntity
  8
0
100
AcDbLine
 10
20.4367
 20
28.9626
 30
0.0
 11
21.4855
 21
28.9626
 31
0.0
  0
LINE
  5
1F7
330
1D
100
AcDbEntity
  8
0
100
AcDbLine
 10
21.2954
 20
27.1649
 30
0.0
 11
22.3332
 21
27.1649
 31
0.0
  0
LINE
  5
1FC
330
1D
100
AcDbEntity
  8
0
100
AcDbLine
 10
20.4366
 20
27.1649
 30
0.0
 11
21.4855
 21
27.1649
 31
0.0
  0
LINE
  5
1FD
330
1D
100
AcDbEntity
  8
0
100
AcDbLine
 10
21.4855
 20
28.9626
 30
0.0
 11
22.6217
 21
28.9626
 31
0.0
  0
LINE
  5
1FE
330
1D
100
AcDbEntity
  8
0
100
AcDbLine
 10
21.4855
 20
28.9626
 30
0.0
 11
22.6218
 21
28.9626
 31
0.0
  0
LINE
  5
204
330
1D
100
AcDbEntity
  8
0
100
AcDbLine
 10
22.3332
 20
27.1649
 30
0.0
 11
23.437
 21
27.1649
 31
0.0
  0
LINE
  5
205
330
1D
100
AcDbEntity
  8
0
100
AcDbLine
 10
22.6217
 20
23.9691
 30
0.0
 11
23.8069
 21
23.9691
 31
0.0
  0
LINE
  5
208
330
1D
100
AcDbEntity
  8
0
100
AcDbLine
 10
21.4855
 20
27.1649
 30
0.0
 11
22.6217
 21
27.1649
 31
0.0
  0
LINE
  5
209
330
1D
100
AcDbEntity
  8
0
100
AcDbLine
 10
22.6217
 20
28.9626
 30
0.0
 11
23.8069
 21
28.9626
 31
0.0
  0
LINE
  5
20D
330
1D
100
AcDbEntity
  8
0
100
AcDbLine
 10
22.6218
 20
28.9626
 30
0.0
 11
23.807
 21
28.9626
 31
0.0
  0
LINE
  5
20E
330
1D
100
AcDbEntity
  8
0
100
AcDbLine
 10
23.8069
 20
23.9691
 30
0.0
 11
25.0002
 21
23.9691
 31
0.0
  0
LINE
  5
20F
330
1D
100
AcDbEntity
  8
0
100
AcDbLine
 10
23.8069
 20
23.9691
 30
0.0
 11
25.0004
 21
23.9691
 31
0.0
  0
LINE
  5
210
330
1D
100
AcDbEntity
  8
0
100
AcDbLine
 10
23.437
 20
27.1649
 30
0.0
 11
24.5644
 21
27.1649
 31
0.0
  0
LINE
  5
216
330
1D
100
AcDbEntity
  8
0
100
AcDbLine
 10
22.6217
 20
27.1649
 30
0.0
 11
23.8069
 21
27.1649
 31
0.0
  0
LINE
  5
217
330
1D
100
AcDbEntity
  8
0
100
AcDbLine
 10
23.8069
 20
28.9626
 30
0.0
 11
25.0002
 21
28.9626
 31
0.0
  0
LINE
  5
21A
330
1D
100
AcDbEntity
  8
0
100
AcDbLine
 10
25.0002
 20
23.9691
 30
0.0
 11
26.1614
 21
23.9691
 31
0.0
  0
LINE
  5
21D
330
1D
100
AcDbEntity
  8
0
100
AcDbLine
 10
23.807
 20
28.9626
 30
0.0
 11
25.0004
 21
28.9626
 31
0.0
  0
LINE
  5
21F
330
1D
100
AcDbEntity
  8
0
100
AcDbLine
 10
24.5644
 20
27.1649
 30
0.0
 11
25.6722
 21
27.1649
 31
0.0
  0
LINE
  5
222
330
1D
100
AcDbEntity
  8
0
100
AcDbLine
 10
23.8069
 20
27.1649
 30
0.0
 11
25.0002
 21
27.1649
 31
0.0
  0
LINE
  5
223
330
1D
100
AcDbEntity
  8
0
100
AcDbLine
 10
23.8069
 20
27.1649
 30
0.0
 11
25.0004
 21
27.1649
 31
0.0
  0
LINE
  5
224
330
1D
100
AcDbEntity
  8
0
100
AcDbLine
 10
25.0002
 20
28.9626
 30
0.0
 11
26.1615
 21
28.9626
 31
0.0
  0
LINE
  5
225
330
1D
100
AcDbEntity
  8
0
100
AcDbLine
 10
25.0004
 20
23.9691
 30
0.0
 11
26.1615
 21
23.9691
 31
0.0
  0
LINE
  5
226
330
1D
100
AcDbEntity
  8
0
100
AcDbLine
 10
26.1614
 20
23.9691
 30
0.0
 11
27.2508
 21
23.9691
 31
0.0
  0
LINE
  5
227
330
1D
100
AcDbEntity
  8
0
100
AcDbLine
 10
26.1615
 20
23.9691
 30
0.0
 11
27.2507
 21
23.9691
 31
0.0
  0
LINE
  5
22C
330
1D
100
AcDbEntity
  8
0
100
AcDbLine
 10
25.0004
 20
27.1649
 30
0.0
 11
26.1615
 21
27.1649
 31
0.0
  0
LINE
  5
22D
330
1D
100
AcDbEntity
  8
0
100
AcDbLine
 10
25.0004
 20
28.9626
 30
0.0
 11
26.1616
 21
28.9626
 31
0.0
  0
LINE
  5
22E
330
1D
100
AcDbEntity
  8
0
100
AcDbLine
 10
25.6722
 20
27.1649
 30
0.0
 11
26.7179
 21
27.1649
 31
0.0
  0
LINE
  5
231
330
1D
100
AcDbEntity
  8
0
100
AcDbLine
 10
25.0002
 20
27.1649
 30
0.0
 11
26.1615
 21
27.1649
 31
0.0
  0
LINE
  5
232
330
1D
100
AcDbEntity
  8
0
100
AcDbLine
 10
26.1615
 20
28.9626
 30
0.0
 11
27.2508
 21
28.9626
 31
0.0
  0
LINE
  5
234
330
1D
100
AcDbEntity
  8
0
100
AcDbLine
 10
27.2507
 20
23.9691
 30
0.0
 11
28.2313
 21
23.9691
 31
0.0
  0
LINE
  5
235
330
1D
100
AcDbEntity
  8
0
100
AcDbLine
 10
27.2508
 20
23.9691
 30
0.0
 11
28.2312
 21
23.9691
 31
0.0
  0
LINE
  5
239
330
1D
100
AcDbEntity
  8
0
100
AcDbLine
 10
26.7179
 20
27.1649
 30
0.0
 11
27.6609
 21
27.1649
 31
0.0
  0
LINE
  5
23A
330
1D
100
AcDbEntity
  8
0
100
AcDbLine
 10
27.2507
 20
27.1649
 30
0.0
 11
28.2313
 21
27.1649
 31
0.0
  0
LINE
  5
23B
330
1D
100
AcDbEntity
  8
0
100
AcDbLine
 10
26.1616
 20
28.9626
 30
0.0
 11
27.2509
 21
28.9626
 31
0.0
  0
LINE
  5
23D
330
1D
100
AcDbEntity
  8
0
100
AcDbLine
 10
26.1615
 20
27.1649
 30
0.0
 11
27.2508
 21
27.1649
 31
0.0
  0
LINE
  5
23E
330
1D
100
AcDbEntity
  8
0
100
AcDbLine
 10
26.1615
 20
27.1649
 30
0.0
 11
27.2507
 21
27.1649
 31
0.0
  0
LINE
  5
23F
330
1D
100
AcDbEntity
  8
0
100
AcDbLine
 10
27.2508
 20
28.9626
 30
0.0
 11
28.2313
 21
28.9626
 31
0.0
  0
LINE
  5
240
330
1D
100
AcDbEntity
  8
0
100
AcDbLine
 10
27.6609
 20
27.1649
 30
0.0
 11
28.4655
 21
27.1649
 31
0.0
  0
LINE
  5
241
330
1D
100
AcDbEntity
  8
0
100
AcDbLine
 10
27.2509
 20
28.9626
 30
0.0
 11
28.2313
 21
28.9626
 31
0.0
  0
LINE
  5
242
330
1D
100
AcDbEntity
  8
0
100
AcDbLine
 10
27.2508
 20
27.1649
 30
0.0
 11
28.2313
 21
27.1649
 31
0.0
  0
LINE
  5
243
330
1D
100
AcDbEntity
  8
0
100
AcDbLine
 10
27.4239
 20
17.9768
 30
0.0
 11
28.0031
 21
17.9768
 31
0.0
  0
LINE
  5
244
330
1D
100
AcDbEntity
  8
0
100
AcDbLine
 10
28.5482
 20
17.9768
 30
0.0
 11
30.5201
 21
19.9492
 31
0.0
  0
LINE
  5
246
330
1D
100
AcDbEntity
  8
0
100
AcDbLine
 10
28.3843
 20
17.9768
 30
0.0
 11
28.5483
 21
17.9768
 31
0.0
  0
LINE
  5
247
330
1D
100
AcDbEntity
  8
0
100
AcDbLine
 10
28.3843
 20
17.9768
 30
0.0
 11
28.5482
 21
17.9768
 31
0.0
  0
LINE
  5
248
330
1D
100
AcDbEntity
  8
0
100
AcDbLine
 10
28.5483
 20
17.9768
 30
0.0
 11
28.5483
 21
11.9845
 31
0.0
  0
LINE
  5
24C
330
1D
100
AcDbEntity
  8
0
100
AcDbLine
 10
28.2313
 20
23.9691
 30
0.0
 11
29.0695
 21
23.9691
 31
0.0
  0
LINE
  5
252
330
1D
100
AcDbEntity
  8
0
100
AcDbLine
 10
28.2312
 20
23.9691
 30
0.0
 11
29.0695
 21
23.9691
 31
0.0
  0
LINE
  5
256
330
1D
100
AcDbEntity
  8
0
100
AcDbLine
 10
28.2313
 20
28.9626
 30
0.0
 11
29.0695
 21
28.9626
 31
0.0
  0
LINE
  5
258
330
1D
100
AcDbEntity
  8
0
100
AcDbLine
 10
28.4655
 20
27.1649
 30
0.0
 11
29.1005
 21
27.1649
 31
0.0
  0
LINE
  5
259
330
1D
100
AcDbEntity
  8
0
100
AcDbLine
 10
28.2313
 20
27.1649
 30
0.0
 11
29.0695
 21
27.1649
 31
0.0
  0
LINE
  5
25D
330
1D
100
AcDbEntity
  8
0
100
AcDbLine
 10
29.0695
 20
23.9691
 30
0.0
 11
29.7368
 21
23.9691
 31
0.0
  0
LINE
  5
266
330
1D
100
AcDbEntity
  8
0
100
AcDbLine
 10
28.0031
 20
17.9768
 30
0.0
 11
28.3843
 21
17.9768
 31
0.0
  0
LINE
  5
268
330
1D
100
AcDbEntity
  8
0
100
AcDbLine
 10
28.0031
 20
11.9845
 30
0.0
 11
28.3843
 21
11.9845
 31
0.0
  0
LINE
  5
269
330
1D
100
AcDbEntity
  8
0
100
AcDbLine
 10
28.0031
 20
11.9845
 30
0.0
 11
29.1608
 21
10.6674
 31
0.0
  0
LINE
  5
26A
330
1D
100
AcDbEntity
  8
0
100
AcDbLine
 10
28.0031
 20
11.9845
 30
0.0
 11
29.1608
 21
10.6675
 31
0.0
  0
LINE
  5
26D
330
1D
100
AcDbEntity
  8
0
100
AcDbLine
 10
29.2871
 20
24.4684
 30
0.0
 11
29.2871
 21
26.6656
 31
0.0
  0
LINE
  5
26E
330
1D
100
AcDbEntity
  8
0
100
AcDbLine
 10
29.2871
 20
24.4684
 30
0.0
 11
29.7714
 21
23.9691
 31
0.0
  0
LINE
  5
26F
330
1D
100
AcDbEntity
  8
0
100
AcDbLine
 10
29.2871
 20
26.6656
 30
0.0
 11
29.2871
 21
24.4684
 31
0.0
  0
LINE
  5
270
330
1D
100
AcDbEntity
  8
0
100
AcDbLine
 10
29.2871
 20
26.6656
 30
0.0
 11
29.7714
 21
27.1649
 31
0.0
  0
LINE
  5
271
330
1D
100
AcDbEntity
  8
0
100
AcDbLine
 10
29.0695
 20
27.1649
 30
0.0
 11
29.7368
 21
27.1649
 31
0.0
  0
LINE
  5
272
330
1D
100
AcDbEntity
  8
0
100
AcDbLine
 10
29.0695
 20
27.1649
 30
0.0
 11
29.7367
 21
27.1649
 31
0.0
  0
LINE
  5
273
330
1D
100
AcDbEntity
  8
0
100
AcDbLine
 10
17.0529
 20
30.0
 30
0.0
 11
17.0529
 21
29.487
 31
0.0
  0
LINE
  5
274
330
1D
100
AcDbEntity
  8
0
100
AcDbLine
 10
17.053
 20
29.487
 30
0.0
 11
17.5857
 21
28.9626
 31
0.0
  0
LINE
  5
276
330
1D
100
AcDbEntity
  8
0
100
AcDbLine
 10
17.0999
 20
30.0
 30
0.0
 11
17.1879
 21
30.0
 31
0.0
  0
LINE
  5
278
330
1D
100
AcDbEntity
  8
0
100
AcDbLine
 10
17.0529
 20
29.487
 30
0.0
 11
17.0529
 21
30.0
 31
0.0
  0
LINE
  5
279
330
1D
100
AcDbEntity
  8
0
100
AcDbLine
 10
17.1879
 20
30.0
 30
0.0
 11
17.3076
 21
30.0
 31
0.0
  0
LINE
  5
27A
330
1D
100
AcDbEntity
  8
0
100
AcDbLine
 10
17.3076
 20
30.0
 30
0.0
 11
17.5315
 21
30.0
 31
0.0
  0
LINE
  5
27C
330
1D
100
AcDbEntity
  8
0
100
AcDbLine
 10
17.5315
 20
30.0
 30
0.0
 11
17.7202
 21
30.0
 31
0.0
  0
LINE
  5
27D
330
1D
100
AcDbEntity
  8
0
100
AcDbLine
 10
17.7202
 20
30.0
 30
0.0
 11
18.0732
 21
30.0
 31
0.0
  0
LINE
  5
27F
330
1D
100
AcDbEntity
  8
0
100
AcDbLine
 10
18.0732
 20
30.0
 30
0.0
 11
18.3252
 21
30.0
 31
0.0
  0
LINE
  5
280
330
1D
100
AcDbEntity
  8
0
100
AcDbLine
 10
18.3252
 20
30.0
 30
0.0
 11
18.7967
 21
30.0
 31
0.0
  0
LINE
  5
282
330
1D
100
AcDbEntity
  8
0
100
AcDbLine
 10
18.7967
 20
30.0
 30
0.0
 11
19.1044
 21
30.0
 31
0.0
  0
LINE
  5
283
330
1D
100
AcDbEntity
  8
0
100
AcDbLine
 10
19.1044
 20
30.0
 30
0.0
 11
19.6801
 21
30.0
 31
0.0
  0
LINE
  5
285
330
1D
100
AcDbEntity
  8
0
100
AcDbLine
 10
19.6801
 20
30.0
 30
0.0
 11
20.0339
 21
30.0
 31
0.0
  0
LINE
  5
286
330
1D
100
AcDbEntity
  8
0
100
AcDbLine
 10
20.0339
 20
30.0
 30
0.0
 11
20.696
 21
30.0
 31
0.0
  0
LINE
  5
288
330
1D
100
AcDbEntity
  8
0
100
AcDbLine
 10
20.696
 20
30.0
 30
0.0
 11
21.0854
 21
30.0
 31
0.0
  0
LINE
  5
289
330
1D
100
AcDbEntity
  8
0
100
AcDbLine
 10
21.0854
 20
30.0
 30
0.0
 11
21.814
 21
30.0
 31
0.0
  0
LINE
  5
28B
330
1D
100
AcDbEntity
  8
0
100
AcDbLine
 10
21.814
 20
30.0
 30
0.0
 11
22.2271
 21
30.0
 31
0.0
  0
LINE
  5
28C
330
1D
100
AcDbEntity
  8
0
100
AcDbLine
 10
22.2271
 20
30.0
 30
0.0
 11
23.0
 21
30.0
 31
0.0
  0
LINE
  5
28E
330
1D
100
AcDbEntity
  8
0
100
AcDbLine
 10
23.0
 20
30.0
 30
0.0
 11
23.4242
 21
30.0
 31
0.0
  0
LINE
  5
28F
330
1D
100
AcDbEntity
  8
0
100
AcDbLine
 10
23.4242
 20
30.0
 30
0.0
 11
24.2181
 21
30.0
 31
0.0
  0
LINE
  5
291
330
1D
100
AcDbEntity
  8
0
100
AcDbLine
 10
24.2181
 20
30.0
 30
0.0
 11
24.6406
 21
30.0
 31
0.0
  0
LINE
  5
292
330
1D
100
AcDbEntity
  8
0
100
AcDbLine
 10
24.6406
 20
30.0
 30
0.0
 11
25.4312
 21
30.0
 31
0.0
  0
LINE
  5
294
330
1D
100
AcDbEntity
  8
0
100
AcDbLine
 10
25.4312
 20
30.0
 30
0.0
 11
25.8391
 21
30.0
 31
0.0
  0
LINE
  5
295
330
1D
100
AcDbEntity
  8
0
100
AcDbLine
 10
25.8391
 20
30.0
 30
0.0
 11
26.6024
 21
30.0
 31
0.0
  0
LINE
  5
297
330
1D
100
AcDbEntity
  8
0
100
AcDbLine
 10
26.6024
 20
30.0
 30
0.0
 11
26.9832
 21
30.0
 31
0.0
  0
LINE
  5
298
330
1D
100
AcDbEntity
  8
0
100
AcDbLine
 10
26.9832
 20
30.0
 30
0.0
 11
27.6959
 21
30.0
 31
0.0
  0
LINE
  5
29B
330
1D
100
AcDbEntity
  8
0
100
AcDbLine
 10
27.6959
 20
30.0
 30
0.0
 11
28.0383
 21
30.0
 31
0.0
  0
LINE
  5
29D
330
1D
100
AcDbEntity
  8
0
100
AcDbLine
 10
28.0383
 20
30.0
 30
0.0
 11
28.6789
 21
30.0
 31
0.0
  0
LINE
  5
29F
330
1D
100
AcDbEntity
  8
0
100
AcDbLine
 10
28.6789
 20
30.0
 30
0.0
 11
28.9723
 21
30.0
 31
0.0
  0
LINE
  5
2A1
330
1D
100
AcDbEntity
  8
0
100
AcDbLine
 10
28.9723
 20
30.0
 30
0.0
 11
29.5213
 21
30.0
 31
0.0
  0
LINE
  5
2A3
330
1D
100
AcDbEntity
  8
0
100
AcDbLine
 10
29.5213
 20
30.0
 30
0.0
 11
29.7569
 21
30.0
 31
0.0
  0
LINE
  5
2A5
330
1D
100
AcDbEntity
  8
0
100
AcDbLine
 10
29.0695
 20
28.9626
 30
0.0
 11
29.7368
 21
28.9626
 31
0.0
  0
LINE
  5
2A6
330
1D
100
AcDbEntity
  8
0
100
AcDbLine
 10
29.5413
 20
27.1649
 30
0.0
 11
29.7714
 21
27.1649
 31
0.0
  0
LINE
  5
2A7
330
1D
100
AcDbEntity
  8
0
100
AcDbLine
 10
29.5413
 20
27.1649
 30
0.0
 11
29.7715
 21
27.1649
 31
0.0
  0
LINE
  5
2A9
330
1D
100
AcDbEntity
  8
0
100
AcDbLine
 10
29.689
 20
10.7708
 30
0.0
 11
30.1192
 21
10.3866
 31
0.0
  0
LINE
  5
2AC
330
1D
100
AcDbEntity
  8
0
100
AcDbLine
 10
29.7367
 20
28.9626
 30
0.0
 11
30.2107
 21
28.9626
 31
0.0
  0
LINE
  5
2AE
330
1D
100
AcDbEntity
  8
0
100
AcDbLine
 10
29.7368
 20
23.9691
 30
0.0
 11
30.2107
 21
23.9691
 31
0.0
  0
LINE
  5
2AF
330
1D
100
AcDbEntity
  8
0
100
AcDbLine
 10
29.7696
 20
10.7708
 30
0.0
 11
30.141
 21
10.3866
 31
0.0
  0
LINE
  5
2B0
330
1D
100
AcDbEntity
  8
0
100
AcDbLine
 10
29.7696
 20
0.614513
 30
0.0
 11
30.141
 21
0.998713
 31
0.0
  0
LINE
  5
2B1
330
1D
100
AcDbEntity
  8
0
100
AcDbLine
 10
29.913
 20
10.3866
 30
0.0
 11
29.913
 21
0.998713
 31
0.0
  0
LINE
  5
2B2
330
1D
100
AcDbEntity
  8
0
100
AcDbLine
 10
29.913
 20
10.3866
 30
0.0
 11
29.9779
 21
10.3866
 31
0.0
  0
LINE
  5
2B3
330
1D
100
AcDbEntity
  8
0
100
AcDbLine
 10
29.9779
 20
0.998706
 30
0.0
 11
29.9779
 21
10.3866
 31
0.0
  0
LINE
  5
2B4
330
1D
100
AcDbEntity
  8
0
100
AcDbLine
 10
29.913
 20
0.998713
 30
0.0
 11
29.913
 21
10.3866
 31
0.0
  0
LINE
  5
2B5
330
1D
100
AcDbEntity
  8
0
100
AcDbLine
 10
29.913
 20
0.998713
 30
0.0
 11
29.9779
 21
0.998706
 31
0.0
  0
LINE
  5
2B6
330
1D
100
AcDbEntity
  8
0
100
AcDbLine
 10
29.913
 20
0.998713
 30
0.0
 11
29.9779
 21
0.998713
 31
0.0
  0
LINE
  5
2B7
330
1D
100
AcDbEntity
  8
0
100
AcDbLine
 10
29.9779
 20
10.3866
 30
0.0
 11
29.9779
 21
0.998706
 31
0.0
  0
LINE
  5
2B8
330
1D
100
AcDbEntity
  8
0
100
AcDbLine
 10
29.7697
 20
0.614558
 30
0.0
 11
30.141
 21
0.998713
 31
0.0
  0
LINE
  5
2B9
330
1D
100
AcDbEntity
  8
0
100
AcDbLine
 10
29.7697
 20
10.7708
 30
0.0
 11
30.141
 21
10.3866
 31
0.0
  0
LINE
  5
2BA
330
1D
100
AcDbEntity
  8
0
100
AcDbLine
 10
29.9563
 20
27.1649
 30
0.0
 11
30.3453
 21
27.1649
 31
0.0
  0
LINE
  5
2BB
330
1D
100
AcDbEntity
  8
0
100
AcDbLine
 10
29.7714
 20
27.1649
 30
0.0
 11
29.9563
 21
27.1649
 31
0.0
  0
LINE
  5
2BF
330
1D
100
AcDbEntity
  8
0
100
AcDbLine
 10
29.7367
 20
27.1649
 30
0.0
 11
30.2107
 21
27.1649
 31
0.0
  0
LINE
  5
2C0
330
1D
100
AcDbEntity
  8
0
100
AcDbLine
 10
29.7569
 20
30.0
 30
0.0
 11
30.1977
 21
30.0
 31
0.0
  0
LINE
  5
2C2
330
1D
100
AcDbEntity
  8
0
100
AcDbLine
 10
29.7368
 20
28.9626
 30
0.0
 11
30.2107
 21
28.9626
 31
0.0
  0
LINE
  5
2C4
330
1D
100
AcDbEntity
  8
0
100
AcDbLine
 10
29.689
 20
0.614513
 30
0.0
 11
30.1192
 21
0.998713
 31
0.0
  0
LINE
  5
2C5
330
1D
100
AcDbEntity
  8
0
100
AcDbLine
 10
17.952
 20
30.0
 30
0.0
 11
24.0
 21
30.0
 31
0.0
  0
LINE
  5
2C6
330
1D
100
AcDbEntity
  8
0
100
AcDbLine
 10
30.141
 20
0.998713
 30
0.0
 11
30.141
 21
10.3866
 31
0.0
  0
LINE
  5
2C7
330
1D
100
AcDbEntity
  8
0
100
AcDbLine
 10
30.1192
 20
10.3866
 30
0.0
 11
30.1192
 21
0.998713
 31
0.0
  0
LINE
  5
2C8
330
1D
100
AcDbEntity
  8
0
100
AcDbLine
 10
30.141
 20
10.3866
 30
0.0
 11
30.141
 21
0.998713
 31
0.0
  0
LINE
  5
2C9
330
1D
100
AcDbEntity
  8
0
100
AcDbLine
 10
30.2107
 20
23.9691
 30
0.0
 11
30.4747
 21
23.9691
 31
0.0
  0
LINE
  5
2CB
330
1D
100
AcDbEntity
  8
0
100
AcDbLine
 10
30.2107
 20
27.1649
 30
0.0
 11
30.4747
 21
27.1649
 31
0.0
  0
LINE
  5
2CC
330
1D
100
AcDbEntity
  8
0
100
AcDbLine
 10
30.5202
 20
19.9492
 30
0.0
 11
30.5202
 21
23.9691
 31
0.0
  0
LINE
  5
2CD
330
1D
100
AcDbEntity
  8
0
100
AcDbLine
 10
30.5202
 20
23.9691
 30
0.0
 11
30.5202
 21
19.9492
 31
0.0
  0
LINE
  5
2CE
330
1D
100
AcDbEntity
  8
0
100
AcDbLine
 10
30.5201
 20
27.1649
 30
0.0
 11
30.5201
 21
28.9626
 31
0.0
  0
LINE
  5
2CF
330
1D
100
AcDbEntity
  8
0
100
AcDbLine
 10
30.2107
 20
28.9626
 30
0.0
 11
30.4747
 21
28.9626
 31
0.0
  0
LINE
  5
2D0
330
1D
100
AcDbEntity
  8
0
100
AcDbLine
 10
30.2107
 20
28.9626
 30
0.0
 11
30.4746
 21
28.9626
 31
0.0
  0
LINE
  5
2D3
330
1D
100
AcDbEntity
  8
0
100
AcDbLine
 10
30.3682
 20
30.0
 30
0.0
 11
30.6873
 21
30.0
 31
0.0
  0
LINE
  5
2D4
330
1D
100
AcDbEntity
  8
0
100
AcDbLine
 10
30.1977
 20
30.0
 30
0.0
 11
30.3682
 21
30.0
 31
0.0
  0
LINE
  5
2D5
330
1D
100
AcDbEntity
  8
0
100
AcDbLine
 10
30.5202
 20
28.9626
 30
0.0
 11
31.0529
 21
29.4869
 31
0.0
  0
LINE
  5
2D9
330
1D
100
AcDbEntity
  8
0
100
AcDbLine
 10
31.0529
 20
29.487
 30
0.0
 11
31.0529
 21
30.0
 31
0.0
  0
LINE
  5
2DB
330
1D
100
AcDbEntity
  8
0
100
AcDbLine
 10
30.6873
 20
30.0
 30
0.0
 11
30.7876
 21
30.0
 31
0.0
  0
LINE
  5
2DC
330
1D
100
AcDbEntity
  8
0
100
AcDbLine
 10
30.7876
 20
30.0
 30
0.0
 11
30.9753
 21
30.0
 31
0.0
  0
LINE
  5
2DD
330
1D
100
AcDbEntity
  8
0
100
AcDbLine
 10
31.0023
 20
30.0
 30
0.0
 11
31.0529
 21
30.0
 31
0.0
  0
LINE
  5
2E0
330
1D
100
AcDbEntity
  8
0
100
AcDbLine
 10
30.5201
 20
28.9626
 30
0.0
 11
30.5201
 21
27.1649
 31
0.0
  0
LINE
  5
2E1
330
1D
100
AcDbEntity
  8
0
100
AcDbLine
 10
30.3453
 20
27.1649
 30
0.0
 11
30.5201
 21
27.1649
 31
0.0
  0
LINE
  5
2E5
330
1D
100
AcDbEntity
  8
0
100
AcDbLine
 10
30.1192
 20
0.998713
 30
0.0
 11
30.1192
 21
10.3866
 31
0.0
  0
LINE
  5
2E6
330
1D
100
AcDbEntity
  8
0
100
AcDbLine
 10
30.048
 20
30.0
 30
0.0
 11
35.616
 21
30.0
 31
0.0
  0
LINE
  5
2E7
330
1D
100
AcDbEntity
  8
0
100
AcDbLine
 10
24.0
 20
30.0
 30
0.0
 11
30.048
 21
30.0
 31
0.0
  0
LINE
  5
2E8
330
1D
100
AcDbEntity
  8
0
100
AcDbLine
 10
12.384
 20
30.0
 30
0.0
 11
17.0529
 21
30.0
 31
0.0
  0
LINE
  5
2E9
330
1D
100
AcDbEntity
  8
0
100
AcDbLine
 10
0.0
 20
31.1538
 30
0.0
 11
0.0
 21
98.8462
 31
0.0
  0
LINE
  5
2EA
330
1D
100
AcDbEntity
  8
0
100
AcDbLine
 10
0.0
 20
31.1538
 30
0.0
 11
0.576
 21
30.0
 31
0.0
  0
LINE
  5
2EB
330
1D
100
AcDbEntity
  8
0
100
AcDbLine
 10
47.424
 20
30.0
 30
0.0
 11
48.0
 21
31.1538
 31
0.0
  0
LINE
  5
2EC
330
1D
100
AcDbEntity
  8
0
100
AcDbLine
 10
46.56
 20
30.0
 30
0.0
 11
47.424
 21
30.0
 31
0.0
  0
LINE
  5
2ED
330
1D
100
AcDbEntity
  8
0
100
AcDbLine
 10
44.256
 20
30.0
 30
0.0
 11
46.56
 21
30.0
 31
0.0
  0
LINE
  5
2EE
330
1D
100
AcDbEntity
  8
0
100
AcDbLine
 10
40.512
 20
30.0
 30
0.0
 11
44.256
 21
30.0
 31
0.0
  0
LINE
  5
2EF
330
1D
100
AcDbEntity
  8
0
100
AcDbLine
 10
44.256
 20
30.0
 30
0.0
 11
46.56
 21
30.0
 31
0.0
  0
LINE
  5
2F0
330
1D
100
AcDbEntity
  8
0
100
AcDbLine
 10
40.512
 20
30.0
 30
0.0
 11
44.256
 21
30.0
 31
0.0
  0
LINE
  5
2F1
330
1D
100
AcDbEntity
  8
0
100
AcDbLine
 10
35.616
 20
30.0
 30
0.0
 11
40.512
 21
30.0
 31
0.0
  0
LINE
  5
2F2
330
1D
100
AcDbEntity
  8
0
100
AcDbLine
 10
35.616
 20
30.0
 30
0.0
 11
40.512
 21
30.0
 31
0.0
  0
LINE
  5
2F3
330
1D
100
AcDbEntity
  8
0
100
AcDbLine
 10
31.0529
 20
30.0
 30
0.0
 11
35.616
 21
30.0
 31
0.0
  0
LINE
  5
2F4
330
1D
100
AcDbEntity
  8
0
100
AcDbLine
 10
31.0529
 20
30.0
 30
0.0
 11
31.0529
 21
29.487
 31
0.0
  0
LINE
  5
2F5
330
1D
100
AcDbEntity
  8
0
100
AcDbLine
 10
3.19053
 20
100.0
 30
0.0
 11
3.19053
 21
101.837
 31
0.0
  0
LINE
  5
2F6
330
1D
100
AcDbEntity
  8
0
100
AcDbLine
 10
0.576
 20
100.0
 30
0.0
 11
1.44
 21
100.0
 31
0.0
  0
LINE
  5
2F7
330
1D
100
AcDbEntity
  8
0
100
AcDbLine
 10
1.44
 20
100.0
 30
0.0
 11
3.744
 21
100.0
 31
0.0
  0
LINE
  5
2F8
330
1D
100
AcDbEntity
  8
0
100
AcDbLine
 10
3.744
 20
100.0
 30
0.0
 11
7.488
 21
100.0
 31
0.0
  0
LINE
  5
2F9
330
1D
100
AcDbEntity
  8
0
100
AcDbLine
 10
7.488
 20
100.0
 30
0.0
 11
12.384
 21
100.0
 31
0.0
  0
LINE
  5
2FA
330
1D
100
AcDbEntity
  8
0
100
AcDbLine
 10
12.384
 20
100.0
 30
0.0
 11
17.952
 21
100.0
 31
0.0
  0
LINE
  5
2FB
330
1D
100
AcDbEntity
  8
0
100
AcDbLine
 10
3.19053
 20
101.837
 30
0.0
 11
4.17348
 21
103.566
 31
0.0
  0
LINE
  5
2FC
330
1D
100
AcDbEntity
  8
0
100
AcDbLine
 10
3.19053
 20
101.837
 30
0.0
 11
3.19053
 21
100.0
 31
0.0
  0
LINE
  5
2FD
330
1D
100
AcDbEntity
  8
0
100
AcDbLine
 10
4.30598
 20
103.566
 30
0.0
 11
4.66962
 21
103.566
 31
0.0
  0
LINE
  5
2FE
330
1D
100
AcDbEntity
  8
0
100
AcDbLine
 10
4.17348
 20
103.566
 30
0.0
 11
4.30598
 21
103.566
 31
0.0
  0
LINE
  5
2FF
330
1D
100
AcDbEntity
  8
0
100
AcDbLine
 10
4.17337
 20
103.566
 30
0.0
 11
4.30581
 21
103.566
 31
0.0
  0
LINE
  5
300
330
1D
100
AcDbEntity
  8
0
100
AcDbLine
 10
4.30581
 20
103.566
 30
0.0
 11
4.66934
 21
103.566
 31
0.0
  0
LINE
  5
301
330
1D
100
AcDbEntity
  8
0
100
AcDbLine
 10
6.06873
 20
103.566
 30
0.0
 11
7.08847
 21
103.566
 31
0.0
  0
LINE
  5
302
330
1D
100
AcDbEntity
  8
0
100
AcDbLine
 10
5.25935
 20
103.566
 30
0.0
 11
6.06873
 21
103.566
 31
0.0
  0
LINE
  5
303
330
1D
100
AcDbEntity
  8
0
100
AcDbLine
 10
4.66962
 20
103.566
 30
0.0
 11
5.25935
 21
103.566
 31
0.0
  0
LINE
  5
304
330
1D
100
AcDbEntity
  8
0
100
AcDbLine
 10
4.66934
 20
103.566
 30
0.0
 11
5.25924
 21
103.566
 31
0.0
  0
LINE
  5
305
330
1D
100
AcDbEntity
  8
0
100
AcDbLine
 10
5.29173
 20
103.766
 30
0.0
 11
5.48947
 21
103.566
 31
0.0
  0
LINE
  5
306
330
1D
100
AcDbEntity
  8
0
100
AcDbLine
 10
5.29173
 20
122.442
 30
0.0
 11
5.48947
 21
122.242
 31
0.0
  0
LINE
  5
307
330
1D
100
AcDbEntity
  8
0
100
AcDbLine
 10
5.29173
 20
125.488
 30
0.0
 11
5.48947
 21
125.288
 31
0.0
  0
LINE
  5
308
330
1D
100
AcDbEntity
  8
0
100
AcDbLine
 10
5.29181
 20
103.766
 30
0.0
 11
5.29181
 21
114.352
 31
0.0
  0
LINE
  5
309
330
1D
100
AcDbEntity
  8
0
100
AcDbLine
 10
5.29181
 20
114.352
 30
0.0
 11
5.48959
 21
114.552
 31
0.0
  0
LINE
  5
30A
330
1D
100
AcDbEntity
  8
0
100
AcDbLine
 10
5.29181
 20
114.352
 30
0.0
 11
5.29181
 21
103.766
 31
0.0
  0
LINE
  5
30B
330
1D
100
AcDbEntity
  8
0
100
AcDbLine
 10
5.29181
 20
122.592
 30
0.0
 11
5.29181
 21
122.442
 31
0.0
  0
LINE
  5
30C
330
1D
100
AcDbEntity
  8
0
100
AcDbLine
 10
5.29181
 20
122.442
 30
0.0
 11
5.29181
 21
122.592
 31
0.0
  0
LINE
  5
30D
330
1D
100
AcDbEntity
  8
0
100
AcDbLine
 10
5.29181
 20
125.638
 30
0.0
 11
5.29181
 21
125.488
 31
0.0
  0
LINE
  5
30E
330
1D
100
AcDbEntity
  8
0
100
AcDbLine
 10
5.29181
 20
125.488
 30
0.0
 11
5.29181
 21
125.638
 31
0.0
  0
LINE
  5
30F
330
1D
100
AcDbEntity
  8
0
100
AcDbLine
 10
5.29177
 20
133.727
 30
0.0
 11
5.48952
 21
133.528
 31
0.0
  0
LINE
  5
310
330
1D
100
AcDbEntity
  8
0
100
AcDbLine
 10
5.29181
 20
134.027
 30
0.0
 11
5.29181
 21
133.727
 31
0.0
  0
LINE
  5
311
330
1D
100
AcDbEntity
  8
0
100
AcDbLine
 10
5.29186
 20
122.592
 30
0.0
 11
5.48961
 21
122.792
 31
0.0
  0
LINE
  5
315
330
1D
100
AcDbEntity
  8
0
100
AcDbLine
 10
5.29186
 20
125.638
 30
0.0
 11
5.48961
 21
125.838
 31
0.0
  0
LINE
  5
317
330
1D
100
AcDbEntity
  8
0
100
AcDbLine
 10
5.29181
 20
133.727
 30
0.0
 11
5.29181
 21
134.027
 31
0.0
  0
LINE
  5
318
330
1D
100
AcDbEntity
  8
0
100
AcDbLine
 10
5.29177
 20
134.027
 30
0.0
 11
5.78641
 21
134.526
 31
0.0
  0
LINE
  5
31F
330
1D
100
AcDbEntity
  8
0
100
AcDbLine
 10
5.48963
 20
122.242
 30
0.0
 11
5.5673
 21
122.242
 31
0.0
  0
LINE
  5
320
330
1D
100
AcDbEntity
  8
0
100
AcDbLine
 10
5.48947
 20
122.242
 30
0.0
 11
5.5673
 21
122.242
 31
0.0
  0
LINE
  5
322
330
1D
100
AcDbEntity
  8
0
100
AcDbLine
 10
5.48972
 20
122.242
 30
0.0
 11
5.72267
 21
122.242
 31
0.0
  0
LINE
  5
323
330
1D
100
AcDbEntity
  8
0
100
AcDbLine
 10
5.48963
 20
125.288
 30
0.0
 11
5.72196
 21
125.288
 31
0.0
  0
LINE
  5
324
330
1D
100
AcDbEntity
  8
0
100
AcDbLine
 10
5.48972
 20
125.288
 30
0.0
 11
5.72267
 21
125.288
 31
0.0
  0
LINE
  5
325
330
1D
100
AcDbEntity
  8
0
100
AcDbLine
 10
5.48947
 20
125.288
 30
0.0
 11
5.72181
 21
125.288
 31
0.0
  0
LINE
  5
327
330
1D
100
AcDbEntity
  8
0
100
AcDbLine
 10
5.48963
 20
133.528
 30
0.0
 11
5.5673
 21
133.528
 31
0.0
  0
LINE
  5
329
330
1D
100
AcDbEntity
  8
0
100
AcDbLine
 10
5.48985
 20
114.552
 30
0.0
 11
5.72275
 21
114.552
 31
0.0
  0
LINE
  5
32B
330
1D
100
AcDbEntity
  8
0
100
AcDbLine
 10
5.48985
 20
122.242
 30
0.0
 11
5.72275
 21
122.242
 31
0.0
  0
LINE
  5
32C
330
1D
100
AcDbEntity
  8
0
100
AcDbLine
 10
5.48984
 20
114.552
 30
0.0
 11
5.72279
 21
114.552
 31
0.0
  0
LINE
  5
32E
330
1D
100
AcDbEntity
  8
0
100
AcDbLine
 10
5.48985
 20
125.288
 30
0.0
 11
5.72275
 21
125.288
 31
0.0
  0
LINE
  5
32F
330
1D
100
AcDbEntity
  8
0
100
AcDbLine
 10
5.48985
 20
122.792
 30
0.0
 11
5.7228
 21
122.792
 31
0.0
  0
LINE
  5
330
330
1D
100
AcDbEntity
  8
0
100
AcDbLine
 10
5.48985
 20
122.792
 30
0.0
 11
5.72275
 21
122.792
 31
0.0
  0
LINE
  5
339
330
1D
100
AcDbEntity
  8
0
100
AcDbLine
 10
5.48985
 20
133.528
 30
0.0
 11
5.72271
 21
133.528
 31
0.0
  0
LINE
  5
33A
330
1D
100
AcDbEntity
  8
0
100
AcDbLine
 10
5.48985
 20
125.838
 30
0.0
 11
5.7228
 21
125.838
 31
0.0
  0
LINE
  5
33B
330
1D
100
AcDbEntity
  8
0
100
AcDbLine
 10
5.48985
 20
125.838
 30
0.0
 11
5.72275
 21
125.838
 31
0.0
  0
LINE
  5
33C
330
1D
100
AcDbEntity
  8
0
100
AcDbLine
 10
5.48977
 20
133.528
 30
0.0
 11
5.72271
 21
133.528
 31
0.0
  0
LINE
  5
33E
330
1D
100
AcDbEntity
  8
0
100
AcDbLine
 10
5.48952
 20
133.528
 30
0.0
 11
5.5673
 21
133.528
 31
0.0
  0
LINE
  5
340
330
1D
100
AcDbEntity
  8
0
100
AcDbLine
 10
5.5673
 20
125.838
 30
0.0
 11
5.5673
 21
133.528
 31
0.0
  0
LINE
  5
341
330
1D
100
AcDbEntity
  8
0
100
AcDbLine
 10
5.60051
 20
122.242
 30
0.0
 11
5.79961
 21
122.242
 31
0.0
  0
LINE
  5
342
330
1D
100
AcDbEntity
  8
0
100
AcDbLine
 10
5.60008
 20
122.242
 30
0.0
 11
5.7997
 21
122.242
 31
0.0
  0
LINE
  5
343
330
1D
100
AcDbEntity
  8
0
100
AcDbLine
 10
5.5673
 20
122.242
 30
0.0
 11
5.5673
 21
114.552
 31
0.0
  0
LINE
  5
344
330
1D
100
AcDbEntity
  8
0
100
AcDbLine
 10
5.5673
 20
114.552
 30
0.0
 11
5.5673
 21
122.242
 31
0.0
  0
LINE
  5
345
330
1D
100
AcDbEntity
  8
0
100
AcDbLine
 10
5.72275
 20
114.552
 30
0.0
 11
6.18507
 21
114.552
 31
0.0
  0
LINE
  5
346
330
1D
100
AcDbEntity
  8
0
100
AcDbLine
 10
5.72275
 20
122.242
 30
0.0
 11
6.18507
 21
122.242
 31
0.0
  0
LINE
  5
347
330
1D
100
AcDbEntity
  8
0
100
AcDbLine
 10
5.72267
 20
122.242
 30
0.0
 11
6.18523
 21
122.242
 31
0.0
  0
LINE
  5
348
330
1D
100
AcDbEntity
  8
0
100
AcDbLine
 10
5.72196
 20
125.288
 30
0.0
 11
6.1839
 21
125.288
 31
0.0
  0
LINE
  5
349
330
1D
100
AcDbEntity
  8
0
100
AcDbLine
 10
5.72275
 20
122.792
 30
0.0
 11
6.18507
 21
122.792
 31
0.0
  0
LINE
  5
34B
330
1D
100
AcDbEntity
  8
0
100
AcDbLine
 10
5.79961
 20
122.242
 30
0.0
 11
6.16412
 21
122.242
 31
0.0
  0
LINE
  5
34C
330
1D
100
AcDbEntity
  8
0
100
AcDbLine
 10
5.7997
 20
122.242
 30
0.0
 11
6.16414
 21
122.242
 31
0.0
  0
LINE
  5
34D
330
1D
100
AcDbEntity
  8
0
100
AcDbLine
 10
5.72279
 20
114.552
 30
0.0
 11
6.18535
 21
114.552
 31
0.0
  0
LINE
  5
34F
330
1D
100
AcDbEntity
  8
0
100
AcDbLine
 10
5.7228
 20
122.792
 30
0.0
 11
6.18537
 21
122.792
 31
0.0
  0
LINE
  5
350
330
1D
100
AcDbEntity
  8
0
100
AcDbLine
 10
5.72275
 20
125.288
 30
0.0
 11
6.18507
 21
125.288
 31
0.0
  0
LINE
  5
351
330
1D
100
AcDbEntity
  8
0
100
AcDbLine
 10
5.72275
 20
125.838
 30
0.0
 11
6.18507
 21
125.838
 31
0.0
  0
LINE
  5
353
330
1D
100
AcDbEntity
  8
0
100
AcDbLine
 10
5.72267
 20
125.288
 30
0.0
 11
6.18523
 21
125.288
 31
0.0
  0
LINE
  5
354
330
1D
100
AcDbEntity
  8
0
100
AcDbLine
 10
5.72181
 20
125.288
 30
0.0
 11
6.18392
 21
125.288
 31
0.0
  0
LINE
  5
355
330
1D
100
AcDbEntity
  8
0
100
AcDbLine
 10
5.79961
 20
133.528
 30
0.0
 11
6.16412
 21
133.528
 31
0.0
  0
LINE
  5
356
330
1D
100
AcDbEntity
  8
0
100
AcDbLine
 10
5.60051
 20
133.528
 30
0.0
 11
5.79961
 21
133.528
 31
0.0
  0
LINE
  5
357
330
1D
100
AcDbEntity
  8
0
100
AcDbLine
 10
5.7997
 20
133.528
 30
0.0
 11
6.16414
 21
133.528
 31
0.0
  0
LINE
  5
358
330
1D
100
AcDbEntity
  8
0
100
AcDbLine
 10
5.60008
 20
133.528
 30
0.0
 11
5.7997
 21
133.528
 31
0.0
  0
LINE
  5
359
330
1D
100
AcDbEntity
  8
0
100
AcDbLine
 10
5.5673
 20
133.528
 30
0.0
 11
5.5673
 21
125.838
 31
0.0
  0
LINE
  5
35A
330
1D
100
AcDbEntity
  8
0
100
AcDbLine
 10
5.7228
 20
125.838
 30
0.0
 11
6.18537
 21
125.838
 31
0.0
  0
LINE
  5
35D
330
1D
100
AcDbEntity
  8
0
100
AcDbLine
 10
5.72271
 20
133.528
 30
0.0
 11
6.18528
 21
133.528
 31
0.0
  0
LINE
  5
35E
330
1D
100
AcDbEntity
  8
0
100
AcDbLine
 10
5.72271
 20
133.528
 30
0.0
 11
6.18507
 21
133.528
 31
0.0
  0
LINE
  5
364
330
1D
100
AcDbEntity
  8
0
100
AcDbLine
 10
5.78657
 20
134.526
 30
0.0
 11
6.01564
 21
134.526
 31
0.0
  0
LINE
  5
365
330
1D
100
AcDbEntity
  8
0
100
AcDbLine
 10
5.78681
 20
134.526
 30
0.0
 11
6.01564
 21
134.526
 31
0.0
  0
LINE
  5
372
330
1D
100
AcDbEntity
  8
0
100
AcDbLine
 10
6.01564
 20
134.526
 30
0.0
 11
6.47085
 21
134.526
 31
0.0
  0
LINE
  5
373
330
1D
100
AcDbEntity
  8
0
100
AcDbLine
 10
6.01564
 20
134.526
 30
0.0
 11
6.47064
 21
134.526
 31
0.0
  0
LINE
  5
375
330
1D
100
AcDbEntity
  8
0
100
AcDbLine
 10
5.25924
 20
103.566
 30
0.0
 11
6.06897
 21
103.566
 31
0.0
  0
LINE
  5
376
330
1D
100
AcDbEntity
  8
0
100
AcDbLine
 10
6.16412
 20
122.242
 30
0.0
 11
6.6896
 21
122.242
 31
0.0
  0
LINE
  5
377
330
1D
100
AcDbEntity
  8
0
100
AcDbLine
 10
6.18507
 20
114.552
 30
0.0
 11
6.87129
 21
114.552
 31
0.0
  0
LINE
  5
378
330
1D
100
AcDbEntity
  8
0
100
AcDbLine
 10
6.18507
 20
122.242
 30
0.0
 11
6.87129
 21
122.242
 31
0.0
  0
LINE
  5
379
330
1D
100
AcDbEntity
  8
0
100
AcDbLine
 10
6.1839
 20
125.288
 30
0.0
 11
6.4787
 21
125.288
 31
0.0
  0
LINE
  5
37A
330
1D
100
AcDbEntity
  8
0
100
AcDbLine
 10
6.16414
 20
122.242
 30
0.0
 11
6.68977
 21
122.242
 31
0.0
  0
LINE
  5
37B
330
1D
100
AcDbEntity
  8
0
100
AcDbLine
 10
6.18523
 20
122.242
 30
0.0
 11
6.87164
 21
122.242
 31
0.0
  0
LINE
  5
37C
330
1D
100
AcDbEntity
  8
0
100
AcDbLine
 10
6.18507
 20
122.792
 30
0.0
 11
6.87129
 21
122.792
 31
0.0
  0
LINE
  5
37D
330
1D
100
AcDbEntity
  8
0
100
AcDbLine
 10
6.18507
 20
125.288
 30
0.0
 11
6.87129
 21
125.288
 31
0.0
  0
LINE
  5
37E
330
1D
100
AcDbEntity
  8
0
100
AcDbLine
 10
6.18535
 20
114.552
 30
0.0
 11
6.87176
 21
114.552
 31
0.0
  0
LINE
  5
37F
330
1D
100
AcDbEntity
  8
0
100
AcDbLine
 10
6.18537
 20
122.792
 30
0.0
 11
6.87177
 21
122.792
 31
0.0
  0
LINE
  5
380
330
1D
100
AcDbEntity
  8
0
100
AcDbLine
 10
6.18523
 20
125.288
 30
0.0
 11
6.87164
 21
125.288
 31
0.0
  0
LINE
  5
381
330
1D
100
AcDbEntity
  8
0
100
AcDbLine
 10
6.16412
 20
133.528
 30
0.0
 11
6.6896
 21
133.528
 31
0.0
  0
LINE
  5
382
330
1D
100
AcDbEntity
  8
0
100
AcDbLine
 10
6.18507
 20
125.838
 30
0.0
 11
6.87129
 21
125.838
 31
0.0
  0
LINE
  5
383
330
1D
100
AcDbEntity
  8
0
100
AcDbLine
 10
6.18507
 20
133.528
 30
0.0
 11
6.87129
 21
133.528
 31
0.0
  0
LINE
  5
384
330
1D
100
AcDbEntity
  8
0
100
AcDbLine
 10
6.16414
 20
133.528
 30
0.0
 11
6.68977
 21
133.528
 31
0.0
  0
LINE
  5
385
330
1D
100
AcDbEntity
  8
0
100
AcDbLine
 10
6.18392
 20
125.288
 30
0.0
 11
6.4787
 21
125.288
 31
0.0
  0
LINE
  5
386
330
1D
100
AcDbEntity
  8
0
100
AcDbLine
 10
6.18537
 20
125.838
 30
0.0
 11
6.87177
 21
125.838
 31
0.0
  0
LINE
  5
387
330
1D
100
AcDbEntity
  8
0
100
AcDbLine
 10
6.18528
 20
133.528
 30
0.0
 11
6.87169
 21
133.528
 31
0.0
  0
LINE
  5
388
330
1D
100
AcDbEntity
  8
0
100
AcDbLine
 10
6.47874
 20
125.288
 30
0.0
 11
6.69919
 21
125.288
 31
0.0
  0
LINE
  5
389
330
1D
100
AcDbEntity
  8
0
100
AcDbLine
 10
6.4787
 20
122.792
 30
0.0
 11
6.62726
 21
122.832
 31
0.0
  0
LINE
  5
38A
330
1D
100
AcDbEntity
  8
0
100
AcDbLine
 10
6.4787
 20
125.288
 30
0.0
 11
6.62726
 21
125.248
 31
0.0
  0
LINE
  5
38C
330
1D
100
AcDbEntity
  8
0
100
AcDbLine
 10
6.62726
 20
122.832
 30
0.0
 11
6.73566
 21
122.941
 31
0.0
  0
LINE
  5
38D
330
1D
100
AcDbEntity
  8
0
100
AcDbLine
 10
6.62726
 20
125.248
 30
0.0
 11
6.73566
 21
125.139
 31
0.0
  0
LINE
  5
38F
330
1D
100
AcDbEntity
  8
0
100
AcDbLine
 10
6.47884
 20
125.288
 30
0.0
 11
6.69941
 21
125.288
 31
0.0
  0
LINE
  5
39A
330
1D
100
AcDbEntity
  8
0
100
AcDbLine
 10
6.6896
 20
122.242
 30
0.0
 11
7.37165
 21
122.242
 31
0.0
  0
LINE
  5
39C
330
1D
100
AcDbEntity
  8
0
100
AcDbLine
 10
6.73566
 20
122.941
 30
0.0
 11
6.76189
 21
123.091
 31
0.0
  0
LINE
  5
39D
330
1D
100
AcDbEntity
  8
0
100
AcDbLine
 10
6.68977
 20
122.242
 30
0.0
 11
7.3719
 21
122.242
 31
0.0
  0
LINE
  5
39E
330
1D
100
AcDbEntity
  8
0
100
AcDbLine
 10
6.69919
 20
125.288
 30
0.0
 11
7.13719
 21
125.288
 31
0.0
  0
LINE
  5
39F
330
1D
100
AcDbEntity
  8
0
100
AcDbLine
 10
6.73566
 20
125.139
 30
0.0
 11
6.7619
 21
124.989
 31
0.0
  0
LINE
  5
3A1
330
1D
100
AcDbEntity
  8
0
100
AcDbLine
 10
6.76178
 20
124.989
 30
0.0
 11
6.76178
 21
123.091
 31
0.0
  0
LINE
  5
3A2
330
1D
100
AcDbEntity
  8
0
100
AcDbLine
 10
6.87129
 20
122.792
 30
0.0
 11
7.77304
 21
122.792
 31
0.0
  0
LINE
  5
3A4
330
1D
100
AcDbEntity
  8
0
100
AcDbLine
 10
6.87129
 20
114.552
 30
0.0
 11
7.77304
 21
114.552
 31
0.0
  0
LINE
  5
3A5
330
1D
100
AcDbEntity
  8
0
100
AcDbLine
 10
6.87129
 20
122.242
 30
0.0
 11
7.77304
 21
122.242
 31
0.0
  0
LINE
  5
3A7
330
1D
100
AcDbEntity
  8
0
100
AcDbLine
 10
6.87129
 20
125.288
 30
0.0
 11
7.77304
 21
125.288
 31
0.0
  0
LINE
  5
3AA
330
1D
100
AcDbEntity
  8
0
100
AcDbLine
 10
6.76178
 20
123.091
 30
0.0
 11
6.76178
 21
124.989
 31
0.0
  0
LINE
  5
3AB
330
1D
100
AcDbEntity
  8
0
100
AcDbLine
 10
6.69941
 20
125.288
 30
0.0
 11
7.13702
 21
125.288
 31
0.0
  0
LINE
  5
3AD
330
1D
100
AcDbEntity
  8
0
100
AcDbLine
 10
6.6896
 20
133.528
 30
0.0
 11
7.37165
 21
133.528
 31
0.0
  0
LINE
  5
3AE
330
1D
100
AcDbEntity
  8
0
100
AcDbLine
 10
6.68977
 20
133.528
 30
0.0
 11
7.3719
 21
133.528
 31
0.0
  0
LINE
  5
3AF
330
1D
100
AcDbEntity
  8
0
100
AcDbLine
 10
6.87129
 20
125.838
 30
0.0
 11
7.77304
 21
125.838
 31
0.0
  0
LINE
  5
3B0
330
1D
100
AcDbEntity
  8
0
100
AcDbLine
 10
6.87164
 20
122.242
 30
0.0
 11
7.77288
 21
122.242
 31
0.0
  0
LINE
  5
3B1
330
1D
100
AcDbEntity
  8
0
100
AcDbLine
 10
6.87176
 20
114.552
 30
0.0
 11
7.77301
 21
114.552
 31
0.0
  0
LINE
  5
3B2
330
1D
100
AcDbEntity
  8
0
100
AcDbLine
 10
7.08847
 20
103.566
 30
0.0
 11
8.30598
 21
103.566
 31
0.0
  0
LINE
  5
3B3
330
1D
100
AcDbEntity
  8
0
100
AcDbLine
 10
7.08836
 20
103.566
 30
0.0
 11
8.30604
 21
103.566
 31
0.0
  0
LINE
  5
3B5
330
1D
100
AcDbEntity
  8
0
100
AcDbLine
 10
6.87177
 20
122.792
 30
0.0
 11
7.77303
 21
122.792
 31
0.0
  0
LINE
  5
3BB
330
1D
100
AcDbEntity
  8
0
100
AcDbLine
 10
7.37165
 20
122.242
 30
0.0
 11
8.20414
 21
122.242
 31
0.0
  0
LINE
  5
3BC
330
1D
100
AcDbEntity
  8
0
100
AcDbLine
 10
7.3719
 20
122.242
 30
0.0
 11
8.20429
 21
122.242
 31
0.0
  0
LINE
  5
3C7
330
1D
100
AcDbEntity
  8
0
100
AcDbLine
 10
7.13719
 20
125.288
 30
0.0
 11
7.78664
 21
125.288
 31
0.0
  0
LINE
  5
3CB
330
1D
100
AcDbEntity
  8
0
100
AcDbLine
 10
7.13702
 20
125.288
 30
0.0
 11
7.78678
 21
125.288
 31
0.0
  0
LINE
  5
3CD
330
1D
100
AcDbEntity
  8
0
100
AcDbLine
 10
6.87164
 20
125.288
 30
0.0
 11
7.77288
 21
125.288
 31
0.0
  0
LINE
  5
3D0
330
1D
100
AcDbEntity
  8
0
100
AcDbLine
 10
7.37165
 20
133.528
 30
0.0
 11
8.20414
 21
133.528
 31
0.0
  0
LINE
  5
3D1
330
1D
100
AcDbEntity
  8
0
100
AcDbLine
 10
7.3719
 20
133.528
 30
0.0
 11
8.20429
 21
133.528
 31
0.0
  0
LINE
  5
3D2
330
1D
100
AcDbEntity
  8
0
100
AcDbLine
 10
6.87177
 20
125.838
 30
0.0
 11
7.77303
 21
125.838
 31
0.0
  0
LINE
  5
3D3
330
1D
100
AcDbEntity
  8
0
100
AcDbLine
 10
6.87129
 20
133.528
 30
0.0
 11
7.77304
 21
133.528
 31
0.0
  0
LINE
  5
3D5
330
1D
100
AcDbEntity
  8
0
100
AcDbLine
 10
6.87169
 20
133.528
 30
0.0
 11
7.77294
 21
133.528
 31
0.0
  0
LINE
  5
3D7
330
1D
100
AcDbEntity
  8
0
100
AcDbLine
 10
7.77288
 20
122.242
 30
0.0
 11
8.87838
 21
122.242
 31
0.0
  0
LINE
  5
3D8
330
1D
100
AcDbEntity
  8
0
100
AcDbLine
 10
7.77301
 20
114.552
 30
0.0
 11
8.8785
 21
114.552
 31
0.0
  0
LINE
  5
3D9
330
1D
100
AcDbEntity
  8
0
100
AcDbLine
 10
7.77304
 20
122.792
 30
0.0
 11
8.87859
 21
122.792
 31
0.0
  0
LINE
  5
3DA
330
1D
100
AcDbEntity
  8
0
100
AcDbLine
 10
7.77304
 20
114.552
 30
0.0
 11
8.87859
 21
114.552
 31
0.0
  0
LINE
  5
3DB
330
1D
100
AcDbEntity
  8
0
100
AcDbLine
 10
7.77304
 20
122.242
 30
0.0
 11
8.87859
 21
122.242
 31
0.0
  0
LINE
  5
3DC
330
1D
100
AcDbEntity
  8
0
100
AcDbLine
 10
7.77304
 20
125.288
 30
0.0
 11
8.87859
 21
125.288
 31
0.0
  0
LINE
  5
3DD
330
1D
100
AcDbEntity
  8
0
100
AcDbLine
 10
7.77303
 20
122.792
 30
0.0
 11
8.87851
 21
122.792
 31
0.0
  0
LINE
  5
3DE
330
1D
100
AcDbEntity
  8
0
100
AcDbLine
 10
7.77288
 20
125.288
 30
0.0
 11
8.87838
 21
125.288
 31
0.0
  0
LINE
  5
3DF
330
1D
100
AcDbEntity
  8
0
100
AcDbLine
 10
7.77303
 20
125.838
 30
0.0
 11
8.87851
 21
125.838
 31
0.0
  0
LINE
  5
3E1
330
1D
100
AcDbEntity
  8
0
100
AcDbLine
 10
7.77304
 20
125.838
 30
0.0
 11
8.87859
 21
125.838
 31
0.0
  0
LINE
  5
3E2
330
1D
100
AcDbEntity
  8
0
100
AcDbLine
 10
7.78664
 20
125.288
 30
0.0
 11
8.64026
 21
125.288
 31
0.0
  0
LINE
  5
3E5
330
1D
100
AcDbEntity
  8
0
100
AcDbLine
 10
7.78678
 20
125.288
 30
0.0
 11
8.64026
 21
125.288
 31
0.0
  0
LINE
  5
3E6
330
1D
100
AcDbEntity
  8
0
100
AcDbLine
 10
7.77304
 20
133.528
 30
0.0
 11
8.87859
 21
133.528
 31
0.0
  0
LINE
  5
3E7
330
1D
100
AcDbEntity
  8
0
100
AcDbLine
 10
7.77294
 20
133.528
 30
0.0
 11
8.87842
 21
133.528
 31
0.0
  0
LINE
  5
3ED
330
1D
100
AcDbEntity
  8
0
100
AcDbLine
 10
6.47085
 20
134.526
 30
0.0
 11
7.14615
 21
134.526
 31
0.0
  0
LINE
  5
3EE
330
1D
100
AcDbEntity
  8
0
100
AcDbLine
 10
7.14615
 20
134.526
 30
0.0
 11
8.03307
 21
134.526
 31
0.0
  0
LINE
  5
3F0
330
1D
100
AcDbEntity
  8
0
100
AcDbLine
 10
6.47064
 20
134.526
 30
0.0
 11
7.14584
 21
134.526
 31
0.0
  0
LINE
  5
3F1
330
1D
100
AcDbEntity
  8
0
100
AcDbLine
 10
7.14584
 20
134.526
 30
0.0
 11
8.03307
 21
134.526
 31
0.0
  0
LINE
  5
3F2
330
1D
100
AcDbEntity
  8
0
100
AcDbLine
 10
8.20414
 20
122.242
 30
0.0
 11
9.17982
 21
122.242
 31
0.0
  0
LINE
  5
3F5
330
1D
100
AcDbEntity
  8
0
100
AcDbLine
 10
8.20429
 20
122.242
 30
0.0
 11
9.18013
 21
122.242
 31
0.0
  0
LINE
  5
3F7
330
1D
100
AcDbEntity
  8
0
100
AcDbLine
 10
8.30598
 20
103.566
 30
0.0
 11
9.70731
 21
103.566
 31
0.0
  0
LINE
  5
3F8
330
1D
100
AcDbEntity
  8
0
100
AcDbLine
 10
8.30604
 20
103.566
 30
0.0
 11
9.707
 21
103.566
 31
0.0
  0
LINE
  5
3FC
330
1D
100
AcDbEntity
  8
0
100
AcDbLine
 10
8.20414
 20
133.528
 30
0.0
 11
9.17982
 21
133.528
 31
0.0
  0
LINE
  5
3FD
330
1D
100
AcDbEntity
  8
0
100
AcDbLine
 10
8.20429
 20
133.528
 30
0.0
 11
9.18013
 21
133.528
 31
0.0
  0
LINE
  5
3FE
330
1D
100
AcDbEntity
  8
0
100
AcDbLine
 10
8.64026
 20
125.288
 30
0.0
 11
9.68651
 21
125.288
 31
0.0
  0
LINE
  5
3FF
330
1D
100
AcDbEntity
  8
0
100
AcDbLine
 10
8.64026
 20
125.288
 30
0.0
 11
9.68646
 21
125.288
 31
0.0
  0
LINE
  5
40D
330
1D
100
AcDbEntity
  8
0
100
AcDbLine
 10
8.87838
 20
122.242
 30
0.0
 11
10.1737
 21
122.242
 31
0.0
  0
LINE
  5
40E
330
1D
100
AcDbEntity
  8
0
100
AcDbLine
 10
8.8785
 20
114.552
 30
0.0
 11
10.1739
 21
114.552
 31
0.0
  0
LINE
  5
40F
330
1D
100
AcDbEntity
  8
0
100
AcDbLine
 10
8.87859
 20
122.792
 30
0.0
 11
10.1739
 21
122.792
 31
0.0
  0
LINE
  5
410
330
1D
100
AcDbEntity
  8
0
100
AcDbLine
 10
8.87859
 20
114.552
 30
0.0
 11
10.1739
 21
114.552
 31
0.0
  0
LINE
  5
411
330
1D
100
AcDbEntity
  8
0
100
AcDbLine
 10
8.87859
 20
122.242
 30
0.0
 11
10.1739
 21
122.242
 31
0.0
  0
LINE
  5
412
330
1D
100
AcDbEntity
  8
0
100
AcDbLine
 10
8.87859
 20
125.288
 30
0.0
 11
10.1739
 21
125.288
 31
0.0
  0
LINE
  5
413
330
1D
100
AcDbEntity
  8
0
100
AcDbLine
 10
8.87851
 20
122.792
 30
0.0
 11
10.1739
 21
122.792
 31
0.0
  0
LINE
  5
414
330
1D
100
AcDbEntity
  8
0
100
AcDbLine
 10
8.87838
 20
125.288
 30
0.0
 11
10.1737
 21
125.288
 31
0.0
  0
LINE
  5
415
330
1D
100
AcDbEntity
  8
0
100
AcDbLine
 10
8.87851
 20
125.838
 30
0.0
 11
10.1739
 21
125.838
 31
0.0
  0
LINE
  5
417
330
1D
100
AcDbEntity
  8
0
100
AcDbLine
 10
8.87859
 20
125.838
 30
0.0
 11
10.1739
 21
125.838
 31
0.0
  0
LINE
  5
418
330
1D
100
AcDbEntity
  8
0
100
AcDbLine
 10
9.17982
 20
122.242
 30
0.0
 11
10.2898
 21
122.242
 31
0.0
  0
LINE
  5
41A
330
1D
100
AcDbEntity
  8
0
100
AcDbLine
 10
9.18013
 20
122.242
 30
0.0
 11
10.2894
 21
122.242
 31
0.0
  0
LINE
  5
41B
330
1D
100
AcDbEntity
  8
0
100
AcDbLine
 10
9.17982
 20
133.528
 30
0.0
 11
10.2898
 21
133.528
 31
0.0
  0
LINE
  5
41C
330
1D
100
AcDbEntity
  8
0
100
AcDbLine
 10
9.18013
 20
133.528
 30
0.0
 11
10.2894
 21
133.528
 31
0.0
  0
LINE
  5
420
330
1D
100
AcDbEntity
  8
0
100
AcDbLine
 10
8.87859
 20
133.528
 30
0.0
 11
10.1739
 21
133.528
 31
0.0
  0
LINE
  5
421
330
1D
100
AcDbEntity
  8
0
100
AcDbLine
 10
9.12095
 20
134.526
 30
0.0
 11
10.3955
 21
134.526
 31
0.0
  0
LINE
  5
422
330
1D
100
AcDbEntity
  8
0
100
AcDbLine
 10
8.87842
 20
133.528
 30
0.0
 11
10.1738
 21
133.528
 31
0.0
  0
LINE
  5
424
330
1D
100
AcDbEntity
  8
0
100
AcDbLine
 10
9.121
 20
134.526
 30
0.0
 11
10.3956
 21
134.526
 31
0.0
  0
LINE
  5
426
330
1D
100
AcDbEntity
  8
0
100
AcDbLine
 10
9.5222
 20
135.825
 30
0.0
 11
9.5222
 21
134.526
 31
0.0
  0
LINE
  5
427
330
1D
100
AcDbEntity
  8
0
100
AcDbLine
 10
9.5222
 20
135.825
 30
0.0
 11
9.63245
 21
135.825
 31
0.0
  0
LINE
  5
428
330
1D
100
AcDbEntity
  8
0
100
AcDbLine
 10
9.5222
 20
134.526
 30
0.0
 11
9.5222
 21
135.825
 31
0.0
  0
LINE
  5
429
330
1D
100
AcDbEntity
  8
0
100
AcDbLine
 10
9.70731
 20
103.566
 30
0.0
 11
11.2761
 21
103.566
 31
0.0
  0
LINE
  5
42A
330
1D
100
AcDbEntity
  8
0
100
AcDbLine
 10
9.707
 20
103.566
 30
0.0
 11
11.2762
 21
103.566
 31
0.0
  0
LINE
  5
42B
330
1D
100
AcDbEntity
  8
0
100
AcDbLine
 10
9.68646
 20
125.288
 30
0.0
 11
10.9128
 21
125.288
 31
0.0
  0
LINE
  5
42E
330
1D
100
AcDbEntity
  8
0
100
AcDbLine
 10
9.68651
 20
125.288
 30
0.0
 11
10.9126
 21
125.288
 31
0.0
  0
LINE
  5
42F
330
1D
100
AcDbEntity
  8
0
100
AcDbLine
 10
9.96909
 20
135.825
 30
0.0
 11
10.5264
 21
135.825
 31
0.0
  0
LINE
  5
430
330
1D
100
AcDbEntity
  8
0
100
AcDbLine
 10
9.63245
 20
135.825
 30
0.0
 11
9.96909
 21
135.825
 31
0.0
  0
LINE
  5
431
330
1D
100
AcDbEntity
  8
0
100
AcDbLine
 10
9.52222
 20
135.825
 30
0.0
 11
9.63247
 21
135.825
 31
0.0
  0
LINE
  5
432
330
1D
100
AcDbEntity
  8
0
100
AcDbLine
 10
9.52222
 20
135.825
 30
0.0
 11
9.72029
 21
136.024
 31
0.0
  0
LINE
  5
433
330
1D
100
AcDbEntity
  8
0
100
AcDbLine
 10
9.63247
 20
135.825
 30
0.0
 11
9.9691
 21
135.825
 31
0.0
  0
LINE
  5
43F
330
1D
100
AcDbEntity
  8
0
100
AcDbLine
 10
10.1737
 20
122.242
 30
0.0
 11
11.643
 21
122.242
 31
0.0
  0
LINE
  5
441
330
1D
100
AcDbEntity
  8
0
100
AcDbLine
 10
10.1737
 20
125.288
 30
0.0
 11
11.643
 21
125.288
 31
0.0
  0
LINE
  5
443
330
1D
100
AcDbEntity
  8
0
100
AcDbLine
 10
10.1739
 20
114.552
 30
0.0
 11
11.6428
 21
114.552
 31
0.0
  0
LINE
  5
444
330
1D
100
AcDbEntity
  8
0
100
AcDbLine
 10
10.1739
 20
114.552
 30
0.0
 11
11.6431
 21
114.552
 31
0.0
  0
LINE
  5
445
330
1D
100
AcDbEntity
  8
0
100
AcDbLine
 10
10.1739
 20
122.242
 30
0.0
 11
11.6428
 21
122.242
 31
0.0
  0
LINE
  5
446
330
1D
100
AcDbEntity
  8
0
100
AcDbLine
 10
10.1739
 20
122.792
 30
0.0
 11
11.6428
 21
122.792
 31
0.0
  0
LINE
  5
447
330
1D
100
AcDbEntity
  8
0
100
AcDbLine
 10
10.1739
 20
122.792
 30
0.0
 11
11.6431
 21
122.792
 31
0.0
  0
LINE
  5
448
330
1D
100
AcDbEntity
  8
0
100
AcDbLine
 10
10.1739
 20
125.288
 30
0.0
 11
11.6428
 21
125.288
 31
0.0
  0
LINE
  5
44A
330
1D
100
AcDbEntity
  8
0
100
AcDbLine
 10
10.2898
 20
122.242
 30
0.0
 11
11.5234
 21
122.242
 31
0.0
  0
LINE
  5
44B
330
1D
100
AcDbEntity
  8
0
100
AcDbLine
 10
10.2894
 20
122.242
 30
0.0
 11
11.5233
 21
122.242
 31
0.0
  0
LINE
  5
44D
330
1D
100
AcDbEntity
  8
0
100
AcDbLine
 10
10.2898
 20
133.528
 30
0.0
 11
11.5234
 21
133.528
 31
0.0
  0
LINE
  5
44E
330
1D
100
AcDbEntity
  8
0
100
AcDbLine
 10
10.2894
 20
133.528
 30
0.0
 11
11.5233
 21
133.528
 31
0.0
  0
LINE
  5
451
330
1D
100
AcDbEntity
  8
0
100
AcDbLine
 10
10.1739
 20
125.838
 30
0.0
 11
11.6428
 21
125.838
 31
0.0
  0
LINE
  5
452
330
1D
100
AcDbEntity
  8
0
100
AcDbLine
 10
10.1739
 20
125.838
 30
0.0
 11
11.6431
 21
125.838
 31
0.0
  0
LINE
  5
453
330
1D
100
AcDbEntity
  8
0
100
AcDbLine
 10
10.3955
 20
134.526
 30
0.0
 11
11.8408
 21
134.526
 31
0.0
  0
LINE
  5
454
330
1D
100
AcDbEntity
  8
0
100
AcDbLine
 10
10.1739
 20
133.528
 30
0.0
 11
11.6428
 21
133.528
 31
0.0
  0
LINE
  5
455
330
1D
100
AcDbEntity
  8
0
100
AcDbLine
 10
10.1738
 20
133.528
 30
0.0
 11
11.643
 21
133.528
 31
0.0
  0
LINE
  5
456
330
1D
100
AcDbEntity
  8
0
100
AcDbLine
 10
10.3956
 20
134.526
 30
0.0
 11
11.8408
 21
134.526
 31
0.0
  0
LINE
  5
458
330
1D
100
AcDbEntity
  8
0
100
AcDbLine
 10
10.5264
 20
135.825
 30
0.0
 11
11.2963
 21
135.825
 31
0.0
  0
LINE
  5
459
330
1D
100
AcDbEntity
  8
0
100
AcDbLine
 10
9.9691
 20
135.825
 30
0.0
 11
10.5265
 21
135.825
 31
0.0
  0
LINE
  5
45A
330
1D
100
AcDbEntity
  8
0
100
AcDbLine
 10
9.72035
 20
136.024
 30
0.0
 11
9.82891
 21
136.024
 31
0.0
  0
LINE
  5
45B
330
1D
100
AcDbEntity
  8
0
100
AcDbLine
 10
9.72029
 20
136.024
 30
0.0
 11
9.82891
 21
136.024
 31
0.0
  0
LINE
  5
45C
330
1D
100
AcDbEntity
  8
0
100
AcDbLine
 10
10.1609
 20
136.024
 30
0.0
 11
10.7109
 21
136.024
 31
0.0
  0
LINE
  5
45D
330
1D
100
AcDbEntity
  8
0
100
AcDbLine
 10
9.82891
 20
136.024
 30
0.0
 11
10.1608
 21
136.024
 31
0.0
  0
LINE
  5
45E
330
1D
100
AcDbEntity
  8
0
100
AcDbLine
 10
9.82891
 20
136.024
 30
0.0
 11
10.1609
 21
136.024
 31
0.0
  0
LINE
  5
45F
330
1D
100
AcDbEntity
  8
0
100
AcDbLine
 10
10.1608
 20
136.024
 30
0.0
 11
10.7108
 21
136.024
 31
0.0
  0
LINE
  5
460
330
1D
100
AcDbEntity
  8
0
100
AcDbLine
 10
10.7109
 20
136.024
 30
0.0
 11
11.4702
 21
136.024
 31
0.0
  0
LINE
  5
461
330
1D
100
AcDbEntity
  8
0
100
AcDbLine
 10
10.7108
 20
136.024
 30
0.0
 11
11.47
 21
136.024
 31
0.0
  0
LINE
  5
462
330
1D
100
AcDbEntity
  8
0
100
AcDbLine
 10
10.5265
 20
135.825
 30
0.0
 11
11.2964
 21
135.825
 31
0.0
  0
LINE
  5
463
330
1D
100
AcDbEntity
  8
0
100
AcDbLine
 10
10.9116
 20
136.065
 30
0.0
 11
11.0203
 21
136.174
 31
0.0
  0
LINE
  5
464
330
1D
100
AcDbEntity
  8
0
100
AcDbLine
 10
10.9126
 20
125.288
 30
0.0
 11
12.303
 21
125.288
 31
0.0
  0
LINE
  5
465
330
1D
100
AcDbEntity
  8
0
100
AcDbLine
 10
10.9128
 20
125.288
 30
0.0
 11
12.303
 21
125.288
 31
0.0
  0
LINE
  5
466
330
1D
100
AcDbEntity
  8
0
100
AcDbLine
 10
11.0203
 20
136.174
 30
0.0
 11
11.0601
 21
136.324
 31
0.0
  0
LINE
  5
467
330
1D
100
AcDbEntity
  8
0
100
AcDbLine
 10
10.7631
 20
136.024
 30
0.0
 11
10.9116
 21
136.065
 31
0.0
  0
LINE
  5
468
330
1D
100
AcDbEntity
  8
0
100
AcDbLine
 10
11.06
 20
138.222
 30
0.0
 11
11.06
 21
136.324
 31
0.0
  0
LINE
  5
469
330
1D
100
AcDbEntity
  8
0
100
AcDbLine
 10
11.06
 20
138.222
 30
0.0
 11
11.2022
 21
138.222
 31
0.0
  0
LINE
  5
46C
330
1D
100
AcDbEntity
  8
0
100
AcDbLine
 10
11.0601
 20
136.324
 30
0.0
 11
11.2025
 21
136.324
 31
0.0
  0
LINE
  5
46D
330
1D
100
AcDbEntity
  8
0
100
AcDbLine
 10
11.2022
 20
136.324
 30
0.0
 11
11.5632
 21
136.324
 31
0.0
  0
LINE
  5
46E
330
1D
100
AcDbEntity
  8
0
100
AcDbLine
 10
11.06
 20
136.324
 30
0.0
 11
11.06
 21
138.222
 31
0.0
  0
LINE
  5
46F
330
1D
100
AcDbEntity
  8
0
100
AcDbLine
 10
11.06
 20
136.324
 30
0.0
 11
11.2022
 21
136.324
 31
0.0
  0
LINE
  5
470
330
1D
100
AcDbEntity
  8
0
100
AcDbLine
 10
11.0599
 20
138.222
 30
0.0
 11
11.2022
 21
138.222
 31
0.0
  0
LINE
  5
471
330
1D
100
AcDbEntity
  8
0
100
AcDbLine
 10
11.2761
 20
103.566
 30
0.0
 11
12.9936
 21
103.566
 31
0.0
  0
LINE
  5
472
330
1D
100
AcDbEntity
  8
0
100
AcDbLine
 10
11.2762
 20
103.566
 30
0.0
 11
12.9938
 21
103.566
 31
0.0
  0
LINE
  5
473
330
1D
100
AcDbEntity
  8
0
100
AcDbLine
 10
11.2963
 20
135.825
 30
0.0
 11
12.2665
 21
135.825
 31
0.0
  0
LINE
  5
47D
330
1D
100
AcDbEntity
  8
0
100
AcDbLine
 10
11.4702
 20
136.024
 30
0.0
 11
12.4268
 21
136.024
 31
0.0
  0
LINE
  5
481
330
1D
100
AcDbEntity
  8
0
100
AcDbLine
 10
11.5234
 20
122.242
 30
0.0
 11
12.87
 21
122.242
 31
0.0
  0
LINE
  5
482
330
1D
100
AcDbEntity
  8
0
100
AcDbLine
 10
11.5233
 20
122.242
 30
0.0
 11
12.8697
 21
122.242
 31
0.0
  0
LINE
  5
484
330
1D
100
AcDbEntity
  8
0
100
AcDbLine
 10
11.5234
 20
133.528
 30
0.0
 11
12.87
 21
133.528
 31
0.0
  0
LINE
  5
485
330
1D
100
AcDbEntity
  8
0
100
AcDbLine
 10
11.5233
 20
133.528
 30
0.0
 11
12.8697
 21
133.528
 31
0.0
  0
LINE
  5
489
330
1D
100
AcDbEntity
  8
0
100
AcDbLine
 10
11.47
 20
136.024
 30
0.0
 11
12.427
 21
136.024
 31
0.0
  0
LINE
  5
48A
330
1D
100
AcDbEntity
  8
0
100
AcDbLine
 10
11.2964
 20
135.825
 30
0.0
 11
12.2665
 21
135.825
 31
0.0
  0
LINE
  5
48B
330
1D
100
AcDbEntity
  8
0
100
AcDbLine
 10
11.2025
 20
136.324
 30
0.0
 11
11.5635
 21
136.324
 31
0.0
  0
LINE
  5
48C
330
1D
100
AcDbEntity
  8
0
100
AcDbLine
 10
11.6428
 20
114.552
 30
0.0
 11
13.2672
 21
114.552
 31
0.0
  0
LINE
  5
48D
330
1D
100
AcDbEntity
  8
0
100
AcDbLine
 10
11.6428
 20
122.242
 30
0.0
 11
13.2672
 21
122.242
 31
0.0
  0
LINE
  5
48E
330
1D
100
AcDbEntity
  8
0
100
AcDbLine
 10
11.6428
 20
122.792
 30
0.0
 11
13.2672
 21
122.792
 31
0.0
  0
LINE
  5
48F
330
1D
100
AcDbEntity
  8
0
100
AcDbLine
 10
11.6428
 20
125.288
 30
0.0
 11
13.2672
 21
125.288
 31
0.0
  0
LINE
  5
490
330
1D
100
AcDbEntity
  8
0
100
AcDbLine
 10
11.643
 20
122.242
 30
0.0
 11
13.2674
 21
122.242
 31
0.0
  0
LINE
  5
491
330
1D
100
AcDbEntity
  8
0
100
AcDbLine
 10
11.643
 20
125.288
 30
0.0
 11
13.2674
 21
125.288
 31
0.0
  0
LINE
  5
492
330
1D
100
AcDbEntity
  8
0
100
AcDbLine
 10
11.6428
 20
125.838
 30
0.0
 11
13.2672
 21
125.838
 31
0.0
  0
LINE
  5
493
330
1D
100
AcDbEntity
  8
0
100
AcDbLine
 10
11.6428
 20
133.528
 30
0.0
 11
13.2672
 21
133.528
 31
0.0
  0
LINE
  5
494
330
1D
100
AcDbEntity
  8
0
100
AcDbLine
 10
11.6431
 20
114.552
 30
0.0
 11
13.2675
 21
114.552
 31
0.0
  0
LINE
  5
495
330
1D
100
AcDbEntity
  8
0
100
AcDbLine
 10
11.6431
 20
122.792
 30
0.0
 11
13.2676
 21
122.792
 31
0.0
  0
LINE
  5
49A
330
1D
100
AcDbEntity
  8
0
100
AcDbLine
 10
11.6431
 20
125.838
 30
0.0
 11
13.2676
 21
125.838
 31
0.0
  0
LINE
  5
49B
330
1D
100
AcDbEntity
  8
0
100
AcDbLine
 10
11.643
 20
133.528
 30
0.0
 11
13.2675
 21
133.528
 31
0.0
  0
LINE
  5
49C
330
1D
100
AcDbEntity
  8
0
100
AcDbLine
 10
11.8408
 20
134.526
 30
0.0
 11
13.4391
 21
134.526
 31
0.0
  0
LINE
  5
49D
330
1D
100
AcDbEntity
  8
0
100
AcDbLine
 10
11.5635
 20
136.324
 30
0.0
 11
12.137
 21
136.324
 31
0.0
  0
LINE
  5
49E
330
1D
100
AcDbEntity
  8
0
100
AcDbLine
 10
11.5632
 20
138.222
 30
0.0
 11
12.137
 21
138.222
 31
0.0
  0
LINE
  5
49F
330
1D
100
AcDbEntity
  8
0
100
AcDbLine
 10
11.5632
 20
136.324
 30
0.0
 11
12.137
 21
136.324
 31
0.0
  0
LINE
  5
4A0
330
1D
100
AcDbEntity
  8
0
100
AcDbLine
 10
11.2022
 20
138.222
 30
0.0
 11
11.5633
 21
138.222
 31
0.0
  0
LINE
  5
4A1
330
1D
100
AcDbEntity
  8
0
100
AcDbLine
 10
11.2022
 20
138.222
 30
0.0
 11
11.5632
 21
138.222
 31
0.0
  0
LINE
  5
4A2
330
1D
100
AcDbEntity
  8
0
100
AcDbLine
 10
11.5633
 20
138.222
 30
0.0
 11
12.1368
 21
138.222
 31
0.0
  0
LINE
  5
4A3
330
1D
100
AcDbEntity
  8
0
100
AcDbLine
 10
12.87
 20
122.242
 30
0.0
 11
14.3173
 21
122.242
 31
0.0
  0
LINE
  5
4A6
330
1D
100
AcDbEntity
  8
0
100
AcDbLine
 10
12.87
 20
133.528
 30
0.0
 11
14.3173
 21
133.528
 31
0.0
  0
LINE
  5
4A7
330
1D
100
AcDbEntity
  8
0
100
AcDbLine
 10
12.8697
 20
133.528
 30
0.0
 11
14.317
 21
133.528
 31
0.0
  0
LINE
  5
4A8
330
1D
100
AcDbEntity
  8
0
100
AcDbLine
 10
12.8697
 20
122.242
 30
0.0
 11
14.317
 21
122.242
 31
0.0
  0
LINE
  5
4A9
330
1D
100
AcDbEntity
  8
0
100
AcDbLine
 10
12.303
 20
125.288
 30
0.0
 11
13.8407
 21
125.288
 31
0.0
  0
LINE
  5
4AA
330
1D
100
AcDbEntity
  8
0
100
AcDbLine
 10
12.303
 20
125.288
 30
0.0
 11
13.8404
 21
125.288
 31
0.0
  0
LINE
  5
4AB
330
1D
100
AcDbEntity
  8
0
100
AcDbLine
 10
12.4268
 20
136.024
 30
0.0
 11
13.566
 21
136.024
 31
0.0
  0
LINE
  5
4AC
330
1D
100
AcDbEntity
  8
0
100
AcDbLine
 10
12.427
 20
136.024
 30
0.0
 11
13.5658
 21
136.024
 31
0.0
  0
LINE
  5
4AD
330
1D
100
AcDbEntity
  8
0
100
AcDbLine
 10
12.2665
 20
135.825
 30
0.0
 11
13.4209
 21
135.825
 31
0.0
  0
LINE
  5
4AE
330
1D
100
AcDbEntity
  8
0
100
AcDbLine
 10
12.9936
 20
103.566
 30
0.0
 11
14.8407
 21
103.566
 31
0.0
  0
LINE
  5
4AF
330
1D
100
AcDbEntity
  8
0
100
AcDbLine
 10
12.9938
 20
103.566
 30
0.0
 11
14.8404
 21
103.566
 31
0.0
  0
LINE
  5
4BE
330
1D
100
AcDbEntity
  8
0
100
AcDbLine
 10
13.2672
 20
114.552
 30
0.0
 11
15.0263
 21
114.552
 31
0.0
  0
LINE
  5
4C0
330
1D
100
AcDbEntity
  8
0
100
AcDbLine
 10
13.2672
 20
122.242
 30
0.0
 11
15.0263
 21
122.242
 31
0.0
  0
LINE
  5
4C1
330
1D
100
AcDbEntity
  8
0
100
AcDbLine
 10
13.2672
 20
122.792
 30
0.0
 11
15.0263
 21
122.792
 31
0.0
  0
LINE
  5
4C5
330
1D
100
AcDbEntity
  8
0
100
AcDbLine
 10
13.2672
 20
125.288
 30
0.0
 11
15.0263
 21
125.288
 31
0.0
  0
LINE
  5
4C6
330
1D
100
AcDbEntity
  8
0
100
AcDbLine
 10
13.2672
 20
125.838
 30
0.0
 11
15.0263
 21
125.838
 31
0.0
  0
LINE
  5
4C7
330
1D
100
AcDbEntity
  8
0
100
AcDbLine
 10
13.2674
 20
122.242
 30
0.0
 11
15.0263
 21
122.242
 31
0.0
  0
LINE
  5
4C8
330
1D
100
AcDbEntity
  8
0
100
AcDbLine
 10
13.2675
 20
114.552
 30
0.0
 11
15.0264
 21
114.552
 31
0.0
  0
LINE
  5
4C9
330
1D
100
AcDbEntity
  8
0
100
AcDbLine
 10
13.2676
 20
122.792
 30
0.0
 11
15.0264
 21
122.792
 31
0.0
  0
LINE
  5
4CA
330
1D
100
AcDbEntity
  8
0
100
AcDbLine
 10
13.2674
 20
125.288
 30
0.0
 11
15.0263
 21
125.288
 31
0.0
  0
LINE
  5
4CB
330
1D
100
AcDbEntity
  8
0
100
AcDbLine
 10
13.2676
 20
125.838
 30
0.0
 11
15.0264
 21
125.838
 31
0.0
  0
LINE
  5
4CC
330
1D
100
AcDbEntity
  8
0
100
AcDbLine
 10
13.2672
 20
133.528
 30
0.0
 11
15.0263
 21
133.528
 31
0.0
  0
LINE
  5
4CD
330
1D
100
AcDbEntity
  8
0
100
AcDbLine
 10
13.2675
 20
133.528
 30
0.0
 11
15.0263
 21
133.528
 31
0.0
  0
LINE
  5
4D0
330
1D
100
AcDbEntity
  8
0
100
AcDbLine
 10
14.8407
 20
103.566
 30
0.0
 11
16.7945
 21
103.566
 31
0.0
  0
LINE
  5
4D1
330
1D
100
AcDbEntity
  8
0
100
AcDbLine
 10
14.8404
 20
103.566
 30
0.0
 11
16.7945
 21
103.566
 31
0.0
  0
LINE
  5
4D3
330
1D
100
AcDbEntity
  8
0
100
AcDbLine
 10
14.3173
 20
122.242
 30
0.0
 11
15.8519
 21
122.242
 31
0.0
  0
LINE
  5
4D4
330
1D
100
AcDbEntity
  8
0
100
AcDbLine
 10
14.317
 20
122.242
 30
0.0
 11
15.8516
 21
122.242
 31
0.0
  0
LINE
  5
4DA
330
1D
100
AcDbEntity
  8
0
100
AcDbLine
 10
13.8404
 20
125.288
 30
0.0
 11
15.5055
 21
125.288
 31
0.0
  0
LINE
  5
4DB
330
1D
100
AcDbEntity
  8
0
100
AcDbLine
 10
13.8407
 20
125.288
 30
0.0
 11
15.5053
 21
125.288
 31
0.0
  0
LINE
  5
4E1
330
1D
100
AcDbEntity
  8
0
100
AcDbLine
 10
14.3173
 20
133.528
 30
0.0
 11
15.8519
 21
133.528
 31
0.0
  0
LINE
  5
4E2
330
1D
100
AcDbEntity
  8
0
100
AcDbLine
 10
14.317
 20
133.528
 30
0.0
 11
15.8516
 21
133.528
 31
0.0
  0
LINE
  5
4E9
330
1D
100
AcDbEntity
  8
0
100
AcDbLine
 10
13.4391
 20
134.526
 30
0.0
 11
15.1701
 21
134.526
 31
0.0
  0
LINE
  5
4EA
330
1D
100
AcDbEntity
  8
0
100
AcDbLine
 10
13.4391
 20
134.526
 30
0.0
 11
15.17
 21
134.526
 31
0.0
  0
LINE
  5
4ED
330
1D
100
AcDbEntity
  8
0
100
AcDbLine
 10
13.4209
 20
135.825
 30
0.0
 11
14.7426
 21
135.825
 31
0.0
  0
LINE
  5
4EE
330
1D
100
AcDbEntity
  8
0
100
AcDbLine
 10
14.8692
 20
136.024
 30
0.0
 11
16.316
 21
136.024
 31
0.0
  0
LINE
  5
4EF
330
1D
100
AcDbEntity
  8
0
100
AcDbLine
 10
13.566
 20
136.024
 30
0.0
 11
14.8692
 21
136.024
 31
0.0
  0
LINE
  5
4F0
330
1D
100
AcDbEntity
  8
0
100
AcDbLine
 10
13.5658
 20
136.024
 30
0.0
 11
14.8693
 21
136.024
 31
0.0
  0
LINE
  5
4F1
330
1D
100
AcDbEntity
  8
0
100
AcDbLine
 10
14.8693
 20
136.024
 30
0.0
 11
16.3162
 21
136.024
 31
0.0
  0
LINE
  5
4F2
330
1D
100
AcDbEntity
  8
0
100
AcDbLine
 10
14.7426
 20
135.825
 30
0.0
 11
16.2098
 21
135.825
 31
0.0
  0
LINE
  5
4F3
330
1D
100
AcDbEntity
  8
0
100
AcDbLine
 10
14.7426
 20
135.825
 30
0.0
 11
16.2097
 21
135.825
 31
0.0
  0
LINE
  5
4F4
330
1D
100
AcDbEntity
  8
0
100
AcDbLine
 10
12.9133
 20
136.324
 30
0.0
 11
13.8792
 21
136.324
 31
0.0
  0
LINE
  5
4F5
330
1D
100
AcDbEntity
  8
0
100
AcDbLine
 10
13.8792
 20
136.324
 30
0.0
 11
15.0181
 21
136.324
 31
0.0
  0
LINE
  5
4F6
330
1D
100
AcDbEntity
  8
0
100
AcDbLine
 10
15.0176
 20
136.324
 30
0.0
 11
16.3097
 21
136.324
 31
0.0
  0
LINE
  5
4F7
330
1D
100
AcDbEntity
  8
0
100
AcDbLine
 10
13.8789
 20
136.324
 30
0.0
 11
15.0176
 21
136.324
 31
0.0
  0
LINE
  5
4F8
330
1D
100
AcDbEntity
  8
0
100
AcDbLine
 10
12.9131
 20
136.324
 30
0.0
 11
13.8789
 21
136.324
 31
0.0
  0
LINE
  5
4F9
330
1D
100
AcDbEntity
  8
0
100
AcDbLine
 10
15.0176
 20
138.222
 30
0.0
 11
16.3097
 21
138.222
 31
0.0
  0
LINE
  5
4FA
330
1D
100
AcDbEntity
  8
0
100
AcDbLine
 10
12.137
 20
138.222
 30
0.0
 11
12.9131
 21
138.222
 31
0.0
  0
LINE
  5
4FB
330
1D
100
AcDbEntity
  8
0
100
AcDbLine
 10
12.137
 20
136.324
 30
0.0
 11
12.9131
 21
136.324
 31
0.0
  0
LINE
  5
4FC
330
1D
100
AcDbEntity
  8
0
100
AcDbLine
 10
12.137
 20
136.324
 30
0.0
 11
12.9133
 21
136.324
 31
0.0
  0
LINE
  5
4FD
330
1D
100
AcDbEntity
  8
0
100
AcDbLine
 10
12.1368
 20
138.222
 30
0.0
 11
12.9131
 21
138.222
 31
0.0
  0
LINE
  5
4FE
330
1D
100
AcDbEntity
  8
0
100
AcDbLine
 10
12.9131
 20
138.222
 30
0.0
 11
15.0178
 21
138.222
 31
0.0
  0
LINE
  5
4FF
330
1D
100
AcDbEntity
  8
0
100
AcDbLine
 10
12.9131
 20
138.222
 30
0.0
 11
15.0176
 21
138.222
 31
0.0
  0
LINE
  5
500
330
1D
100
AcDbEntity
  8
0
100
AcDbLine
 10
15.0263
 20
114.552
 30
0.0
 11
16.8982
 21
114.552
 31
0.0
  0
LINE
  5
501
330
1D
100
AcDbEntity
  8
0
100
AcDbLine
 10
15.0263
 20
122.242
 30
0.0
 11
16.8981
 21
122.242
 31
0.0
  0
LINE
  5
502
330
1D
100
AcDbEntity
  8
0
100
AcDbLine
 10
15.0263
 20
122.242
 30
0.0
 11
16.8982
 21
122.242
 31
0.0
  0
LINE
  5
503
330
1D
100
AcDbEntity
  8
0
100
AcDbLine
 10
15.0263
 20
122.792
 30
0.0
 11
16.8982
 21
122.792
 31
0.0
  0
LINE
  5
504
330
1D
100
AcDbEntity
  8
0
100
AcDbLine
 10
15.0263
 20
125.288
 30
0.0
 11
16.8981
 21
125.288
 31
0.0
  0
LINE
  5
505
330
1D
100
AcDbEntity
  8
0
100
AcDbLine
 10
15.0263
 20
125.288
 30
0.0
 11
16.8982
 21
125.288
 31
0.0
  0
LINE
  5
506
330
1D
100
AcDbEntity
  8
0
100
AcDbLine
 10
15.0263
 20
125.838
 30
0.0
 11
16.8982
 21
125.838
 31
0.0
  0
LINE
  5
507
330
1D
100
AcDbEntity
  8
0
100
AcDbLine
 10
15.0264
 20
114.552
 30
0.0
 11
16.8982
 21
114.552
 31
0.0
  0
LINE
  5
508
330
1D
100
AcDbEntity
  8
0
100
AcDbLine
 10
15.0264
 20
122.792
 30
0.0
 11
16.8982
 21
122.792
 31
0.0
  0
LINE
  5
50B
330
1D
100
AcDbEntity
  8
0
100
AcDbLine
 10
15.8519
 20
122.242
 30
0.0
 11
17.4603
 21
122.242
 31
0.0
  0
LINE
  5
50C
330
1D
100
AcDbEntity
  8
0
100
AcDbLine
 10
15.8516
 20
122.242
 30
0.0
 11
17.4602
 21
122.242
 31
0.0
  0
LINE
  5
50D
330
1D
100
AcDbEntity
  8
0
100
AcDbLine
 10
15.5055
 20
125.288
 30
0.0
 11
17.2771
 21
125.288
 31
0.0
  0
LINE
  5
50E
330
1D
100
AcDbEntity
  8
0
100
AcDbLine
 10
15.5053
 20
125.288
 30
0.0
 11
17.2774
 21
125.288
 31
0.0
  0
LINE
  5
50F
330
1D
100
AcDbEntity
  8
0
100
AcDbLine
 10
15.17
 20
134.526
 30
0.0
 11
17.0119
 21
134.526
 31
0.0
  0
LINE
  5
510
330
1D
100
AcDbEntity
  8
0
100
AcDbLine
 10
15.8519
 20
133.528
 30
0.0
 11
17.4603
 21
133.528
 31
0.0
  0
LINE
  5
511
330
1D
100
AcDbEntity
  8
0
100
AcDbLine
 10
15.8516
 20
133.528
 30
0.0
 11
17.4602
 21
133.528
 31
0.0
  0
LINE
  5
512
330
1D
100
AcDbEntity
  8
0
100
AcDbLine
 10
15.0264
 20
125.838
 30
0.0
 11
16.8982
 21
125.838
 31
0.0
  0
LINE
  5
513
330
1D
100
AcDbEntity
  8
0
100
AcDbLine
 10
15.0263
 20
133.528
 30
0.0
 11
16.8982
 21
133.528
 31
0.0
  0
LINE
  5
514
330
1D
100
AcDbEntity
  8
0
100
AcDbLine
 10
15.1701
 20
134.526
 30
0.0
 11
17.012
 21
134.526
 31
0.0
  0
LINE
  5
517
330
1D
100
AcDbEntity
  8
0
100
AcDbLine
 10
16.7945
 20
103.566
 30
0.0
 11
18.8324
 21
103.566
 31
0.0
  0
LINE
  5
518
330
1D
100
AcDbEntity
  8
0
100
AcDbLine
 10
16.7945
 20
103.566
 30
0.0
 11
18.8329
 21
103.566
 31
0.0
  0
LINE
  5
523
330
1D
100
AcDbEntity
  8
0
100
AcDbLine
 10
16.8982
 20
114.552
 30
0.0
 11
18.8591
 21
114.552
 31
0.0
  0
LINE
  5
524
330
1D
100
AcDbEntity
  8
0
100
AcDbLine
 10
16.8982
 20
114.552
 30
0.0
 11
18.859
 21
114.552
 31
0.0
  0
LINE
  5
525
330
1D
100
AcDbEntity
  8
0
100
AcDbLine
 10
16.8982
 20
122.242
 30
0.0
 11
18.8591
 21
122.242
 31
0.0
  0
LINE
  5
526
330
1D
100
AcDbEntity
  8
0
100
AcDbLine
 10
16.8981
 20
122.242
 30
0.0
 11
18.8589
 21
122.242
 31
0.0
  0
LINE
  5
527
330
1D
100
AcDbEntity
  8
0
100
AcDbLine
 10
16.8982
 20
122.792
 30
0.0
 11
18.8591
 21
122.792
 31
0.0
  0
LINE
  5
528
330
1D
100
AcDbEntity
  8
0
100
AcDbLine
 10
16.8982
 20
122.792
 30
0.0
 11
18.859
 21
122.792
 31
0.0
  0
LINE
  5
529
330
1D
100
AcDbEntity
  8
0
100
AcDbLine
 10
16.8982
 20
125.288
 30
0.0
 11
18.8591
 21
125.288
 31
0.0
  0
LINE
  5
52A
330
1D
100
AcDbEntity
  8
0
100
AcDbLine
 10
16.8981
 20
125.288
 30
0.0
 11
18.8589
 21
125.288
 31
0.0
  0
LINE
  5
52C
330
1D
100
AcDbEntity
  8
0
100
AcDbLine
 10
16.8982
 20
125.838
 30
0.0
 11
18.8591
 21
125.838
 31
0.0
  0
LINE
  5
52D
330
1D
100
AcDbEntity
  8
0
100
AcDbLine
 10
16.8982
 20
125.838
 30
0.0
 11
18.859
 21
125.838
 31
0.0
  0
LINE
  5
52E
330
1D
100
AcDbEntity
  8
0
100
AcDbLine
 10
17.4603
 20
122.242
 30
0.0
 11
19.1279
 21
122.242
 31
0.0
  0
LINE
  5
531
330
1D
100
AcDbEntity
  8
0
100
AcDbLine
 10
17.4602
 20
122.242
 30
0.0
 11
19.1277
 21
122.242
 31
0.0
  0
LINE
  5
532
330
1D
100
AcDbEntity
  8
0
100
AcDbLine
 10
17.2771
 20
125.288
 30
0.0
 11
19.1334
 21
125.288
 31
0.0
  0
LINE
  5
533
330
1D
100
AcDbEntity
  8
0
100
AcDbLine
 10
17.4603
 20
133.528
 30
0.0
 11
19.1279
 21
133.528
 31
0.0
  0
LINE
  5
534
330
1D
100
AcDbEntity
  8
0
100
AcDbLine
 10
17.4602
 20
133.528
 30
0.0
 11
19.1277
 21
133.528
 31
0.0
  0
LINE
  5
535
330
1D
100
AcDbEntity
  8
0
100
AcDbLine
 10
17.2774
 20
125.288
 30
0.0
 11
19.133
 21
125.288
 31
0.0
  0
LINE
  5
536
330
1D
100
AcDbEntity
  8
0
100
AcDbLine
 10
16.8982
 20
133.528
 30
0.0
 11
18.8589
 21
133.528
 31
0.0
  0
LINE
  5
537
330
1D
100
AcDbEntity
  8
0
100
AcDbLine
 10
16.8982
 20
133.528
 30
0.0
 11
18.8591
 21
133.528
 31
0.0
  0
LINE
  5
53B
330
1D
100
AcDbEntity
  8
0
100
AcDbLine
 10
17.0119
 20
134.526
 30
0.0
 11
18.9414
 21
134.526
 31
0.0
  0
LINE
  5
53C
330
1D
100
AcDbEntity
  8
0
100
AcDbLine
 10
17.012
 20
134.526
 30
0.0
 11
18.9412
 21
134.526
 31
0.0
  0
LINE
  5
53E
330
1D
100
AcDbEntity
  8
0
100
AcDbLine
 10
16.2097
 20
135.825
 30
0.0
 11
17.7992
 21
135.825
 31
0.0
  0
LINE
  5
53F
330
1D
100
AcDbEntity
  8
0
100
AcDbLine
 10
16.316
 20
136.024
 30
0.0
 11
17.8839
 21
136.024
 31
0.0
  0
LINE
  5
540
330
1D
100
AcDbEntity
  8
0
100
AcDbLine
 10
16.3162
 20
136.024
 30
0.0
 11
17.8842
 21
136.024
 31
0.0
  0
LINE
  5
541
330
1D
100
AcDbEntity
  8
0
100
AcDbLine
 10
16.2098
 20
135.825
 30
0.0
 11
17.7992
 21
135.825
 31
0.0
  0
LINE
  5
542
330
1D
100
AcDbEntity
  8
0
100
AcDbLine
 10
15.0181
 20
136.324
 30
0.0
 11
16.31
 21
136.324
 31
0.0
  0
LINE
  5
543
330
1D
100
AcDbEntity
  8
0
100
AcDbLine
 10
16.31
 20
136.324
 30
0.0
 11
17.7335
 21
136.324
 31
0.0
  0
LINE
  5
544
330
1D
100
AcDbEntity
  8
0
100
AcDbLine
 10
17.7333
 20
136.324
 30
0.0
 11
19.2637
 21
136.324
 31
0.0
  0
LINE
  5
545
330
1D
100
AcDbEntity
  8
0
100
AcDbLine
 10
16.3097
 20
138.222
 30
0.0
 11
17.7333
 21
138.222
 31
0.0
  0
LINE
  5
546
330
1D
100
AcDbEntity
  8
0
100
AcDbLine
 10
16.3097
 20
136.324
 30
0.0
 11
17.7333
 21
136.324
 31
0.0
  0
LINE
  5
547
330
1D
100
AcDbEntity
  8
0
100
AcDbLine
 10
15.0178
 20
138.222
 30
0.0
 11
16.3098
 21
138.222
 31
0.0
  0
LINE
  5
548
330
1D
100
AcDbEntity
  8
0
100
AcDbLine
 10
16.3098
 20
138.222
 30
0.0
 11
17.7333
 21
138.222
 31
0.0
  0
LINE
  5
558
330
1D
100
AcDbEntity
  8
0
100
AcDbLine
 10
18.8329
 20
103.566
 30
0.0
 11
20.9315
 21
103.566
 31
0.0
  0
LINE
  5
559
330
1D
100
AcDbEntity
  8
0
100
AcDbLine
 10
18.8324
 20
103.566
 30
0.0
 11
20.9313
 21
103.566
 31
0.0
  0
LINE
  5
55A
330
1D
100
AcDbEntity
  8
0
100
AcDbLine
 10
18.8589
 20
122.242
 30
0.0
 11
20.8845
 21
122.242
 31
0.0
  0
LINE
  5
55B
330
1D
100
AcDbEntity
  8
0
100
AcDbLine
 10
18.859
 20
114.552
 30
0.0
 11
20.8847
 21
114.552
 31
0.0
  0
LINE
  5
55C
330
1D
100
AcDbEntity
  8
0
100
AcDbLine
 10
18.8591
 20
114.552
 30
0.0
 11
20.8844
 21
114.552
 31
0.0
  0
LINE
  5
55D
330
1D
100
AcDbEntity
  8
0
100
AcDbLine
 10
18.8591
 20
122.242
 30
0.0
 11
20.8844
 21
122.242
 31
0.0
  0
LINE
  5
55E
330
1D
100
AcDbEntity
  8
0
100
AcDbLine
 10
18.859
 20
122.792
 30
0.0
 11
20.8847
 21
122.792
 31
0.0
  0
LINE
  5
55F
330
1D
100
AcDbEntity
  8
0
100
AcDbLine
 10
18.8591
 20
122.792
 30
0.0
 11
20.8844
 21
122.792
 31
0.0
  0
LINE
  5
560
330
1D
100
AcDbEntity
  8
0
100
AcDbLine
 10
18.8591
 20
125.288
 30
0.0
 11
20.8844
 21
125.288
 31
0.0
  0
LINE
  5
561
330
1D
100
AcDbEntity
  8
0
100
AcDbLine
 10
18.8589
 20
125.288
 30
0.0
 11
20.8845
 21
125.288
 31
0.0
  0
LINE
  5
562
330
1D
100
AcDbEntity
  8
0
100
AcDbLine
 10
18.859
 20
125.838
 30
0.0
 11
20.8847
 21
125.838
 31
0.0
  0
LINE
  5
565
330
1D
100
AcDbEntity
  8
0
100
AcDbLine
 10
18.8591
 20
125.838
 30
0.0
 11
20.8844
 21
125.838
 31
0.0
  0
LINE
  5
566
330
1D
100
AcDbEntity
  8
0
100
AcDbLine
 10
19.1279
 20
122.242
 30
0.0
 11
20.8395
 21
122.242
 31
0.0
  0
LINE
  5
567
330
1D
100
AcDbEntity
  8
0
100
AcDbLine
 10
19.1277
 20
122.242
 30
0.0
 11
20.8392
 21
122.242
 31
0.0
  0
LINE
  5
56A
330
1D
100
AcDbEntity
  8
0
100
AcDbLine
 10
20.8395
 20
122.242
 30
0.0
 11
22.5795
 21
122.242
 31
0.0
  0
LINE
  5
56B
330
1D
100
AcDbEntity
  8
0
100
AcDbLine
 10
20.8392
 20
122.242
 30
0.0
 11
22.5794
 21
122.242
 31
0.0
  0
LINE
  5
572
330
1D
100
AcDbEntity
  8
0
100
AcDbLine
 10
19.1334
 20
125.288
 30
0.0
 11
21.0505
 21
125.288
 31
0.0
  0
LINE
  5
573
330
1D
100
AcDbEntity
  8
0
100
AcDbLine
 10
19.133
 20
125.288
 30
0.0
 11
21.05
 21
125.288
 31
0.0
  0
LINE
  5
579
330
1D
100
AcDbEntity
  8
0
100
AcDbLine
 10
19.1279
 20
133.528
 30
0.0
 11
20.8395
 21
133.528
 31
0.0
  0
LINE
  5
57A
330
1D
100
AcDbEntity
  8
0
100
AcDbLine
 10
20.8395
 20
133.528
 30
0.0
 11
22.5795
 21
133.528
 31
0.0
  0
LINE
  5
57B
330
1D
100
AcDbEntity
  8
0
100
AcDbLine
 10
20.8392
 20
133.528
 30
0.0
 11
22.5794
 21
133.528
 31
0.0
  0
LINE
  5
57C
330
1D
100
AcDbEntity
  8
0
100
AcDbLine
 10
19.1277
 20
133.528
 30
0.0
 11
20.8392
 21
133.528
 31
0.0
  0
LINE
  5
57F
330
1D
100
AcDbEntity
  8
0
100
AcDbLine
 10
18.8591
 20
133.528
 30
0.0
 11
20.8844
 21
133.528
 31
0.0
  0
LINE
  5
580
330
1D
100
AcDbEntity
  8
0
100
AcDbLine
 10
18.8589
 20
133.528
 30
0.0
 11
20.8846
 21
133.528
 31
0.0
  0
LINE
  5
589
330
1D
100
AcDbEntity
  8
0
100
AcDbLine
 10
18.9414
 20
134.526
 30
0.0
 11
20.9342
 21
134.526
 31
0.0
  0
LINE
  5
58A
330
1D
100
AcDbEntity
  8
0
100
AcDbLine
 10
18.9412
 20
134.526
 30
0.0
 11
20.9342
 21
134.526
 31
0.0
  0
LINE
  5
58D
330
1D
100
AcDbEntity
  8
0
100
AcDbLine
 10
17.7992
 20
135.825
 30
0.0
 11
19.4867
 21
135.825
 31
0.0
  0
LINE
  5
58E
330
1D
100
AcDbEntity
  8
0
100
AcDbLine
 10
17.8839
 20
136.024
 30
0.0
 11
19.5486
 21
136.024
 31
0.0
  0
LINE
  5
58F
330
1D
100
AcDbEntity
  8
0
100
AcDbLine
 10
17.8842
 20
136.024
 30
0.0
 11
19.5485
 21
136.024
 31
0.0
  0
LINE
  5
590
330
1D
100
AcDbEntity
  8
0
100
AcDbLine
 10
19.5486
 20
136.024
 30
0.0
 11
21.2826
 21
136.024
 31
0.0
  0
LINE
  5
591
330
1D
100
AcDbEntity
  8
0
100
AcDbLine
 10
19.5485
 20
136.024
 30
0.0
 11
21.2826
 21
136.024
 31
0.0
  0
LINE
  5
592
330
1D
100
AcDbEntity
  8
0
100
AcDbLine
 10
19.4867
 20
135.825
 30
0.0
 11
21.2452
 21
135.825
 31
0.0
  0
LINE
  5
593
330
1D
100
AcDbEntity
  8
0
100
AcDbLine
 10
17.7335
 20
136.324
 30
0.0
 11
19.264
 21
136.324
 31
0.0
  0
LINE
  5
594
330
1D
100
AcDbEntity
  8
0
100
AcDbLine
 10
19.264
 20
136.324
 30
0.0
 11
20.8754
 21
136.324
 31
0.0
  0
LINE
  5
595
330
1D
100
AcDbEntity
  8
0
100
AcDbLine
 10
20.8748
 20
136.324
 30
0.0
 11
22.5395
 21
136.324
 31
0.0
  0
LINE
  5
596
330
1D
100
AcDbEntity
  8
0
100
AcDbLine
 10
20.8748
 20
138.222
 30
0.0
 11
22.5395
 21
138.222
 31
0.0
  0
LINE
  5
597
330
1D
100
AcDbEntity
  8
0
100
AcDbLine
 10
19.2637
 20
138.222
 30
0.0
 11
20.8748
 21
138.222
 31
0.0
  0
LINE
  5
598
330
1D
100
AcDbEntity
  8
0
100
AcDbLine
 10
19.2637
 20
136.324
 30
0.0
 11
20.8748
 21
136.324
 31
0.0
  0
LINE
  5
599
330
1D
100
AcDbEntity
  8
0
100
AcDbLine
 10
17.7333
 20
138.222
 30
0.0
 11
19.2638
 21
138.222
 31
0.0
  0
LINE
  5
59A
330
1D
100
AcDbEntity
  8
0
100
AcDbLine
 10
17.7333
 20
138.222
 30
0.0
 11
19.2637
 21
138.222
 31
0.0
  0
LINE
  5
59B
330
1D
100
AcDbEntity
  8
0
100
AcDbLine
 10
19.2638
 20
138.222
 30
0.0
 11
20.8752
 21
138.222
 31
0.0
  0
LINE
  5
59C
330
1D
100
AcDbEntity
  8
0
100
AcDbLine
 10
20.8844
 20
114.552
 30
0.0
 11
22.9487
 21
114.552
 31
0.0
  0
LINE
  5
59D
330
1D
100
AcDbEntity
  8
0
100
AcDbLine
 10
20.8844
 20
122.242
 30
0.0
 11
22.9487
 21
122.242
 31
0.0
  0
LINE
  5
59E
330
1D
100
AcDbEntity
  8
0
100
AcDbLine
 10
20.8844
 20
122.792
 30
0.0
 11
22.9487
 21
122.792
 31
0.0
  0
LINE
  5
59F
330
1D
100
AcDbEntity
  8
0
100
AcDbLine
 10
20.8844
 20
125.288
 30
0.0
 11
22.9487
 21
125.288
 31
0.0
  0
LINE
  5
5A0
330
1D
100
AcDbEntity
  8
0
100
AcDbLine
 10
20.8845
 20
122.242
 30
0.0
 11
22.9488
 21
122.242
 31
0.0
  0
LINE
  5
5A1
330
1D
100
AcDbEntity
  8
0
100
AcDbLine
 10
20.8845
 20
125.288
 30
0.0
 11
22.9488
 21
125.288
 31
0.0
  0
LINE
  5
5A2
330
1D
100
AcDbEntity
  8
0
100
AcDbLine
 10
20.8844
 20
125.838
 30
0.0
 11
22.9487
 21
125.838
 31
0.0
  0
LINE
  5
5A3
330
1D
100
AcDbEntity
  8
0
100
AcDbLine
 10
20.8844
 20
133.528
 30
0.0
 11
22.9487
 21
133.528
 31
0.0
  0
LINE
  5
5A4
330
1D
100
AcDbEntity
  8
0
100
AcDbLine
 10
20.9315
 20
103.566
 30
0.0
 11
23.0654
 21
103.566
 31
0.0
  0
LINE
  5
5A5
330
1D
100
AcDbEntity
  8
0
100
AcDbLine
 10
20.9313
 20
103.566
 30
0.0
 11
23.0657
 21
103.566
 31
0.0
  0
LINE
  5
5A6
330
1D
100
AcDbEntity
  8
0
100
AcDbLine
 10
20.8847
 20
114.552
 30
0.0
 11
22.9489
 21
114.552
 31
0.0
  0
LINE
  5
5A7
330
1D
100
AcDbEntity
  8
0
100
AcDbLine
 10
20.8847
 20
122.792
 30
0.0
 11
22.9489
 21
122.792
 31
0.0
  0
LINE
  5
5AA
330
1D
100
AcDbEntity
  8
0
100
AcDbLine
 10
21.0505
 20
125.288
 30
0.0
 11
23.0043
 21
125.288
 31
0.0
  0
LINE
  5
5AB
330
1D
100
AcDbEntity
  8
0
100
AcDbLine
 10
21.05
 20
125.288
 30
0.0
 11
23.0042
 21
125.288
 31
0.0
  0
LINE
  5
5AC
330
1D
100
AcDbEntity
  8
0
100
AcDbLine
 10
20.8847
 20
125.838
 30
0.0
 11
22.9489
 21
125.838
 31
0.0
  0
LINE
  5
5AD
330
1D
100
AcDbEntity
  8
0
100
AcDbLine
 10
20.8846
 20
133.528
 30
0.0
 11
22.9489
 21
133.528
 31
0.0
  0
LINE
  5
5AE
330
1D
100
AcDbEntity
  8
0
100
AcDbLine
 10
20.9342
 20
134.526
 30
0.0
 11
22.9653
 21
134.526
 31
0.0
  0
LINE
  5
5B3
330
1D
100
AcDbEntity
  8
0
100
AcDbLine
 10
21.2826
 20
136.024
 30
0.0
 11
23.0592
 21
136.024
 31
0.0
  0
LINE
  5
5B4
330
1D
100
AcDbEntity
  8
0
100
AcDbLine
 10
21.2826
 20
136.024
 30
0.0
 11
23.0594
 21
136.024
 31
0.0
  0
LINE
  5
5B5
330
1D
100
AcDbEntity
  8
0
100
AcDbLine
 10
21.2452
 20
135.825
 30
0.0
 11
23.0466
 21
135.825
 31
0.0
  0
LINE
  5
5B6
330
1D
100
AcDbEntity
  8
0
100
AcDbLine
 10
20.8754
 20
136.324
 30
0.0
 11
22.5398
 21
136.324
 31
0.0
  0
LINE
  5
5B7
330
1D
100
AcDbEntity
  8
0
100
AcDbLine
 10
22.5795
 20
122.242
 30
0.0
 11
24.3321
 21
122.242
 31
0.0
  0
LINE
  5
5B8
330
1D
100
AcDbEntity
  8
0
100
AcDbLine
 10
22.5794
 20
122.242
 30
0.0
 11
24.3321
 21
122.242
 31
0.0
  0
LINE
  5
5BB
330
1D
100
AcDbEntity
  8
0
100
AcDbLine
 10
22.5795
 20
133.528
 30
0.0
 11
24.3321
 21
133.528
 31
0.0
  0
LINE
  5
5BC
330
1D
100
AcDbEntity
  8
0
100
AcDbLine
 10
22.5794
 20
133.528
 30
0.0
 11
24.3321
 21
133.528
 31
0.0
  0
LINE
  5
5C6
330
1D
100
AcDbEntity
  8
0
100
AcDbLine
 10
22.9487
 20
114.552
 30
0.0
 11
25.0264
 21
114.552
 31
0.0
  0
LINE
  5
5C7
330
1D
100
AcDbEntity
  8
0
100
AcDbLine
 10
22.9487
 20
122.242
 30
0.0
 11
25.0264
 21
122.242
 31
0.0
  0
LINE
  5
5C8
330
1D
100
AcDbEntity
  8
0
100
AcDbLine
 10
22.9487
 20
122.792
 30
0.0
 11
25.0264
 21
122.792
 31
0.0
  0
LINE
  5
5C9
330
1D
100
AcDbEntity
  8
0
100
AcDbLine
 10
22.9487
 20
125.288
 30
0.0
 11
25.0264
 21
125.288
 31
0.0
  0
LINE
  5
5CA
330
1D
100
AcDbEntity
  8
0
100
AcDbLine
 10
22.9487
 20
125.838
 30
0.0
 11
25.0264
 21
125.838
 31
0.0
  0
LINE
  5
5CB
330
1D
100
AcDbEntity
  8
0
100
AcDbLine
 10
22.9488
 20
122.242
 30
0.0
 11
25.026
 21
122.242
 31
0.0
  0
LINE
  5
5CC
330
1D
100
AcDbEntity
  8
0
100
AcDbLine
 10
22.9489
 20
114.552
 30
0.0
 11
25.0261
 21
114.552
 31
0.0
  0
LINE
  5
5CD
330
1D
100
AcDbEntity
  8
0
100
AcDbLine
 10
22.9489
 20
122.792
 30
0.0
 11
25.0261
 21
122.792
 31
0.0
  0
LINE
  5
5CE
330
1D
100
AcDbEntity
  8
0
100
AcDbLine
 10
22.9488
 20
125.288
 30
0.0
 11
25.026
 21
125.288
 31
0.0
  0
LINE
  5
5CF
330
1D
100
AcDbEntity
  8
0
100
AcDbLine
 10
22.9489
 20
125.838
 30
0.0
 11
25.0261
 21
125.838
 31
0.0
  0
LINE
  5
5D0
330
1D
100
AcDbEntity
  8
0
100
AcDbLine
 10
22.9487
 20
133.528
 30
0.0
 11
25.0264
 21
133.528
 31
0.0
  0
LINE
  5
5D1
330
1D
100
AcDbEntity
  8
0
100
AcDbLine
 10
22.9489
 20
133.528
 30
0.0
 11
25.026
 21
133.528
 31
0.0
  0
LINE
  5
5D4
330
1D
100
AcDbEntity
  8
0
100
AcDbLine
 10
23.0654
 20
103.566
 30
0.0
 11
25.2109
 21
103.566
 31
0.0
  0
LINE
  5
5D5
330
1D
100
AcDbEntity
  8
0
100
AcDbLine
 10
23.0657
 20
103.566
 30
0.0
 11
25.2109
 21
103.566
 31
0.0
  0
LINE
  5
5D8
330
1D
100
AcDbEntity
  8
0
100
AcDbLine
 10
23.0043
 20
125.288
 30
0.0
 11
24.9707
 21
125.288
 31
0.0
  0
LINE
  5
5D9
330
1D
100
AcDbEntity
  8
0
100
AcDbLine
 10
23.0042
 20
125.288
 30
0.0
 11
24.9707
 21
125.288
 31
0.0
  0
LINE
  5
5DA
330
1D
100
AcDbEntity
  8
0
100
AcDbLine
 10
22.9653
 20
134.526
 30
0.0
 11
25.0097
 21
134.526
 31
0.0
  0
LINE
  5
5DB
330
1D
100
AcDbEntity
  8
0
100
AcDbLine
 10
22.9653
 20
134.526
 30
0.0
 11
25.0092
 21
134.526
 31
0.0
  0
LINE
  5
5DC
330
1D
100
AcDbEntity
  8
0
100
AcDbLine
 10
23.0594
 20
136.024
 30
0.0
 11
24.8509
 21
136.024
 31
0.0
  0
LINE
  5
5DD
330
1D
100
AcDbEntity
  8
0
100
AcDbLine
 10
23.0592
 20
136.024
 30
0.0
 11
24.8509
 21
136.024
 31
0.0
  0
LINE
  5
5DE
330
1D
100
AcDbEntity
  8
0
100
AcDbLine
 10
23.0466
 20
135.825
 30
0.0
 11
24.8628
 21
135.825
 31
0.0
  0
LINE
  5
5DF
330
1D
100
AcDbEntity
  8
0
100
AcDbLine
 10
22.5398
 20
136.324
 30
0.0
 11
24.229
 21
136.324
 31
0.0
  0
LINE
  5
5E0
330
1D
100
AcDbEntity
  8
0
100
AcDbLine
 10
22.5395
 20
136.324
 30
0.0
 11
24.2286
 21
136.324
 31
0.0
  0
LINE
  5
5E1
330
1D
100
AcDbEntity
  8
0
100
AcDbLine
 10
20.8752
 20
138.222
 30
0.0
 11
22.5395
 21
138.222
 31
0.0
  0
LINE
  5
5E2
330
1D
100
AcDbEntity
  8
0
100
AcDbLine
 10
9.82891
 20
138.521
 30
0.0
 11
10.1609
 21
138.521
 31
0.0
  0
LINE
  5
5E3
330
1D
100
AcDbEntity
  8
0
100
AcDbLine
 10
9.83643
 20
138.521
 30
0.0
 11
10.1761
 21
138.521
 31
0.0
  0
LINE
  5
5E4
330
1D
100
AcDbEntity
  8
0
100
AcDbLine
 10
9.82901
 20
138.521
 30
0.0
 11
10.1608
 21
138.521
 31
0.0
  0
LINE
  5
5E5
330
1D
100
AcDbEntity
  8
0
100
AcDbLine
 10
9.72029
 20
138.521
 30
0.0
 11
9.83658
 21
138.521
 31
0.0
  0
LINE
  5
5E6
330
1D
100
AcDbEntity
  8
0
100
AcDbLine
 10
9.72029
 20
138.521
 30
0.0
 11
9.82901
 21
138.521
 31
0.0
  0
LINE
  5
5E7
330
1D
100
AcDbEntity
  8
0
100
AcDbLine
 10
9.72029
 20
138.521
 30
0.0
 11
9.82891
 21
138.521
 31
0.0
  0
LINE
  5
5E8
330
1D
100
AcDbEntity
  8
0
100
AcDbLine
 10
9.72029
 20
138.521
 30
0.0
 11
9.83643
 21
138.521
 31
0.0
  0
LINE
  5
5E9
330
1D
100
AcDbEntity
  8
0
100
AcDbLine
 10
10.1609
 20
138.521
 30
0.0
 11
10.7108
 21
138.521
 31
0.0
  0
LINE
  5
5EA
330
1D
100
AcDbEntity
  8
0
100
AcDbLine
 10
10.7108
 20
138.521
 30
0.0
 11
11.47
 21
138.521
 31
0.0
  0
LINE
  5
5EB
330
1D
100
AcDbEntity
  8
0
100
AcDbLine
 10
10.7108
 20
138.521
 30
0.0
 11
11.4702
 21
138.521
 31
0.0
  0
LINE
  5
5EC
330
1D
100
AcDbEntity
  8
0
100
AcDbLine
 10
10.1608
 20
138.521
 30
0.0
 11
10.7108
 21
138.521
 31
0.0
  0
LINE
  5
5ED
330
1D
100
AcDbEntity
  8
0
100
AcDbLine
 10
9.83658
 20
138.521
 30
0.0
 11
10.1761
 21
138.521
 31
0.0
  0
LINE
  5
5EE
330
1D
100
AcDbEntity
  8
0
100
AcDbLine
 10
10.1761
 20
138.521
 30
0.0
 11
10.7333
 21
138.521
 31
0.0
  0
LINE
  5
5EF
330
1D
100
AcDbEntity
  8
0
100
AcDbLine
 10
10.763
 20
138.521
 30
0.0
 11
10.9084
 21
138.521
 31
0.0
  0
LINE
  5
5F0
330
1D
100
AcDbEntity
  8
0
100
AcDbLine
 10
10.9114
 20
138.481
 30
0.0
 11
11.0201
 21
138.371
 31
0.0
  0
LINE
  5
5F1
330
1D
100
AcDbEntity
  8
0
100
AcDbLine
 10
10.7628
 20
138.521
 30
0.0
 11
10.9084
 21
138.521
 31
0.0
  0
LINE
  5
5F2
330
1D
100
AcDbEntity
  8
0
100
AcDbLine
 10
10.7628
 20
138.521
 30
0.0
 11
10.9114
 21
138.481
 31
0.0
  0
LINE
  5
5F3
330
1D
100
AcDbEntity
  8
0
100
AcDbLine
 10
10.9084
 20
138.521
 30
0.0
 11
11.2776
 21
138.521
 31
0.0
  0
LINE
  5
5F4
330
1D
100
AcDbEntity
  8
0
100
AcDbLine
 10
10.9084
 20
138.521
 30
0.0
 11
11.2778
 21
138.521
 31
0.0
  0
LINE
  5
5F5
330
1D
100
AcDbEntity
  8
0
100
AcDbLine
 10
11.2778
 20
138.521
 30
0.0
 11
11.8647
 21
138.521
 31
0.0
  0
LINE
  5
5F6
330
1D
100
AcDbEntity
  8
0
100
AcDbLine
 10
11.4702
 20
138.521
 30
0.0
 11
12.4268
 21
138.521
 31
0.0
  0
LINE
  5
5F7
330
1D
100
AcDbEntity
  8
0
100
AcDbLine
 10
11.8647
 20
138.521
 30
0.0
 11
12.6588
 21
138.521
 31
0.0
  0
LINE
  5
5F8
330
1D
100
AcDbEntity
  8
0
100
AcDbLine
 10
12.4268
 20
138.521
 30
0.0
 11
13.566
 21
138.521
 31
0.0
  0
LINE
  5
5F9
330
1D
100
AcDbEntity
  8
0
100
AcDbLine
 10
12.427
 20
138.521
 30
0.0
 11
13.5658
 21
138.521
 31
0.0
  0
LINE
  5
5FA
330
1D
100
AcDbEntity
  8
0
100
AcDbLine
 10
11.47
 20
138.521
 30
0.0
 11
12.427
 21
138.521
 31
0.0
  0
LINE
  5
5FB
330
1D
100
AcDbEntity
  8
0
100
AcDbLine
 10
11.2776
 20
138.521
 30
0.0
 11
11.8646
 21
138.521
 31
0.0
  0
LINE
  5
5FC
330
1D
100
AcDbEntity
  8
0
100
AcDbLine
 10
11.8646
 20
138.521
 30
0.0
 11
12.6585
 21
138.521
 31
0.0
  0
LINE
  5
5FD
330
1D
100
AcDbEntity
  8
0
100
AcDbLine
 10
12.6588
 20
138.521
 30
0.0
 11
13.6467
 21
138.521
 31
0.0
  0
LINE
  5
5FE
330
1D
100
AcDbEntity
  8
0
100
AcDbLine
 10
13.566
 20
138.521
 30
0.0
 11
14.8692
 21
138.521
 31
0.0
  0
LINE
  5
5FF
330
1D
100
AcDbEntity
  8
0
100
AcDbLine
 10
13.6467
 20
138.521
 30
0.0
 11
14.8117
 21
138.521
 31
0.0
  0
LINE
  5
600
330
1D
100
AcDbEntity
  8
0
100
AcDbLine
 10
13.5658
 20
138.521
 30
0.0
 11
14.8693
 21
138.521
 31
0.0
  0
LINE
  5
601
330
1D
100
AcDbEntity
  8
0
100
AcDbLine
 10
12.6585
 20
138.521
 30
0.0
 11
13.6466
 21
138.521
 31
0.0
  0
LINE
  5
602
330
1D
100
AcDbEntity
  8
0
100
AcDbLine
 10
13.6466
 20
138.521
 30
0.0
 11
14.8115
 21
138.521
 31
0.0
  0
LINE
  5
603
330
1D
100
AcDbEntity
  8
0
100
AcDbLine
 10
14.8692
 20
138.521
 30
0.0
 11
16.316
 21
138.521
 31
0.0
  0
LINE
  5
604
330
1D
100
AcDbEntity
  8
0
100
AcDbLine
 10
14.8117
 20
138.521
 30
0.0
 11
16.1332
 21
138.521
 31
0.0
  0
LINE
  5
605
330
1D
100
AcDbEntity
  8
0
100
AcDbLine
 10
16.316
 20
138.521
 30
0.0
 11
17.8839
 21
138.521
 31
0.0
  0
LINE
  5
606
330
1D
100
AcDbEntity
  8
0
100
AcDbLine
 10
17.5894
 20
138.521
 30
0.0
 11
19.1553
 21
138.521
 31
0.0
  0
LINE
  5
607
330
1D
100
AcDbEntity
  8
0
100
AcDbLine
 10
16.3162
 20
138.521
 30
0.0
 11
17.8842
 21
138.521
 31
0.0
  0
LINE
  5
608
330
1D
100
AcDbEntity
  8
0
100
AcDbLine
 10
14.8693
 20
138.521
 30
0.0
 11
16.3162
 21
138.521
 31
0.0
  0
LINE
  5
609
330
1D
100
AcDbEntity
  8
0
100
AcDbLine
 10
14.8115
 20
138.521
 30
0.0
 11
16.1332
 21
138.521
 31
0.0
  0
LINE
  5
60A
330
1D
100
AcDbEntity
  8
0
100
AcDbLine
 10
16.1332
 20
138.521
 30
0.0
 11
17.5896
 21
138.521
 31
0.0
  0
LINE
  5
60B
330
1D
100
AcDbEntity
  8
0
100
AcDbLine
 10
16.1332
 20
138.521
 30
0.0
 11
17.5894
 21
138.521
 31
0.0
  0
LINE
  5
60C
330
1D
100
AcDbEntity
  8
0
100
AcDbLine
 10
17.8839
 20
138.521
 30
0.0
 11
19.5486
 21
138.521
 31
0.0
  0
LINE
  5
60D
330
1D
100
AcDbEntity
  8
0
100
AcDbLine
 10
19.1553
 20
138.521
 30
0.0
 11
20.8036
 21
138.521
 31
0.0
  0
LINE
  5
60E
330
1D
100
AcDbEntity
  8
0
100
AcDbLine
 10
19.5486
 20
138.521
 30
0.0
 11
21.2826
 21
138.521
 31
0.0
  0
LINE
  5
60F
330
1D
100
AcDbEntity
  8
0
100
AcDbLine
 10
19.5485
 20
138.521
 30
0.0
 11
21.2826
 21
138.521
 31
0.0
  0
LINE
  5
610
330
1D
100
AcDbEntity
  8
0
100
AcDbLine
 10
17.8842
 20
138.521
 30
0.0
 11
19.5485
 21
138.521
 31
0.0
  0
LINE
  5
611
330
1D
100
AcDbEntity
  8
0
100
AcDbLine
 10
17.5896
 20
138.521
 30
0.0
 11
19.1552
 21
138.521
 31
0.0
  0
LINE
  5
612
330
1D
100
AcDbEntity
  8
0
100
AcDbLine
 10
19.1552
 20
138.521
 30
0.0
 11
20.8033
 21
138.521
 31
0.0
  0
LINE
  5
613
330
1D
100
AcDbEntity
  8
0
100
AcDbLine
 10
20.8036
 20
138.521
 30
0.0
 11
22.5061
 21
138.521
 31
0.0
  0
LINE
  5
614
330
1D
100
AcDbEntity
  8
0
100
AcDbLine
 10
22.5061
 20
138.521
 30
0.0
 11
24.2341
 21
138.521
 31
0.0
  0
LINE
  5
615
330
1D
100
AcDbEntity
  8
0
100
AcDbLine
 10
23.0594
 20
138.521
 30
0.0
 11
24.8509
 21
138.521
 31
0.0
  0
LINE
  5
616
330
1D
100
AcDbEntity
  8
0
100
AcDbLine
 10
23.0592
 20
138.521
 30
0.0
 11
24.8509
 21
138.521
 31
0.0
  0
LINE
  5
617
330
1D
100
AcDbEntity
  8
0
100
AcDbLine
 10
21.2826
 20
138.521
 30
0.0
 11
23.0592
 21
138.521
 31
0.0
  0
LINE
  5
618
330
1D
100
AcDbEntity
  8
0
100
AcDbLine
 10
21.2826
 20
138.521
 30
0.0
 11
23.0594
 21
138.521
 31
0.0
  0
LINE
  5
619
330
1D
100
AcDbEntity
  8
0
100
AcDbLine
 10
20.8033
 20
138.521
 30
0.0
 11
22.5063
 21
138.521
 31
0.0
  0
LINE
  5
61A
330
1D
100
AcDbEntity
  8
0
100
AcDbLine
 10
22.5063
 20
138.521
 30
0.0
 11
24.2342
 21
138.521
 31
0.0
  0
LINE
  5
61B
330
1D
100
AcDbEntity
  8
0
100
AcDbLine
 10
11.0201
 20
138.371
 30
0.0
 11
11.0599
 21
138.222
 31
0.0
  0
LINE
  5
61C
330
1D
100
AcDbEntity
  8
0
100
AcDbLine
 10
22.5395
 20
138.222
 30
0.0
 11
24.2288
 21
138.222
 31
0.0
  0
LINE
  5
61D
330
1D
100
AcDbEntity
  8
0
100
AcDbLine
 10
22.5395
 20
138.222
 30
0.0
 11
24.2286
 21
138.222
 31
0.0
  0
LINE
  5
61E
330
1D
100
AcDbEntity
  8
0
100
AcDbLine
 10
8.03307
 20
134.526
 30
0.0
 11
9.12095
 21
134.526
 31
0.0
  0
LINE
  5
61F
330
1D
100
AcDbEntity
  8
0
100
AcDbLine
 10
8.03307
 20
134.526
 30
0.0
 11
9.121
 21
134.526
 31
0.0
  0
LINE
  5
620
330
1D
100
AcDbEntity
  8
0
100
AcDbLine
 10
9.52221
 20
138.721
 30
0.0
 11
9.52222
 21
140.018
 31
0.0
  0
LINE
  5
621
330
1D
100
AcDbEntity
  8
0
100
AcDbLine
 10
9.52221
 20
138.721
 30
0.0
 11
9.63247
 21
138.721
 31
0.0
  0
LINE
  5
622
330
1D
100
AcDbEntity
  8
0
100
AcDbLine
 10
17.7993
 20
138.721
 30
0.0
 11
19.4867
 21
138.721
 31
0.0
  0
LINE
  5
623
330
1D
100
AcDbEntity
  8
0
100
AcDbLine
 10
16.2098
 20
138.721
 30
0.0
 11
17.7993
 21
138.721
 31
0.0
  0
LINE
  5
624
330
1D
100
AcDbEntity
  8
0
100
AcDbLine
 10
14.7426
 20
138.721
 30
0.0
 11
16.2098
 21
138.721
 31
0.0
  0
LINE
  5
625
330
1D
100
AcDbEntity
  8
0
100
AcDbLine
 10
13.4209
 20
138.721
 30
0.0
 11
14.7426
 21
138.721
 31
0.0
  0
LINE
  5
626
330
1D
100
AcDbEntity
  8
0
100
AcDbLine
 10
12.2665
 20
138.721
 30
0.0
 11
13.4209
 21
138.721
 31
0.0
  0
LINE
  5
627
330
1D
100
AcDbEntity
  8
0
100
AcDbLine
 10
11.2964
 20
138.721
 30
0.0
 11
12.2665
 21
138.721
 31
0.0
  0
LINE
  5
628
330
1D
100
AcDbEntity
  8
0
100
AcDbLine
 10
10.5265
 20
138.721
 30
0.0
 11
11.2964
 21
138.721
 31
0.0
  0
LINE
  5
629
330
1D
100
AcDbEntity
  8
0
100
AcDbLine
 10
9.96911
 20
138.721
 30
0.0
 11
10.5265
 21
138.721
 31
0.0
  0
LINE
  5
62A
330
1D
100
AcDbEntity
  8
0
100
AcDbLine
 10
9.63247
 20
138.721
 30
0.0
 11
9.96911
 21
138.721
 31
0.0
  0
LINE
  5
62B
330
1D
100
AcDbEntity
  8
0
100
AcDbLine
 10
9.52222
 20
140.018
 30
0.0
 11
9.63247
 21
140.018
 31
0.0
  0
LINE
  5
62C
330
1D
100
AcDbEntity
  8
0
100
AcDbLine
 10
9.52222
 20
140.018
 30
0.0
 11
10.0195
 21
140.519
 31
0.0
  0
LINE
  5
62D
330
1D
100
AcDbEntity
  8
0
100
AcDbLine
 10
9.63247
 20
140.018
 30
0.0
 11
9.96911
 21
140.018
 31
0.0
  0
LINE
  5
62E
330
1D
100
AcDbEntity
  8
0
100
AcDbLine
 10
9.96911
 20
140.018
 30
0.0
 11
10.5265
 21
140.018
 31
0.0
  0
LINE
  5
62F
330
1D
100
AcDbEntity
  8
0
100
AcDbLine
 10
10.5265
 20
140.018
 30
0.0
 11
11.2964
 21
140.018
 31
0.0
  0
LINE
  5
630
330
1D
100
AcDbEntity
  8
0
100
AcDbLine
 10
11.2964
 20
140.018
 30
0.0
 11
12.2665
 21
140.018
 31
0.0
  0
LINE
  5
631
330
1D
100
AcDbEntity
  8
0
100
AcDbLine
 10
12.2665
 20
140.018
 30
0.0
 11
13.4209
 21
140.018
 31
0.0
  0
LINE
  5
632
330
1D
100
AcDbEntity
  8
0
100
AcDbLine
 10
13.4209
 20
140.018
 30
0.0
 11
14.7426
 21
140.018
 31
0.0
  0
LINE
  5
633
330
1D
100
AcDbEntity
  8
0
100
AcDbLine
 10
14.7426
 20
140.018
 30
0.0
 11
16.2098
 21
140.018
 31
0.0
  0
LINE
  5
634
330
1D
100
AcDbEntity
  8
0
100
AcDbLine
 10
10.0193
 20
140.519
 30
0.0
 11
10.1256
 21
140.519
 31
0.0
  0
LINE
  5
635
330
1D
100
AcDbEntity
  8
0
100
AcDbLine
 10
10.1256
 20
140.519
 30
0.0
 11
10.4506
 21
140.519
 31
0.0
  0
LINE
  5
636
330
1D
100
AcDbEntity
  8
0
100
AcDbLine
 10
10.4506
 20
140.519
 30
0.0
 11
10.9891
 21
140.519
 31
0.0
  0
LINE
  5
637
330
1D
100
AcDbEntity
  8
0
100
AcDbLine
 10
10.0195
 20
140.519
 30
0.0
 11
10.1259
 21
140.519
 31
0.0
  0
LINE
  5
638
330
1D
100
AcDbEntity
  8
0
100
AcDbLine
 10
10.1259
 20
140.519
 30
0.0
 11
10.4508
 21
140.519
 31
0.0
  0
LINE
  5
639
330
1D
100
AcDbEntity
  8
0
100
AcDbLine
 10
10.9891
 20
140.519
 30
0.0
 11
11.7325
 21
140.519
 31
0.0
  0
LINE
  5
63A
330
1D
100
AcDbEntity
  8
0
100
AcDbLine
 10
11.7325
 20
140.519
 30
0.0
 11
12.669
 21
140.519
 31
0.0
  0
LINE
  5
63B
330
1D
100
AcDbEntity
  8
0
100
AcDbLine
 10
11.6132
 20
140.519
 30
0.0
 11
12.1079
 21
141.018
 31
0.0
  0
LINE
  5
63C
330
1D
100
AcDbEntity
  8
0
100
AcDbLine
 10
10.4508
 20
140.519
 30
0.0
 11
10.9889
 21
140.519
 31
0.0
  0
LINE
  5
63D
330
1D
100
AcDbEntity
  8
0
100
AcDbLine
 10
10.9889
 20
140.519
 30
0.0
 11
11.7326
 21
140.519
 31
0.0
  0
LINE
  5
63E
330
1D
100
AcDbEntity
  8
0
100
AcDbLine
 10
12.669
 20
140.519
 30
0.0
 11
13.7844
 21
140.519
 31
0.0
  0
LINE
  5
63F
330
1D
100
AcDbEntity
  8
0
100
AcDbLine
 10
11.7326
 20
140.519
 30
0.0
 11
12.6691
 21
140.519
 31
0.0
  0
LINE
  5
640
330
1D
100
AcDbEntity
  8
0
100
AcDbLine
 10
12.6691
 20
140.519
 30
0.0
 11
13.7843
 21
140.519
 31
0.0
  0
LINE
  5
641
330
1D
100
AcDbEntity
  8
0
100
AcDbLine
 10
13.7844
 20
140.519
 30
0.0
 11
15.0603
 21
140.519
 31
0.0
  0
LINE
  5
642
330
1D
100
AcDbEntity
  8
0
100
AcDbLine
 10
15.0603
 20
140.519
 30
0.0
 11
16.4768
 21
140.519
 31
0.0
  0
LINE
  5
643
330
1D
100
AcDbEntity
  8
0
100
AcDbLine
 10
16.4768
 20
140.519
 30
0.0
 11
18.0118
 21
140.519
 31
0.0
  0
LINE
  5
644
330
1D
100
AcDbEntity
  8
0
100
AcDbLine
 10
13.7843
 20
140.519
 30
0.0
 11
15.0602
 21
140.519
 31
0.0
  0
LINE
  5
645
330
1D
100
AcDbEntity
  8
0
100
AcDbLine
 10
12.6817
 20
141.018
 30
0.0
 11
13.2883
 21
141.018
 31
0.0
  0
LINE
  5
646
330
1D
100
AcDbEntity
  8
0
100
AcDbLine
 10
12.2859
 20
141.018
 30
0.0
 11
12.6817
 21
141.018
 31
0.0
  0
LINE
  5
647
330
1D
100
AcDbEntity
  8
0
100
AcDbLine
 10
12.1081
 20
141.018
 30
0.0
 11
12.1118
 21
154.001
 31
0.0
  0
LINE
  5
648
330
1D
100
AcDbEntity
  8
0
100
AcDbLine
 10
12.1081
 20
141.018
 30
0.0
 11
12.2859
 21
141.018
 31
0.0
  0
LINE
  5
649
330
1D
100
AcDbEntity
  8
0
100
AcDbLine
 10
12.1079
 20
141.018
 30
0.0
 11
12.286
 21
141.018
 31
0.0
  0
LINE
  5
64A
330
1D
100
AcDbEntity
  8
0
100
AcDbLine
 10
12.286
 20
141.018
 30
0.0
 11
12.682
 21
141.018
 31
0.0
  0
LINE
  5
64B
330
1D
100
AcDbEntity
  8
0
100
AcDbLine
 10
13.2883
 20
141.018
 30
0.0
 11
14.094
 21
141.018
 31
0.0
  0
LINE
  5
64C
330
1D
100
AcDbEntity
  8
0
100
AcDbLine
 10
12.682
 20
141.018
 30
0.0
 11
13.2882
 21
141.018
 31
0.0
  0
LINE
  5
64D
330
1D
100
AcDbEntity
  8
0
100
AcDbLine
 10
13.2882
 20
141.018
 30
0.0
 11
14.0938
 21
141.018
 31
0.0
  0
LINE
  5
64E
330
1D
100
AcDbEntity
  8
0
100
AcDbLine
 10
15.0839
 20
141.018
 30
0.0
 11
16.2398
 21
141.018
 31
0.0
  0
LINE
  5
64F
330
1D
100
AcDbEntity
  8
0
100
AcDbLine
 10
14.094
 20
141.018
 30
0.0
 11
15.0839
 21
141.018
 31
0.0
  0
LINE
  5
650
330
1D
100
AcDbEntity
  8
0
100
AcDbLine
 10
14.0938
 20
141.018
 30
0.0
 11
15.084
 21
141.018
 31
0.0
  0
LINE
  5
651
330
1D
100
AcDbEntity
  8
0
100
AcDbLine
 10
15.084
 20
141.018
 30
0.0
 11
16.2397
 21
141.018
 31
0.0
  0
LINE
  5
652
330
1D
100
AcDbEntity
  8
0
100
AcDbLine
 10
16.2398
 20
141.018
 30
0.0
 11
17.5395
 21
141.018
 31
0.0
  0
LINE
  5
653
330
1D
100
AcDbEntity
  8
0
100
AcDbLine
 10
16.2397
 20
141.018
 30
0.0
 11
17.5396
 21
141.018
 31
0.0
  0
LINE
  5
654
330
1D
100
AcDbEntity
  8
0
100
AcDbLine
 10
15.0602
 20
140.519
 30
0.0
 11
16.477
 21
140.519
 31
0.0
  0
LINE
  5
655
330
1D
100
AcDbEntity
  8
0
100
AcDbLine
 10
17.5395
 20
141.018
 30
0.0
 11
18.96
 21
141.018
 31
0.0
  0
LINE
  5
656
330
1D
100
AcDbEntity
  8
0
100
AcDbLine
 10
17.5396
 20
141.018
 30
0.0
 11
18.9598
 21
141.018
 31
0.0
  0
LINE
  5
657
330
1D
100
AcDbEntity
  8
0
100
AcDbLine
 10
16.477
 20
140.519
 30
0.0
 11
18.0119
 21
140.519
 31
0.0
  0
LINE
  5
658
330
1D
100
AcDbEntity
  8
0
100
AcDbLine
 10
16.2098
 20
140.018
 30
0.0
 11
17.7992
 21
140.018
 31
0.0
  0
LINE
  5
659
330
1D
100
AcDbEntity
  8
0
100
AcDbLine
 10
18.0118
 20
140.519
 30
0.0
 11
19.6416
 21
140.519
 31
0.0
  0
LINE
  5
65A
330
1D
100
AcDbEntity
  8
0
100
AcDbLine
 10
18.96
 20
141.018
 30
0.0
 11
20.4736
 21
141.018
 31
0.0
  0
LINE
  5
65B
330
1D
100
AcDbEntity
  8
0
100
AcDbLine
 10
18.9598
 20
141.018
 30
0.0
 11
20.4735
 21
141.018
 31
0.0
  0
LINE
  5
65C
330
1D
100
AcDbEntity
  8
0
100
AcDbLine
 10
18.0119
 20
140.519
 30
0.0
 11
19.6414
 21
140.519
 31
0.0
  0
LINE
  5
65D
330
1D
100
AcDbEntity
  8
0
100
AcDbLine
 10
17.7992
 20
140.018
 30
0.0
 11
19.4867
 21
140.018
 31
0.0
  0
LINE
  5
65E
330
1D
100
AcDbEntity
  8
0
100
AcDbLine
 10
9.52223
 20
138.721
 30
0.0
 11
9.72029
 21
138.521
 31
0.0
  0
LINE
  5
65F
330
1D
100
AcDbEntity
  8
0
100
AcDbLine
 10
9.52223
 20
138.721
 30
0.0
 11
9.63247
 21
138.721
 31
0.0
  0
LINE
  5
660
330
1D
100
AcDbEntity
  8
0
100
AcDbLine
 10
23.0466
 20
138.721
 30
0.0
 11
24.8628
 21
138.721
 31
0.0
  0
LINE
  5
661
330
1D
100
AcDbEntity
  8
0
100
AcDbLine
 10
21.2452
 20
138.721
 30
0.0
 11
23.0466
 21
138.721
 31
0.0
  0
LINE
  5
662
330
1D
100
AcDbEntity
  8
0
100
AcDbLine
 10
19.4867
 20
140.018
 30
0.0
 11
21.2452
 21
140.018
 31
0.0
  0
LINE
  5
663
330
1D
100
AcDbEntity
  8
0
100
AcDbLine
 10
19.6416
 20
140.519
 30
0.0
 11
21.3392
 21
140.519
 31
0.0
  0
LINE
  5
664
330
1D
100
AcDbEntity
  8
0
100
AcDbLine
 10
20.7129
 20
148.009
 30
0.0
 11
22.305
 21
148.009
 31
0.0
  0
LINE
  5
665
330
1D
100
AcDbEntity
  8
0
100
AcDbLine
 10
20.4736
 20
141.018
 30
0.0
 11
22.0526
 21
141.018
 31
0.0
  0
LINE
  5
666
330
1D
100
AcDbEntity
  8
0
100
AcDbLine
 10
20.4735
 20
141.018
 30
0.0
 11
22.0527
 21
141.018
 31
0.0
  0
LINE
  5
667
330
1D
100
AcDbEntity
  8
0
100
AcDbLine
 10
19.6414
 20
140.519
 30
0.0
 11
21.3391
 21
140.519
 31
0.0
  0
LINE
  5
668
330
1D
100
AcDbEntity
  8
0
100
AcDbLine
 10
21.3392
 20
140.519
 30
0.0
 11
23.0788
 21
140.519
 31
0.0
  0
LINE
  5
669
330
1D
100
AcDbEntity
  8
0
100
AcDbLine
 10
22.0526
 20
141.018
 30
0.0
 11
23.668
 21
141.018
 31
0.0
  0
LINE
  5
66A
330
1D
100
AcDbEntity
  8
0
100
AcDbLine
 10
22.305
 20
148.009
 30
0.0
 11
23.9284
 21
148.009
 31
0.0
  0
LINE
  5
66B
330
1D
100
AcDbEntity
  8
0
100
AcDbLine
 10
22.0527
 20
141.018
 30
0.0
 11
23.6678
 21
141.018
 31
0.0
  0
LINE
  5
66C
330
1D
100
AcDbEntity
  8
0
100
AcDbLine
 10
21.3391
 20
140.519
 30
0.0
 11
23.0788
 21
140.519
 31
0.0
  0
LINE
  5
66D
330
1D
100
AcDbEntity
  8
0
100
AcDbLine
 10
21.2452
 20
140.018
 30
0.0
 11
23.0466
 21
140.018
 31
0.0
  0
LINE
  5
66E
330
1D
100
AcDbEntity
  8
0
100
AcDbLine
 10
23.668
 20
141.018
 30
0.0
 11
25.2889
 21
141.018
 31
0.0
  0
LINE
  5
66F
330
1D
100
AcDbEntity
  8
0
100
AcDbLine
 10
23.6678
 20
141.018
 30
0.0
 11
25.2889
 21
141.018
 31
0.0
  0
LINE
  5
670
330
1D
100
AcDbEntity
  8
0
100
AcDbLine
 10
23.0788
 20
140.519
 30
0.0
 11
24.8325
 21
140.519
 31
0.0
  0
LINE
  5
671
330
1D
100
AcDbEntity
  8
0
100
AcDbLine
 10
23.0788
 20
140.519
 30
0.0
 11
24.8327
 21
140.519
 31
0.0
  0
LINE
  5
672
330
1D
100
AcDbEntity
  8
0
100
AcDbLine
 10
23.0466
 20
140.018
 30
0.0
 11
24.8628
 21
140.018
 31
0.0
  0
LINE
  5
673
330
1D
100
AcDbEntity
  8
0
100
AcDbLine
 10
19.4867
 20
138.721
 30
0.0
 11
21.2452
 21
138.721
 31
0.0
  0
LINE
  5
674
330
1D
100
AcDbEntity
  8
0
100
AcDbLine
 10
19.1824
 20
148.009
 30
0.0
 11
20.713
 21
148.009
 31
0.0
  0
LINE
  5
675
330
1D
100
AcDbEntity
  8
0
100
AcDbLine
 10
19.1824
 20
148.009
 30
0.0
 11
20.7129
 21
148.009
 31
0.0
  0
LINE
  5
676
330
1D
100
AcDbEntity
  8
0
100
AcDbLine
 10
19.1824
 20
148.009
 30
0.0
 11
19.1824
 21
154.001
 31
0.0
  0
LINE
  5
677
330
1D
100
AcDbEntity
  8
0
100
AcDbLine
 10
17.7292
 20
154.001
 30
0.0
 11
19.1824
 21
154.001
 31
0.0
  0
LINE
  5
678
330
1D
100
AcDbEntity
  8
0
100
AcDbLine
 10
17.7292
 20
154.001
 30
0.0
 11
19.1825
 21
154.001
 31
0.0
  0
LINE
  5
679
330
1D
100
AcDbEntity
  8
0
100
AcDbLine
 10
16.3954
 20
154.001
 30
0.0
 11
17.7292
 21
154.001
 31
0.0
  0
LINE
  5
67A
330
1D
100
AcDbEntity
  8
0
100
AcDbLine
 10
15.2064
 20
154.001
 30
0.0
 11
16.3954
 21
154.001
 31
0.0
  0
LINE
  5
67B
330
1D
100
AcDbEntity
  8
0
100
AcDbLine
 10
14.1853
 20
154.001
 30
0.0
 11
15.2064
 21
154.001
 31
0.0
  0
LINE
  5
67C
330
1D
100
AcDbEntity
  8
0
100
AcDbLine
 10
13.3512
 20
154.001
 30
0.0
 11
14.1853
 21
154.001
 31
0.0
  0
LINE
  5
67D
330
1D
100
AcDbEntity
  8
0
100
AcDbLine
 10
12.7203
 20
154.001
 30
0.0
 11
13.3512
 21
154.001
 31
0.0
  0
LINE
  5
67E
330
1D
100
AcDbEntity
  8
0
100
AcDbLine
 10
12.3045
 20
154.001
 30
0.0
 11
12.7203
 21
154.001
 31
0.0
  0
LINE
  5
67F
330
1D
100
AcDbEntity
  8
0
100
AcDbLine
 10
13.1007
 20
155.0
 30
0.0
 11
13.2752
 21
155.0
 31
0.0
  0
LINE
  5
680
330
1D
100
AcDbEntity
  8
0
100
AcDbLine
 10
13.2752
 20
155.0
 30
0.0
 11
13.6535
 21
155.0
 31
0.0
  0
LINE
  5
681
330
1D
100
AcDbEntity
  8
0
100
AcDbLine
 10
13.6535
 20
155.0
 30
0.0
 11
14.2284
 21
155.0
 31
0.0
  0
LINE
  5
682
330
1D
100
AcDbEntity
  8
0
100
AcDbLine
 10
14.2284
 20
155.0
 30
0.0
 11
14.989
 21
155.0
 31
0.0
  0
LINE
  5
683
330
1D
100
AcDbEntity
  8
0
100
AcDbLine
 10
14.989
 20
155.0
 30
0.0
 11
15.9205
 21
155.0
 31
0.0
  0
LINE
  5
684
330
1D
100
AcDbEntity
  8
0
100
AcDbLine
 10
17.0055
 20
155.0
 30
0.0
 11
18.2235
 21
155.0
 31
0.0
  0
LINE
  5
685
330
1D
100
AcDbEntity
  8
0
100
AcDbLine
 10
15.9205
 20
155.0
 30
0.0
 11
17.0056
 21
155.0
 31
0.0
  0
LINE
  5
686
330
1D
100
AcDbEntity
  8
0
100
AcDbLine
 10
15.9205
 20
155.0
 30
0.0
 11
17.0055
 21
155.0
 31
0.0
  0
LINE
  5
687
330
1D
100
AcDbEntity
  8
0
100
AcDbLine
 10
17.0056
 20
155.0
 30
0.0
 11
18.2235
 21
155.0
 31
0.0
  0
LINE
  5
688
330
1D
100
AcDbEntity
  8
0
100
AcDbLine
 10
18.2235
 20
155.0
 30
0.0
 11
19.5511
 21
155.0
 31
0.0
  0
LINE
  5
689
330
1D
100
AcDbEntity
  8
0
100
AcDbLine
 10
18.2235
 20
155.0
 30
0.0
 11
19.5512
 21
155.0
 31
0.0
  0
LINE
  5
68A
330
1D
100
AcDbEntity
  8
0
100
AcDbLine
 10
12.1118
 20
154.001
 30
0.0
 11
12.3045
 21
154.001
 31
0.0
  0
LINE
  5
68B
330
1D
100
AcDbEntity
  8
0
100
AcDbLine
 10
12.1118
 20
154.001
 30
0.0
 11
13.1007
 21
155.0
 31
0.0
  0
LINE
  5
68C
330
1D
100
AcDbEntity
  8
0
100
AcDbLine
 10
19.1825
 20
154.001
 30
0.0
 11
20.5711
 21
154.489
 31
0.0
  0
LINE
  5
68D
330
1D
100
AcDbEntity
  8
0
100
AcDbLine
 10
20.5711
 20
154.489
 30
0.0
 11
21.8699
 21
154.805
 31
0.0
  0
LINE
  5
68E
330
1D
100
AcDbEntity
  8
0
100
AcDbLine
 10
21.8699
 20
154.805
 30
0.0
 11
23.1163
 21
154.969
 31
0.0
  0
LINE
  5
68F
330
1D
100
AcDbEntity
  8
0
100
AcDbLine
 10
22.4322
 20
155.0
 30
0.0
 11
23.9311
 21
155.0
 31
0.0
  0
LINE
  5
690
330
1D
100
AcDbEntity
  8
0
100
AcDbLine
 10
20.9628
 20
155.0
 30
0.0
 11
22.4322
 21
155.0
 31
0.0
  0
LINE
  5
691
330
1D
100
AcDbEntity
  8
0
100
AcDbLine
 10
19.5512
 20
155.0
 30
0.0
 11
20.9628
 21
155.0
 31
0.0
  0
LINE
  5
692
330
1D
100
AcDbEntity
  8
0
100
AcDbLine
 10
19.5511
 20
155.0
 30
0.0
 11
20.9629
 21
155.0
 31
0.0
  0
LINE
  5
693
330
1D
100
AcDbEntity
  8
0
100
AcDbLine
 10
20.9629
 20
155.0
 30
0.0
 11
22.4323
 21
155.0
 31
0.0
  0
LINE
  5
694
330
1D
100
AcDbEntity
  8
0
100
AcDbLine
 10
22.4323
 20
155.0
 30
0.0
 11
23.9311
 21
155.0
 31
0.0
  0
LINE
  5
695
330
1D
100
AcDbEntity
  8
0
100
AcDbLine
 10
23.1163
 20
154.969
 30
0.0
 11
23.9311
 21
155.0
 31
0.0
  0
LINE
  5
696
330
1D
100
AcDbEntity
  8
0
100
AcDbLine
 10
19.1824
 20
154.001
 30
0.0
 11
20.5711
 21
154.489
 31
0.0
  0
LINE
  5
697
330
1D
100
AcDbEntity
  8
0
100
AcDbLine
 10
19.1824
 20
154.001
 30
0.0
 11
19.1824
 21
148.009
 31
0.0
  0
LINE
  5
698
330
1D
100
AcDbEntity
  8
0
100
AcDbLine
 10
20.713
 20
148.009
 30
0.0
 11
22.305
 21
148.009
 31
0.0
  0
LINE
  5
699
330
1D
100
AcDbEntity
  8
0
100
AcDbLine
 10
23.9354
 20
155.0
 30
0.0
 11
25.5006
 21
154.887
 31
0.0
  0
LINE
  5
69A
330
1D
100
AcDbEntity
  8
0
100
AcDbLine
 10
23.9354
 20
155.0
 30
0.0
 11
25.3897
 21
155.0
 31
0.0
  0
LINE
  5
69B
330
1D
100
AcDbEntity
  8
0
100
AcDbLine
 10
23.9354
 20
155.0
 30
0.0
 11
25.3898
 21
155.0
 31
0.0
  0
LINE
  5
69C
330
1D
100
AcDbEntity
  8
0
100
AcDbLine
 10
23.9284
 20
148.009
 30
0.0
 11
25.5531
 21
148.009
 31
0.0
  0
LINE
  5
69D
330
1D
100
AcDbEntity
  8
0
100
AcDbLine
 10
23.9284
 20
148.009
 30
0.0
 11
25.5532
 21
148.009
 31
0.0
  0
LINE
  5
69E
330
1D
100
AcDbEntity
  8
0
100
AcDbLine
 10
6.06897
 20
103.566
 30
0.0
 11
7.08836
 21
103.566
 31
0.0
  0
LINE
  5
69F
330
1D
100
AcDbEntity
  8
0
100
AcDbLine
 10
17.952
 20
100.0
 30
0.0
 11
24.0
 21
100.0
 31
0.0
  0
LINE
  5
6A1
330
1D
100
AcDbEntity
  8
0
100
AcDbLine
 10
44.7803
 20
100.0
 30
0.0
 11
44.7803
 21
101.837
 31
0.0
  0
LINE
  5
6A2
330
1D
100
AcDbEntity
  8
0
100
AcDbLine
 10
46.56
 20
100.0
 30
0.0
 11
47.424
 21
100.0
 31
0.0
  0
LINE
  5
6A3
330
1D
100
AcDbEntity
  8
0
100
AcDbLine
 10
44.256
 20
100.0
 30
0.0
 11
46.56
 21
100.0
 31
0.0
  0
LINE
  5
6A4
330
1D
100
AcDbEntity
  8
0
100
AcDbLine
 10
40.512
 20
100.0
 30
0.0
 11
44.256
 21
100.0
 31
0.0
  0
LINE
  5
6A5
330
1D
100
AcDbEntity
  8
0
100
AcDbLine
 10
35.616
 20
100.0
 30
0.0
 11
40.512
 21
100.0
 31
0.0
  0
LINE
  5
6A6
330
1D
100
AcDbEntity
  8
0
100
AcDbLine
 10
29.4332
 20
103.566
 30
0.0
 11
31.4607
 21
103.566
 31
0.0
  0
LINE
  5
6A7
330
1D
100
AcDbEntity
  8
0
100
AcDbLine
 10
27.3419
 20
103.566
 30
0.0
 11
29.4332
 21
103.566
 31
0.0
  0
LINE
  5
6A8
330
1D
100
AcDbEntity
  8
0
100
AcDbLine
 10
27.3415
 20
103.566
 30
0.0
 11
29.4333
 21
103.566
 31
0.0
  0
LINE
  5
6A9
330
1D
100
AcDbEntity
  8
0
100
AcDbLine
 10
25.2109
 20
103.566
 30
0.0
 11
27.3415
 21
103.566
 31
0.0
  0
LINE
  5
6AA
330
1D
100
AcDbEntity
  8
0
100
AcDbLine
 10
25.2109
 20
103.566
 30
0.0
 11
27.3419
 21
103.566
 31
0.0
  0
LINE
  5
6AB
330
1D
100
AcDbEntity
  8
0
100
AcDbLine
 10
29.4333
 20
103.566
 30
0.0
 11
31.4609
 21
103.566
 31
0.0
  0
LINE
  5
6AC
330
1D
100
AcDbEntity
  8
0
100
AcDbLine
 10
31.4609
 20
103.566
 30
0.0
 11
33.4006
 21
103.566
 31
0.0
  0
LINE
  5
6AE
330
1D
100
AcDbEntity
  8
0
100
AcDbLine
 10
24.3321
 20
122.242
 30
0.0
 11
26.0818
 21
122.242
 31
0.0
  0
LINE
  5
6AF
330
1D
100
AcDbEntity
  8
0
100
AcDbLine
 10
24.3321
 20
122.242
 30
0.0
 11
26.0815
 21
122.242
 31
0.0
  0
LINE
  5
6B1
330
1D
100
AcDbEntity
  8
0
100
AcDbLine
 10
24.3321
 20
133.528
 30
0.0
 11
26.0818
 21
133.528
 31
0.0
  0
LINE
  5
6B2
330
1D
100
AcDbEntity
  8
0
100
AcDbLine
 10
24.3321
 20
133.528
 30
0.0
 11
26.0815
 21
133.528
 31
0.0
  0
LINE
  5
6B7
330
1D
100
AcDbEntity
  8
0
100
AcDbLine
 10
25.0261
 20
114.552
 30
0.0
 11
27.0905
 21
114.552
 31
0.0
  0
LINE
  5
6B8
330
1D
100
AcDbEntity
  8
0
100
AcDbLine
 10
25.026
 20
122.242
 30
0.0
 11
27.0903
 21
122.242
 31
0.0
  0
LINE
  5
6B9
330
1D
100
AcDbEntity
  8
0
100
AcDbLine
 10
25.0261
 20
122.792
 30
0.0
 11
27.0905
 21
122.792
 31
0.0
  0
LINE
  5
6BA
330
1D
100
AcDbEntity
  8
0
100
AcDbLine
 10
24.9707
 20
125.288
 30
0.0
 11
26.9242
 21
125.288
 31
0.0
  0
LINE
  5
6BB
330
1D
100
AcDbEntity
  8
0
100
AcDbLine
 10
24.9707
 20
125.288
 30
0.0
 11
26.9245
 21
125.288
 31
0.0
  0
LINE
  5
6BC
330
1D
100
AcDbEntity
  8
0
100
AcDbLine
 10
25.026
 20
125.288
 30
0.0
 11
27.0903
 21
125.288
 31
0.0
  0
LINE
  5
6BD
330
1D
100
AcDbEntity
  8
0
100
AcDbLine
 10
25.0264
 20
114.552
 30
0.0
 11
27.0906
 21
114.552
 31
0.0
  0
LINE
  5
6BE
330
1D
100
AcDbEntity
  8
0
100
AcDbLine
 10
25.0264
 20
122.242
 30
0.0
 11
27.0906
 21
122.242
 31
0.0
  0
LINE
  5
6BF
330
1D
100
AcDbEntity
  8
0
100
AcDbLine
 10
25.0264
 20
122.792
 30
0.0
 11
27.0906
 21
122.792
 31
0.0
  0
LINE
  5
6C0
330
1D
100
AcDbEntity
  8
0
100
AcDbLine
 10
25.0264
 20
125.288
 30
0.0
 11
27.0906
 21
125.288
 31
0.0
  0
LINE
  5
6C1
330
1D
100
AcDbEntity
  8
0
100
AcDbLine
 10
25.0261
 20
125.838
 30
0.0
 11
27.0905
 21
125.838
 31
0.0
  0
LINE
  5
6C2
330
1D
100
AcDbEntity
  8
0
100
AcDbLine
 10
25.0264
 20
125.838
 30
0.0
 11
27.0906
 21
125.838
 31
0.0
  0
LINE
  5
6C6
330
1D
100
AcDbEntity
  8
0
100
AcDbLine
 10
25.0264
 20
133.528
 30
0.0
 11
27.0906
 21
133.528
 31
0.0
  0
LINE
  5
6C7
330
1D
100
AcDbEntity
  8
0
100
AcDbLine
 10
25.026
 20
133.528
 30
0.0
 11
27.0904
 21
133.528
 31
0.0
  0
LINE
  5
6C9
330
1D
100
AcDbEntity
  8
0
100
AcDbLine
 10
25.0092
 20
134.526
 30
0.0
 11
27.0408
 21
134.526
 31
0.0
  0
LINE
  5
6CE
330
1D
100
AcDbEntity
  8
0
100
AcDbLine
 10
26.0815
 20
122.242
 30
0.0
 11
27.8121
 21
122.242
 31
0.0
  0
LINE
  5
6D1
330
1D
100
AcDbEntity
  8
0
100
AcDbLine
 10
26.0818
 20
122.242
 30
0.0
 11
27.8123
 21
122.242
 31
0.0
  0
LINE
  5
6D6
330
1D
100
AcDbEntity
  8
0
100
AcDbLine
 10
27.0905
 20
114.552
 30
0.0
 11
29.1157
 21
114.552
 31
0.0
  0
LINE
  5
6D7
330
1D
100
AcDbEntity
  8
0
100
AcDbLine
 10
27.0903
 20
122.242
 30
0.0
 11
29.1156
 21
122.242
 31
0.0
  0
LINE
  5
6D8
330
1D
100
AcDbEntity
  8
0
100
AcDbLine
 10
27.0905
 20
122.792
 30
0.0
 11
29.1157
 21
122.792
 31
0.0
  0
LINE
  5
6D9
330
1D
100
AcDbEntity
  8
0
100
AcDbLine
 10
26.9245
 20
125.288
 30
0.0
 11
28.8413
 21
125.288
 31
0.0
  0
LINE
  5
6DA
330
1D
100
AcDbEntity
  8
0
100
AcDbLine
 10
26.9242
 20
125.288
 30
0.0
 11
28.8414
 21
125.288
 31
0.0
  0
LINE
  5
6DB
330
1D
100
AcDbEntity
  8
0
100
AcDbLine
 10
27.0903
 20
125.288
 30
0.0
 11
29.1156
 21
125.288
 31
0.0
  0
LINE
  5
6DE
330
1D
100
AcDbEntity
  8
0
100
AcDbLine
 10
27.0906
 20
114.552
 30
0.0
 11
29.1158
 21
114.552
 31
0.0
  0
LINE
  5
6DF
330
1D
100
AcDbEntity
  8
0
100
AcDbLine
 10
27.0906
 20
122.242
 30
0.0
 11
29.1158
 21
122.242
 31
0.0
  0
LINE
  5
6E0
330
1D
100
AcDbEntity
  8
0
100
AcDbLine
 10
27.0906
 20
122.792
 30
0.0
 11
29.1158
 21
122.792
 31
0.0
  0
LINE
  5
6E1
330
1D
100
AcDbEntity
  8
0
100
AcDbLine
 10
27.0906
 20
125.288
 30
0.0
 11
29.1158
 21
125.288
 31
0.0
  0
LINE
  5
6E2
330
1D
100
AcDbEntity
  8
0
100
AcDbLine
 10
27.0905
 20
125.838
 30
0.0
 11
29.1157
 21
125.838
 31
0.0
  0
LINE
  5
6E3
330
1D
100
AcDbEntity
  8
0
100
AcDbLine
 10
26.0815
 20
133.528
 30
0.0
 11
27.8121
 21
133.528
 31
0.0
  0
LINE
  5
6E4
330
1D
100
AcDbEntity
  8
0
100
AcDbLine
 10
26.0818
 20
133.528
 30
0.0
 11
27.8123
 21
133.528
 31
0.0
  0
LINE
  5
6E5
330
1D
100
AcDbEntity
  8
0
100
AcDbLine
 10
27.0906
 20
125.838
 30
0.0
 11
29.1158
 21
125.838
 31
0.0
  0
LINE
  5
6F1
330
1D
100
AcDbEntity
  8
0
100
AcDbLine
 10
27.0906
 20
133.528
 30
0.0
 11
29.1158
 21
133.528
 31
0.0
  0
LINE
  5
6F2
330
1D
100
AcDbEntity
  8
0
100
AcDbLine
 10
27.0904
 20
133.528
 30
0.0
 11
29.1156
 21
133.528
 31
0.0
  0
LINE
  5
6F7
330
1D
100
AcDbEntity
  8
0
100
AcDbLine
 10
27.0408
 20
134.526
 30
0.0
 11
29.0334
 21
134.526
 31
0.0
  0
LINE
  5
6F8
330
1D
100
AcDbEntity
  8
0
100
AcDbLine
 10
27.0408
 20
134.526
 30
0.0
 11
29.0335
 21
134.526
 31
0.0
  0
LINE
  5
6FA
330
1D
100
AcDbEntity
  8
0
100
AcDbLine
 10
25.0097
 20
134.526
 30
0.0
 11
27.0408
 21
134.526
 31
0.0
  0
LINE
  5
6FB
330
1D
100
AcDbEntity
  8
0
100
AcDbLine
 10
24.8628
 20
135.825
 30
0.0
 11
26.6652
 21
135.825
 31
0.0
  0
LINE
  5
6FC
330
1D
100
AcDbEntity
  8
0
100
AcDbLine
 10
24.8509
 20
136.024
 30
0.0
 11
26.6284
 21
136.024
 31
0.0
  0
LINE
  5
6FD
330
1D
100
AcDbEntity
  8
0
100
AcDbLine
 10
24.8509
 20
136.024
 30
0.0
 11
26.6286
 21
136.024
 31
0.0
  0
LINE
  5
6FE
330
1D
100
AcDbEntity
  8
0
100
AcDbLine
 10
26.6286
 20
136.024
 30
0.0
 11
28.3647
 21
136.024
 31
0.0
  0
LINE
  5
6FF
330
1D
100
AcDbEntity
  8
0
100
AcDbLine
 10
26.6284
 20
136.024
 30
0.0
 11
28.3647
 21
136.024
 31
0.0
  0
LINE
  5
700
330
1D
100
AcDbEntity
  8
0
100
AcDbLine
 10
26.6652
 20
135.825
 30
0.0
 11
28.4255
 21
135.825
 31
0.0
  0
LINE
  5
701
330
1D
100
AcDbEntity
  8
0
100
AcDbLine
 10
24.229
 20
136.324
 30
0.0
 11
25.914
 21
136.324
 31
0.0
  0
LINE
  5
702
330
1D
100
AcDbEntity
  8
0
100
AcDbLine
 10
25.914
 20
136.324
 30
0.0
 11
27.566
 21
136.324
 31
0.0
  0
LINE
  5
703
330
1D
100
AcDbEntity
  8
0
100
AcDbLine
 10
27.8121
 20
122.242
 30
0.0
 11
29.508
 21
122.242
 31
0.0
  0
LINE
  5
705
330
1D
100
AcDbEntity
  8
0
100
AcDbLine
 10
27.8123
 20
122.242
 30
0.0
 11
29.5083
 21
122.242
 31
0.0
  0
LINE
  5
707
330
1D
100
AcDbEntity
  8
0
100
AcDbLine
 10
27.8121
 20
133.528
 30
0.0
 11
29.508
 21
133.528
 31
0.0
  0
LINE
  5
708
330
1D
100
AcDbEntity
  8
0
100
AcDbLine
 10
27.8123
 20
133.528
 30
0.0
 11
29.5083
 21
133.528
 31
0.0
  0
LINE
  5
70D
330
1D
100
AcDbEntity
  8
0
100
AcDbLine
 10
28.8413
 20
125.288
 30
0.0
 11
30.6973
 21
125.288
 31
0.0
  0
LINE
  5
70E
330
1D
100
AcDbEntity
  8
0
100
AcDbLine
 10
29.1157
 20
114.552
 30
0.0
 11
31.0766
 21
114.552
 31
0.0
  0
LINE
  5
70F
330
1D
100
AcDbEntity
  8
0
100
AcDbLine
 10
29.1156
 20
122.242
 30
0.0
 11
31.0765
 21
122.242
 31
0.0
  0
LINE
  5
710
330
1D
100
AcDbEntity
  8
0
100
AcDbLine
 10
29.1157
 20
122.792
 30
0.0
 11
31.0766
 21
122.792
 31
0.0
  0
LINE
  5
711
330
1D
100
AcDbEntity
  8
0
100
AcDbLine
 10
28.8414
 20
125.288
 30
0.0
 11
30.6976
 21
125.288
 31
0.0
  0
LINE
  5
712
330
1D
100
AcDbEntity
  8
0
100
AcDbLine
 10
29.1156
 20
125.288
 30
0.0
 11
31.0765
 21
125.288
 31
0.0
  0
LINE
  5
713
330
1D
100
AcDbEntity
  8
0
100
AcDbLine
 10
29.1158
 20
114.552
 30
0.0
 11
31.0766
 21
114.552
 31
0.0
  0
LINE
  5
714
330
1D
100
AcDbEntity
  8
0
100
AcDbLine
 10
29.1158
 20
122.242
 30
0.0
 11
31.0766
 21
122.242
 31
0.0
  0
LINE
  5
715
330
1D
100
AcDbEntity
  8
0
100
AcDbLine
 10
29.1158
 20
122.792
 30
0.0
 11
31.0766
 21
122.792
 31
0.0
  0
LINE
  5
716
330
1D
100
AcDbEntity
  8
0
100
AcDbLine
 10
29.1158
 20
125.288
 30
0.0
 11
31.0766
 21
125.288
 31
0.0
  0
LINE
  5
717
330
1D
100
AcDbEntity
  8
0
100
AcDbLine
 10
29.1157
 20
125.838
 30
0.0
 11
31.0766
 21
125.838
 31
0.0
  0
LINE
  5
718
330
1D
100
AcDbEntity
  8
0
100
AcDbLine
 10
29.1158
 20
125.838
 30
0.0
 11
31.0766
 21
125.838
 31
0.0
  0
LINE
  5
722
330
1D
100
AcDbEntity
  8
0
100
AcDbLine
 10
29.1158
 20
133.528
 30
0.0
 11
31.0766
 21
133.528
 31
0.0
  0
LINE
  5
723
330
1D
100
AcDbEntity
  8
0
100
AcDbLine
 10
29.1156
 20
133.528
 30
0.0
 11
31.0766
 21
133.528
 31
0.0
  0
LINE
  5
724
330
1D
100
AcDbEntity
  8
0
100
AcDbLine
 10
29.508
 20
122.242
 30
0.0
 11
31.1541
 21
122.242
 31
0.0
  0
LINE
  5
727
330
1D
100
AcDbEntity
  8
0
100
AcDbLine
 10
29.5083
 20
122.242
 30
0.0
 11
31.1543
 21
122.242
 31
0.0
  0
LINE
  5
72D
330
1D
100
AcDbEntity
  8
0
100
AcDbLine
 10
29.508
 20
133.528
 30
0.0
 11
31.1541
 21
133.528
 31
0.0
  0
LINE
  5
72E
330
1D
100
AcDbEntity
  8
0
100
AcDbLine
 10
29.5083
 20
133.528
 30
0.0
 11
31.1543
 21
133.528
 31
0.0
  0
LINE
  5
732
330
1D
100
AcDbEntity
  8
0
100
AcDbLine
 10
29.0335
 20
134.526
 30
0.0
 11
30.9628
 21
134.526
 31
0.0
  0
LINE
  5
733
330
1D
100
AcDbEntity
  8
0
100
AcDbLine
 10
29.0334
 20
134.526
 30
0.0
 11
30.9626
 21
134.526
 31
0.0
  0
LINE
  5
736
330
1D
100
AcDbEntity
  8
0
100
AcDbLine
 10
28.4255
 20
135.825
 30
0.0
 11
30.1156
 21
135.825
 31
0.0
  0
LINE
  5
737
330
1D
100
AcDbEntity
  8
0
100
AcDbLine
 10
28.3647
 20
136.024
 30
0.0
 11
30.0315
 21
136.024
 31
0.0
  0
LINE
  5
738
330
1D
100
AcDbEntity
  8
0
100
AcDbLine
 10
28.3647
 20
136.024
 30
0.0
 11
30.0317
 21
136.024
 31
0.0
  0
LINE
  5
739
330
1D
100
AcDbEntity
  8
0
100
AcDbLine
 10
30.0317
 20
136.024
 30
0.0
 11
31.6035
 21
136.024
 31
0.0
  0
LINE
  5
73A
330
1D
100
AcDbEntity
  8
0
100
AcDbLine
 10
30.0315
 20
136.024
 30
0.0
 11
31.6032
 21
136.024
 31
0.0
  0
LINE
  5
73B
330
1D
100
AcDbEntity
  8
0
100
AcDbLine
 10
30.1156
 20
135.825
 30
0.0
 11
31.7093
 21
135.825
 31
0.0
  0
LINE
  5
73C
330
1D
100
AcDbEntity
  8
0
100
AcDbLine
 10
27.566
 20
136.324
 30
0.0
 11
29.1569
 21
136.324
 31
0.0
  0
LINE
  5
73D
330
1D
100
AcDbEntity
  8
0
100
AcDbLine
 10
29.1569
 20
136.324
 30
0.0
 11
30.6589
 21
136.324
 31
0.0
  0
LINE
  5
73E
330
1D
100
AcDbEntity
  8
0
100
AcDbLine
 10
31.0766
 20
114.552
 30
0.0
 11
32.948
 21
114.552
 31
0.0
  0
LINE
  5
73F
330
1D
100
AcDbEntity
  8
0
100
AcDbLine
 10
31.0766
 20
122.242
 30
0.0
 11
32.948
 21
122.242
 31
0.0
  0
LINE
  5
740
330
1D
100
AcDbEntity
  8
0
100
AcDbLine
 10
31.0765
 20
122.242
 30
0.0
 11
32.9479
 21
122.242
 31
0.0
  0
LINE
  5
741
330
1D
100
AcDbEntity
  8
0
100
AcDbLine
 10
31.0766
 20
122.792
 30
0.0
 11
32.948
 21
122.792
 31
0.0
  0
LINE
  5
742
330
1D
100
AcDbEntity
  8
0
100
AcDbLine
 10
30.6973
 20
125.288
 30
0.0
 11
32.469
 21
125.288
 31
0.0
  0
LINE
  5
743
330
1D
100
AcDbEntity
  8
0
100
AcDbLine
 10
30.6976
 20
125.288
 30
0.0
 11
32.4689
 21
125.288
 31
0.0
  0
LINE
  5
744
330
1D
100
AcDbEntity
  8
0
100
AcDbLine
 10
31.0766
 20
125.288
 30
0.0
 11
32.948
 21
125.288
 31
0.0
  0
LINE
  5
745
330
1D
100
AcDbEntity
  8
0
100
AcDbLine
 10
31.0765
 20
125.288
 30
0.0
 11
32.9479
 21
125.288
 31
0.0
  0
LINE
  5
749
330
1D
100
AcDbEntity
  8
0
100
AcDbLine
 10
31.0766
 20
125.838
 30
0.0
 11
32.948
 21
125.838
 31
0.0
  0
LINE
  5
74A
330
1D
100
AcDbEntity
  8
0
100
AcDbLine
 10
31.0766
 20
133.528
 30
0.0
 11
32.9479
 21
133.528
 31
0.0
  0
LINE
  5
74B
330
1D
100
AcDbEntity
  8
0
100
AcDbLine
 10
31.0766
 20
133.528
 30
0.0
 11
32.948
 21
133.528
 31
0.0
  0
LINE
  5
757
330
1D
100
AcDbEntity
  8
0
100
AcDbLine
 10
31.1541
 20
122.242
 30
0.0
 11
32.7352
 21
122.242
 31
0.0
  0
LINE
  5
758
330
1D
100
AcDbEntity
  8
0
100
AcDbLine
 10
31.1541
 20
133.528
 30
0.0
 11
32.7352
 21
133.528
 31
0.0
  0
LINE
  5
759
330
1D
100
AcDbEntity
  8
0
100
AcDbLine
 10
31.1543
 20
133.528
 30
0.0
 11
32.735
 21
133.528
 31
0.0
  0
LINE
  5
75A
330
1D
100
AcDbEntity
  8
0
100
AcDbLine
 10
31.1543
 20
122.242
 30
0.0
 11
32.735
 21
122.242
 31
0.0
  0
LINE
  5
75C
330
1D
100
AcDbEntity
  8
0
100
AcDbLine
 10
30.9628
 20
134.526
 30
0.0
 11
32.8042
 21
134.526
 31
0.0
  0
LINE
  5
75D
330
1D
100
AcDbEntity
  8
0
100
AcDbLine
 10
30.9626
 20
134.526
 30
0.0
 11
32.8044
 21
134.526
 31
0.0
  0
LINE
  5
765
330
1D
100
AcDbEntity
  8
0
100
AcDbLine
 10
32.7352
 20
122.242
 30
0.0
 11
34.2371
 21
122.242
 31
0.0
  0
LINE
  5
766
330
1D
100
AcDbEntity
  8
0
100
AcDbLine
 10
32.735
 20
122.242
 30
0.0
 11
34.2368
 21
122.242
 31
0.0
  0
LINE
  5
767
330
1D
100
AcDbEntity
  8
0
100
AcDbLine
 10
32.9479
 20
122.242
 30
0.0
 11
34.7066
 21
122.242
 31
0.0
  0
LINE
  5
768
330
1D
100
AcDbEntity
  8
0
100
AcDbLine
 10
32.469
 20
125.288
 30
0.0
 11
34.1336
 21
125.288
 31
0.0
  0
LINE
  5
769
330
1D
100
AcDbEntity
  8
0
100
AcDbLine
 10
32.4689
 20
125.288
 30
0.0
 11
34.1338
 21
125.288
 31
0.0
  0
LINE
  5
76A
330
1D
100
AcDbEntity
  8
0
100
AcDbLine
 10
32.948
 20
114.552
 30
0.0
 11
34.707
 21
114.552
 31
0.0
  0
LINE
  5
76B
330
1D
100
AcDbEntity
  8
0
100
AcDbLine
 10
32.948
 20
114.552
 30
0.0
 11
34.7067
 21
114.552
 31
0.0
  0
LINE
  5
76C
330
1D
100
AcDbEntity
  8
0
100
AcDbLine
 10
32.948
 20
122.242
 30
0.0
 11
34.707
 21
122.242
 31
0.0
  0
LINE
  5
76D
330
1D
100
AcDbEntity
  8
0
100
AcDbLine
 10
32.948
 20
122.792
 30
0.0
 11
34.707
 21
122.792
 31
0.0
  0
LINE
  5
76E
330
1D
100
AcDbEntity
  8
0
100
AcDbLine
 10
32.948
 20
122.792
 30
0.0
 11
34.7067
 21
122.792
 31
0.0
  0
LINE
  5
76F
330
1D
100
AcDbEntity
  8
0
100
AcDbLine
 10
32.948
 20
125.288
 30
0.0
 11
34.707
 21
125.288
 31
0.0
  0
LINE
  5
770
330
1D
100
AcDbEntity
  8
0
100
AcDbLine
 10
32.9479
 20
125.288
 30
0.0
 11
34.7066
 21
125.288
 31
0.0
  0
LINE
  5
771
330
1D
100
AcDbEntity
  8
0
100
AcDbLine
 10
32.7352
 20
133.528
 30
0.0
 11
34.2371
 21
133.528
 31
0.0
  0
LINE
  5
772
330
1D
100
AcDbEntity
  8
0
100
AcDbLine
 10
32.735
 20
133.528
 30
0.0
 11
34.2368
 21
133.528
 31
0.0
  0
LINE
  5
773
330
1D
100
AcDbEntity
  8
0
100
AcDbLine
 10
32.948
 20
125.838
 30
0.0
 11
34.707
 21
125.838
 31
0.0
  0
LINE
  5
774
330
1D
100
AcDbEntity
  8
0
100
AcDbLine
 10
32.948
 20
125.838
 30
0.0
 11
34.7067
 21
125.838
 31
0.0
  0
LINE
  5
77E
330
1D
100
AcDbEntity
  8
0
100
AcDbLine
 10
32.948
 20
133.528
 30
0.0
 11
34.707
 21
133.528
 31
0.0
  0
LINE
  5
77F
330
1D
100
AcDbEntity
  8
0
100
AcDbLine
 10
32.9479
 20
133.528
 30
0.0
 11
34.7066
 21
133.528
 31
0.0
  0
LINE
  5
785
330
1D
100
AcDbEntity
  8
0
100
AcDbLine
 10
32.8042
 20
134.526
 30
0.0
 11
34.535
 21
134.526
 31
0.0
  0
LINE
  5
786
330
1D
100
AcDbEntity
  8
0
100
AcDbLine
 10
32.8044
 20
134.526
 30
0.0
 11
34.5346
 21
134.526
 31
0.0
  0
LINE
  5
788
330
1D
100
AcDbEntity
  8
0
100
AcDbLine
 10
31.7093
 20
135.825
 30
0.0
 11
33.1809
 21
135.825
 31
0.0
  0
LINE
  5
789
330
1D
100
AcDbEntity
  8
0
100
AcDbLine
 10
33.0547
 20
136.024
 30
0.0
 11
34.3636
 21
136.024
 31
0.0
  0
LINE
  5
78A
330
1D
100
AcDbEntity
  8
0
100
AcDbLine
 10
31.6035
 20
136.024
 30
0.0
 11
33.0547
 21
136.024
 31
0.0
  0
LINE
  5
78B
330
1D
100
AcDbEntity
  8
0
100
AcDbLine
 10
31.6032
 20
136.024
 30
0.0
 11
33.0548
 21
136.024
 31
0.0
  0
LINE
  5
78C
330
1D
100
AcDbEntity
  8
0
100
AcDbLine
 10
33.0548
 20
136.024
 30
0.0
 11
34.3635
 21
136.024
 31
0.0
  0
LINE
  5
78D
330
1D
100
AcDbEntity
  8
0
100
AcDbLine
 10
33.1809
 20
135.825
 30
0.0
 11
34.5075
 21
135.825
 31
0.0
  0
LINE
  5
78E
330
1D
100
AcDbEntity
  8
0
100
AcDbLine
 10
30.6589
 20
136.324
 30
0.0
 11
32.0471
 21
136.324
 31
0.0
  0
LINE
  5
78F
330
1D
100
AcDbEntity
  8
0
100
AcDbLine
 10
32.0471
 20
136.324
 30
0.0
 11
33.2974
 21
136.324
 31
0.0
  0
LINE
  5
790
330
1D
100
AcDbEntity
  8
0
100
AcDbLine
 10
33.2974
 20
136.324
 30
0.0
 11
34.3882
 21
136.324
 31
0.0
  0
LINE
  5
791
330
1D
100
AcDbEntity
  8
0
100
AcDbLine
 10
33.2969
 20
136.324
 30
0.0
 11
34.3878
 21
136.324
 31
0.0
  0
LINE
  5
792
330
1D
100
AcDbEntity
  8
0
100
AcDbLine
 10
32.0468
 20
136.324
 30
0.0
 11
33.2969
 21
136.324
 31
0.0
  0
LINE
  5
793
330
1D
100
AcDbEntity
  8
0
100
AcDbLine
 10
30.6586
 20
136.324
 30
0.0
 11
32.0468
 21
136.324
 31
0.0
  0
LINE
  5
794
330
1D
100
AcDbEntity
  8
0
100
AcDbLine
 10
29.1565
 20
136.324
 30
0.0
 11
30.6586
 21
136.324
 31
0.0
  0
LINE
  5
795
330
1D
100
AcDbEntity
  8
0
100
AcDbLine
 10
27.5658
 20
136.324
 30
0.0
 11
29.1565
 21
136.324
 31
0.0
  0
LINE
  5
796
330
1D
100
AcDbEntity
  8
0
100
AcDbLine
 10
25.9135
 20
136.324
 30
0.0
 11
27.5658
 21
136.324
 31
0.0
  0
LINE
  5
797
330
1D
100
AcDbEntity
  8
0
100
AcDbLine
 10
24.2286
 20
136.324
 30
0.0
 11
25.9135
 21
136.324
 31
0.0
  0
LINE
  5
798
330
1D
100
AcDbEntity
  8
0
100
AcDbLine
 10
31.4607
 20
103.566
 30
0.0
 11
33.401
 21
103.566
 31
0.0
  0
LINE
  5
79C
330
1D
100
AcDbEntity
  8
0
100
AcDbLine
 10
34.2371
 20
122.242
 30
0.0
 11
35.6458
 21
122.242
 31
0.0
  0
LINE
  5
79D
330
1D
100
AcDbEntity
  8
0
100
AcDbLine
 10
34.2368
 20
122.242
 30
0.0
 11
35.6458
 21
122.242
 31
0.0
  0
LINE
  5
79E
330
1D
100
AcDbEntity
  8
0
100
AcDbLine
 10
34.1336
 20
125.288
 30
0.0
 11
35.6706
 21
125.288
 31
0.0
  0
LINE
  5
79F
330
1D
100
AcDbEntity
  8
0
100
AcDbLine
 10
34.2371
 20
133.528
 30
0.0
 11
35.6458
 21
133.528
 31
0.0
  0
LINE
  5
7A0
330
1D
100
AcDbEntity
  8
0
100
AcDbLine
 10
34.2368
 20
133.528
 30
0.0
 11
35.6458
 21
133.528
 31
0.0
  0
LINE
  5
7A1
330
1D
100
AcDbEntity
  8
0
100
AcDbLine
 10
34.1338
 20
125.288
 30
0.0
 11
35.6709
 21
125.288
 31
0.0
  0
LINE
  5
7A2
330
1D
100
AcDbEntity
  8
0
100
AcDbLine
 10
34.3636
 20
136.024
 30
0.0
 11
35.5082
 21
136.024
 31
0.0
  0
LINE
  5
7A3
330
1D
100
AcDbEntity
  8
0
100
AcDbLine
 10
34.3635
 20
136.024
 30
0.0
 11
35.5084
 21
136.024
 31
0.0
  0
LINE
  5
7A6
330
1D
100
AcDbEntity
  8
0
100
AcDbLine
 10
33.4006
 20
103.566
 30
0.0
 11
35.2302
 21
103.566
 31
0.0
  0
LINE
  5
7A7
330
1D
100
AcDbEntity
  8
0
100
AcDbLine
 10
33.4006
 20
103.566
 30
0.0
 11
35.2306
 21
103.566
 31
0.0
  0
LINE
  5
7A8
330
1D
100
AcDbEntity
  8
0
100
AcDbLine
 10
25.9135
 20
138.222
 30
0.0
 11
27.5658
 21
138.222
 31
0.0
  0
LINE
  5
7A9
330
1D
100
AcDbEntity
  8
0
100
AcDbLine
 10
24.2286
 20
138.222
 30
0.0
 11
25.9135
 21
138.222
 31
0.0
  0
LINE
  5
7AA
330
1D
100
AcDbEntity
  8
0
100
AcDbLine
 10
24.2288
 20
138.222
 30
0.0
 11
25.9138
 21
138.222
 31
0.0
  0
LINE
  5
7AB
330
1D
100
AcDbEntity
  8
0
100
AcDbLine
 10
29.1565
 20
138.222
 30
0.0
 11
30.6586
 21
138.222
 31
0.0
  0
LINE
  5
7AC
330
1D
100
AcDbEntity
  8
0
100
AcDbLine
 10
25.9138
 20
138.222
 30
0.0
 11
27.5658
 21
138.222
 31
0.0
  0
LINE
  5
7AD
330
1D
100
AcDbEntity
  8
0
100
AcDbLine
 10
27.5658
 20
138.222
 30
0.0
 11
29.1566
 21
138.222
 31
0.0
  0
LINE
  5
7AE
330
1D
100
AcDbEntity
  8
0
100
AcDbLine
 10
27.5658
 20
138.222
 30
0.0
 11
29.1565
 21
138.222
 31
0.0
  0
LINE
  5
7AF
330
1D
100
AcDbEntity
  8
0
100
AcDbLine
 10
30.6586
 20
138.222
 30
0.0
 11
32.0468
 21
138.222
 31
0.0
  0
LINE
  5
7B0
330
1D
100
AcDbEntity
  8
0
100
AcDbLine
 10
29.1566
 20
138.222
 30
0.0
 11
30.6587
 21
138.222
 31
0.0
  0
LINE
  5
7B1
330
1D
100
AcDbEntity
  8
0
100
AcDbLine
 10
30.6587
 20
138.222
 30
0.0
 11
32.0468
 21
138.222
 31
0.0
  0
LINE
  5
7B2
330
1D
100
AcDbEntity
  8
0
100
AcDbLine
 10
33.2969
 20
138.222
 30
0.0
 11
34.3878
 21
138.222
 31
0.0
  0
LINE
  5
7B3
330
1D
100
AcDbEntity
  8
0
100
AcDbLine
 10
32.0468
 20
138.222
 30
0.0
 11
33.2971
 21
138.222
 31
0.0
  0
LINE
  5
7B4
330
1D
100
AcDbEntity
  8
0
100
AcDbLine
 10
32.0468
 20
138.222
 30
0.0
 11
33.2969
 21
138.222
 31
0.0
  0
LINE
  5
7B5
330
1D
100
AcDbEntity
  8
0
100
AcDbLine
 10
33.2971
 20
138.222
 30
0.0
 11
34.388
 21
138.222
 31
0.0
  0
LINE
  5
7B6
330
1D
100
AcDbEntity
  8
0
100
AcDbLine
 10
34.3878
 20
138.222
 30
0.0
 11
35.3008
 21
138.222
 31
0.0
  0
LINE
  5
7B7
330
1D
100
AcDbEntity
  8
0
100
AcDbLine
 10
34.3878
 20
136.324
 30
0.0
 11
35.3008
 21
136.324
 31
0.0
  0
LINE
  5
7B8
330
1D
100
AcDbEntity
  8
0
100
AcDbLine
 10
34.7066
 20
122.242
 30
0.0
 11
36.3311
 21
122.242
 31
0.0
  0
LINE
  5
7B9
330
1D
100
AcDbEntity
  8
0
100
AcDbLine
 10
34.7066
 20
125.288
 30
0.0
 11
36.3311
 21
125.288
 31
0.0
  0
LINE
  5
7BA
330
1D
100
AcDbEntity
  8
0
100
AcDbLine
 10
34.7067
 20
114.552
 30
0.0
 11
36.3312
 21
114.552
 31
0.0
  0
LINE
  5
7BB
330
1D
100
AcDbEntity
  8
0
100
AcDbLine
 10
34.707
 20
114.552
 30
0.0
 11
36.3308
 21
114.552
 31
0.0
  0
LINE
  5
7BC
330
1D
100
AcDbEntity
  8
0
100
AcDbLine
 10
34.707
 20
122.242
 30
0.0
 11
36.3308
 21
122.242
 31
0.0
  0
LINE
  5
7BD
330
1D
100
AcDbEntity
  8
0
100
AcDbLine
 10
34.7067
 20
122.792
 30
0.0
 11
36.3312
 21
122.792
 31
0.0
  0
LINE
  5
7BE
330
1D
100
AcDbEntity
  8
0
100
AcDbLine
 10
34.707
 20
122.792
 30
0.0
 11
36.3308
 21
122.792
 31
0.0
  0
LINE
  5
7BF
330
1D
100
AcDbEntity
  8
0
100
AcDbLine
 10
34.707
 20
125.288
 30
0.0
 11
36.3308
 21
125.288
 31
0.0
  0
LINE
  5
7C0
330
1D
100
AcDbEntity
  8
0
100
AcDbLine
 10
34.7067
 20
125.838
 30
0.0
 11
36.3312
 21
125.838
 31
0.0
  0
LINE
  5
7CA
330
1D
100
AcDbEntity
  8
0
100
AcDbLine
 10
34.707
 20
125.838
 30
0.0
 11
36.3308
 21
125.838
 31
0.0
  0
LINE
  5
7CB
330
1D
100
AcDbEntity
  8
0
100
AcDbLine
 10
34.707
 20
133.528
 30
0.0
 11
36.3308
 21
133.528
 31
0.0
  0
LINE
  5
7CC
330
1D
100
AcDbEntity
  8
0
100
AcDbLine
 10
34.7066
 20
133.528
 30
0.0
 11
36.3311
 21
133.528
 31
0.0
  0
LINE
  5
7CE
330
1D
100
AcDbEntity
  8
0
100
AcDbLine
 10
35.2302
 20
103.566
 30
0.0
 11
36.9282
 21
103.566
 31
0.0
  0
LINE
  5
7CF
330
1D
100
AcDbEntity
  8
0
100
AcDbLine
 10
35.2306
 20
103.566
 30
0.0
 11
36.928
 21
103.566
 31
0.0
  0
LINE
  5
7D1
330
1D
100
AcDbEntity
  8
0
100
AcDbLine
 10
34.535
 20
134.526
 30
0.0
 11
36.1327
 21
134.526
 31
0.0
  0
LINE
  5
7D2
330
1D
100
AcDbEntity
  8
0
100
AcDbLine
 10
34.5346
 20
134.526
 30
0.0
 11
36.1328
 21
134.526
 31
0.0
  0
LINE
  5
7D5
330
1D
100
AcDbEntity
  8
0
100
AcDbLine
 10
34.5075
 20
135.825
 30
0.0
 11
35.6682
 21
135.825
 31
0.0
  0
LINE
  5
7D6
330
1D
100
AcDbEntity
  8
0
100
AcDbLine
 10
34.3882
 20
136.324
 30
0.0
 11
35.3012
 21
136.324
 31
0.0
  0
LINE
  5
7D9
330
1D
100
AcDbEntity
  8
0
100
AcDbLine
 10
35.6458
 20
133.528
 30
0.0
 11
36.9493
 21
133.528
 31
0.0
  0
LINE
  5
7DA
330
1D
100
AcDbEntity
  8
0
100
AcDbLine
 10
35.6458
 20
133.528
 30
0.0
 11
36.9495
 21
133.528
 31
0.0
  0
LINE
  5
7DB
330
1D
100
AcDbEntity
  8
0
100
AcDbLine
 10
35.6458
 20
122.242
 30
0.0
 11
36.9493
 21
122.242
 31
0.0
  0
LINE
  5
7DC
330
1D
100
AcDbEntity
  8
0
100
AcDbLine
 10
35.6458
 20
122.242
 30
0.0
 11
36.9495
 21
122.242
 31
0.0
  0
LINE
  5
7DD
330
1D
100
AcDbEntity
  8
0
100
AcDbLine
 10
35.5082
 20
136.024
 30
0.0
 11
36.4714
 21
136.024
 31
0.0
  0
LINE
  5
7DF
330
1D
100
AcDbEntity
  8
0
100
AcDbLine
 10
35.5084
 20
136.024
 30
0.0
 11
36.4712
 21
136.024
 31
0.0
  0
LINE
  5
7E0
330
1D
100
AcDbEntity
  8
0
100
AcDbLine
 10
36.3308
 20
114.552
 30
0.0
 11
37.7996
 21
114.552
 31
0.0
  0
LINE
  5
7E1
330
1D
100
AcDbEntity
  8
0
100
AcDbLine
 10
36.3308
 20
122.242
 30
0.0
 11
37.7996
 21
122.242
 31
0.0
  0
LINE
  5
7E2
330
1D
100
AcDbEntity
  8
0
100
AcDbLine
 10
36.3308
 20
122.792
 30
0.0
 11
37.7996
 21
122.792
 31
0.0
  0
LINE
  5
7E3
330
1D
100
AcDbEntity
  8
0
100
AcDbLine
 10
35.6706
 20
125.288
 30
0.0
 11
37.0608
 21
125.288
 31
0.0
  0
LINE
  5
7E4
330
1D
100
AcDbEntity
  8
0
100
AcDbLine
 10
35.6709
 20
125.288
 30
0.0
 11
37.0608
 21
125.288
 31
0.0
  0
LINE
  5
7E5
330
1D
100
AcDbEntity
  8
0
100
AcDbLine
 10
36.3308
 20
125.288
 30
0.0
 11
37.7996
 21
125.288
 31
0.0
  0
LINE
  5
7E6
330
1D
100
AcDbEntity
  8
0
100
AcDbLine
 10
36.3308
 20
125.838
 30
0.0
 11
37.7996
 21
125.838
 31
0.0
  0
LINE
  5
7E7
330
1D
100
AcDbEntity
  8
0
100
AcDbLine
 10
36.3312
 20
114.552
 30
0.0
 11
37.7995
 21
114.552
 31
0.0
  0
LINE
  5
7E8
330
1D
100
AcDbEntity
  8
0
100
AcDbLine
 10
36.3311
 20
122.242
 30
0.0
 11
37.7994
 21
122.242
 31
0.0
  0
LINE
  5
7EB
330
1D
100
AcDbEntity
  8
0
100
AcDbLine
 10
36.3312
 20
122.792
 30
0.0
 11
37.7995
 21
122.792
 31
0.0
  0
LINE
  5
7EC
330
1D
100
AcDbEntity
  8
0
100
AcDbLine
 10
36.3311
 20
125.288
 30
0.0
 11
37.7994
 21
125.288
 31
0.0
  0
LINE
  5
7EE
330
1D
100
AcDbEntity
  8
0
100
AcDbLine
 10
36.3312
 20
125.838
 30
0.0
 11
37.7995
 21
125.838
 31
0.0
  0
LINE
  5
7EF
330
1D
100
AcDbEntity
  8
0
100
AcDbLine
 10
36.3308
 20
133.528
 30
0.0
 11
37.7996
 21
133.528
 31
0.0
  0
LINE
  5
7F0
330
1D
100
AcDbEntity
  8
0
100
AcDbLine
 10
36.1327
 20
134.526
 30
0.0
 11
37.578
 21
134.526
 31
0.0
  0
LINE
  5
7F1
330
1D
100
AcDbEntity
  8
0
100
AcDbLine
 10
36.3311
 20
133.528
 30
0.0
 11
37.7994
 21
133.528
 31
0.0
  0
LINE
  5
7F3
330
1D
100
AcDbEntity
  8
0
100
AcDbLine
 10
36.1328
 20
134.526
 30
0.0
 11
37.5779
 21
134.526
 31
0.0
  0
LINE
  5
7FE
330
1D
100
AcDbEntity
  8
0
100
AcDbLine
 10
36.4714
 20
136.024
 30
0.0
 11
37.2375
 21
136.024
 31
0.0
  0
LINE
  5
801
330
1D
100
AcDbEntity
  8
0
100
AcDbLine
 10
36.9282
 20
103.566
 30
0.0
 11
38.474
 21
103.566
 31
0.0
  0
LINE
  5
802
330
1D
100
AcDbEntity
  8
0
100
AcDbLine
 10
36.928
 20
103.566
 30
0.0
 11
38.4744
 21
103.566
 31
0.0
  0
LINE
  5
803
330
1D
100
AcDbEntity
  8
0
100
AcDbLine
 10
36.9495
 20
122.242
 30
0.0
 11
38.1351
 21
122.242
 31
0.0
  0
LINE
  5
804
330
1D
100
AcDbEntity
  8
0
100
AcDbLine
 10
36.9493
 20
122.242
 30
0.0
 11
38.1352
 21
122.242
 31
0.0
  0
LINE
  5
805
330
1D
100
AcDbEntity
  8
0
100
AcDbLine
 10
37.7995
 20
114.552
 30
0.0
 11
39.0948
 21
114.552
 31
0.0
  0
LINE
  5
80A
330
1D
100
AcDbEntity
  8
0
100
AcDbLine
 10
37.7996
 20
114.552
 30
0.0
 11
39.0947
 21
114.552
 31
0.0
  0
LINE
  5
80B
330
1D
100
AcDbEntity
  8
0
100
AcDbLine
 10
37.7996
 20
122.242
 30
0.0
 11
39.0947
 21
122.242
 31
0.0
  0
LINE
  5
80C
330
1D
100
AcDbEntity
  8
0
100
AcDbLine
 10
37.7994
 20
122.242
 30
0.0
 11
39.0947
 21
122.242
 31
0.0
  0
LINE
  5
80F
330
1D
100
AcDbEntity
  8
0
100
AcDbLine
 10
37.7995
 20
122.792
 30
0.0
 11
39.0948
 21
122.792
 31
0.0
  0
LINE
  5
812
330
1D
100
AcDbEntity
  8
0
100
AcDbLine
 10
37.7996
 20
122.792
 30
0.0
 11
39.0947
 21
122.792
 31
0.0
  0
LINE
  5
814
330
1D
100
AcDbEntity
  8
0
100
AcDbLine
 10
37.0608
 20
125.288
 30
0.0
 11
38.2866
 21
125.288
 31
0.0
  0
LINE
  5
815
330
1D
100
AcDbEntity
  8
0
100
AcDbLine
 10
37.7994
 20
125.288
 30
0.0
 11
39.0947
 21
125.288
 31
0.0
  0
LINE
  5
816
330
1D
100
AcDbEntity
  8
0
100
AcDbLine
 10
37.7996
 20
125.288
 30
0.0
 11
39.0947
 21
125.288
 31
0.0
  0
LINE
  5
817
330
1D
100
AcDbEntity
  8
0
100
AcDbLine
 10
37.7995
 20
125.838
 30
0.0
 11
39.0948
 21
125.838
 31
0.0
  0
LINE
  5
818
330
1D
100
AcDbEntity
  8
0
100
AcDbLine
 10
36.9495
 20
133.528
 30
0.0
 11
38.1351
 21
133.528
 31
0.0
  0
LINE
  5
819
330
1D
100
AcDbEntity
  8
0
100
AcDbLine
 10
36.9493
 20
133.528
 30
0.0
 11
38.1352
 21
133.528
 31
0.0
  0
LINE
  5
81A
330
1D
100
AcDbEntity
  8
0
100
AcDbLine
 10
37.7996
 20
125.838
 30
0.0
 11
39.0947
 21
125.838
 31
0.0
  0
LINE
  5
81F
330
1D
100
AcDbEntity
  8
0
100
AcDbLine
 10
37.7996
 20
133.528
 30
0.0
 11
39.0947
 21
133.528
 31
0.0
  0
LINE
  5
820
330
1D
100
AcDbEntity
  8
0
100
AcDbLine
 10
37.578
 20
134.526
 30
0.0
 11
38.8523
 21
134.526
 31
0.0
  0
LINE
  5
821
330
1D
100
AcDbEntity
  8
0
100
AcDbLine
 10
37.7994
 20
133.528
 30
0.0
 11
39.0948
 21
133.528
 31
0.0
  0
LINE
  5
823
330
1D
100
AcDbEntity
  8
0
100
AcDbLine
 10
37.5779
 20
134.526
 30
0.0
 11
38.8522
 21
134.526
 31
0.0
  0
LINE
  5
827
330
1D
100
AcDbEntity
  8
0
100
AcDbLine
 10
38.1351
 20
122.242
 30
0.0
 11
39.193
 21
122.242
 31
0.0
  0
LINE
  5
828
330
1D
100
AcDbEntity
  8
0
100
AcDbLine
 10
38.1351
 20
133.528
 30
0.0
 11
39.193
 21
133.528
 31
0.0
  0
LINE
  5
829
330
1D
100
AcDbEntity
  8
0
100
AcDbLine
 10
38.1352
 20
133.528
 30
0.0
 11
39.1928
 21
133.528
 31
0.0
  0
LINE
  5
82A
330
1D
100
AcDbEntity
  8
0
100
AcDbLine
 10
38.1352
 20
122.242
 30
0.0
 11
39.1928
 21
122.242
 31
0.0
  0
LINE
  5
82B
330
1D
100
AcDbEntity
  8
0
100
AcDbLine
 10
38.474
 20
103.566
 30
0.0
 11
39.8501
 21
103.566
 31
0.0
  0
LINE
  5
82C
330
1D
100
AcDbEntity
  8
0
100
AcDbLine
 10
38.4744
 20
103.566
 30
0.0
 11
39.8505
 21
103.566
 31
0.0
  0
LINE
  5
82D
330
1D
100
AcDbEntity
  8
0
100
AcDbLine
 10
38.2866
 20
125.288
 30
0.0
 11
39.3329
 21
125.288
 31
0.0
  0
LINE
  5
82E
330
1D
100
AcDbEntity
  8
0
100
AcDbLine
 10
38.2866
 20
125.288
 30
0.0
 11
39.3327
 21
125.288
 31
0.0
  0
LINE
  5
82F
330
1D
100
AcDbEntity
  8
0
100
AcDbLine
 10
38.4486
 20
134.526
 30
0.0
 11
38.4486
 21
135.825
 31
0.0
  0
LINE
  5
832
330
1D
100
AcDbEntity
  8
0
100
AcDbLine
 10
38.8522
 20
134.526
 30
0.0
 11
39.9396
 21
134.526
 31
0.0
  0
LINE
  5
839
330
1D
100
AcDbEntity
  8
0
100
AcDbLine
 10
39.0947
 20
114.552
 30
0.0
 11
40.1995
 21
114.552
 31
0.0
  0
LINE
  5
83A
330
1D
100
AcDbEntity
  8
0
100
AcDbLine
 10
39.0948
 20
114.552
 30
0.0
 11
40.2
 21
114.552
 31
0.0
  0
LINE
  5
83B
330
1D
100
AcDbEntity
  8
0
100
AcDbLine
 10
39.0947
 20
122.792
 30
0.0
 11
40.1995
 21
122.792
 31
0.0
  0
LINE
  5
83C
330
1D
100
AcDbEntity
  8
0
100
AcDbLine
 10
39.0947
 20
122.242
 30
0.0
 11
40.1999
 21
122.242
 31
0.0
  0
LINE
  5
83D
330
1D
100
AcDbEntity
  8
0
100
AcDbLine
 10
39.0947
 20
122.242
 30
0.0
 11
40.1995
 21
122.242
 31
0.0
  0
LINE
  5
83E
330
1D
100
AcDbEntity
  8
0
100
AcDbLine
 10
39.0948
 20
122.792
 30
0.0
 11
40.2
 21
122.792
 31
0.0
  0
LINE
  5
843
330
1D
100
AcDbEntity
  8
0
100
AcDbLine
 10
39.0947
 20
125.838
 30
0.0
 11
40.1995
 21
125.838
 31
0.0
  0
LINE
  5
844
330
1D
100
AcDbEntity
  8
0
100
AcDbLine
 10
39.0947
 20
133.528
 30
0.0
 11
40.1995
 21
133.528
 31
0.0
  0
LINE
  5
845
330
1D
100
AcDbEntity
  8
0
100
AcDbLine
 10
39.0947
 20
125.288
 30
0.0
 11
40.1999
 21
125.288
 31
0.0
  0
LINE
  5
846
330
1D
100
AcDbEntity
  8
0
100
AcDbLine
 10
39.0947
 20
125.288
 30
0.0
 11
40.1995
 21
125.288
 31
0.0
  0
LINE
  5
847
330
1D
100
AcDbEntity
  8
0
100
AcDbLine
 10
39.193
 20
122.242
 30
0.0
 11
40.1131
 21
122.242
 31
0.0
  0
LINE
  5
848
330
1D
100
AcDbEntity
  8
0
100
AcDbLine
 10
39.1928
 20
122.242
 30
0.0
 11
40.1131
 21
122.242
 31
0.0
  0
LINE
  5
855
330
1D
100
AcDbEntity
  8
0
100
AcDbLine
 10
39.193
 20
133.528
 30
0.0
 11
40.1131
 21
133.528
 31
0.0
  0
LINE
  5
856
330
1D
100
AcDbEntity
  8
0
100
AcDbLine
 10
39.1928
 20
133.528
 30
0.0
 11
40.1131
 21
133.528
 31
0.0
  0
LINE
  5
85A
330
1D
100
AcDbEntity
  8
0
100
AcDbLine
 10
39.0948
 20
125.838
 30
0.0
 11
40.2
 21
125.838
 31
0.0
  0
LINE
  5
85B
330
1D
100
AcDbEntity
  8
0
100
AcDbLine
 10
39.0948
 20
133.528
 30
0.0
 11
40.1999
 21
133.528
 31
0.0
  0
LINE
  5
85E
330
1D
100
AcDbEntity
  8
0
100
AcDbLine
 10
39.8501
 20
103.566
 30
0.0
 11
41.0405
 21
103.566
 31
0.0
  0
LINE
  5
860
330
1D
100
AcDbEntity
  8
0
100
AcDbLine
 10
39.8505
 20
103.566
 30
0.0
 11
41.0405
 21
103.566
 31
0.0
  0
LINE
  5
861
330
1D
100
AcDbEntity
  8
0
100
AcDbLine
 10
39.3329
 20
125.288
 30
0.0
 11
40.1855
 21
125.288
 31
0.0
  0
LINE
  5
865
330
1D
100
AcDbEntity
  8
0
100
AcDbLine
 10
39.3327
 20
125.288
 30
0.0
 11
40.1856
 21
125.288
 31
0.0
  0
LINE
  5
86B
330
1D
100
AcDbEntity
  8
0
100
AcDbLine
 10
40.1131
 20
122.242
 30
0.0
 11
40.8868
 21
122.242
 31
0.0
  0
LINE
  5
86C
330
1D
100
AcDbEntity
  8
0
100
AcDbLine
 10
40.1995
 20
114.552
 30
0.0
 11
41.1011
 21
114.552
 31
0.0
  0
LINE
  5
86D
330
1D
100
AcDbEntity
  8
0
100
AcDbLine
 10
40.1995
 20
122.242
 30
0.0
 11
41.1011
 21
122.242
 31
0.0
  0
LINE
  5
86F
330
1D
100
AcDbEntity
  8
0
100
AcDbLine
 10
40.1133
 20
122.242
 30
0.0
 11
40.8872
 21
122.242
 31
0.0
  0
LINE
  5
873
330
1D
100
AcDbEntity
  8
0
100
AcDbLine
 10
40.1999
 20
114.552
 30
0.0
 11
41.1009
 21
114.552
 31
0.0
  0
LINE
  5
874
330
1D
100
AcDbEntity
  8
0
100
AcDbLine
 10
40.1855
 20
125.288
 30
0.0
 11
40.8346
 21
125.288
 31
0.0
  0
LINE
  5
875
330
1D
100
AcDbEntity
  8
0
100
AcDbLine
 10
40.1995
 20
122.792
 30
0.0
 11
41.1011
 21
122.792
 31
0.0
  0
LINE
  5
876
330
1D
100
AcDbEntity
  8
0
100
AcDbLine
 10
40.1995
 20
125.288
 30
0.0
 11
41.1011
 21
125.288
 31
0.0
  0
LINE
  5
877
330
1D
100
AcDbEntity
  8
0
100
AcDbLine
 10
40.1856
 20
125.288
 30
0.0
 11
40.835
 21
125.288
 31
0.0
  0
LINE
  5
878
330
1D
100
AcDbEntity
  8
0
100
AcDbLine
 10
40.1995
 20
125.838
 30
0.0
 11
41.1011
 21
125.838
 31
0.0
  0
LINE
  5
87C
330
1D
100
AcDbEntity
  8
0
100
AcDbLine
 10
40.1131
 20
133.528
 30
0.0
 11
40.8868
 21
133.528
 31
0.0
  0
LINE
  5
87D
330
1D
100
AcDbEntity
  8
0
100
AcDbLine
 10
40.1995
 20
133.528
 30
0.0
 11
41.1011
 21
133.528
 31
0.0
  0
LINE
  5
87F
330
1D
100
AcDbEntity
  8
0
100
AcDbLine
 10
40.1133
 20
133.528
 30
0.0
 11
40.8872
 21
133.528
 31
0.0
  0
LINE
  5
881
330
1D
100
AcDbEntity
  8
0
100
AcDbLine
 10
40.1999
 20
125.838
 30
0.0
 11
41.1009
 21
125.838
 31
0.0
  0
LINE
  5
88A
330
1D
100
AcDbEntity
  8
0
100
AcDbLine
 10
40.2001
 20
122.242
 30
0.0
 11
41.101
 21
122.242
 31
0.0
  0
LINE
  5
88E
330
1D
100
AcDbEntity
  8
0
100
AcDbLine
 10
40.2
 20
122.792
 30
0.0
 11
41.1009
 21
122.792
 31
0.0
  0
LINE
  5
892
330
1D
100
AcDbEntity
  8
0
100
AcDbLine
 10
40.2001
 20
125.288
 30
0.0
 11
41.101
 21
125.288
 31
0.0
  0
LINE
  5
89B
330
1D
100
AcDbEntity
  8
0
100
AcDbLine
 10
40.2
 20
133.528
 30
0.0
 11
41.101
 21
133.528
 31
0.0
  0
LINE
  5
8A1
330
1D
100
AcDbEntity
  8
0
100
AcDbLine
 10
40.8868
 20
122.242
 30
0.0
 11
41.508
 21
122.242
 31
0.0
  0
LINE
  5
8A3
330
1D
100
AcDbEntity
  8
0
100
AcDbLine
 10
40.8872
 20
122.242
 30
0.0
 11
41.5079
 21
122.242
 31
0.0
  0
LINE
  5
8A5
330
1D
100
AcDbEntity
  8
0
100
AcDbLine
 10
40.8346
 20
125.288
 30
0.0
 11
41.2723
 21
125.288
 31
0.0
  0
LINE
  5
8A9
330
1D
100
AcDbEntity
  8
0
100
AcDbLine
 10
40.8868
 20
133.528
 30
0.0
 11
41.508
 21
133.528
 31
0.0
  0
LINE
  5
8AA
330
1D
100
AcDbEntity
  8
0
100
AcDbLine
 10
40.8872
 20
133.528
 30
0.0
 11
41.5079
 21
133.528
 31
0.0
  0
LINE
  5
8AB
330
1D
100
AcDbEntity
  8
0
100
AcDbLine
 10
40.835
 20
125.288
 30
0.0
 11
41.2724
 21
125.288
 31
0.0
  0
LINE
  5
8B1
330
1D
100
AcDbEntity
  8
0
100
AcDbLine
 10
39.9396
 20
134.526
 30
0.0
 11
40.8265
 21
134.526
 31
0.0
  0
LINE
  5
8B5
330
1D
100
AcDbEntity
  8
0
100
AcDbLine
 10
39.9394
 20
134.526
 30
0.0
 11
40.8265
 21
134.526
 31
0.0
  0
LINE
  5
8B6
330
1D
100
AcDbEntity
  8
0
100
AcDbLine
 10
40.8265
 20
134.526
 30
0.0
 11
41.5013
 21
134.526
 31
0.0
  0
LINE
  5
8B7
330
1D
100
AcDbEntity
  8
0
100
AcDbLine
 10
40.8265
 20
134.526
 30
0.0
 11
41.501
 21
134.526
 31
0.0
  0
LINE
  5
8B8
330
1D
100
AcDbEntity
  8
0
100
AcDbLine
 10
38.8523
 20
134.526
 30
0.0
 11
39.9394
 21
134.526
 31
0.0
  0
LINE
  5
8B9
330
1D
100
AcDbEntity
  8
0
100
AcDbLine
 10
37.2375
 20
136.024
 30
0.0
 11
37.7947
 21
136.024
 31
0.0
  0
LINE
  5
8BA
330
1D
100
AcDbEntity
  8
0
100
AcDbLine
 10
37.4216
 20
135.825
 30
0.0
 11
37.9864
 21
135.825
 31
0.0
  0
LINE
  5
8BB
330
1D
100
AcDbEntity
  8
0
100
AcDbLine
 10
37.7947
 20
136.024
 30
0.0
 11
38.1342
 21
136.024
 31
0.0
  0
LINE
  5
8BC
330
1D
100
AcDbEntity
  8
0
100
AcDbLine
 10
37.7947
 20
136.024
 30
0.0
 11
38.1344
 21
136.024
 31
0.0
  0
LINE
  5
8BD
330
1D
100
AcDbEntity
  8
0
100
AcDbLine
 10
38.1344
 20
136.024
 30
0.0
 11
38.2505
 21
136.024
 31
0.0
  0
LINE
  5
8BE
330
1D
100
AcDbEntity
  8
0
100
AcDbLine
 10
37.9864
 20
135.825
 30
0.0
 11
38.3305
 21
135.825
 31
0.0
  0
LINE
  5
8BF
330
1D
100
AcDbEntity
  8
0
100
AcDbLine
 10
38.1342
 20
136.024
 30
0.0
 11
38.2505
 21
136.024
 31
0.0
  0
LINE
  5
8C0
330
1D
100
AcDbEntity
  8
0
100
AcDbLine
 10
38.4486
 20
135.825
 30
0.0
 11
38.4486
 21
134.526
 31
0.0
  0
LINE
  5
8C1
330
1D
100
AcDbEntity
  8
0
100
AcDbLine
 10
38.3305
 20
135.825
 30
0.0
 11
38.4486
 21
135.825
 31
0.0
  0
LINE
  5
8C2
330
1D
100
AcDbEntity
  8
0
100
AcDbLine
 10
38.2505
 20
136.024
 30
0.0
 11
38.4486
 21
135.825
 31
0.0
  0
LINE
  5
8C4
330
1D
100
AcDbEntity
  8
0
100
AcDbLine
 10
36.6446
 20
135.825
 30
0.0
 11
37.4216
 21
135.825
 31
0.0
  0
LINE
  5
8C6
330
1D
100
AcDbEntity
  8
0
100
AcDbLine
 10
37.0595
 20
136.065
 30
0.0
 11
37.208
 21
136.024
 31
0.0
  0
LINE
  5
8C8
330
1D
100
AcDbEntity
  8
0
100
AcDbLine
 10
35.6682
 20
135.825
 30
0.0
 11
36.6447
 21
135.825
 31
0.0
  0
LINE
  5
8CA
330
1D
100
AcDbEntity
  8
0
100
AcDbLine
 10
36.02
 20
136.324
 30
0.0
 11
36.5335
 21
136.324
 31
0.0
  0
LINE
  5
8CD
330
1D
100
AcDbEntity
  8
0
100
AcDbLine
 10
36.5335
 20
136.324
 30
0.0
 11
36.832
 21
136.324
 31
0.0
  0
LINE
  5
8CE
330
1D
100
AcDbEntity
  8
0
100
AcDbLine
 10
36.9507
 20
136.174
 30
0.0
 11
37.0595
 21
136.065
 31
0.0
  0
LINE
  5
8CF
330
1D
100
AcDbEntity
  8
0
100
AcDbLine
 10
36.832
 20
136.324
 30
0.0
 11
36.9109
 21
136.324
 31
0.0
  0
LINE
  5
8D0
330
1D
100
AcDbEntity
  8
0
100
AcDbLine
 10
36.9109
 20
136.324
 30
0.0
 11
36.9109
 21
138.222
 31
0.0
  0
LINE
  5
8D1
330
1D
100
AcDbEntity
  8
0
100
AcDbLine
 10
36.9109
 20
136.324
 30
0.0
 11
36.9507
 21
136.174
 31
0.0
  0
LINE
  5
8D2
330
1D
100
AcDbEntity
  8
0
100
AcDbLine
 10
36.5334
 20
136.324
 30
0.0
 11
36.832
 21
136.324
 31
0.0
  0
LINE
  5
8D3
330
1D
100
AcDbEntity
  8
0
100
AcDbLine
 10
36.0202
 20
136.324
 30
0.0
 11
36.5334
 21
136.324
 31
0.0
  0
LINE
  5
8D5
330
1D
100
AcDbEntity
  8
0
100
AcDbLine
 10
35.3009
 20
136.324
 30
0.0
 11
36.02
 21
136.324
 31
0.0
  0
LINE
  5
8D7
330
1D
100
AcDbEntity
  8
0
100
AcDbLine
 10
35.3007
 20
136.324
 30
0.0
 11
36.0202
 21
136.324
 31
0.0
  0
LINE
  5
8D8
330
1D
100
AcDbEntity
  8
0
100
AcDbLine
 10
35.3009
 20
138.222
 30
0.0
 11
36.02
 21
138.222
 31
0.0
  0
LINE
  5
8DA
330
1D
100
AcDbEntity
  8
0
100
AcDbLine
 10
36.5334
 20
138.222
 30
0.0
 11
36.832
 21
138.222
 31
0.0
  0
LINE
  5
8DB
330
1D
100
AcDbEntity
  8
0
100
AcDbLine
 10
36.0202
 20
138.222
 30
0.0
 11
36.5334
 21
138.222
 31
0.0
  0
LINE
  5
8DC
330
1D
100
AcDbEntity
  8
0
100
AcDbLine
 10
36.02
 20
138.222
 30
0.0
 11
36.5335
 21
138.222
 31
0.0
  0
LINE
  5
8DD
330
1D
100
AcDbEntity
  8
0
100
AcDbLine
 10
36.5335
 20
138.222
 30
0.0
 11
36.832
 21
138.222
 31
0.0
  0
LINE
  5
8DE
330
1D
100
AcDbEntity
  8
0
100
AcDbLine
 10
36.9109
 20
138.222
 30
0.0
 11
36.9507
 21
138.371
 31
0.0
  0
LINE
  5
8DF
330
1D
100
AcDbEntity
  8
0
100
AcDbLine
 10
36.9109
 20
138.222
 30
0.0
 11
36.9109
 21
136.324
 31
0.0
  0
LINE
  5
8E0
330
1D
100
AcDbEntity
  8
0
100
AcDbLine
 10
36.832
 20
138.222
 30
0.0
 11
36.9109
 21
138.222
 31
0.0
  0
LINE
  5
8E2
330
1D
100
AcDbEntity
  8
0
100
AcDbLine
 10
35.3007
 20
138.222
 30
0.0
 11
36.0202
 21
138.222
 31
0.0
  0
LINE
  5
8E4
330
1D
100
AcDbEntity
  8
0
100
AcDbLine
 10
34.388
 20
138.222
 30
0.0
 11
35.301
 21
138.222
 31
0.0
  0
LINE
  5
8E5
330
1D
100
AcDbEntity
  8
0
100
AcDbLine
 10
24.2341
 20
138.521
 30
0.0
 11
25.9579
 21
138.521
 31
0.0
  0
LINE
  5
8E6
330
1D
100
AcDbEntity
  8
0
100
AcDbLine
 10
25.9579
 20
138.521
 30
0.0
 11
27.6479
 21
138.521
 31
0.0
  0
LINE
  5
8E7
330
1D
100
AcDbEntity
  8
0
100
AcDbLine
 10
27.6479
 20
138.521
 30
0.0
 11
29.2754
 21
138.521
 31
0.0
  0
LINE
  5
8E8
330
1D
100
AcDbEntity
  8
0
100
AcDbLine
 10
26.6286
 20
138.521
 30
0.0
 11
28.3647
 21
138.521
 31
0.0
  0
LINE
  5
8E9
330
1D
100
AcDbEntity
  8
0
100
AcDbLine
 10
26.6284
 20
138.521
 30
0.0
 11
28.3647
 21
138.521
 31
0.0
  0
LINE
  5
8EA
330
1D
100
AcDbEntity
  8
0
100
AcDbLine
 10
24.8509
 20
138.521
 30
0.0
 11
26.6284
 21
138.521
 31
0.0
  0
LINE
  5
8EB
330
1D
100
AcDbEntity
  8
0
100
AcDbLine
 10
24.8509
 20
138.521
 30
0.0
 11
26.6286
 21
138.521
 31
0.0
  0
LINE
  5
8EC
330
1D
100
AcDbEntity
  8
0
100
AcDbLine
 10
24.2342
 20
138.521
 30
0.0
 11
25.9578
 21
138.521
 31
0.0
  0
LINE
  5
8ED
330
1D
100
AcDbEntity
  8
0
100
AcDbLine
 10
25.9578
 20
138.521
 30
0.0
 11
27.6481
 21
138.521
 31
0.0
  0
LINE
  5
8EE
330
1D
100
AcDbEntity
  8
0
100
AcDbLine
 10
30.0317
 20
138.521
 30
0.0
 11
31.6035
 21
138.521
 31
0.0
  0
LINE
  5
8EF
330
1D
100
AcDbEntity
  8
0
100
AcDbLine
 10
30.0315
 20
138.521
 30
0.0
 11
31.6032
 21
138.521
 31
0.0
  0
LINE
  5
8F0
330
1D
100
AcDbEntity
  8
0
100
AcDbLine
 10
28.3647
 20
138.521
 30
0.0
 11
30.0315
 21
138.521
 31
0.0
  0
LINE
  5
8F1
330
1D
100
AcDbEntity
  8
0
100
AcDbLine
 10
28.3647
 20
138.521
 30
0.0
 11
30.0317
 21
138.521
 31
0.0
  0
LINE
  5
8F2
330
1D
100
AcDbEntity
  8
0
100
AcDbLine
 10
27.6481
 20
138.521
 30
0.0
 11
29.2754
 21
138.521
 31
0.0
  0
LINE
  5
8F3
330
1D
100
AcDbEntity
  8
0
100
AcDbLine
 10
29.2754
 20
138.521
 30
0.0
 11
30.812
 21
138.521
 31
0.0
  0
LINE
  5
8F4
330
1D
100
AcDbEntity
  8
0
100
AcDbLine
 10
31.6035
 20
138.521
 30
0.0
 11
33.0547
 21
138.521
 31
0.0
  0
LINE
  5
8F5
330
1D
100
AcDbEntity
  8
0
100
AcDbLine
 10
33.0547
 20
138.521
 30
0.0
 11
34.3636
 21
138.521
 31
0.0
  0
LINE
  5
8F6
330
1D
100
AcDbEntity
  8
0
100
AcDbLine
 10
33.0549
 20
138.521
 30
0.0
 11
34.3635
 21
138.521
 31
0.0
  0
LINE
  5
8F7
330
1D
100
AcDbEntity
  8
0
100
AcDbLine
 10
31.6032
 20
138.521
 30
0.0
 11
33.0549
 21
138.521
 31
0.0
  0
LINE
  5
8F8
330
1D
100
AcDbEntity
  8
0
100
AcDbLine
 10
30.812
 20
138.521
 30
0.0
 11
32.2321
 21
138.521
 31
0.0
  0
LINE
  5
8F9
330
1D
100
AcDbEntity
  8
0
100
AcDbLine
 10
24.8327
 20
140.519
 30
0.0
 11
26.5732
 21
140.519
 31
0.0
  0
LINE
  5
8FA
330
1D
100
AcDbEntity
  8
0
100
AcDbLine
 10
24.8325
 20
140.519
 30
0.0
 11
26.573
 21
140.519
 31
0.0
  0
LINE
  5
8FB
330
1D
100
AcDbEntity
  8
0
100
AcDbLine
 10
24.8628
 20
140.018
 30
0.0
 11
26.6652
 21
140.018
 31
0.0
  0
LINE
  5
8FC
330
1D
100
AcDbEntity
  8
0
100
AcDbLine
 10
33.1809
 20
138.721
 30
0.0
 11
34.5075
 21
138.721
 31
0.0
  0
LINE
  5
8FD
330
1D
100
AcDbEntity
  8
0
100
AcDbLine
 10
31.7093
 20
138.721
 30
0.0
 11
33.1809
 21
138.721
 31
0.0
  0
LINE
  5
8FE
330
1D
100
AcDbEntity
  8
0
100
AcDbLine
 10
30.1156
 20
138.721
 30
0.0
 11
31.7093
 21
138.721
 31
0.0
  0
LINE
  5
8FF
330
1D
100
AcDbEntity
  8
0
100
AcDbLine
 10
28.4255
 20
138.721
 30
0.0
 11
30.1156
 21
138.721
 31
0.0
  0
LINE
  5
900
330
1D
100
AcDbEntity
  8
0
100
AcDbLine
 10
26.5732
 20
140.519
 30
0.0
 11
28.2728
 21
140.519
 31
0.0
  0
LINE
  5
901
330
1D
100
AcDbEntity
  8
0
100
AcDbLine
 10
26.573
 20
140.519
 30
0.0
 11
28.2728
 21
140.519
 31
0.0
  0
LINE
  5
902
330
1D
100
AcDbEntity
  8
0
100
AcDbLine
 10
26.6652
 20
140.018
 30
0.0
 11
28.4255
 21
140.018
 31
0.0
  0
LINE
  5
903
330
1D
100
AcDbEntity
  8
0
100
AcDbLine
 10
28.2728
 20
140.519
 30
0.0
 11
29.9048
 21
140.519
 31
0.0
  0
LINE
  5
904
330
1D
100
AcDbEntity
  8
0
100
AcDbLine
 10
28.2728
 20
140.519
 30
0.0
 11
29.905
 21
140.519
 31
0.0
  0
LINE
  5
905
330
1D
100
AcDbEntity
  8
0
100
AcDbLine
 10
29.905
 20
140.519
 30
0.0
 11
31.4439
 21
140.519
 31
0.0
  0
LINE
  5
906
330
1D
100
AcDbEntity
  8
0
100
AcDbLine
 10
28.4255
 20
140.018
 30
0.0
 11
30.1156
 21
140.018
 31
0.0
  0
LINE
  5
907
330
1D
100
AcDbEntity
  8
0
100
AcDbLine
 10
29.9048
 20
140.519
 30
0.0
 11
31.4437
 21
140.519
 31
0.0
  0
LINE
  5
908
330
1D
100
AcDbEntity
  8
0
100
AcDbLine
 10
31.4439
 20
140.519
 30
0.0
 11
32.8647
 21
140.519
 31
0.0
  0
LINE
  5
909
330
1D
100
AcDbEntity
  8
0
100
AcDbLine
 10
30.1156
 20
140.018
 30
0.0
 11
31.7093
 21
140.018
 31
0.0
  0
LINE
  5
90A
330
1D
100
AcDbEntity
  8
0
100
AcDbLine
 10
31.4437
 20
140.519
 30
0.0
 11
32.8649
 21
140.519
 31
0.0
  0
LINE
  5
90B
330
1D
100
AcDbEntity
  8
0
100
AcDbLine
 10
32.8647
 20
140.519
 30
0.0
 11
34.1461
 21
140.519
 31
0.0
  0
LINE
  5
90C
330
1D
100
AcDbEntity
  8
0
100
AcDbLine
 10
31.7093
 20
140.018
 30
0.0
 11
33.1809
 21
140.018
 31
0.0
  0
LINE
  5
90D
330
1D
100
AcDbEntity
  8
0
100
AcDbLine
 10
26.8857
 20
141.018
 30
0.0
 11
28.4284
 21
141.018
 31
0.0
  0
LINE
  5
90E
330
1D
100
AcDbEntity
  8
0
100
AcDbLine
 10
25.2889
 20
141.018
 30
0.0
 11
26.8858
 21
141.018
 31
0.0
  0
LINE
  5
90F
330
1D
100
AcDbEntity
  8
0
100
AcDbLine
 10
25.2889
 20
141.018
 30
0.0
 11
26.8857
 21
141.018
 31
0.0
  0
LINE
  5
910
330
1D
100
AcDbEntity
  8
0
100
AcDbLine
 10
28.4284
 20
141.018
 30
0.0
 11
29.8886
 21
141.018
 31
0.0
  0
LINE
  5
911
330
1D
100
AcDbEntity
  8
0
100
AcDbLine
 10
26.8858
 20
141.018
 30
0.0
 11
28.4285
 21
141.018
 31
0.0
  0
LINE
  5
912
330
1D
100
AcDbEntity
  8
0
100
AcDbLine
 10
28.4285
 20
141.018
 30
0.0
 11
29.8884
 21
141.018
 31
0.0
  0
LINE
  5
913
330
1D
100
AcDbEntity
  8
0
100
AcDbLine
 10
31.2385
 20
141.018
 30
0.0
 11
32.4534
 21
141.018
 31
0.0
  0
LINE
  5
914
330
1D
100
AcDbEntity
  8
0
100
AcDbLine
 10
29.8886
 20
141.018
 30
0.0
 11
31.2385
 21
141.018
 31
0.0
  0
LINE
  5
915
330
1D
100
AcDbEntity
  8
0
100
AcDbLine
 10
29.8884
 20
141.018
 30
0.0
 11
31.2383
 21
141.018
 31
0.0
  0
LINE
  5
916
330
1D
100
AcDbEntity
  8
0
100
AcDbLine
 10
31.2383
 20
141.018
 30
0.0
 11
32.4533
 21
141.018
 31
0.0
  0
LINE
  5
917
330
1D
100
AcDbEntity
  8
0
100
AcDbLine
 10
32.4534
 20
141.018
 30
0.0
 11
33.5107
 21
141.018
 31
0.0
  0
LINE
  5
918
330
1D
100
AcDbEntity
  8
0
100
AcDbLine
 10
32.4533
 20
141.018
 30
0.0
 11
33.5105
 21
141.018
 31
0.0
  0
LINE
  5
919
330
1D
100
AcDbEntity
  8
0
100
AcDbLine
 10
32.8649
 20
140.519
 30
0.0
 11
34.1457
 21
140.519
 31
0.0
  0
LINE
  5
91A
330
1D
100
AcDbEntity
  8
0
100
AcDbLine
 10
33.1809
 20
140.018
 30
0.0
 11
34.5075
 21
140.018
 31
0.0
  0
LINE
  5
91B
330
1D
100
AcDbEntity
  8
0
100
AcDbLine
 10
26.6652
 20
138.721
 30
0.0
 11
28.4255
 21
138.721
 31
0.0
  0
LINE
  5
91C
330
1D
100
AcDbEntity
  8
0
100
AcDbLine
 10
24.8628
 20
138.721
 30
0.0
 11
26.6652
 21
138.721
 31
0.0
  0
LINE
  5
91D
330
1D
100
AcDbEntity
  8
0
100
AcDbLine
 10
32.2321
 20
138.521
 30
0.0
 11
33.511
 21
138.521
 31
0.0
  0
LINE
  5
91E
330
1D
100
AcDbEntity
  8
0
100
AcDbLine
 10
32.2321
 20
138.521
 30
0.0
 11
33.5111
 21
138.521
 31
0.0
  0
LINE
  5
91F
330
1D
100
AcDbEntity
  8
0
100
AcDbLine
 10
33.5111
 20
138.521
 30
0.0
 11
34.6271
 21
138.521
 31
0.0
  0
LINE
  5
920
330
1D
100
AcDbEntity
  8
0
100
AcDbLine
 10
34.3636
 20
138.521
 30
0.0
 11
35.5082
 21
138.521
 31
0.0
  0
LINE
  5
921
330
1D
100
AcDbEntity
  8
0
100
AcDbLine
 10
34.3635
 20
138.521
 30
0.0
 11
35.5084
 21
138.521
 31
0.0
  0
LINE
  5
922
330
1D
100
AcDbEntity
  8
0
100
AcDbLine
 10
34.1461
 20
140.519
 30
0.0
 11
35.2667
 21
140.519
 31
0.0
  0
LINE
  5
923
330
1D
100
AcDbEntity
  8
0
100
AcDbLine
 10
34.1457
 20
140.519
 30
0.0
 11
35.2668
 21
140.519
 31
0.0
  0
LINE
  5
924
330
1D
100
AcDbEntity
  8
0
100
AcDbLine
 10
33.511
 20
138.521
 30
0.0
 11
34.6269
 21
138.521
 31
0.0
  0
LINE
  5
925
330
1D
100
AcDbEntity
  8
0
100
AcDbLine
 10
33.5107
 20
141.018
 30
0.0
 11
34.3903
 21
141.018
 31
0.0
  0
LINE
  5
927
330
1D
100
AcDbEntity
  8
0
100
AcDbLine
 10
34.3902
 20
141.018
 30
0.0
 11
35.0763
 21
141.018
 31
0.0
  0
LINE
  5
929
330
1D
100
AcDbEntity
  8
0
100
AcDbLine
 10
34.5075
 20
140.018
 30
0.0
 11
35.6682
 21
140.018
 31
0.0
  0
LINE
  5
92A
330
1D
100
AcDbEntity
  8
0
100
AcDbLine
 10
34.5075
 20
138.721
 30
0.0
 11
35.6682
 21
138.721
 31
0.0
  0
LINE
  5
92B
330
1D
100
AcDbEntity
  8
0
100
AcDbLine
 10
35.2667
 20
140.519
 30
0.0
 11
36.2098
 21
140.519
 31
0.0
  0
LINE
  5
92C
330
1D
100
AcDbEntity
  8
0
100
AcDbLine
 10
35.0763
 20
141.018
 30
0.0
 11
35.5556
 21
141.018
 31
0.0
  0
LINE
  5
92D
330
1D
100
AcDbEntity
  8
0
100
AcDbLine
 10
35.2668
 20
140.519
 30
0.0
 11
36.2096
 21
140.519
 31
0.0
  0
LINE
  5
92E
330
1D
100
AcDbEntity
  8
0
100
AcDbLine
 10
34.6271
 20
138.521
 30
0.0
 11
35.5609
 21
138.521
 31
0.0
  0
LINE
  5
92F
330
1D
100
AcDbEntity
  8
0
100
AcDbLine
 10
34.6269
 20
138.521
 30
0.0
 11
35.5609
 21
138.521
 31
0.0
  0
LINE
  5
932
330
1D
100
AcDbEntity
  8
0
100
AcDbLine
 10
34.3903
 20
141.018
 30
0.0
 11
35.0763
 21
141.018
 31
0.0
  0
LINE
  5
933
330
1D
100
AcDbEntity
  8
0
100
AcDbLine
 10
27.1481
 20
148.009
 30
0.0
 11
28.6842
 21
148.009
 31
0.0
  0
LINE
  5
934
330
1D
100
AcDbEntity
  8
0
100
AcDbLine
 10
25.5532
 20
148.009
 30
0.0
 11
27.1481
 21
148.009
 31
0.0
  0
LINE
  5
935
330
1D
100
AcDbEntity
  8
0
100
AcDbLine
 10
25.3897
 20
155.0
 30
0.0
 11
26.819
 21
155.0
 31
0.0
  0
LINE
  5
936
330
1D
100
AcDbEntity
  8
0
100
AcDbLine
 10
25.3898
 20
155.0
 30
0.0
 11
26.8189
 21
155.0
 31
0.0
  0
LINE
  5
937
330
1D
100
AcDbEntity
  8
0
100
AcDbLine
 10
26.8189
 20
155.0
 30
0.0
 11
28.1977
 21
155.0
 31
0.0
  0
LINE
  5
938
330
1D
100
AcDbEntity
  8
0
100
AcDbLine
 10
26.819
 20
155.0
 30
0.0
 11
28.1977
 21
155.0
 31
0.0
  0
LINE
  5
939
330
1D
100
AcDbEntity
  8
0
100
AcDbLine
 10
27.1299
 20
154.537
 30
0.0
 11
28.6841
 21
154.001
 31
0.0
  0
LINE
  5
93A
330
1D
100
AcDbEntity
  8
0
100
AcDbLine
 10
27.1299
 20
154.537
 30
0.0
 11
28.6842
 21
154.001
 31
0.0
  0
LINE
  5
93B
330
1D
100
AcDbEntity
  8
0
100
AcDbLine
 10
25.5006
 20
154.887
 30
0.0
 11
27.1299
 21
154.537
 31
0.0
  0
LINE
  5
93C
330
1D
100
AcDbEntity
  8
0
100
AcDbLine
 10
25.5531
 20
148.009
 30
0.0
 11
27.1483
 21
148.009
 31
0.0
  0
LINE
  5
93D
330
1D
100
AcDbEntity
  8
0
100
AcDbLine
 10
28.6841
 20
148.009
 30
0.0
 11
28.6841
 21
154.001
 31
0.0
  0
LINE
  5
93E
330
1D
100
AcDbEntity
  8
0
100
AcDbLine
 10
28.6842
 20
154.001
 30
0.0
 11
28.6842
 21
148.009
 31
0.0
  0
LINE
  5
93F
330
1D
100
AcDbEntity
  8
0
100
AcDbLine
 10
28.6842
 20
154.001
 30
0.0
 11
30.0797
 21
154.001
 31
0.0
  0
LINE
  5
940
330
1D
100
AcDbEntity
  8
0
100
AcDbLine
 10
32.5308
 20
154.001
 30
0.0
 11
33.5436
 21
154.001
 31
0.0
  0
LINE
  5
941
330
1D
100
AcDbEntity
  8
0
100
AcDbLine
 10
31.3695
 20
154.001
 30
0.0
 11
32.5308
 21
154.001
 31
0.0
  0
LINE
  5
942
330
1D
100
AcDbEntity
  8
0
100
AcDbLine
 10
32.5307
 20
154.001
 30
0.0
 11
33.5436
 21
154.001
 31
0.0
  0
LINE
  5
943
330
1D
100
AcDbEntity
  8
0
100
AcDbLine
 10
31.3694
 20
154.001
 30
0.0
 11
32.5307
 21
154.001
 31
0.0
  0
LINE
  5
944
330
1D
100
AcDbEntity
  8
0
100
AcDbLine
 10
30.0797
 20
154.001
 30
0.0
 11
31.3694
 21
154.001
 31
0.0
  0
LINE
  5
945
330
1D
100
AcDbEntity
  8
0
100
AcDbLine
 10
30.0797
 20
154.001
 30
0.0
 11
31.3695
 21
154.001
 31
0.0
  0
LINE
  5
946
330
1D
100
AcDbEntity
  8
0
100
AcDbLine
 10
35.0836
 20
154.001
 30
0.0
 11
35.5649
 21
154.001
 31
0.0
  0
LINE
  5
947
330
1D
100
AcDbEntity
  8
0
100
AcDbLine
 10
34.3904
 20
154.001
 30
0.0
 11
35.0836
 21
154.001
 31
0.0
  0
LINE
  5
948
330
1D
100
AcDbEntity
  8
0
100
AcDbLine
 10
34.3903
 20
154.001
 30
0.0
 11
35.0836
 21
154.001
 31
0.0
  0
LINE
  5
949
330
1D
100
AcDbEntity
  8
0
100
AcDbLine
 10
29.5007
 20
155.0
 30
0.0
 11
30.7055
 21
155.0
 31
0.0
  0
LINE
  5
94A
330
1D
100
AcDbEntity
  8
0
100
AcDbLine
 10
28.1977
 20
155.0
 30
0.0
 11
29.5007
 21
155.0
 31
0.0
  0
LINE
  5
94B
330
1D
100
AcDbEntity
  8
0
100
AcDbLine
 10
32.7347
 20
155.0
 30
0.0
 11
33.5233
 21
155.0
 31
0.0
  0
LINE
  5
94C
330
1D
100
AcDbEntity
  8
0
100
AcDbLine
 10
31.7898
 20
155.0
 30
0.0
 11
32.7349
 21
155.0
 31
0.0
  0
LINE
  5
94D
330
1D
100
AcDbEntity
  8
0
100
AcDbLine
 10
31.7898
 20
155.0
 30
0.0
 11
32.7347
 21
155.0
 31
0.0
  0
LINE
  5
94E
330
1D
100
AcDbEntity
  8
0
100
AcDbLine
 10
30.7055
 20
155.0
 30
0.0
 11
31.7898
 21
155.0
 31
0.0
  0
LINE
  5
94F
330
1D
100
AcDbEntity
  8
0
100
AcDbLine
 10
34.1578
 20
155.0
 30
0.0
 11
34.5984
 21
155.0
 31
0.0
  0
LINE
  5
950
330
1D
100
AcDbEntity
  8
0
100
AcDbLine
 10
34.5984
 20
155.0
 30
0.0
 11
34.8377
 21
155.0
 31
0.0
  0
LINE
  5
951
330
1D
100
AcDbEntity
  8
0
100
AcDbLine
 10
34.1577
 20
155.0
 30
0.0
 11
34.5986
 21
155.0
 31
0.0
  0
LINE
  5
952
330
1D
100
AcDbEntity
  8
0
100
AcDbLine
 10
34.8701
 20
155.0
 30
0.0
 11
35.859
 21
154.001
 31
0.0
  0
LINE
  5
953
330
1D
100
AcDbEntity
  8
0
100
AcDbLine
 10
34.5986
 20
155.0
 30
0.0
 11
34.8376
 21
155.0
 31
0.0
  0
LINE
  5
955
330
1D
100
AcDbEntity
  8
0
100
AcDbLine
 10
33.5232
 20
155.0
 30
0.0
 11
34.1577
 21
155.0
 31
0.0
  0
LINE
  5
957
330
1D
100
AcDbEntity
  8
0
100
AcDbLine
 10
33.5233
 20
155.0
 30
0.0
 11
34.1578
 21
155.0
 31
0.0
  0
LINE
  5
958
330
1D
100
AcDbEntity
  8
0
100
AcDbLine
 10
32.7349
 20
155.0
 30
0.0
 11
33.5233
 21
155.0
 31
0.0
  0
LINE
  5
959
330
1D
100
AcDbEntity
  8
0
100
AcDbLine
 10
33.5436
 20
154.001
 30
0.0
 11
34.3903
 21
154.001
 31
0.0
  0
LINE
  5
95A
330
1D
100
AcDbEntity
  8
0
100
AcDbLine
 10
27.1483
 20
148.009
 30
0.0
 11
28.6841
 21
148.009
 31
0.0
  0
LINE
  5
95B
330
1D
100
AcDbEntity
  8
0
100
AcDbLine
 10
33.5105
 20
141.018
 30
0.0
 11
34.3903
 21
141.018
 31
0.0
  0
LINE
  5
95C
330
1D
100
AcDbEntity
  8
0
100
AcDbLine
 10
35.5082
 20
138.521
 30
0.0
 11
36.4714
 21
138.521
 31
0.0
  0
LINE
  5
95E
330
1D
100
AcDbEntity
  8
0
100
AcDbLine
 10
35.5609
 20
138.521
 30
0.0
 11
36.2967
 21
138.521
 31
0.0
  0
LINE
  5
95F
330
1D
100
AcDbEntity
  8
0
100
AcDbLine
 10
36.2967
 20
138.521
 30
0.0
 11
36.8218
 21
138.521
 31
0.0
  0
LINE
  5
960
330
1D
100
AcDbEntity
  8
0
100
AcDbLine
 10
36.4714
 20
138.521
 30
0.0
 11
37.2375
 21
138.521
 31
0.0
  0
LINE
  5
961
330
1D
100
AcDbEntity
  8
0
100
AcDbLine
 10
36.2968
 20
138.521
 30
0.0
 11
36.8218
 21
138.521
 31
0.0
  0
LINE
  5
962
330
1D
100
AcDbEntity
  8
0
100
AcDbLine
 10
35.5084
 20
138.521
 30
0.0
 11
36.4712
 21
138.521
 31
0.0
  0
LINE
  5
964
330
1D
100
AcDbEntity
  8
0
100
AcDbLine
 10
36.9507
 20
138.371
 30
0.0
 11
37.0595
 21
138.481
 31
0.0
  0
LINE
  5
965
330
1D
100
AcDbEntity
  8
0
100
AcDbLine
 10
37.1273
 20
138.521
 30
0.0
 11
37.2078
 21
138.521
 31
0.0
  0
LINE
  5
966
330
1D
100
AcDbEntity
  8
0
100
AcDbLine
 10
36.8218
 20
138.521
 30
0.0
 11
37.1274
 21
138.521
 31
0.0
  0
LINE
  5
967
330
1D
100
AcDbEntity
  8
0
100
AcDbLine
 10
36.8218
 20
138.521
 30
0.0
 11
37.1273
 21
138.521
 31
0.0
  0
LINE
  5
968
330
1D
100
AcDbEntity
  8
0
100
AcDbLine
 10
37.7947
 20
138.521
 30
0.0
 11
38.1344
 21
138.521
 31
0.0
  0
LINE
  5
969
330
1D
100
AcDbEntity
  8
0
100
AcDbLine
 10
37.2375
 20
138.521
 30
0.0
 11
37.7947
 21
138.521
 31
0.0
  0
LINE
  5
96A
330
1D
100
AcDbEntity
  8
0
100
AcDbLine
 10
37.2599
 20
138.521
 30
0.0
 11
37.8099
 21
138.521
 31
0.0
  0
LINE
  5
96B
330
1D
100
AcDbEntity
  8
0
100
AcDbLine
 10
37.208
 20
138.521
 30
0.0
 11
37.2601
 21
138.521
 31
0.0
  0
LINE
  5
96C
330
1D
100
AcDbEntity
  8
0
100
AcDbLine
 10
37.208
 20
138.521
 30
0.0
 11
37.2599
 21
138.521
 31
0.0
  0
LINE
  5
96D
330
1D
100
AcDbEntity
  8
0
100
AcDbLine
 10
37.2601
 20
138.521
 30
0.0
 11
37.8101
 21
138.521
 31
0.0
  0
LINE
  5
96E
330
1D
100
AcDbEntity
  8
0
100
AcDbLine
 10
37.8099
 20
138.521
 30
0.0
 11
38.1419
 21
138.521
 31
0.0
  0
LINE
  5
96F
330
1D
100
AcDbEntity
  8
0
100
AcDbLine
 10
37.8101
 20
138.521
 30
0.0
 11
38.1418
 21
138.521
 31
0.0
  0
LINE
  5
970
330
1D
100
AcDbEntity
  8
0
100
AcDbLine
 10
38.1344
 20
138.521
 30
0.0
 11
38.2505
 21
138.521
 31
0.0
  0
LINE
  5
971
330
1D
100
AcDbEntity
  8
0
100
AcDbLine
 10
38.1419
 20
138.521
 30
0.0
 11
38.2505
 21
138.521
 31
0.0
  0
LINE
  5
972
330
1D
100
AcDbEntity
  8
0
100
AcDbLine
 10
38.1418
 20
138.521
 30
0.0
 11
38.2506
 21
138.521
 31
0.0
  0
LINE
  5
973
330
1D
100
AcDbEntity
  8
0
100
AcDbLine
 10
38.1343
 20
138.521
 30
0.0
 11
38.2506
 21
138.521
 31
0.0
  0
LINE
  5
974
330
1D
100
AcDbEntity
  8
0
100
AcDbLine
 10
38.2506
 20
138.521
 30
0.0
 11
38.4486
 21
138.721
 31
0.0
  0
LINE
  5
975
330
1D
100
AcDbEntity
  8
0
100
AcDbLine
 10
37.7948
 20
138.521
 30
0.0
 11
38.1343
 21
138.521
 31
0.0
  0
LINE
  5
976
330
1D
100
AcDbEntity
  8
0
100
AcDbLine
 10
37.2376
 20
138.521
 30
0.0
 11
37.7948
 21
138.521
 31
0.0
  0
LINE
  5
977
330
1D
100
AcDbEntity
  8
0
100
AcDbLine
 10
37.1274
 20
138.521
 30
0.0
 11
37.208
 21
138.521
 31
0.0
  0
LINE
  5
978
330
1D
100
AcDbEntity
  8
0
100
AcDbLine
 10
37.0595
 20
138.481
 30
0.0
 11
37.208
 21
138.521
 31
0.0
  0
LINE
  5
97A
330
1D
100
AcDbEntity
  8
0
100
AcDbLine
 10
36.4715
 20
138.521
 30
0.0
 11
37.2376
 21
138.521
 31
0.0
  0
LINE
  5
97B
330
1D
100
AcDbEntity
  8
0
100
AcDbLine
 10
36.6446
 20
138.721
 30
0.0
 11
37.4216
 21
138.721
 31
0.0
  0
LINE
  5
97C
330
1D
100
AcDbEntity
  8
0
100
AcDbLine
 10
35.6682
 20
140.018
 30
0.0
 11
36.6447
 21
140.018
 31
0.0
  0
LINE
  5
97D
330
1D
100
AcDbEntity
  8
0
100
AcDbLine
 10
36.2098
 20
140.519
 30
0.0
 11
36.9598
 21
140.519
 31
0.0
  0
LINE
  5
97F
330
1D
100
AcDbEntity
  8
0
100
AcDbLine
 10
35.5556
 20
141.018
 30
0.0
 11
35.8193
 21
141.018
 31
0.0
  0
LINE
  5
980
330
1D
100
AcDbEntity
  8
0
100
AcDbLine
 10
35.5556
 20
141.018
 30
0.0
 11
35.8192
 21
141.018
 31
0.0
  0
LINE
  5
981
330
1D
100
AcDbEntity
  8
0
100
AcDbLine
 10
35.859
 20
154.001
 30
0.0
 11
35.8627
 21
141.018
 31
0.0
  0
LINE
  5
982
330
1D
100
AcDbEntity
  8
0
100
AcDbLine
 10
35.5649
 20
154.001
 30
0.0
 11
35.8249
 21
154.001
 31
0.0
  0
LINE
  5
983
330
1D
100
AcDbEntity
  8
0
100
AcDbLine
 10
35.8629
 20
141.018
 30
0.0
 11
36.3576
 21
140.519
 31
0.0
  0
LINE
  5
985
330
1D
100
AcDbEntity
  8
0
100
AcDbLine
 10
36.2099
 20
140.519
 30
0.0
 11
36.96
 21
140.519
 31
0.0
  0
LINE
  5
986
330
1D
100
AcDbEntity
  8
0
100
AcDbLine
 10
36.6447
 20
140.018
 30
0.0
 11
37.4216
 21
140.018
 31
0.0
  0
LINE
  5
988
330
1D
100
AcDbEntity
  8
0
100
AcDbLine
 10
36.6446
 20
140.018
 30
0.0
 11
37.4216
 21
140.018
 31
0.0
  0
LINE
  5
989
330
1D
100
AcDbEntity
  8
0
100
AcDbLine
 10
35.6682
 20
138.721
 30
0.0
 11
36.6447
 21
138.721
 31
0.0
  0
LINE
  5
98A
330
1D
100
AcDbEntity
  8
0
100
AcDbLine
 10
37.9863
 20
138.721
 30
0.0
 11
38.3305
 21
138.721
 31
0.0
  0
LINE
  5
98B
330
1D
100
AcDbEntity
  8
0
100
AcDbLine
 10
38.3305
 20
138.721
 30
0.0
 11
38.4486
 21
138.721
 31
0.0
  0
LINE
  5
98C
330
1D
100
AcDbEntity
  8
0
100
AcDbLine
 10
38.4486
 20
138.721
 30
0.0
 11
38.4486
 21
140.018
 31
0.0
  0
LINE
  5
98D
330
1D
100
AcDbEntity
  8
0
100
AcDbLine
 10
38.3306
 20
138.721
 30
0.0
 11
38.4486
 21
138.721
 31
0.0
  0
LINE
  5
98E
330
1D
100
AcDbEntity
  8
0
100
AcDbLine
 10
37.9864
 20
138.721
 30
0.0
 11
38.3306
 21
138.721
 31
0.0
  0
LINE
  5
98F
330
1D
100
AcDbEntity
  8
0
100
AcDbLine
 10
36.9598
 20
140.519
 30
0.0
 11
37.5053
 21
140.519
 31
0.0
  0
LINE
  5
990
330
1D
100
AcDbEntity
  8
0
100
AcDbLine
 10
36.96
 20
140.519
 30
0.0
 11
37.5055
 21
140.519
 31
0.0
  0
LINE
  5
991
330
1D
100
AcDbEntity
  8
0
100
AcDbLine
 10
37.9864
 20
140.018
 30
0.0
 11
38.3305
 21
140.018
 31
0.0
  0
LINE
  5
992
330
1D
100
AcDbEntity
  8
0
100
AcDbLine
 10
38.4486
 20
140.018
 30
0.0
 11
38.4486
 21
138.721
 31
0.0
  0
LINE
  5
993
330
1D
100
AcDbEntity
  8
0
100
AcDbLine
 10
38.3305
 20
140.018
 30
0.0
 11
38.4486
 21
140.018
 31
0.0
  0
LINE
  5
994
330
1D
100
AcDbEntity
  8
0
100
AcDbLine
 10
37.5053
 20
140.519
 30
0.0
 11
37.8379
 21
140.519
 31
0.0
  0
LINE
  5
995
330
1D
100
AcDbEntity
  8
0
100
AcDbLine
 10
37.8379
 20
140.519
 30
0.0
 11
37.9515
 21
140.519
 31
0.0
  0
LINE
  5
996
330
1D
100
AcDbEntity
  8
0
100
AcDbLine
 10
37.5055
 20
140.519
 30
0.0
 11
37.8377
 21
140.519
 31
0.0
  0
LINE
  5
997
330
1D
100
AcDbEntity
  8
0
100
AcDbLine
 10
37.8377
 20
140.519
 30
0.0
 11
37.9514
 21
140.519
 31
0.0
  0
LINE
  5
998
330
1D
100
AcDbEntity
  8
0
100
AcDbLine
 10
37.9514
 20
140.519
 30
0.0
 11
38.4486
 21
140.018
 31
0.0
  0
LINE
  5
999
330
1D
100
AcDbEntity
  8
0
100
AcDbLine
 10
37.9863
 20
140.018
 30
0.0
 11
38.3305
 21
140.018
 31
0.0
  0
LINE
  5
99A
330
1D
100
AcDbEntity
  8
0
100
AcDbLine
 10
37.4216
 20
140.018
 30
0.0
 11
37.9863
 21
140.018
 31
0.0
  0
LINE
  5
99B
330
1D
100
AcDbEntity
  8
0
100
AcDbLine
 10
37.4216
 20
140.018
 30
0.0
 11
37.9864
 21
140.018
 31
0.0
  0
LINE
  5
99C
330
1D
100
AcDbEntity
  8
0
100
AcDbLine
 10
37.4216
 20
138.721
 30
0.0
 11
37.9864
 21
138.721
 31
0.0
  0
LINE
  5
99D
330
1D
100
AcDbEntity
  8
0
100
AcDbLine
 10
37.4216
 20
138.721
 30
0.0
 11
37.9863
 21
138.721
 31
0.0
  0
LINE
  5
99E
330
1D
100
AcDbEntity
  8
0
100
AcDbLine
 10
36.6447
 20
138.721
 30
0.0
 11
37.4216
 21
138.721
 31
0.0
  0
LINE
  5
9A0
330
1D
100
AcDbEntity
  8
0
100
AcDbLine
 10
35.5608
 20
138.521
 30
0.0
 11
36.2968
 21
138.521
 31
0.0
  0
LINE
  5
9A3
330
1D
100
AcDbEntity
  8
0
100
AcDbLine
 10
42.0305
 20
103.566
 30
0.0
 11
42.8092
 21
103.566
 31
0.0
  0
LINE
  5
9A4
330
1D
100
AcDbEntity
  8
0
100
AcDbLine
 10
43.367
 20
103.566
 30
0.0
 11
43.6979
 21
103.566
 31
0.0
  0
LINE
  5
9A5
330
1D
100
AcDbEntity
  8
0
100
AcDbLine
 10
42.8092
 20
103.566
 30
0.0
 11
43.367
 21
103.566
 31
0.0
  0
LINE
  5
9A6
330
1D
100
AcDbEntity
  8
0
100
AcDbLine
 10
43.6979
 20
103.566
 30
0.0
 11
43.7973
 21
103.566
 31
0.0
  0
LINE
  5
9A7
330
1D
100
AcDbEntity
  8
0
100
AcDbLine
 10
43.6977
 20
103.566
 30
0.0
 11
43.7974
 21
103.566
 31
0.0
  0
LINE
  5
9A8
330
1D
100
AcDbEntity
  8
0
100
AcDbLine
 10
43.3671
 20
103.566
 30
0.0
 11
43.6977
 21
103.566
 31
0.0
  0
LINE
  5
9A9
330
1D
100
AcDbEntity
  8
0
100
AcDbLine
 10
44.7803
 20
101.837
 30
0.0
 11
44.7803
 21
100.0
 31
0.0
  0
LINE
  5
9AA
330
1D
100
AcDbEntity
  8
0
100
AcDbLine
 10
43.7973
 20
103.566
 30
0.0
 11
44.7803
 21
101.837
 31
0.0
  0
LINE
  5
9AB
330
1D
100
AcDbEntity
  8
0
100
AcDbLine
 10
42.4813
 20
103.566
 30
0.0
 11
42.6791
 21
103.766
 31
0.0
  0
LINE
  5
9AC
330
1D
100
AcDbEntity
  8
0
100
AcDbLine
 10
42.0308
 20
103.566
 30
0.0
 11
42.8094
 21
103.566
 31
0.0
  0
LINE
  5
9AD
330
1D
100
AcDbEntity
  8
0
100
AcDbLine
 10
41.1009
 20
114.552
 30
0.0
 11
41.7868
 21
114.552
 31
0.0
  0
LINE
  5
9AE
330
1D
100
AcDbEntity
  8
0
100
AcDbLine
 10
41.101
 20
122.242
 30
0.0
 11
41.7869
 21
122.242
 31
0.0
  0
LINE
  5
9AF
330
1D
100
AcDbEntity
  8
0
100
AcDbLine
 10
41.1009
 20
122.792
 30
0.0
 11
41.7868
 21
122.792
 31
0.0
  0
LINE
  5
9B0
330
1D
100
AcDbEntity
  8
0
100
AcDbLine
 10
41.101
 20
125.288
 30
0.0
 11
41.7869
 21
125.288
 31
0.0
  0
LINE
  5
9B1
330
1D
100
AcDbEntity
  8
0
100
AcDbLine
 10
41.1009
 20
125.838
 30
0.0
 11
41.7868
 21
125.838
 31
0.0
  0
LINE
  5
9B2
330
1D
100
AcDbEntity
  8
0
100
AcDbLine
 10
41.1011
 20
114.552
 30
0.0
 11
41.7869
 21
114.552
 31
0.0
  0
LINE
  5
9B3
330
1D
100
AcDbEntity
  8
0
100
AcDbLine
 10
41.1011
 20
122.792
 30
0.0
 11
41.7869
 21
122.792
 31
0.0
  0
LINE
  5
9B4
330
1D
100
AcDbEntity
  8
0
100
AcDbLine
 10
41.1011
 20
125.288
 30
0.0
 11
41.7869
 21
125.288
 31
0.0
  0
LINE
  5
9B5
330
1D
100
AcDbEntity
  8
0
100
AcDbLine
 10
41.1011
 20
122.242
 30
0.0
 11
41.7869
 21
122.242
 31
0.0
  0
LINE
  5
9B6
330
1D
100
AcDbEntity
  8
0
100
AcDbLine
 10
41.2352
 20
122.941
 30
0.0
 11
41.3436
 21
122.832
 31
0.0
  0
LINE
  5
9B7
330
1D
100
AcDbEntity
  8
0
100
AcDbLine
 10
41.2089
 20
124.989
 30
0.0
 11
41.2351
 21
125.139
 31
0.0
  0
LINE
  5
9B8
330
1D
100
AcDbEntity
  8
0
100
AcDbLine
 10
41.2723
 20
125.288
 30
0.0
 11
41.4923
 21
125.288
 31
0.0
  0
LINE
  5
9B9
330
1D
100
AcDbEntity
  8
0
100
AcDbLine
 10
41.2351
 20
125.139
 30
0.0
 11
41.3435
 21
125.248
 31
0.0
  0
LINE
  5
9BA
330
1D
100
AcDbEntity
  8
0
100
AcDbLine
 10
41.209
 20
124.989
 30
0.0
 11
41.209
 21
123.091
 31
0.0
  0
LINE
  5
9BB
330
1D
100
AcDbEntity
  8
0
100
AcDbLine
 10
41.209
 20
123.091
 30
0.0
 11
41.209
 21
124.989
 31
0.0
  0
LINE
  5
9BC
330
1D
100
AcDbEntity
  8
0
100
AcDbLine
 10
41.209
 20
123.091
 30
0.0
 11
41.2352
 21
122.941
 31
0.0
  0
LINE
  5
9C2
330
1D
100
AcDbEntity
  8
0
100
AcDbLine
 10
41.2724
 20
125.288
 30
0.0
 11
41.4921
 21
125.288
 31
0.0
  0
LINE
  5
9C6
330
1D
100
AcDbEntity
  8
0
100
AcDbLine
 10
41.1011
 20
125.838
 30
0.0
 11
41.7869
 21
125.838
 31
0.0
  0
LINE
  5
9C7
330
1D
100
AcDbEntity
  8
0
100
AcDbLine
 10
41.1011
 20
133.528
 30
0.0
 11
41.7869
 21
133.528
 31
0.0
  0
LINE
  5
9C8
330
1D
100
AcDbEntity
  8
0
100
AcDbLine
 10
41.101
 20
133.528
 30
0.0
 11
41.7869
 21
133.528
 31
0.0
  0
LINE
  5
9CC
330
1D
100
AcDbEntity
  8
0
100
AcDbLine
 10
41.508
 20
122.242
 30
0.0
 11
41.9703
 21
122.242
 31
0.0
  0
LINE
  5
9CD
330
1D
100
AcDbEntity
  8
0
100
AcDbLine
 10
41.5079
 20
122.242
 30
0.0
 11
41.9704
 21
122.242
 31
0.0
  0
LINE
  5
9CE
330
1D
100
AcDbEntity
  8
0
100
AcDbLine
 10
41.3436
 20
122.832
 30
0.0
 11
41.4922
 21
122.792
 31
0.0
  0
LINE
  5
9CF
330
1D
100
AcDbEntity
  8
0
100
AcDbLine
 10
41.3435
 20
125.248
 30
0.0
 11
41.4921
 21
125.288
 31
0.0
  0
LINE
  5
9D0
330
1D
100
AcDbEntity
  8
0
100
AcDbLine
 10
41.4921
 20
125.288
 30
0.0
 11
41.7856
 21
125.288
 31
0.0
  0
LINE
  5
9D1
330
1D
100
AcDbEntity
  8
0
100
AcDbLine
 10
41.4921
 20
125.288
 30
0.0
 11
41.7857
 21
125.288
 31
0.0
  0
LINE
  5
9D2
330
1D
100
AcDbEntity
  8
0
100
AcDbLine
 10
41.7868
 20
114.552
 30
0.0
 11
42.2489
 21
114.552
 31
0.0
  0
LINE
  5
9D3
330
1D
100
AcDbEntity
  8
0
100
AcDbLine
 10
41.7868
 20
122.792
 30
0.0
 11
42.2489
 21
122.792
 31
0.0
  0
LINE
  5
9D4
330
1D
100
AcDbEntity
  8
0
100
AcDbLine
 10
41.7857
 20
125.288
 30
0.0
 11
42.2481
 21
125.288
 31
0.0
  0
LINE
  5
9D5
330
1D
100
AcDbEntity
  8
0
100
AcDbLine
 10
41.7856
 20
125.288
 30
0.0
 11
42.2481
 21
125.288
 31
0.0
  0
LINE
  5
9D7
330
1D
100
AcDbEntity
  8
0
100
AcDbLine
 10
41.7869
 20
122.792
 30
0.0
 11
42.2489
 21
122.792
 31
0.0
  0
LINE
  5
9D8
330
1D
100
AcDbEntity
  8
0
100
AcDbLine
 10
41.7869
 20
114.552
 30
0.0
 11
42.2489
 21
114.552
 31
0.0
  0
LINE
  5
9D9
330
1D
100
AcDbEntity
  8
0
100
AcDbLine
 10
41.7869
 20
122.242
 30
0.0
 11
42.249
 21
122.242
 31
0.0
  0
LINE
  5
9DA
330
1D
100
AcDbEntity
  8
0
100
AcDbLine
 10
41.7869
 20
122.242
 30
0.0
 11
42.2489
 21
122.242
 31
0.0
  0
LINE
  5
9DB
330
1D
100
AcDbEntity
  8
0
100
AcDbLine
 10
41.7869
 20
125.288
 30
0.0
 11
42.249
 21
125.288
 31
0.0
  0
LINE
  5
9DC
330
1D
100
AcDbEntity
  8
0
100
AcDbLine
 10
41.7869
 20
125.288
 30
0.0
 11
42.2489
 21
125.288
 31
0.0
  0
LINE
  5
9DD
330
1D
100
AcDbEntity
  8
0
100
AcDbLine
 10
41.7868
 20
125.838
 30
0.0
 11
42.2489
 21
125.838
 31
0.0
  0
LINE
  5
9DE
330
1D
100
AcDbEntity
  8
0
100
AcDbLine
 10
41.508
 20
133.528
 30
0.0
 11
41.9703
 21
133.528
 31
0.0
  0
LINE
  5
9DF
330
1D
100
AcDbEntity
  8
0
100
AcDbLine
 10
41.5079
 20
133.528
 30
0.0
 11
41.9704
 21
133.528
 31
0.0
  0
LINE
  5
9E0
330
1D
100
AcDbEntity
  8
0
100
AcDbLine
 10
41.7869
 20
125.838
 30
0.0
 11
42.2489
 21
125.838
 31
0.0
  0
LINE
  5
9E1
330
1D
100
AcDbEntity
  8
0
100
AcDbLine
 10
41.9703
 20
122.242
 30
0.0
 11
42.2698
 21
122.242
 31
0.0
  0
LINE
  5
9E2
330
1D
100
AcDbEntity
  8
0
100
AcDbLine
 10
41.9704
 20
122.242
 30
0.0
 11
42.2695
 21
122.242
 31
0.0
  0
LINE
  5
9EA
330
1D
100
AcDbEntity
  8
0
100
AcDbLine
 10
41.9703
 20
133.528
 30
0.0
 11
42.2698
 21
133.528
 31
0.0
  0
LINE
  5
9EB
330
1D
100
AcDbEntity
  8
0
100
AcDbLine
 10
41.9704
 20
133.528
 30
0.0
 11
42.2695
 21
133.528
 31
0.0
  0
LINE
  5
9ED
330
1D
100
AcDbEntity
  8
0
100
AcDbLine
 10
41.7869
 20
133.528
 30
0.0
 11
42.249
 21
133.528
 31
0.0
  0
LINE
  5
9EE
330
1D
100
AcDbEntity
  8
0
100
AcDbLine
 10
41.7869
 20
133.528
 30
0.0
 11
42.2489
 21
133.528
 31
0.0
  0
LINE
  5
9EF
330
1D
100
AcDbEntity
  8
0
100
AcDbLine
 10
41.5013
 20
134.526
 30
0.0
 11
41.9559
 21
134.526
 31
0.0
  0
LINE
  5
9F3
330
1D
100
AcDbEntity
  8
0
100
AcDbLine
 10
41.501
 20
134.526
 30
0.0
 11
41.9559
 21
134.526
 31
0.0
  0
LINE
  5
9F8
330
1D
100
AcDbEntity
  8
0
100
AcDbLine
 10
41.9559
 20
134.526
 30
0.0
 11
42.1844
 21
134.526
 31
0.0
  0
LINE
  5
9F9
330
1D
100
AcDbEntity
  8
0
100
AcDbLine
 10
42.2489
 20
114.552
 30
0.0
 11
42.4812
 21
114.552
 31
0.0
  0
LINE
  5
9FA
330
1D
100
AcDbEntity
  8
0
100
AcDbLine
 10
42.2489
 20
125.288
 30
0.0
 11
42.4812
 21
125.288
 31
0.0
  0
LINE
  5
9FB
330
1D
100
AcDbEntity
  8
0
100
AcDbLine
 10
42.2489
 20
122.242
 30
0.0
 11
42.4812
 21
122.242
 31
0.0
  0
LINE
  5
9FC
330
1D
100
AcDbEntity
  8
0
100
AcDbLine
 10
42.2489
 20
122.792
 30
0.0
 11
42.4812
 21
122.792
 31
0.0
  0
LINE
  5
9FD
330
1D
100
AcDbEntity
  8
0
100
AcDbLine
 10
42.2481
 20
125.288
 30
0.0
 11
42.4811
 21
125.288
 31
0.0
  0
LINE
  5
9FE
330
1D
100
AcDbEntity
  8
0
100
AcDbLine
 10
42.2481
 20
125.288
 30
0.0
 11
42.481
 21
125.288
 31
0.0
  0
LINE
  5
9FF
330
1D
100
AcDbEntity
  8
0
100
AcDbLine
 10
42.2698
 20
122.242
 30
0.0
 11
42.4035
 21
122.242
 31
0.0
  0
LINE
  5
A00
330
1D
100
AcDbEntity
  8
0
100
AcDbLine
 10
42.2695
 20
122.242
 30
0.0
 11
42.4035
 21
122.242
 31
0.0
  0
LINE
  5
A01
330
1D
100
AcDbEntity
  8
0
100
AcDbLine
 10
42.4035
 20
114.552
 30
0.0
 11
42.4035
 21
122.242
 31
0.0
  0
LINE
  5
A02
330
1D
100
AcDbEntity
  8
0
100
AcDbLine
 10
42.4035
 20
122.242
 30
0.0
 11
42.4811
 21
122.242
 31
0.0
  0
LINE
  5
A03
330
1D
100
AcDbEntity
  8
0
100
AcDbLine
 10
42.4035
 20
122.242
 30
0.0
 11
42.4035
 21
114.552
 31
0.0
  0
LINE
  5
A04
330
1D
100
AcDbEntity
  8
0
100
AcDbLine
 10
42.4035
 20
122.242
 30
0.0
 11
42.481
 21
122.242
 31
0.0
  0
LINE
  5
A05
330
1D
100
AcDbEntity
  8
0
100
AcDbLine
 10
42.249
 20
122.242
 30
0.0
 11
42.4813
 21
122.242
 31
0.0
  0
LINE
  5
A06
330
1D
100
AcDbEntity
  8
0
100
AcDbLine
 10
42.2698
 20
133.528
 30
0.0
 11
42.4035
 21
133.528
 31
0.0
  0
LINE
  5
A07
330
1D
100
AcDbEntity
  8
0
100
AcDbLine
 10
42.2695
 20
133.528
 30
0.0
 11
42.4035
 21
133.528
 31
0.0
  0
LINE
  5
A08
330
1D
100
AcDbEntity
  8
0
100
AcDbLine
 10
42.4035
 20
125.838
 30
0.0
 11
42.4035
 21
133.528
 31
0.0
  0
LINE
  5
A09
330
1D
100
AcDbEntity
  8
0
100
AcDbLine
 10
42.249
 20
125.288
 30
0.0
 11
42.4813
 21
125.288
 31
0.0
  0
LINE
  5
A0A
330
1D
100
AcDbEntity
  8
0
100
AcDbLine
 10
42.2489
 20
125.838
 30
0.0
 11
42.4812
 21
125.838
 31
0.0
  0
LINE
  5
A0B
330
1D
100
AcDbEntity
  8
0
100
AcDbLine
 10
42.2489
 20
133.528
 30
0.0
 11
42.4812
 21
133.528
 31
0.0
  0
LINE
  5
A15
330
1D
100
AcDbEntity
  8
0
100
AcDbLine
 10
42.4035
 20
133.528
 30
0.0
 11
42.4811
 21
133.528
 31
0.0
  0
LINE
  5
A16
330
1D
100
AcDbEntity
  8
0
100
AcDbLine
 10
42.4035
 20
133.528
 30
0.0
 11
42.4035
 21
125.838
 31
0.0
  0
LINE
  5
A17
330
1D
100
AcDbEntity
  8
0
100
AcDbLine
 10
42.4035
 20
133.528
 30
0.0
 11
42.481
 21
133.528
 31
0.0
  0
LINE
  5
A18
330
1D
100
AcDbEntity
  8
0
100
AcDbLine
 10
42.249
 20
133.528
 30
0.0
 11
42.4813
 21
133.528
 31
0.0
  0
LINE
  5
A19
330
1D
100
AcDbEntity
  8
0
100
AcDbLine
 10
42.4812
 20
114.552
 30
0.0
 11
42.679
 21
114.352
 31
0.0
  0
LINE
  5
A1A
330
1D
100
AcDbEntity
  8
0
100
AcDbLine
 10
42.4813
 20
122.242
 30
0.0
 11
42.6791
 21
122.442
 31
0.0
  0
LINE
  5
A1B
330
1D
100
AcDbEntity
  8
0
100
AcDbLine
 10
42.4812
 20
122.792
 30
0.0
 11
42.679
 21
122.592
 31
0.0
  0
LINE
  5
A1C
330
1D
100
AcDbEntity
  8
0
100
AcDbLine
 10
42.679
 20
114.352
 30
0.0
 11
42.679
 21
103.766
 31
0.0
  0
LINE
  5
A1D
330
1D
100
AcDbEntity
  8
0
100
AcDbLine
 10
42.679
 20
103.766
 30
0.0
 11
42.679
 21
114.352
 31
0.0
  0
LINE
  5
A1E
330
1D
100
AcDbEntity
  8
0
100
AcDbLine
 10
42.679
 20
122.592
 30
0.0
 11
42.679
 21
122.442
 31
0.0
  0
LINE
  5
A1F
330
1D
100
AcDbEntity
  8
0
100
AcDbLine
 10
42.679
 20
122.442
 30
0.0
 11
42.679
 21
122.592
 31
0.0
  0
LINE
  5
A20
330
1D
100
AcDbEntity
  8
0
100
AcDbLine
 10
42.4813
 20
125.288
 30
0.0
 11
42.6791
 21
125.488
 31
0.0
  0
LINE
  5
A21
330
1D
100
AcDbEntity
  8
0
100
AcDbLine
 10
42.679
 20
125.638
 30
0.0
 11
42.679
 21
125.488
 31
0.0
  0
LINE
  5
A22
330
1D
100
AcDbEntity
  8
0
100
AcDbLine
 10
42.679
 20
125.488
 30
0.0
 11
42.679
 21
125.638
 31
0.0
  0
LINE
  5
A23
330
1D
100
AcDbEntity
  8
0
100
AcDbLine
 10
42.4812
 20
125.838
 30
0.0
 11
42.679
 21
125.638
 31
0.0
  0
LINE
  5
A24
330
1D
100
AcDbEntity
  8
0
100
AcDbLine
 10
42.4813
 20
133.528
 30
0.0
 11
42.6791
 21
133.727
 31
0.0
  0
LINE
  5
A26
330
1D
100
AcDbEntity
  8
0
100
AcDbLine
 10
42.679
 20
134.027
 30
0.0
 11
42.679
 21
133.727
 31
0.0
  0
LINE
  5
A28
330
1D
100
AcDbEntity
  8
0
100
AcDbLine
 10
42.679
 20
133.727
 30
0.0
 11
42.679
 21
134.027
 31
0.0
  0
LINE
  5
A2A
330
1D
100
AcDbEntity
  8
0
100
AcDbLine
 10
42.1844
 20
134.526
 30
0.0
 11
42.679
 21
134.027
 31
0.0
  0
LINE
  5
A2B
330
1D
100
AcDbEntity
  8
0
100
AcDbLine
 10
42.8094
 20
103.566
 30
0.0
 11
43.3671
 21
103.566
 31
0.0
  0
LINE
  5
A2C
330
1D
100
AcDbEntity
  8
0
100
AcDbLine
 10
41.0405
 20
103.566
 30
0.0
 11
42.0308
 21
103.566
 31
0.0
  0
LINE
  5
A2D
330
1D
100
AcDbEntity
  8
0
100
AcDbLine
 10
41.0405
 20
103.566
 30
0.0
 11
42.0305
 21
103.566
 31
0.0
  0
LINE
  5
A2E
330
1D
100
AcDbEntity
  8
0
100
AcDbLine
 10
30.048
 20
100.0
 30
0.0
 11
35.616
 21
100.0
 31
0.0
  0
LINE
  5
A2F
330
1D
100
AcDbEntity
  8
0
100
AcDbLine
 10
24.0
 20
100.0
 30
0.0
 11
30.048
 21
100.0
 31
0.0
  0
LINE
  5
A30
330
1D
100
AcDbEntity
  8
0
100
AcDbLine
 10
0.0
 20
98.8462
 30
0.0
 11
0.576
 21
100.0
 31
0.0
  0
LINE
  5
A31
330
1D
100
AcDbEntity
  8
0
100
AcDbLine
 10
0.0
 20
98.8462
 30
0.0
 11
0.0
 21
31.1538
 31
0.0
  0
LINE
  5
A32
330
1D
100
AcDbEntity
  8
0
100
AcDbLine
 10
48.0
 20
31.1538
 30
0.0
 11
48.0
 21
98.8462
 31
0.0
  0
LINE
  5
A33
330
1D
100
AcDbEntity
  8
0
100
AcDbLine
 10
48.0
 20
98.8462
 30
0.0
 11
48.0
 21
31.1538
 31
0.0
  0
LINE
  5
A34
330
1D
100
AcDbEntity
  8
0
100
AcDbLine
 10
47.424
 20
100.0
 30
0.0
 11
48.0
 21
98.8462
 31
0.0
  0
ENDSEC
  0
SECTION
  2
OBJECTS
  0
DICTIONARY
  5
C
330
0
100
AcDbDictionary
281
     1
  3
ACAD_GROUP
350
D
  3
ACAD_LAYOUT
350
1A
  3
ACAD_MLEADERSTYLE
350
A5E
  3
ACAD_MLINESTYLE
350
17
  3
ACAD_PLOTSETTINGS
350
19
  3
ACAD_PLOTSTYLENAME
350
E
  3
ACAD_SCALELIST
350
A3A
  3
AcDbVariableDictionary
350
A5C
  3
DWGPROPS
350
A61
  0
DICTIONARY
  5
D
102
{ACAD_REACTORS
330
C
102
}
330
C
100
AcDbDictionary
281
     1
  0
DICTIONARY
  5
1A
102
{ACAD_REACTORS
330
C
102
}
330
C
100
AcDbDictionary
281
     1
  3
Layout1
350
1C
  3
Model
350
1E
  0
DICTIONARY
  5
A5E
102
{ACAD_REACTORS
330
C
102
}
330
C
100
AcDbDictionary
281
     1
  0
DICTIONARY
  5
17
102
{ACAD_REACTORS
330
C
102
}
330
C
100
AcDbDictionary
281
     1
  3
Standard
350
18
  0
DICTIONARY
  5
19
102
{ACAD_REACTORS
330
C
102
}
330
C
100
AcDbDictionary
281
     1
  0
ACDBDICTIONARYWDFLT
  5
E
102
{ACAD_REACTORS
330
C
102
}
330
C
100
AcDbDictionary
281
     1
  3
Normal
350
F
100
AcDbDictionaryWithDefault
340
F
  0
DICTIONARY
  5
A3A
102
{ACAD_REACTORS
330
C
102
}
330
C
100
AcDbDictionary
281
     1
  3
A0
350
A3B
  3
A1
350
A3C
  3
A2
350
A3D
  3
A3
350
A3E
  3
A4
350
A3F
  3
A5
350
A40
  3
A6
350
A41
  3
A7
350
A42
  3
A8
350
A43
  3
A9
350
A44
  3
B0
350
A45
  3
B1
350
A46
  3
B2
350
A47
  3
B3
350
A48
  3
B4
350
A49
  3
B5
350
A4A
  3
B6
350
A4B
  3
B7
350
A4C
  3
B8
350
A4D
  3
B9
350
A4E
  3
C0
350
A4F
  3
C1
350
A50
  3
C2
350
A51
  3
C3
350
A52
  3
C4
350
A53
  3
C5
350
A54
  3
C6
350
A55
  3
C7
350
A56
  3
C8
350
A57
  3
C9
350
A58
  3
D0
350
A59
  3
D1
350
A5A
  3
D2
350
A5B
  0
DICTIONARY
  5
A5C
102
{ACAD_REACTORS
330
C
102
}
330
C
100
AcDbDictionary
281
     1
  3
CANNOSCALE
350
A5F
  0
XRECORD
  5
A61
102
{ACAD_REACTORS
330
C
102
}
330
C
100
AcDbXrecord
280
     1
  1
DWGPROPS COOKIE
  2

  3

  4

  6

  7

  8
MARTIN
  9

300
=
301
=
302
=
303
=
304
=
305
=
306
=
307
=
308
=
309
=
 40
0.0
 41
2456183.97256022
 42
2456183.977767107
  1

 90
        0
  0
LAYOUT
  5
1C
102
{ACAD_REACTORS
330
1A
102
}
330
1A
100
AcDbPlotSettings
  1

  2
none_device
  4

  6

 40
0.0
 41
0.0
 42
0.0
 43
0.0
 44
0.0
 45
0.0
 46
0.0
 47
0.0
 48
0.0
 49
0.0
140
0.0
141
0.0
142
1.0
143
1.0
 70
   688
 72
     0
 73
     0
 74
     5
  7

 75
    16
147
1.0
148
0.0
149
0.0
100
AcDbLayout
  1
Layout1
 70
     1
 71
     1
 10
0.0
 20
0.0
 11
12.0
 21
9.0
 12
0.0
 22
0.0
 32
0.0
 14
1.000000000000E+20
 24
1.000000000000E+20
 34
1.000000000000E+20
 15
-1.000000000000E+20
 25
-1.000000000000E+20
 35
-1.000000000000E+20
146
0.0
 13
0.0
 23
0.0
 33
0.0
 16
1.0
 26
0.0
 36
0.0
 17
0.0
 27
1.0
 37
0.0
 76
     0
330
1B
  0
LAYOUT
  5
1E
102
{ACAD_REACTORS
330
1A
102
}
330
1A
100
AcDbPlotSettings
  1

  2
none_device
  4

  6

 40
0.0
 41
0.0
 42
0.0
 43
0.0
 44
0.0
 45
0.0
 46
0.0
 47
0.0
 48
0.0
 49
0.0
140
0.0
141
0.0
142
1.0
143
1.0
 70
  1712
 72
     0
 73
     0
 74
     0
  7

 75
     0
147
1.0
148
0.0
149
0.0
100
AcDbLayout
  1
Model
 70
     1
 71
     0
 10
0.0
 20
0.0
 11
12.0
 21
9.0
 12
0.0
 22
0.0
 32
0.0
 14
0.0
 24
0.0
 34
0.0
 15
48.0
 25
155.0
 35
0.0
146
0.0
 13
0.0
 23
0.0
 33
0.0
 16
1.0
 26
0.0
 36
0.0
 17
0.0
 27
1.0
 37
0.0
 76
     0
330
1D
331
A35
  0
MLINESTYLE
  5
18
102
{ACAD_REACTORS
330
17
102
}
330
17
100
AcDbMlineStyle
  2
Standard
 70
     0
  3

 62
   256
 51
90.0
 52
90.0
 71
     2
 49
0.5
 62
   256
  6
BYLAYER
 49
-0.5
 62
   256
  6
BYLAYER
  0
ACDBPLACEHOLDER
  5
F
102
{ACAD_REACTORS
330
E
102
}
330
E
  0
SCALE
  5
A3B
102
{ACAD_REACTORS
330
A3A
102
}
330
A3A
100
AcDbScale
 70
     0
300
1:1
140
1.0
141
1.0
290
     1
  0
SCALE
  5
A3C
102
{ACAD_REACTORS
330
A3A
102
}
330
A3A
100
AcDbScale
 70
     0
300
1:2
140
1.0
141
2.0
290
     0
  0
SCALE
  5
A3D
102
{ACAD_REACTORS
330
A3A
102
}
330
A3A
100
AcDbScale
 70
     0
300
1:4
140
1.0
141
4.0
290
     0
  0
SCALE
  5
A3E
102
{ACAD_REACTORS
330
A3A
102
}
330
A3A
100
AcDbScale
 70
     0
300
1:5
140
1.0
141
5.0
290
     0
  0
SCALE
  5
A3F
102
{ACAD_REACTORS
330
A3A
102
}
330
A3A
100
AcDbScale
 70
     0
300
1:8
140
1.0
141
8.0
290
     0
  0
SCALE
  5
A40
102
{ACAD_REACTORS
330
A3A
102
}
330
A3A
100
AcDbScale
 70
     0
300
1:10
140
1.0
141
10.0
290
     0
  0
SCALE
  5
A41
102
{ACAD_REACTORS
330
A3A
102
}
330
A3A
100
AcDbScale
 70
     0
300
1:16
140
1.0
141
16.0
290
     0
  0
SCALE
  5
A42
102
{ACAD_REACTORS
330
A3A
102
}
330
A3A
100
AcDbScale
 70
     0
300
1:20
140
1.0
141
20.0
290
     0
  0
SCALE
  5
A43
102
{ACAD_REACTORS
330
A3A
102
}
330
A3A
100
AcDbScale
 70
     0
300
1:30
140
1.0
141
30.0
290
     0
  0
SCALE
  5
A44
102
{ACAD_REACTORS
330
A3A
102
}
330
A3A
100
AcDbScale
 70
     0
300
1:40
140
1.0
141
40.0
290
     0
  0
SCALE
  5
A45
102
{ACAD_REACTORS
330
A3A
102
}
330
A3A
100
AcDbScale
 70
     0
300
1:50
140
1.0
141
50.0
290
     0
  0
SCALE
  5
A46
102
{ACAD_REACTORS
330
A3A
102
}
330
A3A
100
AcDbScale
 70
     0
300
1:100
140
1.0
141
100.0
290
     0
  0
SCALE
  5
A47
102
{ACAD_REACTORS
330
A3A
102
}
330
A3A
100
AcDbScale
 70
     0
300
2:1
140
2.0
141
1.0
290
     0
  0
SCALE
  5
A48
102
{ACAD_REACTORS
330
A3A
102
}
330
A3A
100
AcDbScale
 70
     0
300
4:1
140
4.0
141
1.0
290
     0
  0
SCALE
  5
A49
102
{ACAD_REACTORS
330
A3A
102
}
330
A3A
100
AcDbScale
 70
     0
300
8:1
140
8.0
141
1.0
290
     0
  0
SCALE
  5
A4A
102
{ACAD_REACTORS
330
A3A
102
}
330
A3A
100
AcDbScale
 70
     0
300
10:1
140
10.0
141
1.0
290
     0
  0
SCALE
  5
A4B
102
{ACAD_REACTORS
330
A3A
102
}
330
A3A
100
AcDbScale
 70
     0
300
100:1
140
100.0
141
1.0
290
     0
  0
SCALE
  5
A4C
102
{ACAD_REACTORS
330
A3A
102
}
330
A3A
100
AcDbScale
 70
     0
300
1/128" = 1'-0"
140
0.0078125
141
12.0
290
     0
  0
SCALE
  5
A4D
102
{ACAD_REACTORS
330
A3A
102
}
330
A3A
100
AcDbScale
 70
     0
300
1/64" = 1'-0"
140
0.015625
141
12.0
290
     0
  0
SCALE
  5
A4E
102
{ACAD_REACTORS
330
A3A
102
}
330
A3A
100
AcDbScale
 70
     0
300
1/32" = 1'-0"
140
0.03125
141
12.0
290
     0
  0
SCALE
  5
A4F
102
{ACAD_REACTORS
330
A3A
102
}
330
A3A
100
AcDbScale
 70
     0
300
1/16" = 1'-0"
140
0.0625
141
12.0
290
     0
  0
SCALE
  5
A50
102
{ACAD_REACTORS
330
A3A
102
}
330
A3A
100
AcDbScale
 70
     0
300
3/32" = 1'-0"
140
0.09375
141
12.0
290
     0
  0
SCALE
  5
A51
102
{ACAD_REACTORS
330
A3A
102
}
330
A3A
100
AcDbScale
 70
     0
300
1/8" = 1'-0"
140
0.125
141
12.0
290
     0
  0
SCALE
  5
A52
102
{ACAD_REACTORS
330
A3A
102
}
330
A3A
100
AcDbScale
 70
     0
300
3/16" = 1'-0"
140
0.1875
141
12.0
290
     0
  0
SCALE
  5
A53
102
{ACAD_REACTORS
330
A3A
102
}
330
A3A
100
AcDbScale
 70
     0
300
1/4" = 1'-0"
140
0.25
141
12.0
290
     0
  0
SCALE
  5
A54
102
{ACAD_REACTORS
330
A3A
102
}
330
A3A
100
AcDbScale
 70
     0
300
3/8" = 1'-0"
140
0.375
141
12.0
290
     0
  0
SCALE
  5
A55
102
{ACAD_REACTORS
330
A3A
102
}
330
A3A
100
AcDbScale
 70
     0
300
1/2" = 1'-0"
140
0.5
141
12.0
290
     0
  0
SCALE
  5
A56
102
{ACAD_REACTORS
330
A3A
102
}
330
A3A
100
AcDbScale
 70
     0
300
3/4" = 1'-0"
140
0.75
141
12.0
290
     0
  0
SCALE
  5
A57
102
{ACAD_REACTORS
330
A3A
102
}
330
A3A
100
AcDbScale
 70
     0
300
1" = 1'-0"
140
1.0
141
12.0
290
     0
  0
SCALE
  5
A58
102
{ACAD_REACTORS
330
A3A
102
}
330
A3A
100
AcDbScale
 70
     0
300
1-1/2" = 1'-0"
140
1.5
141
12.0
290
     0
  0
SCALE
  5
A59
102
{ACAD_REACTORS
330
A3A
102
}
330
A3A
100
AcDbScale
 70
     0
300
3" = 1'-0"
140
3.0
141
12.0
290
     0
  0
SCALE
  5
A5A
102
{ACAD_REACTORS
330
A3A
102
}
330
A3A
100
AcDbScale
 70
     0
300
6" = 1'-0"
140
6.0
141
12.0
290
     0
  0
SCALE
  5
A5B
102
{ACAD_REACTORS
330
A3A
102
}
330
A3A
100
AcDbScale
 70
     0
300
1'-0" = 1'-0"
140
12.0
141
12.0
290
     0
  0
DICTIONARYVAR
  5
A5F
102
{ACAD_REACTORS
330
A5C
102
}
330
A5C
100
DictionaryVariables
280
     0
  1
1:1
  0
ENDSEC
  0
SECTION
  2
THUMBNAILIMAGE
 90
    16364
310
28000000B40000005500000001000800000000000000000000000000000000000000000000000000FFFFFF000000FF0000FFFF0000FF0000FFFF0000FF000000FF00FF000000000080808000C0C0C0000000FF007F7FFF000000A5005252A50000007F003F3F7F0000004C0026264C000000260013132600003FFF007F9FFF
310
000029A5005267A500001F7F003F4F7F0000134C00262F4C000009260013172600007FFF007FBFFF000052A500527CA500003F7F003F5F7F0000264C0026394C0000132600131C260000BFFF007FDFFF00007CA5005291A500005F7F003F6F7F0000394C0026424C00001C26001321260000FFFF007FFFFF0000A5A50052A5
310
A500007F7F003F7F7F00004C4C00264C4C00002626001326260000FFBF007FFFDF0000A57C0052A59100007F5F003F7F6F00004C3900264C420000261C001326210000FF7F007FFFBF0000A5520052A57C00007F3F003F7F5F00004C2600264C39000026130013261C0000FF3F007FFF9F0000A5290052A56700007F1F003F
310
7F4F00004C1300264C2F00002609001326170000FF00007FFF7F0000A5000052A55200007F00003F7F3F00004C0000264C260000260000132613003FFF00009FFF7F0029A5000067A552001F7F00004F7F3F00134C00002F4C260009260000172613007FFF0000BFFF7F0052A500007CA552003F7F00005F7F3F00264C0000
310
394C2600132600001C261300BFFF0000DFFF7F007CA5000091A552005F7F00006F7F3F00394C0000424C26001C26000021261300FFFF0000FFFF7F00A5A50000A5A552007F7F00007F7F3F004C4C00004C4C26002626000026261300FFBF0000FFDF7F00A57C0000A59152007F5F00007F6F3F004C3900004C422600261C00
310
0026211300FF7F0000FFBF7F00A5520000A57C52007F3F00007F5F3F004C2600004C39260026130000261C1300FF3F0000FF9F7F00A5290000A56752007F1F00007F4F3F004C1300004C2F26002609000026171300FF000000FF7F7F00A5000000A55252007F0000007F3F3F004C0000004C2626002600000026131300FF00
310
3F00FF7F9F00A5002900A55267007F001F007F3F4F004C0013004C262F002600090026131700FF007F00FF7FBF00A5005200A5527C007F003F007F3F5F004C0026004C2639002600130026131C00FF00BF00FF7FDF00A5007C00A55291007F005F007F3F6F004C0039004C26420026001C0026132100FF00FF00FF7FFF00A5
310
00A500A552A5007F007F007F3F7F004C004C004C264C002600260026132600BF00FF00DF7FFF007C00A5009152A5005F007F006F3F7F0039004C0042264C001C002600211326007F00FF00BF7FFF005200A5007C52A5003F007F005F3F7F0026004C0039264C00130026001C1326003F00FF009F7FFF002900A5006752A500
310
1F007F004F3F7F0013004C002F264C000900260017132600000000002D2D2D005B5B5B0089898900B7B7B700B3B3B30000000000000000000000000000000000000000000000000000000000000000000000000000000000000000000000000000000000000000000000000000000000000000000000000000000000000000
310
00000000000000000707070707070700000000000000000000000000000000000000000000000000000000000000000000000000000000000000000000000000000000000000000000000000000000000000000000000000000000000000000000000000000000000000000000000000000000000000000000000000000000
310
00000000000000000000000000000000000000000000000000000000000000000000000000000000000000000000000000000000000000000000000000070707070707070000000000000000000000000000000000000000000000000000000000000000000000000000000000000000000000000000000000000000000000
310
00000000000000000000000000000000000000000000000000000000000000000000000000000000000000000000000000000000000000000000000000000000000000000000000000000000000000000000000000000000000000000000000000000000000000000000000000000000000007070707070707000000000000
310
00000000000000000000000000000000000000000000000000000000000000000000000000000000000000000000000000000000000000000000000000000000000000000000000000000000000000000000000000000000000000000000000000000000000000000000000000000000000000000000000000000000000000
310
00000000000000000000000000000000000000000000000000000000000000000000000000000000070707070707070000000000000000000000000000000000000000000000000000000000000000000000000000000000000000000000000000000000000000000000000000000000000000000000000000000000000000
310
00000000000000000000000000000000000000000000000000000000000000000000000000000000000000000000000000000000000000000000000000000000000000000000000000000000000000000000000000000000000000000007070707070707000000000000000000000000000000000000000000000000000000
310
00000000000000000000000000000000000000000000000000000000000000000000000000000000000000000000000000000000000000000000000000000000000000000000000000000000000000000000000000000000000000000000000000000000000000000000000000000000000000000000000000000000000000
310
00000000000000000000000000000000000000070707070707070000000000000000000000000000000000000000000000000000000000000000000000000000000000000000000000000000000000000000000000000000000000000000000000000000000000000000000000000000000000000000000000000000000000
310
00000000000000000000000000000000000000000000000000000000000000000000000000000000000000000000000000000000000000000000000000000000000000000000000007070707070707000000000000000000000000000000000000000000000000000000000000000000000000000000000000000000000000
310
00000000000000000000000000000000000000000000000000000000000000000000000000000000000000000000000000000000000000000000000000000000000000000000000000000000000000000000000000000000000000000000000000000000000000000000000000000000000000000000000000000000000007
310
00000007000000000000000000000000000000000000000000000000000000000000000000000000000000000000000000000000000000000000000000000000000000000000000000000000000000000000000000000000000000000000000000000000000000000000000000000000000000000000000000000000000000
310
00000000000000000000000000000000000000000000000000000000000000000000000000000000000000000000000000000000070000000700000000000000000000000000000000000000000000000000000000000000000000000000000000000000000000000000000000000000000000000000000000000000000000
310
00000000000000000000000000000000000000000000000000000000000000000000000000000000000000000000000000000000000000000000000000000000000000000000000000000000000000000000000000000000000000000000000000000000000000000007070707070000000000000000000000000000000000
310
00000000000000000000000000000000000000000000000000000000000000000000000000000000000000000000000000000000000000000000000000000000000000000000000000000000000000000000000000000000000000000000000000000000000000000000000000000000000000000000000000000000000000
310
00000000000000000000000000000000000000000000000000000000000007000000000007000000000000000000000000000000000000000000000000000000000000000000000000000000000000000000000000000000000000000000000000000000000000000000000000000000000000000000000000000000000000
310
00000000000000000000000000000000000000000000000000000000000000000000000000000000000000000000000000000000000000000000000000000000000000000000000000000000000000000000000700000000000007000000000000000000000000000000000000000000000000000000000000000000000000
310
00000000000000000000000000000000000000000000000000000000000000000000000000000000000000000000000000000000000000000000000000000000000000000000000000000000000000000000000000000000000000000000000000000000000000000000000000000000000000000000000000000000000000
310
00000000000000000007000000000000070000000000000000000000000000000000000000000000000000000000000000000000000000000000000000000000000000000000000000000000000000000000000000000000000000000000000000000000000000000000000000000000000000000000000000000000000000
310
00000000000000000000000000000000000000000000000000000000000000000000000000000000000000000000000000000000000000000000000000000707070707070707000000000000000000000000000000000000000000000000000000000000000000000000000000000000000000000000000000000000000000
310
00000000000000000000000000000000000000000000000000000000000000000000000000000000000000000000000000000000000000000000000000000000000000000000000000000000000000000000000000000000000000000000000000000000000000000000000000000000000000070707070707070700000000
310
00000000000000000000000000000000000000000000000000000000000000000000000000000000000000000000000000000000000000000000000000000000000000000000000000000000000000000000000000000000000000000000000000000000000000000000000000000000000000000000000000000000000000
310
00000000000000000000000000000000000000000000000000000000000000000000000000000000000707070707070707000000000000000000000000000000000000000000000000000000000000000000000000000000000000000000000000000000000000000000000000000000000000000000000000000000000000
310
00000000000000000000000000000000000000000000000000000000000000000000000000000000000000000000000000000000000000000000000000000000000000000000000000000000000000000000000007070707070707070707070707070707070707070707070707070700000000000000000000000000000000
310
00000000000000000000000000000000000000000000000000000000000000000000000000000000000000000000000000000000000000000000000000000000000000000000000000000000000000000000000000000000000000000000000000000000000000000000000000000000000000000000000000000000000000
310
00000000000000000000070000000000000000000000000000000000000000000000000007000000000000000000000000000000000000000000000000000000000000000000000000000000000000000000000000000000000000000000000000000000000000000000000000000000000000000000000000000000000000
310
00000000000000000000000000000000000000000000000000000000000000000000000000000000000000000000000000000000000000000000000000000007000000000000000000000000000000000000000000000000000700000000000000000000000000000000000000000000000000000000000000000000000000
310
00000000000000000000000000000000000000000000000000000000000000000000000000000000000000000000000000000000000000000000000000000000000000000000000000000000000000000000000000000000000000000000000000000000000000000000000000000000000000000700000000000000000000
310
00000000000000000000000000000007000000000000000000000000000000000000000000000000000000000000000000000000000000000000000000000000000000000000000000000000000000000000000000000000000000000000000000000000000000000000000000000000000000000000000000000000000000
310
00000000000000000000000000000000000000000000000000000000000000000000000000000000000007000000000000000000000000000000000000000000000000000700000000000000000000000000000000000000000000000000000000000000000000000000000000000000000000000000000000000000000000
310
00000000000000000000000000000000000000000000000000000000000000000000000000000000000000000000000000000000000000000000000000000000000000000000000000000000000000000000000000000000000000000000000700000000000000000000000000000000000000000000000000070000000000
310
00000000000000000000000000000000000000000000000000000000000000000000000000000000000000000000000000000000000000000000000000000000000000000000000000000000000000000000000000000000000000000000000000000000000000000000000000000000000000000000000000000000000000
310
00000000000000000000000000000000000000000007000000000000000000000000000000000000000000000000000700000000000000000000000000000000000000000000000000000000000000000000000000000000000000000000000000000000000000000000000000000000000000000000000000000000000000
310
00000000000000000000000000000000000000000000000000000000000000000000000000000000000000000000000000000000000000000000000000000000000000000000000000000700000000000000000000000000000000000000000000000000070000000000000000000000000000000000000000000000000000
310
00000000000000000000000000000000000000000000000000000000000000000000000000000000000000000000000000000000000000000000000000000000000000000000000000000000000000000000000000000000000000000000000000000000000000000000000000000000000000000000000000000000000000
310
07000000000000000000000000000000000000000000000000000700000000000000000000000000000000000000000000000000000000000000000000000000000000000000000000000000000000000000000000000000000000000000000000000000000000000000000000000000000000000000000000000000000000
310
00000000000000000000000000000000000000000000000000000000000000000000000000000000000000000000000000000000000700000000000000000000000000000000000000000000000000070000000000000000000000000000000000000000000000000000000000000000000000000000000000000000000000
310
00000000000000000000000000000000000000000000000000000000000000000000000000000000000000000000000000000000000000000000000000000000000000000000000000000000000000000000000000000000000000000000000000000000000000000000070000000000000000000000000000000000000000
310
00000000000700000000000000000000000000000000000000000000000000000000000000000000000000000000000000000000000000000000000000000000000000000000000000000000000000000000000000000000000000000000000000000000000000000000000000000000000000000000000000000000000000
310
00000000000000000000000000000000000000000000000000000000000000000700000000000000000000000000000000000000000000000000070000000000000000000000000000000000000000000000000000000000000000000000000000000000000000000000000000000000000000000000000000000000000000
310
00000000000000000000000000000000000000000000000000000000000000000000000000000000000000000000000000000000000000000000000000000000000000000000000000000000000000000000000000070000000000000000000000000000000000000000000000000007000000000000000000000000000000
310
00000000000000000000000000000000000000000000000000000000000000000000000000000000000000000000000000000000000000000000000000000000000000000000000000000000000000000000000000000000000000000000000000000000000000000000000000000000000000000000000000000000000000
310
00000000000000000000000700000000000000000000000000000000000000000000000000070000000000000000000000000000000000000000000000000000000000000000000000000000000000000000000000000000000000000000000000000000000000000000000000000000000000000000000000000000000000
310
00000000000000000000000000000000000000000000000000000000000000000000000000000000000000000000000000000000000000000000000000000000070000000000000000000000000000000000000000000000000007000000000000000000000000000000000000000000000000000000000000000000000000
310
00000000000000000000000000000000000000000000000000000000000000000000000000000000000000000000000000000000000000000000000000000000000000000000000000000000000000000000000000000000000000000000000000000000000000000000000000000000000000000007000000000000000000
310
00000000000000000000000000000000070000000000000000000000000000000000000000000000000000000000000000000000000000000000000000000000000000000000000000000000000000000000000000000000000000000000000000000000000000000000000000000000000000000000000000000000000000
310
00000000000000000000000000000000000000000000000000000000000000000000000000000000000000070000000000000000000000000000000000000000000000000007000000000000000000000000000000000000000000000000000000000000000000000000000000000000000000000000000000000000000000
310
00000000000000000000000000000000000000000000000000000000000000000000000000000000000000000000000000000000000000000000000000000000000000000000000000000000000000000000000000000000000000000000000007000000000000000000000000000000000000000000000000000700000000
310
00000000000000000000000000000000000000000000000000000000000000000000000000000000000000000000000000000000000000000000000000000000000000000000000000000000000000000000000000000000000000000000000000000000000000000000000000000000000000000000000000000000000000
310
00000000000000000000000000000000000000000000070000000000000000000000000000000000000000000000000007000000000000000000000000000000000000000000000000000000000000000000000000000000000000000000000000000000000000000000000000000000000000000000000000000000000000
310
00000000000000000000000000000000000000000000000000000000000000000000000000000000000000000000000000000000000000000000000000000000000000000000000000000007000000000000000000000000000000000000000000000000000700000000000000000000000000000000000000000000000000
310
00000000000000000000000000000000000000000000000000000000000000000000000000000000000000000000000000000000000000000000000000000000000000000000000000000000000000000000000000000000000000000000000000000000000000000000000000000000000000000000000000000000000000
310
00070000000000000000000000000000000000000000000000000007000000000000000000000000000000000000000000000000000000000000000000000000000000000000000000000000000000000000000000000000000000000000000000000000000000000000000000000000000000000000000000000000000000
310
00000000000000000000000000000000000000000000000000000000000000000000000000000000000000000000000000000000000007000000000000000000000000000000000000000000000000000700000000000000000000000000000000000000000000000000000000000000000000000000000000000000000000
310
00000000000000000000000000000000000000000000000000000000000000000000000000000000000000000000000000000000000000000000000000000000000000000000000000000000000000000000000000000000000000000000000000000000000000000000000700000000000000000000000000000000000000
310
00000000000007000000000000000000000000000000000000000000000000000000000000000000000000000000000000000000000000000000000000000000000000000000000000000000000000000000000000000000000000000000000000000000000000000000000000000000000000000000000000000000000000
310
00000000000000000000000000000000000000000000000000000000000000000007000000000000000000000000000000000000000000000000000700000000000000000000000000000000000000000000000000000000000000000000000000000000000000000000000000000000000000000000000000000000000000
310
00000000000000000000000000000000000000000000000000000000000000000000000000000000000000000000000000000000000000000000000000000000000000000000000000000000000000000000000000000700000000000000000000000000000000000000000000000000070000000000000000000000000000
310
00000000000000000000000000000000000000000000000000000000000000000000000000000000000000000000000000000000000000000000000000000000000000000000000000000000000000000000000000000000000000000000000000000000000000000000000000000000000000000000000000000000000000
310
00000000000000000000000007000000000000000000000000000000000000000000000000000700000000000000000000000000000000000000000000000000000000000000000000000000000000000000000000000000000000000000000000000000000000000000000000000000000000000000000000000000000000
310
00000000000000000000000000000000000000000000000000000000000000000000000000000000000000000000000000000000000000000000000000000000000700000000000000000000000000000000000000000000000000070000000000000000000000000000000000000000000000000000000000000000000000
310
00000000000000000000000000000000000000000000000000000000000000000000000000000000000000000000000000000000000000000000000000000000000000000000000000000000000000000000000000000000000000000000000000000000000000000000000000000000000000000000070000000000000000
310
00000000000000000000000000000000000700000000000000000000000000000000000000000000000000000000000000000000000000000000000000000000000000000000000000000000000000000000000000000000000000000000000000000000000000000000000000000000000000000000000000000000000000
310
00000000000000000000000000000000000000000000000000000000000000000000000000000000000000000700000000000000000000000000000000000000000000000000070000000000000000000000000000000000000000000000000000000000000000000000000000000000000000000000000000000000000000
310
00000000000000000000000000000000000000000000000000000000000000000000000000000000000000000000000000000000000000000000000000000000000000000000000000000000000000000000000000000000000000000000000000070000000000000000000000000000000000000000000000000007000000
310
00000000000000000000000000000000000000000000000000000000000000000000000000000000000000000000000000000000000000000000000000000000000000000000000000000000000000000000000000000000000000000000000000000000000000000000000000000000000000000000000000000000000000
310
00000000000000000000000000000000000000000000000700000000000000000000000000000000000000000000000000070000000000000000000000000000000000000000000000000000000000000000000000000000000000000000000000000000000000000000000000000000000000000000000000000000000000
310
00000000000000000000000000000000000000000000000000000000000000000000000000000000000000000000000000000000000000000000000000000000000000000000000000000000070000000000000000000000000000000000000000000000000007000000000000000000000000000000000000000000000000
310
00000000000000000000000000000000000000000000000000000000000000000000000000000000000000000000000000000000000000000000000000000000000000000000000000000000000000000000000000000000000000000000000000000000000000000000000000000000000000000000000000000000000000
310
00000700000000000000000000000000000000000000000000000000070000000000000000000000000000000000000000000000000000000000000000000000000000000000000000000000000000000000000000000000000000000000000000000000000000000000000000000000000000000000000000000000000000
310
00000000000000000000000000000000000000000000000000000000000000000000000000000000000000000000000000000000000000070000000000000000000000000000000000000000000000000007000000000000000000000000000000000000000000000000000000000000000000000000000000000000000000
310
00000000000000000000000000000000000000000000000000000000000000000000000000000000000000000000000000000000000000000000000000000000000000000000000000000000000000000000000000000000000000000000000000000000000000000000000007000000000000000000000000000000000000
310
00000000000000070000000000000000000000000000000000000000000000000000000000000000000000000000000000000000000000000000000000000000000000000000000000000000000000000000000000000000000000000000000000000000000000000000000000000000000000000000000000000000000000
310
00000000000000000000000000000000000000000000000000000000000000000000070000000000000000000000000000000000000000000000000007000000000000000000000000000000000000000000000000000000000000000000000000000000000000000000000000000000000000000000000000000000000000
310
00000000000000000000000000000000000000000000000000000000000000000000000000000000000000000000000000000000000000000000000000000000000000000000000000000000000000000000000000000007000000000000000000000000000000000000000000000000000700000000000000000000000000
310
00000000000000000000000000000000000000000000000000000000000000000000000000000000000000000000000000000000000000000000000000000000000000000000000000000000000000000000000000000000000000000000000000000000000000000000000000000000000000000000000000000000000000
310
00000000000000000000000000070000000000000000000000000000000000000000000000000007000000000000000000000000000000000000000000000000000000000000000000000000000000000000000000000000000000000000000000000000000000000000000000000000000000000000000000000000000000
310
00000000000000000000000000000000000000000000000000000000000000000000000000000000000000000000000000000000000000000000000000000000000007070707070707070707070707070707070707070707070707070700000000000000000000000000000000000000000000000000000000000000000000
310
00000000000000000000000000000000000000000000000000000000000000000000000000000000000000000000000000000000000000000000000000000000000000000000000000000000000000000000000000000000000000000000000000000000000000000000000000000000000000000000000000070000000000
310
00000000000000000000000000000000070000000000000000000000000000000000000000000000000000000000000000000000000000000000000000000000000000000000000000000000000000000000000000000000000000000000000000000000000000000000000000000000000000000000000000000000000000
310
00000000000000000000000000000000000000000000000000000000000000000000000000000000000000000000000707070707070707070707070707070707070707070707000000000000000000000000000000000000000000000000000000000000000000000000000000000000000000000000000000000000000000
310
00000000000000000000000000000000000000000000000000000000000000000000000000000000000000000000000000000000000000000000000000000000000000000000000000000000000000000000000000000000000000000000000000000000000700000000000000000000000000000000000000070000000000
310
00000000000000000000000000000000000000000000000000000000000000000000000000000000000000000000000000000000000000000000000000000000000000000000000000000000000000000000000000000000000000000000000000000000000000000000000000000000000000000000000000000000000000
310
00000000000000000000000000000000000000000000000000000007000000000000000000000000000000000000000700000000000000000000000000000000000000000000000000000000000000000000000000000000000000000000000000000000000000000000000000000000000000000000000000000000000000
310
00000000000000000000000000000000000000000000000000000000000000000000000000000000000000000000000000000000000000000000000000000000000000000000000000000000000000000700000000000000000000000000000000000000070000000000000000000000000000000000000000000000000000
310
00000000000000000000000000000000000000000000000000000000000000000000000000000000000000000000000000000000000000000000000000000000000000000000000000000000000000000000000000000000000000000000000000000000000000000000000000000000000000000000000000000000000000
310
00000000000007000000000000000000000000000000000000000700000000000000000000000000000000000000000000000000000000000000000000000000000000000000000000000000000000000000000000000000000000000000000000000000000000000000000000000000000000000000000000000000000000
310
00000000000000000000000000000000000000000000000000000000000000000000000000000000000000000000000000000000000000000000000707070707070707070707070707070707070707070000000000000000000000000000000000000000000000000000000000000000000000000000000000000000000000
310
00000000000000000000000000000000000000000000000000000000000000000000000000000000000000000000000000000000000000000000000000000000000000000000000000000000000000000000000000000000000000000000000000000000000000000000000000000000070000000000000000000000000000
310
00000000000700000000000000000000000000000000000000000000000000000000000000000000000000000000000000000000000000000000000000000000000000000000000000000000000000000000000000000000000000000000000000000000000000000000000000000000000000000000000000000000000000
310
00000000000000000000000000000000000000000000000000000000000000000000000000000700000000000000000000000000000000000000070000000000000000000000000000000000000000000000000000000000000000000000000000000000000000000000000000000000000000000000000000000000000000
310
00000000000000000000000000000000000000000000000000000000000000000000000000000000000000000000000000000000000000000000000000000000000000000000000000000000000000000000000000000000000000070000000000000000000000000000000000000007000000000000000000000000000000
310
00000000000000000000000000000000000000000000000000000000000000000000000000000000000000000000000000000000000000000000000000000000000000000000000000000000000000000000000000000000000000000000000000000000000000000000000000000000000000000000000000000000000000
310
00000000000000000000000000000000000700000000000000000000000000000000000000070000000000000000000000000000000000000000000000000000000000000000000000000000000000000000000000000000000000000000000000000000000000000000000000000000000000000000000000000000000000
310
00000000000000000000000000000000000000000000000000000000000000000000000000000000000000000000000000000000000000000000000000000000000000000000070707070707070707070707070707070707070707000000000000000000000000000000000000000000000000000000000000000000000000
310
00000000000000000000000000000000000000000000000000000000000000000000000000000000000000000000000000000000000000000000000000000000000000000000000000000000000000000000000000000000000000000000000000000000000000000000000000000000000000000000000000000007070707
310
07070707070707070707070707070707070000000000000000000000000000000000000000000000000000000000000000000000000000000000000000000000000000000000000000000000000000000000000000000000000000000000000000000000000000000000000000000000000000000000000000000000000000
310
00000000000000000000000000000000000000000000000000000000000000000000000000000000000000000000000000070000000000000000000000000000000000000007000000000000000000000000000000000000000000000000000000000000000000000000000000000000000000000000000000000000000000
310
00000000000000000000000000000000000000000000000000000000000000000000000000000000000000000000000000000000000000000000000000000000000000000000000000000000000000000000000000000000000000000000000000000000000007000000000000000000000000000000000000000700000000
310
00000000000000000000000000000000000000000000000000000000000000000000000000000000000000000000000000000000000000000000000000000000000000000000000000000000000000000000000000000000000000000000000000000000000000000000000000000000000000000000000000000000000000
310
00000000000000000000000000000000000000000000000000000000070000000000000000000000000000000000000007000000000000000000000000000000000000000000000000000000000000000000000000000000000000000000000000000000000000000000000000000000000000000000000000000000000000
310
00000000000000000000000000000000000000000000000000000000000000000000000000000000000000000000000000000000000000000000000000000000000000000000000000000000000000000007000000000000000000000000000000000000000700000000000000000000000000000000000000000000000000
310
00000000000000000000000000000000000000000000000000000000000000000000000000000000000000000000000000000000000000000000000000000000000000000000000000000000000000000000000000000000000000000000000000000000000000000000000000000000000000000000000000000000000000
310
00000000000000070707070707070707070707070707070707070707000000000000000000000000000000000000000000000000000000000000000000000000000000000000000000000000000000000000000000000000000000000000000000000000000000000000000000000000000000000000000000000000000000
310
00000000000000000000000000000000000000000000000000000000000000000000000000000000000000000000000000000000000000000000000000000707070707070707070707070707070707000000000000000000000000000000000000000000000000000000000000000000000000000000000000000000000000
310
00000000000000000000000000000000000000000000000000000000000000000000000000000000000000000000000000000000000000000000000000000000000000000000000000000000000000000000000000000000000000000000000000000000000000000000000000000000000000070707070707070707070707
310
07070707070000000000000000000000000000000000000000000000000000000000000000000000000000000000000000000000000000000000000000000000000000000000000000000000000000000000000000000000000000000000000000000000000000000000000000000000000000000000000000000000000000
310
00000000000000000000000000000000000000000000000000000000000000000000000000000000000707070707070707070707070707070707000000000000000000000000000000000000000000000000000000000000000000000000000000000000000000000000000000000000000000000000000000000000000000
310
00000000000000000000000000000000000000000000000000000000000000000000000000000000000000000000000000000000000000000000000000000000000000000000000000000000000000000000000000000000000000000000000007070707070707070707070707000000000000000000000000000000000000
310
00000000000000000000000000000000000000000000000000000000000000000000000000000000000000000000000000000000000000000000000000000000000000000000000000000000000000000000000000000000000000000000000000000000000000000000000000000000000000000000000000000000000000
310
00000000000000000000000000000000000000000000070000000000000000000000070000000000000000000000000000000000000000000000000000000000000000000000000000000000000000000000000000000000000000000000000000000000000000000000000000000000000000000000000000000000000000
310
00000000000000000000000000000000000000000000000000000000000000000000000000000000000000000000000000000000000000000000000000000000000000000000000000000007000000000000000000000007000000000000000000000000000000000000000000000000000000000000000000000000000000
310
00000000000000000000000000000000000000000000000000000000000000000000000000000000000000000000000000000000000000000000000000000000000000000000000000000000000000000000000000000000000000000000000000000000000000000000000000000000000000000000000000000000000000
310
00070000070707070707070000070000000000000000000000000000000000000000000000000000000000000000000000000000000000000000000000000000000000000000000000000000000000000000000000000000000000000000000000000000000000000000000000000000000000000000000000000000000000
310
00000000000000000000000000000000000000000000000000000000000000000000000000000000000000000000000000000000000007000007000000000007000007000000000000000000000000000000000000000000000000000000000000000000000000000000000000000000000000000000000000000000000000
310
00000000000000000000000000000000000000000000000000000000000000000000000000000000000000000000000000000000000000000000000000000000000000000000000000000000000000000000000000000000000000000000000000000000000000000000000700000700000000000700000700000000000000
310
00000000000000000000000000000000000000000000000000000000000000000000000000000000000000000000000000000000000000000000000000000000000000000000000000000000000000000000000000000000000000000000000000000000000000000000000000000000000000000000000000000000000000
310
00000000000000000000000000000000000000000000000000000000000000000007000007000000000007000007000000000000000000000000000000000000000000000000000000000000000000000000000000000000000000000000000000000000000000000000000000000000000000000000000000000000000000
310
00000000000000000000000000000000000000000000000000000000000000000000000000000000000000000000000000000000000000000000000000000000000000000000000000000000000000000000000000000707070707070707070707070700000000000000000000000000000000000000000000000000000000
310
00000000000000000000000000000000000000000000000000000000000000000000000000000000000000000000000000000000000000000000000000000000000000000000000000000000000000000000000000000000000000000000000000000000000000000000000000000000000000000000000000000000000000
310
000000000000000000000000000000000000000000000000000000000000000000000000000000000000000000000000000000000000000000000000000000000000000000000000000000000000000000000000000000000000000000000000000000000000000000000000
  0
ENDSEC
  0
EOF
