  0
SECTION
  2
HEADER
  9
$ACADVER
  1
AC1015
  9
$ACADMAINTVER
 70
     6
  9
$DWGCODEPAGE
  3
ANSI_1252
  9
$INSBASE
 10
0.0
 20
0.0
 30
0.0
  9
$EXTMIN
 10
31.75
 20
-0.0000135
 30
0.0
  9
$EXTMAX
 10
201.75
 20
74.9999865
 30
0.0
  9
$LIMMIN
 10
0.0
 20
0.0
  9
$LIMMAX
 10
12.0
 20
9.0
  9
$ORTHOMODE
 70
     0
  9
$REGENMODE
 70
     1
  9
$FILLMODE
 70
     1
  9
$QTEXTMODE
 70
     0
  9
$MIRRTEXT
 70
     1
  9
$LTSCALE
 40
1.0
  9
$ATTMODE
 70
     1
  9
$TEXTSIZE
 40
0.2
  9
$TRACEWID
 40
0.05
  9
$TEXTSTYLE
  7
Standard
  9
$CLAYER
  8
0
  9
$CELTYPE
  6
ByBlock
  9
$CECOLOR
 62
   256
  9
$CELTSCALE
 40
1.0
  9
$DISPSILH
 70
     0
  9
$DIMSCALE
 40
1.0
  9
$DIMASZ
 40
0.18
  9
$DIMEXO
 40
0.0625
  9
$DIMDLI
 40
0.38
  9
$DIMRND
 40
0.0
  9
$DIMDLE
 40
0.0
  9
$DIMEXE
 40
0.18
  9
$DIMTP
 40
0.0
  9
$DIMTM
 40
0.0
  9
$DIMTXT
 40
0.18
  9
$DIMCEN
 40
0.09
  9
$DIMTSZ
 40
0.0
  9
$DIMTOL
 70
     0
  9
$DIMLIM
 70
     0
  9
$DIMTIH
 70
     1
  9
$DIMTOH
 70
     1
  9
$DIMSE1
 70
     0
  9
$DIMSE2
 70
     0
  9
$DIMTAD
 70
     0
  9
$DIMZIN
 70
     0
  9
$DIMBLK
  1

  9
$DIMASO
 70
     1
  9
$DIMSHO
 70
     1
  9
$DIMPOST
  1

  9
$DIMAPOST
  1

  9
$DIMALT
 70
     0
  9
$DIMALTD
 70
     2
  9
$DIMALTF
 40
25.4
  9
$DIMLFAC
 40
1.0
  9
$DIMTOFL
 70
     0
  9
$DIMTVP
 40
0.0
  9
$DIMTIX
 70
     0
  9
$DIMSOXD
 70
     0
  9
$DIMSAH
 70
     0
  9
$DIMBLK1
  1

  9
$DIMBLK2
  1

  9
$DIMSTYLE
  2
Standard
  9
$DIMCLRD
 70
     0
  9
$DIMCLRE
 70
     0
  9
$DIMCLRT
 70
     0
  9
$DIMTFAC
 40
1.0
  9
$DIMGAP
 40
0.09
  9
$DIMJUST
 70
     0
  9
$DIMSD1
 70
     0
  9
$DIMSD2
 70
     0
  9
$DIMTOLJ
 70
     1
  9
$DIMTZIN
 70
     0
  9
$DIMALTZ
 70
     0
  9
$DIMALTTZ
 70
     0
  9
$DIMUPT
 70
     0
  9
$DIMDEC
 70
     4
  9
$DIMTDEC
 70
     4
  9
$DIMALTU
 70
     2
  9
$DIMALTTD
 70
     2
  9
$DIMTXSTY
  7
Standard
  9
$DIMAUNIT
 70
     0
  9
$DIMADEC
 70
     0
  9
$DIMALTRND
 40
0.0
  9
$DIMAZIN
 70
     0
  9
$DIMDSEP
 70
    46
  9
$DIMATFIT
 70
     3
  9
$DIMFRAC
 70
     0
  9
$DIMLDRBLK
  1

  9
$DIMLUNIT
 70
     2
  9
$DIMLWD
 70
    -2
  9
$DIMLWE
 70
    -2
  9
$DIMTMOVE
 70
     2
  9
$LUNITS
 70
     2
  9
$LUPREC
 70
     4
  9
$SKETCHINC
 40
0.1
  9
$FILLETRAD
 40
0.5
  9
$AUNITS
 70
     0
  9
$AUPREC
 70
     0
  9
$MENU
  1
.
  9
$ELEVATION
 40
0.0
  9
$PELEVATION
 40
0.0
  9
$THICKNESS
 40
0.0
  9
$LIMCHECK
 70
     0
  9
$CHAMFERA
 40
0.5
  9
$CHAMFERB
 40
0.5
  9
$CHAMFERC
 40
1.0
  9
$CHAMFERD
 40
0.0
  9
$SKPOLY
 70
     0
  9
$TDCREATE
 40
2456183.678414352
  9
$TDUCREATE
 40
2456183.595081019
  9
$TDUPDATE
 40
2456183.689010949
  9
$TDUUPDATE
 40
2456183.605677616
  9
$TDINDWG
 40
0.01059625
  9
$TDUSRTIMER
 40
0.01059625
  9
$USRTIMER
 70
     1
  9
$ANGBASE
 50
0.0
  9
$ANGDIR
 70
     0
  9
$PDMODE
 70
     0
  9
$PDSIZE
 40
0.0
  9
$PLINEWID
 40
0.0
  9
$SPLFRAME
 70
     0
  9
$SPLINETYPE
 70
     6
  9
$SPLINESEGS
 70
     8
  9
$HANDSEED
  5
C92
  9
$SURFTAB1
 70
     6
  9
$SURFTAB2
 70
     6
  9
$SURFTYPE
 70
     6
  9
$SURFU
 70
     6
  9
$SURFV
 70
     6
  9
$UCSBASE
  2

  9
$UCSNAME
  2

  9
$UCSORG
 10
0.0
 20
0.0
 30
0.0
  9
$UCSXDIR
 10
1.0
 20
0.0
 30
0.0
  9
$UCSYDIR
 10
0.0
 20
1.0
 30
0.0
  9
$UCSORTHOREF
  2

  9
$UCSORTHOVIEW
 70
     0
  9
$UCSORGTOP
 10
0.0
 20
0.0
 30
0.0
  9
$UCSORGBOTTOM
 10
0.0
 20
0.0
 30
0.0
  9
$UCSORGLEFT
 10
0.0
 20
0.0
 30
0.0
  9
$UCSORGRIGHT
 10
0.0
 20
0.0
 30
0.0
  9
$UCSORGFRONT
 10
0.0
 20
0.0
 30
0.0
  9
$UCSORGBACK
 10
0.0
 20
0.0
 30
0.0
  9
$PUCSBASE
  2

  9
$PUCSNAME
  2

  9
$PUCSORG
 10
0.0
 20
0.0
 30
0.0
  9
$PUCSXDIR
 10
1.0
 20
0.0
 30
0.0
  9
$PUCSYDIR
 10
0.0
 20
1.0
 30
0.0
  9
$PUCSORTHOREF
  2

  9
$PUCSORTHOVIEW
 70
     0
  9
$PUCSORGTOP
 10
0.0
 20
0.0
 30
0.0
  9
$PUCSORGBOTTOM
 10
0.0
 20
0.0
 30
0.0
  9
$PUCSORGLEFT
 10
0.0
 20
0.0
 30
0.0
  9
$PUCSORGRIGHT
 10
0.0
 20
0.0
 30
0.0
  9
$PUCSORGFRONT
 10
0.0
 20
0.0
 30
0.0
  9
$PUCSORGBACK
 10
0.0
 20
0.0
 30
0.0
  9
$USERI1
 70
     0
  9
$USERI2
 70
     0
  9
$USERI3
 70
     0
  9
$USERI4
 70
     0
  9
$USERI5
 70
     0
  9
$USERR1
 40
0.0
  9
$USERR2
 40
0.0
  9
$USERR3
 40
0.0
  9
$USERR4
 40
0.0
  9
$USERR5
 40
0.0
  9
$WORLDVIEW
 70
     1
  9
$SHADEDGE
 70
     3
  9
$SHADEDIF
 70
    70
  9
$TILEMODE
 70
     1
  9
$MAXACTVP
 70
    64
  9
$PINSBASE
 10
0.0
 20
0.0
 30
0.0
  9
$PLIMCHECK
 70
     0
  9
$PEXTMIN
 10
1.000000000000E+20
 20
1.000000000000E+20
 30
1.000000000000E+20
  9
$PEXTMAX
 10
-1.000000000000E+20
 20
-1.000000000000E+20
 30
-1.000000000000E+20
  9
$PLIMMIN
 10
0.0
 20
0.0
  9
$PLIMMAX
 10
12.0
 20
9.0
  9
$UNITMODE
 70
     0
  9
$VISRETAIN
 70
     1
  9
$PLINEGEN
 70
     0
  9
$PSLTSCALE
 70
     1
  9
$TREEDEPTH
 70
  3020
  9
$CMLSTYLE
  2
Standard
  9
$CMLJUST
 70
     0
  9
$CMLSCALE
 40
1.0
  9
$PROXYGRAPHICS
 70
     1
  9
$MEASUREMENT
 70
     0
  9
$CELWEIGHT
370
    -1
  9
$ENDCAPS
280
     0
  9
$JOINSTYLE
280
     0
  9
$LWDISPLAY
290
     0
  9
$INSUNITS
 70
     0
  9
$HYPERLINKBASE
  1

  9
$STYLESHEET
  1

  9
$XEDIT
290
     1
  9
$CEPSNTYPE
380
     0
  9
$PSTYLEMODE
290
     1
  9
$FINGERPRINTGUID
  2
{C73A83E7-2C8A-434D-BF07-7276AB9617B0}
  9
$VERSIONGUID
  2
{FAEB1C32-E019-11D5-929B-00C0DF256EC4}
  9
$EXTNAMES
290
     1
  9
$PSVPSCALE
 40
0.0
  9
$OLESTARTUP
290
     0
  0
ENDSEC
  0
SECTION
  2
CLASSES
  0
CLASS
  1
ACDBDICTIONARYWDFLT
  2
AcDbDictionaryWithDefault
  3
ObjectDBX Classes
 90
        0
280
     0
281
     0
  0
CLASS
  1
SCALE
  2
AcDbScale
  3
ObjectDBX Classes
 90
     1153
280
     0
281
     0
  0
CLASS
  1
DICTIONARYVAR
  2
AcDbDictionaryVar
  3
ObjectDBX Classes
 90
        0
280
     0
281
     0
  0
CLASS
  1
ACDBPLACEHOLDER
  2
AcDbPlaceHolder
  3
ObjectDBX Classes
 90
        0
280
     0
281
     0
  0
CLASS
  1
LAYOUT
  2
AcDbLayout
  3
ObjectDBX Classes
 90
        0
280
     0
281
     0
  0
ENDSEC
  0
SECTION
  2
TABLES
  0
TABLE
  2
VPORT
  5
8
330
0
100
AcDbSymbolTable
 70
     1
  0
VPORT
  5
615
330
8
100
AcDbSymbolTableRecord
100
AcDbViewportTableRecord
  2
*Active
 70
     0
 10
0.0
 20
0.0
 11
1.0
 21
1.0
 12
100.875
 22
37.4999865
 13
0.0
 23
0.0
 14
0.5
 24
0.5
 15
0.5
 25
0.5
 16
0.0
 26
0.0
 36
1.0
 17
0.0
 27
0.0
 37
0.0
 40
90.585382513661
 41
2.271724137931
 42
50.0
 43
0.0
 44
0.0
 50
0.0
 51
0.0
 71
    16
 72
   100
 73
     1
 74
     3
 75
     0
 76
     0
 77
     0
 78
     0
281
     0
 65
     1
110
0.0
120
0.0
130
0.0
111
1.0
121
0.0
131
0.0
112
0.0
122
1.0
132
0.0
 79
     0
146
0.0
  0
ENDTAB
  0
TABLE
  2
LTYPE
  5
5
330
0
100
AcDbSymbolTable
 70
     1
  0
LTYPE
  5
14
330
5
100
AcDbSymbolTableRecord
100
AcDbLinetypeTableRecord
  2
ByBlock
 70
     0
  3

 72
    65
 73
     0
 40
0.0
  0
LTYPE
  5
15
330
5
100
AcDbSymbolTableRecord
100
AcDbLinetypeTableRecord
  2
ByLayer
 70
     0
  3

 72
    65
 73
     0
 40
0.0
  0
LTYPE
  5
16
330
5
100
AcDbSymbolTableRecord
100
AcDbLinetypeTableRecord
  2
Continuous
 70
     0
  3
Solid line
 72
    65
 73
     0
 40
0.0
  0
ENDTAB
  0
TABLE
  2
LAYER
  5
2
330
0
100
AcDbSymbolTable
 70
     1
  0
LAYER
  5
10
330
2
100
AcDbSymbolTableRecord
100
AcDbLayerTableRecord
  2
0
 70
     0
 62
     7
  6
Continuous
370
    -3
390
F
  0
ENDTAB
  0
TABLE
  2
STYLE
  5
3
330
0
100
AcDbSymbolTable
 70
     1
  0
STYLE
  5
11
330
3
100
AcDbSymbolTableRecord
100
AcDbTextStyleTableRecord
  2
Standard
 70
     0
 40
0.0
 41
1.0
 50
0.0
 71
     0
 42
0.2
  3
txt
  4

  0
ENDTAB
  0
TABLE
  2
VIEW
  5
6
330
0
100
AcDbSymbolTable
 70
     0
  0
ENDTAB
  0
TABLE
  2
UCS
  5
7
330
0
100
AcDbSymbolTable
 70
     0
  0
ENDTAB
  0
TABLE
  2
APPID
  5
9
330
0
100
AcDbSymbolTable
 70
     1
  0
APPID
  5
12
330
9
100
AcDbSymbolTableRecord
100
AcDbRegAppTableRecord
  2
ACAD
 70
     0
  0
ENDTAB
  0
TABLE
  2
DIMSTYLE
  5
A
330
0
100
AcDbSymbolTable
 70
     1
100
AcDbDimStyleTable
  0
DIMSTYLE
105
20
330
A
100
AcDbSymbolTableRecord
100
AcDbDimStyleTableRecord
  2
Standard
 70
     0
340
11
  0
ENDTAB
  0
TABLE
  2
BLOCK_RECORD
  5
1
330
0
100
AcDbSymbolTable
 70
     1
  0
BLOCK_RECORD
  5
1D
330
1
100
AcDbSymbolTableRecord
100
AcDbBlockTableRecord
  2
*Model_Space
340
1E
  0
BLOCK_RECORD
  5
1B
330
1
100
AcDbSymbolTableRecord
100
AcDbBlockTableRecord
  2
*Paper_Space
340
1C
  0
ENDTAB
  0
ENDSEC
  0
SECTION
  2
BLOCKS
  0
BLOCK
  5
618
330
1D
100
AcDbEntity
  8
0
100
AcDbBlockBegin
  2
*Model_Space
 70
     0
 10
0.0
 20
0.0
 30
0.0
  3
*Model_Space
  1
*Model_Space
  0
ENDBLK
  5
619
330
1D
100
AcDbEntity
  8
0
100
AcDbBlockEnd
  0
BLOCK
  5
616
330
1B
100
AcDbEntity
 67
     1
  8
0
100
AcDbBlockBegin
  2
*Paper_Space
 70
     0
 10
0.0
 20
0.0
 30
0.0
  3
*Paper_Space
  1
*Paper_Space
  0
ENDBLK
  5
617
330
1B
100
AcDbEntity
 67
     1
  8
0
100
AcDbBlockEnd
  0
ENDSEC
  0
SECTION
  2
ENTITIES
  0
LINE
  5
A7
330
1D
100
AcDbEntity
  8
0
100
AcDbLine
 10
101.9541
 20
51.3522865
 30
0.0
 11
101.9759
 21
51.5214865
 31
0.0
  0
LINE
  5
A9
330
1D
100
AcDbEntity
  8
0
100
AcDbLine
 10
101.9759
 20
51.5214865
 30
0.0
 11
102.0866
 21
51.6513865
 31
0.0
  0
LINE
  5
AC
330
1D
100
AcDbEntity
  8
0
100
AcDbLine
 10
102.0866
 20
51.6513865
 30
0.0
 11
102.2503
 21
51.6999865
 31
0.0
  0
LINE
  5
B2
330
1D
100
AcDbEntity
  8
0
100
AcDbLine
 10
102.2503
 20
51.6999865
 30
0.0
 11
102.3425
 21
51.6999865
 31
0.0
  0
LINE
  5
B3
330
1D
100
AcDbEntity
  8
0
100
AcDbLine
 10
102.2503
 20
51.6999865
 30
0.0
 11
102.3427
 21
51.6999865
 31
0.0
  0
LINE
  5
C8
330
1D
100
AcDbEntity
  8
0
100
AcDbLine
 10
102.3427
 20
51.6999865
 30
0.0
 11
102.5974
 21
51.6999865
 31
0.0
  0
LINE
  5
CA
330
1D
100
AcDbEntity
  8
0
100
AcDbLine
 10
103.0126
 20
51.6999865
 30
0.0
 11
103.5833
 21
51.6999865
 31
0.0
  0
LINE
  5
CB
330
1D
100
AcDbEntity
  8
0
100
AcDbLine
 10
103.5833
 20
51.6999865
 30
0.0
 11
104.3031
 21
51.6999865
 31
0.0
  0
LINE
  5
CC
330
1D
100
AcDbEntity
  8
0
100
AcDbLine
 10
104.3031
 20
51.6999865
 30
0.0
 11
105.0841
 21
51.6999865
 31
0.0
  0
LINE
  5
CD
330
1D
100
AcDbEntity
  8
0
100
AcDbLine
 10
104.3031
 20
51.6999865
 30
0.0
 11
105.0839
 21
51.6999865
 31
0.0
  0
LINE
  5
D2
330
1D
100
AcDbEntity
  8
0
100
AcDbLine
 10
105.0839
 20
51.6999865
 30
0.0
 11
105.975
 21
51.6999865
 31
0.0
  0
LINE
  5
D3
330
1D
100
AcDbEntity
  8
0
100
AcDbLine
 10
105.0841
 20
51.6999865
 30
0.0
 11
105.9749
 21
51.6999865
 31
0.0
  0
LINE
  5
D6
330
1D
100
AcDbEntity
  8
0
100
AcDbLine
 10
105.4264
 20
51.6999865
 30
0.0
 11
105.4264
 21
51.9999865
 31
0.0
  0
LINE
  5
D7
330
1D
100
AcDbEntity
  8
0
100
AcDbLine
 10
102.3425
 20
51.6999865
 30
0.0
 11
102.5974
 21
51.6999865
 31
0.0
  0
LINE
  5
1CA
330
1D
100
AcDbEntity
  8
0
100
AcDbLine
 10
31.75
 20
74.9999865
 30
0.0
 11
32.05
 21
74.9999865
 31
0.0
  0
LINE
  5
1CD
330
1D
100
AcDbEntity
  8
0
100
AcDbLine
 10
101.8172
 20
52.7499865
 30
0.0
 11
102.0001
 21
52.5669865
 31
0.0
  0
LINE
  5
1CE
330
1D
100
AcDbEntity
  8
0
100
AcDbLine
 10
101.7502
 20
52.9999865
 30
0.0
 11
101.8172
 21
52.7499865
 31
0.0
  0
LINE
  5
1D1
330
1D
100
AcDbEntity
  8
0
100
AcDbLine
 10
101.75
 20
52.9999865
 30
0.0
 11
101.75
 21
53.9999865
 31
0.0
  0
LINE
  5
1D2
330
1D
100
AcDbEntity
  8
0
100
AcDbLine
 10
102.279
 20
52.4999865
 30
0.0
 11
102.5104
 21
52.4999865
 31
0.0
  0
LINE
  5
1D3
330
1D
100
AcDbEntity
  8
0
100
AcDbLine
 10
102.2742
 20
52.4999865
 30
0.0
 11
102.4962
 21
52.4999865
 31
0.0
  0
LINE
  5
1D4
330
1D
100
AcDbEntity
  8
0
100
AcDbLine
 10
102.4962
 20
52.4999865
 30
0.0
 11
102.9412
 21
52.4999865
 31
0.0
  0
LINE
  5
1D5
330
1D
100
AcDbEntity
  8
0
100
AcDbLine
 10
102.5104
 20
52.4999865
 30
0.0
 11
102.9647
 21
52.4999865
 31
0.0
  0
LINE
  5
1D6
330
1D
100
AcDbEntity
  8
0
100
AcDbLine
 10
102.51
 20
52.4999865
 30
0.0
 11
102.9644
 21
52.4999865
 31
0.0
  0
LINE
  5
1D7
330
1D
100
AcDbEntity
  8
0
100
AcDbLine
 10
102.2788
 20
52.4999865
 30
0.0
 11
102.51
 21
52.4999865
 31
0.0
  0
LINE
  5
1D8
330
1D
100
AcDbEntity
  8
0
100
AcDbLine
 10
102.274
 20
52.4999865
 30
0.0
 11
102.496
 21
52.4999865
 31
0.0
  0
LINE
  5
1D9
330
1D
100
AcDbEntity
  8
0
100
AcDbLine
 10
102.0001
 20
52.5669865
 30
0.0
 11
102.279
 21
52.4999865
 31
0.0
  0
LINE
  5
1DA
330
1D
100
AcDbEntity
  8
0
100
AcDbLine
 10
102.496
 20
52.4999865
 30
0.0
 11
102.9408
 21
52.4999865
 31
0.0
  0
LINE
  5
1DF
330
1D
100
AcDbEntity
  8
0
100
AcDbLine
 10
102.9412
 20
52.4999865
 30
0.0
 11
103.6023
 21
52.4999865
 31
0.0
  0
LINE
  5
1E0
330
1D
100
AcDbEntity
  8
0
100
AcDbLine
 10
102.9647
 20
52.4999865
 30
0.0
 11
103.635
 21
52.4999865
 31
0.0
  0
LINE
  5
1E1
330
1D
100
AcDbEntity
  8
0
100
AcDbLine
 10
102.9644
 20
52.4999865
 30
0.0
 11
103.6347
 21
52.4999865
 31
0.0
  0
LINE
  5
1E2
330
1D
100
AcDbEntity
  8
0
100
AcDbLine
 10
102.9408
 20
52.4999865
 30
0.0
 11
103.6023
 21
52.4999865
 31
0.0
  0
LINE
  5
1E3
330
1D
100
AcDbEntity
  8
0
100
AcDbLine
 10
103.635
 20
52.4999865
 30
0.0
 11
104.5105
 21
52.4999865
 31
0.0
  0
LINE
  5
1E4
330
1D
100
AcDbEntity
  8
0
100
AcDbLine
 10
103.6347
 20
52.4999865
 30
0.0
 11
104.5103
 21
52.4999865
 31
0.0
  0
LINE
  5
1E5
330
1D
100
AcDbEntity
  8
0
100
AcDbLine
 10
103.6023
 20
52.4999865
 30
0.0
 11
104.4691
 21
52.4999865
 31
0.0
  0
LINE
  5
1E6
330
1D
100
AcDbEntity
  8
0
100
AcDbLine
 10
103.6023
 20
52.4999865
 30
0.0
 11
104.4695
 21
52.4999865
 31
0.0
  0
LINE
  5
1EB
330
1D
100
AcDbEntity
  8
0
100
AcDbLine
 10
104.4695
 20
52.4999865
 30
0.0
 11
104.9007
 21
52.4999865
 31
0.0
  0
LINE
  5
1EC
330
1D
100
AcDbEntity
  8
0
100
AcDbLine
 10
104.5105
 20
52.4999865
 30
0.0
 11
105.5773
 21
52.4999865
 31
0.0
  0
LINE
  5
1ED
330
1D
100
AcDbEntity
  8
0
100
AcDbLine
 10
104.5103
 20
52.4999865
 30
0.0
 11
105.5771
 21
52.4999865
 31
0.0
  0
LINE
  5
1EE
330
1D
100
AcDbEntity
  8
0
100
AcDbLine
 10
104.4691
 20
52.4999865
 30
0.0
 11
104.9007
 21
52.4999865
 31
0.0
  0
LINE
  5
1EF
330
1D
100
AcDbEntity
  8
0
100
AcDbLine
 10
104.9753
 20
52.4999865
 30
0.0
 11
105.267
 21
52.4999865
 31
0.0
  0
LINE
  5
1F1
330
1D
100
AcDbEntity
  8
0
100
AcDbLine
 10
105.267
 20
52.4999865
 30
0.0
 11
105.7706
 21
52.4999865
 31
0.0
  0
LINE
  5
1F3
330
1D
100
AcDbEntity
  8
0
100
AcDbLine
 10
105.3336
 20
52.2499865
 30
0.0
 11
105.4264
 21
51.9999865
 31
0.0
  0
LINE
  5
1F4
330
1D
100
AcDbEntity
  8
0
100
AcDbLine
 10
105.1506
 20
52.4329865
 30
0.0
 11
105.3336
 21
52.2499865
 31
0.0
  0
LINE
  5
1F5
330
1D
100
AcDbEntity
  8
0
100
AcDbLine
 10
105.2667
 20
52.4999865
 30
0.0
 11
105.7706
 21
52.4999865
 31
0.0
  0
LINE
  5
1F6
330
1D
100
AcDbEntity
  8
0
100
AcDbLine
 10
104.975
 20
52.4999865
 30
0.0
 11
105.2667
 21
52.4999865
 31
0.0
  0
LINE
  5
1F9
330
1D
100
AcDbEntity
  8
0
100
AcDbLine
 10
104.9007
 20
52.4999865
 30
0.0
 11
105.1506
 21
52.4329865
 31
0.0
  0
LINE
  5
1FA
330
1D
100
AcDbEntity
  8
0
100
AcDbLine
 10
104.9007
 20
52.4999865
 30
0.0
 11
104.975
 21
52.4999865
 31
0.0
  0
LINE
  5
1FB
330
1D
100
AcDbEntity
  8
0
100
AcDbLine
 10
104.9007
 20
52.4999865
 30
0.0
 11
104.9753
 21
52.4999865
 31
0.0
  0
LINE
  5
201
330
1D
100
AcDbEntity
  8
0
100
AcDbLine
 10
101.75
 20
53.9999865
 30
0.0
 11
101.75
 21
52.9999865
 31
0.0
  0
LINE
  5
206
330
1D
100
AcDbEntity
  8
0
100
AcDbLine
 10
105.5773
 20
52.4999865
 30
0.0
 11
106.8186
 21
52.4999865
 31
0.0
  0
LINE
  5
207
330
1D
100
AcDbEntity
  8
0
100
AcDbLine
 10
105.5771
 20
52.4999865
 30
0.0
 11
106.8186
 21
52.4999865
 31
0.0
  0
LINE
  5
208
330
1D
100
AcDbEntity
  8
0
100
AcDbLine
 10
105.7706
 20
52.4999865
 30
0.0
 11
106.4771
 21
52.4999865
 31
0.0
  0
LINE
  5
209
330
1D
100
AcDbEntity
  8
0
100
AcDbLine
 10
105.7706
 20
52.4999865
 30
0.0
 11
106.4768
 21
52.4999865
 31
0.0
  0
LINE
  5
20A
330
1D
100
AcDbEntity
  8
0
100
AcDbLine
 10
105.4264
 20
51.9999865
 30
0.0
 11
105.4264
 21
51.6999865
 31
0.0
  0
LINE
  5
2BA
330
1D
100
AcDbEntity
  8
0
100
AcDbLine
 10
32.05
 20
74.9999865
 30
0.0
 11
32.75
 21
74.9999865
 31
0.0
  0
LINE
  5
2BB
330
1D
100
AcDbEntity
  8
0
100
AcDbLine
 10
102.5974
 20
51.6999865
 30
0.0
 11
103.0126
 21
51.6999865
 31
0.0
  0
LINE
  5
2C4
330
1D
100
AcDbEntity
  8
0
100
AcDbLine
 10
107.0619
 20
19.6239865
 30
0.0
 11
107.1664
 21
19.4054865
 31
0.0
  0
LINE
  5
2CA
330
1D
100
AcDbEntity
  8
0
100
AcDbLine
 10
107.1664
 20
19.4054865
 30
0.0
 11
107.3436
 21
19.2542865
 31
0.0
  0
LINE
  5
2CB
330
1D
100
AcDbEntity
  8
0
100
AcDbLine
 10
107.3436
 20
19.2542865
 30
0.0
 11
107.5702
 21
19.1999865
 31
0.0
  0
LINE
  5
2CC
330
1D
100
AcDbEntity
  8
0
100
AcDbLine
 10
107.5733
 20
19.1999865
 30
0.0
 11
107.6923
 21
19.1999865
 31
0.0
  0
LINE
  5
2CD
330
1D
100
AcDbEntity
  8
0
100
AcDbLine
 10
107.5848
 20
19.1999865
 30
0.0
 11
107.6602
 21
19.1999865
 31
0.0
  0
LINE
  5
2CE
330
1D
100
AcDbEntity
  8
0
100
AcDbLine
 10
107.5732
 20
19.1999865
 30
0.0
 11
107.6923
 21
19.1999865
 31
0.0
  0
LINE
  5
2D3
330
1D
100
AcDbEntity
  8
0
100
AcDbLine
 10
107.7843
 20
19.1999865
 30
0.0
 11
107.9477
 21
19.1999865
 31
0.0
  0
LINE
  5
2D4
330
1D
100
AcDbEntity
  8
0
100
AcDbLine
 10
108.5636
 20
19.1999865
 30
0.0
 11
108.9734
 21
19.1999865
 31
0.0
  0
LINE
  5
2D5
330
1D
100
AcDbEntity
  8
0
100
AcDbLine
 10
108.5636
 20
19.1999865
 30
0.0
 11
108.9736
 21
19.1999865
 31
0.0
  0
LINE
  5
2DB
330
1D
100
AcDbEntity
  8
0
100
AcDbLine
 10
108.9736
 20
19.1999865
 30
0.0
 11
109.4322
 21
19.1999865
 31
0.0
  0
LINE
  5
2DE
330
1D
100
AcDbEntity
  8
0
100
AcDbLine
 10
110.234
 20
19.1999865
 30
0.0
 11
110.5291
 21
19.1999865
 31
0.0
  0
LINE
  5
2DF
330
1D
100
AcDbEntity
  8
0
100
AcDbLine
 10
110.234
 20
19.1999865
 30
0.0
 11
110.5289
 21
19.1999865
 31
0.0
  0
LINE
  5
2E0
330
1D
100
AcDbEntity
  8
0
100
AcDbLine
 10
109.9226
 20
19.1999865
 30
0.0
 11
110.3103
 21
19.1999865
 31
0.0
  0
LINE
  5
2E1
330
1D
100
AcDbEntity
  8
0
100
AcDbLine
 10
109.9226
 20
19.1999865
 30
0.0
 11
110.3105
 21
19.1999865
 31
0.0
  0
LINE
  5
2E2
330
1D
100
AcDbEntity
  8
0
100
AcDbLine
 10
110.3103
 20
19.1999865
 30
0.0
 11
110.73
 21
19.1999865
 31
0.0
  0
LINE
  5
2E3
330
1D
100
AcDbEntity
  8
0
100
AcDbLine
 10
109.5388
 20
19.1999865
 30
0.0
 11
109.9226
 21
19.1999865
 31
0.0
  0
LINE
  5
2E4
330
1D
100
AcDbEntity
  8
0
100
AcDbLine
 10
109.1917
 20
19.1999865
 30
0.0
 11
109.5388
 21
19.1999865
 31
0.0
  0
LINE
  5
2E5
330
1D
100
AcDbEntity
  8
0
100
AcDbLine
 10
108.6058
 20
19.1999865
 30
0.0
 11
109.1917
 21
19.1999865
 31
0.0
  0
LINE
  5
2E6
330
1D
100
AcDbEntity
  8
0
100
AcDbLine
 10
108.9734
 20
19.1999865
 30
0.0
 11
109.4322
 21
19.1999865
 31
0.0
  0
LINE
  5
2E7
330
1D
100
AcDbEntity
  8
0
100
AcDbLine
 10
110.5289
 20
19.1999865
 30
0.0
 11
111.1707
 21
19.1999865
 31
0.0
  0
LINE
  5
2ED
330
1D
100
AcDbEntity
  8
0
100
AcDbLine
 10
110.73
 20
19.1999865
 30
0.0
 11
111.3386
 21
19.1999865
 31
0.0
  0
LINE
  5
2EE
330
1D
100
AcDbEntity
  8
0
100
AcDbLine
 10
111.6271
 20
19.1999865
 30
0.0
 11
112.1179
 21
19.1999865
 31
0.0
  0
LINE
  5
2EF
330
1D
100
AcDbEntity
  8
0
100
AcDbLine
 10
111.3386
 20
19.1999865
 30
0.0
 11
112.0027
 21
19.1999865
 31
0.0
  0
LINE
  5
2F2
330
1D
100
AcDbEntity
  8
0
100
AcDbLine
 10
112.0027
 20
19.1999865
 30
0.0
 11
112.7211
 21
19.1999865
 31
0.0
  0
LINE
  5
2F3
330
1D
100
AcDbEntity
  8
0
100
AcDbLine
 10
112.638
 20
19.1999865
 30
0.0
 11
113.1987
 21
19.1999865
 31
0.0
  0
LINE
  5
2F4
330
1D
100
AcDbEntity
  8
0
100
AcDbLine
 10
111.6273
 20
19.1999865
 30
0.0
 11
112.1179
 21
19.1999865
 31
0.0
  0
LINE
  5
2F5
330
1D
100
AcDbEntity
  8
0
100
AcDbLine
 10
111.1707
 20
19.1999865
 30
0.0
 11
111.6273
 21
19.1999865
 31
0.0
  0
LINE
  5
2F6
330
1D
100
AcDbEntity
  8
0
100
AcDbLine
 10
111.1707
 20
19.1999865
 30
0.0
 11
111.6271
 21
19.1999865
 31
0.0
  0
LINE
  5
2F7
330
1D
100
AcDbEntity
  8
0
100
AcDbLine
 10
110.5291
 20
19.1999865
 30
0.0
 11
111.1707
 21
19.1999865
 31
0.0
  0
LINE
  5
2F8
330
1D
100
AcDbEntity
  8
0
100
AcDbLine
 10
110.7299
 20
19.1999865
 30
0.0
 11
111.3386
 21
19.1999865
 31
0.0
  0
LINE
  5
2F9
330
1D
100
AcDbEntity
  8
0
100
AcDbLine
 10
110.3105
 20
19.1999865
 30
0.0
 11
110.7299
 21
19.1999865
 31
0.0
  0
LINE
  5
2FA
330
1D
100
AcDbEntity
  8
0
100
AcDbLine
 10
108.1583
 20
19.1999865
 30
0.0
 11
108.6058
 21
19.1999865
 31
0.0
  0
LINE
  5
307
330
1D
100
AcDbEntity
  8
0
100
AcDbLine
 10
113.1987
 20
19.1999865
 30
0.0
 11
114.0556
 21
19.1999865
 31
0.0
  0
LINE
  5
308
330
1D
100
AcDbEntity
  8
0
100
AcDbLine
 10
114.6311
 20
19.1999865
 30
0.0
 11
115.1965
 21
19.1999865
 31
0.0
  0
LINE
  5
309
330
1D
100
AcDbEntity
  8
0
100
AcDbLine
 10
114.6311
 20
19.1999865
 30
0.0
 11
115.1964
 21
19.1999865
 31
0.0
  0
LINE
  5
30A
330
1D
100
AcDbEntity
  8
0
100
AcDbLine
 10
113.7124
 20
19.1999865
 30
0.0
 11
114.7809
 21
19.1999865
 31
0.0
  0
LINE
  5
30D
330
1D
100
AcDbEntity
  8
0
100
AcDbLine
 10
115.1964
 20
19.1999865
 30
0.0
 11
115.8607
 21
19.1999865
 31
0.0
  0
LINE
  5
317
330
1D
100
AcDbEntity
  8
0
100
AcDbLine
 10
115.8607
 20
19.1999865
 30
0.0
 11
116.648
 21
19.1999865
 31
0.0
  0
LINE
  5
318
330
1D
100
AcDbEntity
  8
0
100
AcDbLine
 10
115.8609
 20
19.1999865
 30
0.0
 11
116.648
 21
19.1999865
 31
0.0
  0
LINE
  5
332
330
1D
100
AcDbEntity
  8
0
100
AcDbLine
 10
116.648
 20
19.1999865
 30
0.0
 11
117.4412
 21
19.1999865
 31
0.0
  0
LINE
  5
333
330
1D
100
AcDbEntity
  8
0
100
AcDbLine
 10
116.648
 20
19.1999865
 30
0.0
 11
117.4434
 21
19.1999865
 31
0.0
  0
LINE
  5
334
330
1D
100
AcDbEntity
  8
0
100
AcDbLine
 10
116.6479
 20
19.1999865
 30
0.0
 11
117.4412
 21
19.1999865
 31
0.0
  0
LINE
  5
335
330
1D
100
AcDbEntity
  8
0
100
AcDbLine
 10
116.6479
 20
19.1999865
 30
0.0
 11
117.4434
 21
19.1999865
 31
0.0
  0
LINE
  5
33B
330
1D
100
AcDbEntity
  8
0
100
AcDbLine
 10
117.4412
 20
19.1999865
 30
0.0
 11
118.1271
 21
19.1999865
 31
0.0
  0
LINE
  5
33C
330
1D
100
AcDbEntity
  8
0
100
AcDbLine
 10
117.4412
 20
19.1999865
 30
0.0
 11
118.1269
 21
19.1999865
 31
0.0
  0
LINE
  5
33D
330
1D
100
AcDbEntity
  8
0
100
AcDbLine
 10
118.1271
 20
19.1999865
 30
0.0
 11
119.005
 21
19.1999865
 31
0.0
  0
LINE
  5
342
330
1D
100
AcDbEntity
  8
0
100
AcDbLine
 10
118.747
 20
19.1999865
 30
0.0
 11
119.3261
 21
19.1999865
 31
0.0
  0
LINE
  5
343
330
1D
100
AcDbEntity
  8
0
100
AcDbLine
 10
118.2382
 20
19.1999865
 30
0.0
 11
118.747
 21
19.1999865
 31
0.0
  0
LINE
  5
344
330
1D
100
AcDbEntity
  8
0
100
AcDbLine
 10
118.2382
 20
19.1999865
 30
0.0
 11
118.7472
 21
19.1999865
 31
0.0
  0
LINE
  5
34C
330
1D
100
AcDbEntity
  8
0
100
AcDbLine
 10
119.005
 20
19.1999865
 30
0.0
 11
119.8368
 21
19.1999865
 31
0.0
  0
LINE
  5
34D
330
1D
100
AcDbEntity
  8
0
100
AcDbLine
 10
118.1269
 20
19.1999865
 30
0.0
 11
119.005
 21
19.1999865
 31
0.0
  0
LINE
  5
34E
330
1D
100
AcDbEntity
  8
0
100
AcDbLine
 10
115.1965
 20
19.1999865
 30
0.0
 11
115.8609
 21
19.1999865
 31
0.0
  0
LINE
  5
34F
330
1D
100
AcDbEntity
  8
0
100
AcDbLine
 10
118.7472
 20
19.1999865
 30
0.0
 11
119.3261
 21
19.1999865
 31
0.0
  0
LINE
  5
355
330
1D
100
AcDbEntity
  8
0
100
AcDbLine
 10
121.4692
 20
19.1999865
 30
0.0
 11
122.2419
 21
19.1999865
 31
0.0
  0
LINE
  5
356
330
1D
100
AcDbEntity
  8
0
100
AcDbLine
 10
121.4692
 20
19.1999865
 30
0.0
 11
122.2417
 21
19.1999865
 31
0.0
  0
LINE
  5
357
330
1D
100
AcDbEntity
  8
0
100
AcDbLine
 10
120.6184
 20
19.1999865
 30
0.0
 11
121.4692
 21
19.1999865
 31
0.0
  0
LINE
  5
35C
330
1D
100
AcDbEntity
  8
0
100
AcDbLine
 10
123.0443
 20
19.1999865
 30
0.0
 11
123.719
 21
19.1999865
 31
0.0
  0
LINE
  5
35D
330
1D
100
AcDbEntity
  8
0
100
AcDbLine
 10
122.2751
 20
19.1999865
 30
0.0
 11
123.0442
 21
19.1999865
 31
0.0
  0
LINE
  5
35E
330
1D
100
AcDbEntity
  8
0
100
AcDbLine
 10
122.2751
 20
19.1999865
 30
0.0
 11
123.0443
 21
19.1999865
 31
0.0
  0
LINE
  5
35F
330
1D
100
AcDbEntity
  8
0
100
AcDbLine
 10
122.9339
 20
19.1999865
 30
0.0
 11
123.5449
 21
19.1999865
 31
0.0
  0
LINE
  5
360
330
1D
100
AcDbEntity
  8
0
100
AcDbLine
 10
123.5449
 20
19.1999865
 30
0.0
 11
124.0923
 21
19.1999865
 31
0.0
  0
LINE
  5
361
330
1D
100
AcDbEntity
  8
0
100
AcDbLine
 10
123.0442
 20
19.1999865
 30
0.0
 11
123.7188
 21
19.1999865
 31
0.0
  0
LINE
  5
367
330
1D
100
AcDbEntity
  8
0
100
AcDbLine
 10
124.4788
 20
19.1999865
 30
0.0
 11
124.7995
 21
19.1999865
 31
0.0
  0
LINE
  5
368
330
1D
100
AcDbEntity
  8
0
100
AcDbLine
 10
124.4788
 20
19.1999865
 30
0.0
 11
124.7996
 21
19.1999865
 31
0.0
  0
LINE
  5
369
330
1D
100
AcDbEntity
  8
0
100
AcDbLine
 10
123.719
 20
19.1999865
 30
0.0
 11
124.116
 21
19.1999865
 31
0.0
  0
LINE
  5
36A
330
1D
100
AcDbEntity
  8
0
100
AcDbLine
 10
123.7188
 20
19.1999865
 30
0.0
 11
124.116
 21
19.1999865
 31
0.0
  0
LINE
  5
36B
330
1D
100
AcDbEntity
  8
0
100
AcDbLine
 10
122.2419
 20
19.1999865
 30
0.0
 11
122.9339
 21
19.1999865
 31
0.0
  0
LINE
  5
36C
330
1D
100
AcDbEntity
  8
0
100
AcDbLine
 10
124.7995
 20
19.1999865
 30
0.0
 11
125.08
 21
19.1999865
 31
0.0
  0
LINE
  5
36F
330
1D
100
AcDbEntity
  8
0
100
AcDbLine
 10
124.9355
 20
19.1999865
 30
0.0
 11
125.344
 21
19.1999865
 31
0.0
  0
LINE
  5
370
330
1D
100
AcDbEntity
  8
0
100
AcDbLine
 10
124.7996
 20
19.1999865
 30
0.0
 11
125.08
 21
19.1999865
 31
0.0
  0
LINE
  5
371
330
1D
100
AcDbEntity
  8
0
100
AcDbLine
 10
124.9357
 20
19.1999865
 30
0.0
 11
125.344
 21
19.1999865
 31
0.0
  0
LINE
  5
372
330
1D
100
AcDbEntity
  8
0
100
AcDbLine
 10
124.5549
 20
19.1999865
 30
0.0
 11
124.9355
 21
19.1999865
 31
0.0
  0
LINE
  5
373
330
1D
100
AcDbEntity
  8
0
100
AcDbLine
 10
124.5549
 20
19.1999865
 30
0.0
 11
124.9357
 21
19.1999865
 31
0.0
  0
LINE
  5
374
330
1D
100
AcDbEntity
  8
0
100
AcDbLine
 10
124.0923
 20
19.1999865
 30
0.0
 11
124.5549
 21
19.1999865
 31
0.0
  0
LINE
  5
375
330
1D
100
AcDbEntity
  8
0
100
AcDbLine
 10
122.2417
 20
19.1999865
 30
0.0
 11
122.9339
 21
19.1999865
 31
0.0
  0
LINE
  5
376
330
1D
100
AcDbEntity
  8
0
100
AcDbLine
 10
119.8368
 20
19.1999865
 30
0.0
 11
120.6184
 21
19.1999865
 31
0.0
  0
LINE
  5
377
330
1D
100
AcDbEntity
  8
0
100
AcDbLine
 10
114.7809
 20
19.1999865
 30
0.0
 11
115.9179
 21
19.1999865
 31
0.0
  0
LINE
  5
378
330
1D
100
AcDbEntity
  8
0
100
AcDbLine
 10
115.9179
 20
19.1999865
 30
0.0
 11
116.6479
 21
19.1999865
 31
0.0
  0
LINE
  5
379
330
1D
100
AcDbEntity
  8
0
100
AcDbLine
 10
115.9179
 20
19.1999865
 30
0.0
 11
116.648
 21
19.1999865
 31
0.0
  0
LINE
  5
37A
330
1D
100
AcDbEntity
  8
0
100
AcDbLine
 10
112.7211
 20
19.1999865
 30
0.0
 11
113.7124
 21
19.1999865
 31
0.0
  0
LINE
  5
37B
330
1D
100
AcDbEntity
  8
0
100
AcDbLine
 10
107.7845
 20
19.1999865
 30
0.0
 11
107.9477
 21
19.1999865
 31
0.0
  0
LINE
  5
37C
330
1D
100
AcDbEntity
  8
0
100
AcDbLine
 10
107.6602
 20
19.1999865
 30
0.0
 11
107.7845
 21
19.1999865
 31
0.0
  0
LINE
  5
37D
330
1D
100
AcDbEntity
  8
0
100
AcDbLine
 10
107.6602
 20
19.1999865
 30
0.0
 11
107.7843
 21
19.1999865
 31
0.0
  0
LINE
  5
37E
330
1D
100
AcDbEntity
  8
0
100
AcDbLine
 10
107.9477
 20
19.1999865
 30
0.0
 11
108.1583
 21
19.1999865
 31
0.0
  0
LINE
  5
382
330
1D
100
AcDbEntity
  8
0
100
AcDbLine
 10
125.3911
 20
19.1999865
 30
0.0
 11
125.6075
 21
19.1999865
 31
0.0
  0
LINE
  5
383
330
1D
100
AcDbEntity
  8
0
100
AcDbLine
 10
125.3911
 20
19.1999865
 30
0.0
 11
125.6074
 21
19.1999865
 31
0.0
  0
LINE
  5
384
330
1D
100
AcDbEntity
  8
0
100
AcDbLine
 10
125.6074
 20
19.1999865
 30
0.0
 11
125.7225
 21
19.1999865
 31
0.0
  0
LINE
  5
385
330
1D
100
AcDbEntity
  8
0
100
AcDbLine
 10
125.6075
 20
19.1999865
 30
0.0
 11
125.7225
 21
19.1999865
 31
0.0
  0
LINE
  5
386
330
1D
100
AcDbEntity
  8
0
100
AcDbLine
 10
125.6039
 20
19.1999865
 30
0.0
 11
125.7266
 21
19.1999865
 31
0.0
  0
LINE
  5
387
330
1D
100
AcDbEntity
  8
0
100
AcDbLine
 10
125.344
 20
19.1999865
 30
0.0
 11
125.6039
 21
19.1999865
 31
0.0
  0
LINE
  5
388
330
1D
100
AcDbEntity
  8
0
100
AcDbLine
 10
125.08
 20
19.1999865
 30
0.0
 11
125.3911
 21
19.1999865
 31
0.0
  0
LINE
  5
3E9
330
1D
100
AcDbEntity
  8
0
100
AcDbLine
 10
126.1334
 20
19.4093865
 30
0.0
 11
126.2339
 21
19.6241865
 31
0.0
  0
LINE
  5
3EC
330
1D
100
AcDbEntity
  8
0
100
AcDbLine
 10
125.9553
 20
19.2553865
 30
0.0
 11
126.1334
 21
19.4093865
 31
0.0
  0
LINE
  5
3F1
330
1D
100
AcDbEntity
  8
0
100
AcDbLine
 10
125.7266
 20
19.1999865
 30
0.0
 11
125.9553
 21
19.2553865
 31
0.0
  0
LINE
  5
3F8
330
1D
100
AcDbEntity
  8
0
100
AcDbLine
 10
105.975
 20
51.6999865
 30
0.0
 11
106.9676
 21
51.6999865
 31
0.0
  0
LINE
  5
3F9
330
1D
100
AcDbEntity
  8
0
100
AcDbLine
 10
105.9749
 20
51.6999865
 30
0.0
 11
106.9678
 21
51.6999865
 31
0.0
  0
LINE
  5
40F
330
1D
100
AcDbEntity
  8
0
100
AcDbLine
 10
106.9676
 20
51.6999865
 30
0.0
 11
108.0524
 21
51.6999865
 31
0.0
  0
LINE
  5
411
330
1D
100
AcDbEntity
  8
0
100
AcDbLine
 10
106.9678
 20
51.6999865
 30
0.0
 11
108.0524
 21
51.6999865
 31
0.0
  0
LINE
  5
412
330
1D
100
AcDbEntity
  8
0
100
AcDbLine
 10
108.0524
 20
51.6999865
 30
0.0
 11
109.2193
 21
51.6999865
 31
0.0
  0
LINE
  5
422
330
1D
100
AcDbEntity
  8
0
100
AcDbLine
 10
109.2193
 20
51.6999865
 30
0.0
 11
110.5756
 21
51.6999865
 31
0.0
  0
LINE
  5
423
330
1D
100
AcDbEntity
  8
0
100
AcDbLine
 10
109.2193
 20
51.6999865
 30
0.0
 11
110.5758
 21
51.6999865
 31
0.0
  0
LINE
  5
424
330
1D
100
AcDbEntity
  8
0
100
AcDbLine
 10
110.5758
 20
51.6999865
 30
0.0
 11
112.0012
 21
51.6999865
 31
0.0
  0
LINE
  5
425
330
1D
100
AcDbEntity
  8
0
100
AcDbLine
 10
110.5756
 20
51.6999865
 30
0.0
 11
112.0012
 21
51.6999865
 31
0.0
  0
LINE
  5
49D
330
1D
100
AcDbEntity
  8
0
100
AcDbLine
 10
112.0012
 20
51.6999865
 30
0.0
 11
113.48
 21
51.6999865
 31
0.0
  0
LINE
  5
49E
330
1D
100
AcDbEntity
  8
0
100
AcDbLine
 10
112.0012
 20
51.6999865
 30
0.0
 11
113.4802
 21
51.6999865
 31
0.0
  0
LINE
  5
4A1
330
1D
100
AcDbEntity
  8
0
100
AcDbLine
 10
114.9947
 20
51.6999865
 30
0.0
 11
116.5286
 21
51.6999865
 31
0.0
  0
LINE
  5
4A3
330
1D
100
AcDbEntity
  8
0
100
AcDbLine
 10
113.4802
 20
51.6999865
 30
0.0
 11
114.9947
 21
51.6999865
 31
0.0
  0
LINE
  5
4A5
330
1D
100
AcDbEntity
  8
0
100
AcDbLine
 10
114.995
 20
51.6999865
 30
0.0
 11
116.5284
 21
51.6999865
 31
0.0
  0
LINE
  5
4A6
330
1D
100
AcDbEntity
  8
0
100
AcDbLine
 10
113.48
 20
51.6999865
 30
0.0
 11
114.995
 21
51.6999865
 31
0.0
  0
LINE
  5
4AA
330
1D
100
AcDbEntity
  8
0
100
AcDbLine
 10
116.6477
 20
51.6999865
 30
0.0
 11
118.0506
 21
51.6999865
 31
0.0
  0
LINE
  5
4AB
330
1D
100
AcDbEntity
  8
0
100
AcDbLine
 10
116.5286
 20
51.6999865
 30
0.0
 11
116.6477
 21
51.6999865
 31
0.0
  0
LINE
  5
4AC
330
1D
100
AcDbEntity
  8
0
100
AcDbLine
 10
118.0506
 20
51.6999865
 30
0.0
 11
119.44
 21
51.6999865
 31
0.0
  0
LINE
  5
4AD
330
1D
100
AcDbEntity
  8
0
100
AcDbLine
 10
116.6479
 20
51.6999865
 30
0.0
 11
118.0506
 21
51.6999865
 31
0.0
  0
LINE
  5
4AF
330
1D
100
AcDbEntity
  8
0
100
AcDbLine
 10
116.5284
 20
51.6999865
 30
0.0
 11
116.6479
 21
51.6999865
 31
0.0
  0
LINE
  5
4B3
330
1D
100
AcDbEntity
  8
0
100
AcDbLine
 10
119.44
 20
51.6999865
 30
0.0
 11
120.803
 21
51.6999865
 31
0.0
  0
LINE
  5
4B4
330
1D
100
AcDbEntity
  8
0
100
AcDbLine
 10
120.803
 20
51.6999865
 30
0.0
 11
122.1264
 21
51.6999865
 31
0.0
  0
LINE
  5
4B6
330
1D
100
AcDbEntity
  8
0
100
AcDbLine
 10
122.1264
 20
51.6999865
 30
0.0
 11
123.3974
 21
51.6999865
 31
0.0
  0
LINE
  5
4B7
330
1D
100
AcDbEntity
  8
0
100
AcDbLine
 10
122.1264
 20
51.6999865
 30
0.0
 11
123.3976
 21
51.6999865
 31
0.0
  0
LINE
  5
4BF
330
1D
100
AcDbEntity
  8
0
100
AcDbLine
 10
123.3976
 20
51.6999865
 30
0.0
 11
124.605
 21
51.6999865
 31
0.0
  0
LINE
  5
4C3
330
1D
100
AcDbEntity
  8
0
100
AcDbLine
 10
126.7822
 20
51.6999865
 30
0.0
 11
127.7308
 21
51.6999865
 31
0.0
  0
LINE
  5
4C4
330
1D
100
AcDbEntity
  8
0
100
AcDbLine
 10
126.7821
 20
51.6999865
 30
0.0
 11
127.7306
 21
51.6999865
 31
0.0
  0
LINE
  5
4C5
330
1D
100
AcDbEntity
  8
0
100
AcDbLine
 10
125.7369
 20
51.6999865
 30
0.0
 11
126.7821
 21
51.6999865
 31
0.0
  0
LINE
  5
4C6
330
1D
100
AcDbEntity
  8
0
100
AcDbLine
 10
125.7369
 20
51.6999865
 30
0.0
 11
126.7822
 21
51.6999865
 31
0.0
  0
LINE
  5
4C8
330
1D
100
AcDbEntity
  8
0
100
AcDbLine
 10
124.605
 20
51.6999865
 30
0.0
 11
125.7369
 21
51.6999865
 31
0.0
  0
LINE
  5
4C9
330
1D
100
AcDbEntity
  8
0
100
AcDbLine
 10
123.3974
 20
51.6999865
 30
0.0
 11
124.605
 21
51.6999865
 31
0.0
  0
LINE
  5
4D0
330
1D
100
AcDbEntity
  8
0
100
AcDbLine
 10
127.7308
 20
51.6999865
 30
0.0
 11
128.5736
 21
51.6999865
 31
0.0
  0
LINE
  5
4D3
330
1D
100
AcDbEntity
  8
0
100
AcDbLine
 10
127.7306
 20
51.6999865
 30
0.0
 11
128.5738
 21
51.6999865
 31
0.0
  0
LINE
  5
4D7
330
1D
100
AcDbEntity
  8
0
100
AcDbLine
 10
127.8694
 20
51.6999865
 30
0.0
 11
127.8694
 21
51.9999865
 31
0.0
  0
LINE
  5
4E2
330
1D
100
AcDbEntity
  8
0
100
AcDbLine
 10
127.8695
 20
51.9999865
 30
0.0
 11
127.9623
 21
52.2499865
 31
0.0
  0
LINE
  5
4E3
330
1D
100
AcDbEntity
  8
0
100
AcDbLine
 10
128.5736
 20
51.6999865
 30
0.0
 11
129.3099
 21
51.6999865
 31
0.0
  0
LINE
  5
4E8
330
1D
100
AcDbEntity
  8
0
100
AcDbLine
 10
129.9229
 20
51.6999865
 30
0.0
 11
130.4071
 21
51.6999865
 31
0.0
  0
LINE
  5
4EB
330
1D
100
AcDbEntity
  8
0
100
AcDbLine
 10
130.4071
 20
51.6999865
 30
0.0
 11
130.7577
 21
51.6999865
 31
0.0
  0
LINE
  5
4EC
330
1D
100
AcDbEntity
  8
0
100
AcDbLine
 10
131.32
 20
51.5214865
 30
0.0
 11
131.3417
 21
51.3522865
 31
0.0
  0
LINE
  5
4ED
330
1D
100
AcDbEntity
  8
0
100
AcDbLine
 10
131.2092
 20
51.6513865
 30
0.0
 11
131.32
 21
51.5214865
 31
0.0
  0
LINE
  5
4EE
330
1D
100
AcDbEntity
  8
0
100
AcDbLine
 10
131.0456
 20
51.6999865
 30
0.0
 11
131.2092
 21
51.6513865
 31
0.0
  0
LINE
  5
4EF
330
1D
100
AcDbEntity
  8
0
100
AcDbLine
 10
130.9709
 20
51.6999865
 30
0.0
 11
131.0456
 21
51.6999865
 31
0.0
  0
LINE
  5
4F0
330
1D
100
AcDbEntity
  8
0
100
AcDbLine
 10
130.7577
 20
51.6999865
 30
0.0
 11
130.9709
 21
51.6999865
 31
0.0
  0
LINE
  5
4F1
330
1D
100
AcDbEntity
  8
0
100
AcDbLine
 10
130.4072
 20
51.6999865
 30
0.0
 11
130.7577
 21
51.6999865
 31
0.0
  0
LINE
  5
4F2
330
1D
100
AcDbEntity
  8
0
100
AcDbLine
 10
129.9231
 20
51.6999865
 30
0.0
 11
130.4072
 21
51.6999865
 31
0.0
  0
LINE
  5
4F3
330
1D
100
AcDbEntity
  8
0
100
AcDbLine
 10
129.3099
 20
51.6999865
 30
0.0
 11
129.9231
 21
51.6999865
 31
0.0
  0
LINE
  5
4F4
330
1D
100
AcDbEntity
  8
0
100
AcDbLine
 10
129.3099
 20
51.6999865
 30
0.0
 11
129.9229
 21
51.6999865
 31
0.0
  0
LINE
  5
4F5
330
1D
100
AcDbEntity
  8
0
100
AcDbLine
 10
128.5738
 20
51.6999865
 30
0.0
 11
129.3099
 21
51.6999865
 31
0.0
  0
LINE
  5
4F6
330
1D
100
AcDbEntity
  8
0
100
AcDbLine
 10
127.8694
 20
51.9999865
 30
0.0
 11
127.8694
 21
51.6999865
 31
0.0
  0
LINE
  5
4F8
330
1D
100
AcDbEntity
  8
0
100
AcDbLine
 10
106.4768
 20
52.4999865
 30
0.0
 11
107.373
 21
52.4999865
 31
0.0
  0
LINE
  5
4F9
330
1D
100
AcDbEntity
  8
0
100
AcDbLine
 10
106.8186
 20
52.4999865
 30
0.0
 11
108.2148
 21
52.4999865
 31
0.0
  0
LINE
  5
4FA
330
1D
100
AcDbEntity
  8
0
100
AcDbLine
 10
106.8186
 20
52.4999865
 30
0.0
 11
108.2152
 21
52.4999865
 31
0.0
  0
LINE
  5
4FB
330
1D
100
AcDbEntity
  8
0
100
AcDbLine
 10
108.2152
 20
52.4999865
 30
0.0
 11
109.7445
 21
52.4999865
 31
0.0
  0
LINE
  5
4FC
330
1D
100
AcDbEntity
  8
0
100
AcDbLine
 10
108.4416
 20
52.4999865
 30
0.0
 11
109.6631
 21
52.4999865
 31
0.0
  0
LINE
  5
4FD
330
1D
100
AcDbEntity
  8
0
100
AcDbLine
 10
108.4416
 20
52.4999865
 30
0.0
 11
109.6628
 21
52.4999865
 31
0.0
  0
LINE
  5
4FE
330
1D
100
AcDbEntity
  8
0
100
AcDbLine
 10
106.4771
 20
52.4999865
 30
0.0
 11
107.373
 21
52.4999865
 31
0.0
  0
LINE
  5
502
330
1D
100
AcDbEntity
  8
0
100
AcDbLine
 10
108.2148
 20
52.4999865
 30
0.0
 11
109.744
 21
52.4999865
 31
0.0
  0
LINE
  5
508
330
1D
100
AcDbEntity
  8
0
100
AcDbLine
 10
109.6628
 20
52.4999865
 30
0.0
 11
111.0148
 21
52.4999865
 31
0.0
  0
LINE
  5
509
330
1D
100
AcDbEntity
  8
0
100
AcDbLine
 10
109.6631
 20
52.4999865
 30
0.0
 11
111.0146
 21
52.4999865
 31
0.0
  0
LINE
  5
50A
330
1D
100
AcDbEntity
  8
0
100
AcDbLine
 10
111.0148
 20
52.4999865
 30
0.0
 11
112.4712
 21
52.4999865
 31
0.0
  0
LINE
  5
50E
330
1D
100
AcDbEntity
  8
0
100
AcDbLine
 10
109.7443
 20
52.4999865
 30
0.0
 11
111.3826
 21
52.4999865
 31
0.0
  0
LINE
  5
50F
330
1D
100
AcDbEntity
  8
0
100
AcDbLine
 10
109.744
 20
52.4999865
 30
0.0
 11
111.3824
 21
52.4999865
 31
0.0
  0
LINE
  5
510
330
1D
100
AcDbEntity
  8
0
100
AcDbLine
 10
113.1037
 20
52.4999865
 30
0.0
 11
114.8811
 21
52.4999865
 31
0.0
  0
LINE
  5
511
330
1D
100
AcDbEntity
  8
0
100
AcDbLine
 10
114.8811
 20
52.4999865
 30
0.0
 11
116.6861
 21
52.4999865
 31
0.0
  0
LINE
  5
512
330
1D
100
AcDbEntity
  8
0
100
AcDbLine
 10
114.8811
 20
52.4999865
 30
0.0
 11
116.6863
 21
52.4999865
 31
0.0
  0
LINE
  5
513
330
1D
100
AcDbEntity
  8
0
100
AcDbLine
 10
113.1039
 20
52.4999865
 30
0.0
 11
114.8811
 21
52.4999865
 31
0.0
  0
LINE
  5
514
330
1D
100
AcDbEntity
  8
0
100
AcDbLine
 10
111.3826
 20
52.4999865
 30
0.0
 11
113.1039
 21
52.4999865
 31
0.0
  0
LINE
  5
515
330
1D
100
AcDbEntity
  8
0
100
AcDbLine
 10
116.6863
 20
52.4999865
 30
0.0
 11
118.4905
 21
52.4999865
 31
0.0
  0
LINE
  5
516
330
1D
100
AcDbEntity
  8
0
100
AcDbLine
 10
116.6861
 20
52.4999865
 30
0.0
 11
118.4905
 21
52.4999865
 31
0.0
  0
LINE
  5
517
330
1D
100
AcDbEntity
  8
0
100
AcDbLine
 10
118.4905
 20
52.4999865
 30
0.0
 11
120.2662
 21
52.4999865
 31
0.0
  0
LINE
  5
518
330
1D
100
AcDbEntity
  8
0
100
AcDbLine
 10
118.4905
 20
52.4999865
 30
0.0
 11
120.266
 21
52.4999865
 31
0.0
  0
LINE
  5
519
330
1D
100
AcDbEntity
  8
0
100
AcDbLine
 10
118.7858
 20
52.4999865
 30
0.0
 11
120.3391
 21
52.4999865
 31
0.0
  0
LINE
  5
51B
330
1D
100
AcDbEntity
  8
0
100
AcDbLine
 10
120.266
 20
52.4999865
 30
0.0
 11
121.9843
 21
52.4999865
 31
0.0
  0
LINE
  5
51C
330
1D
100
AcDbEntity
  8
0
100
AcDbLine
 10
121.9845
 20
52.4999865
 30
0.0
 11
123.6185
 21
52.4999865
 31
0.0
  0
LINE
  5
51D
330
1D
100
AcDbEntity
  8
0
100
AcDbLine
 10
121.9843
 20
52.4999865
 30
0.0
 11
123.6185
 21
52.4999865
 31
0.0
  0
LINE
  5
520
330
1D
100
AcDbEntity
  8
0
100
AcDbLine
 10
120.2662
 20
52.4999865
 30
0.0
 11
121.9845
 21
52.4999865
 31
0.0
  0
LINE
  5
526
330
1D
100
AcDbEntity
  8
0
100
AcDbLine
 10
124.4779
 20
52.4999865
 30
0.0
 11
125.5977
 21
52.4999865
 31
0.0
  0
LINE
  5
527
330
1D
100
AcDbEntity
  8
0
100
AcDbLine
 10
126.5334
 20
52.4999865
 30
0.0
 11
127.7678
 21
52.4999865
 31
0.0
  0
LINE
  5
528
330
1D
100
AcDbEntity
  8
0
100
AcDbLine
 10
126.5332
 20
52.4999865
 30
0.0
 11
127.7675
 21
52.4999865
 31
0.0
  0
LINE
  5
529
330
1D
100
AcDbEntity
  8
0
100
AcDbLine
 10
125.1428
 20
52.4999865
 30
0.0
 11
126.5332
 21
52.4999865
 31
0.0
  0
LINE
  5
52A
330
1D
100
AcDbEntity
  8
0
100
AcDbLine
 10
125.1428
 20
52.4999865
 30
0.0
 11
126.5334
 21
52.4999865
 31
0.0
  0
LINE
  5
52B
330
1D
100
AcDbEntity
  8
0
100
AcDbLine
 10
127.7678
 20
52.4999865
 30
0.0
 11
128.8268
 21
52.4999865
 31
0.0
  0
LINE
  5
52C
330
1D
100
AcDbEntity
  8
0
100
AcDbLine
 10
127.7675
 20
52.4999865
 30
0.0
 11
128.8266
 21
52.4999865
 31
0.0
  0
LINE
  5
52E
330
1D
100
AcDbEntity
  8
0
100
AcDbLine
 10
127.9623
 20
52.2499865
 30
0.0
 11
128.1453
 21
52.4329865
 31
0.0
  0
LINE
  5
52F
330
1D
100
AcDbEntity
  8
0
100
AcDbLine
 10
128.2508
 20
52.4999865
 30
0.0
 11
128.3951
 21
52.4999865
 31
0.0
  0
LINE
  5
530
330
1D
100
AcDbEntity
  8
0
100
AcDbLine
 10
128.8268
 20
52.4999865
 30
0.0
 11
129.6936
 21
52.4999865
 31
0.0
  0
LINE
  5
531
330
1D
100
AcDbEntity
  8
0
100
AcDbLine
 10
128.3951
 20
52.4999865
 30
0.0
 11
128.7855
 21
52.4999865
 31
0.0
  0
LINE
  5
532
330
1D
100
AcDbEntity
  8
0
100
AcDbLine
 10
128.7855
 20
52.4999865
 30
0.0
 11
129.6611
 21
52.4999865
 31
0.0
  0
LINE
  5
533
330
1D
100
AcDbEntity
  8
0
100
AcDbLine
 10
129.6936
 20
52.4999865
 30
0.0
 11
130.3549
 21
52.4999865
 31
0.0
  0
LINE
  5
534
330
1D
100
AcDbEntity
  8
0
100
AcDbLine
 10
129.6936
 20
52.4999865
 30
0.0
 11
130.3551
 21
52.4999865
 31
0.0
  0
LINE
  5
535
330
1D
100
AcDbEntity
  8
0
100
AcDbLine
 10
128.8266
 20
52.4999865
 30
0.0
 11
129.6936
 21
52.4999865
 31
0.0
  0
LINE
  5
536
330
1D
100
AcDbEntity
  8
0
100
AcDbLine
 10
130.3551
 20
52.4999865
 30
0.0
 11
130.7999
 21
52.4999865
 31
0.0
  0
LINE
  5
537
330
1D
100
AcDbEntity
  8
0
100
AcDbLine
 10
130.7859
 20
52.4999865
 30
0.0
 11
131.017
 21
52.4999865
 31
0.0
  0
LINE
  5
538
330
1D
100
AcDbEntity
  8
0
100
AcDbLine
 10
130.7857
 20
52.4999865
 30
0.0
 11
131.017
 21
52.4999865
 31
0.0
  0
LINE
  5
539
330
1D
100
AcDbEntity
  8
0
100
AcDbLine
 10
130.3549
 20
52.4999865
 30
0.0
 11
130.7999
 21
52.4999865
 31
0.0
  0
LINE
  5
53A
330
1D
100
AcDbEntity
  8
0
100
AcDbLine
 10
130.3314
 20
52.4999865
 30
0.0
 11
130.7857
 21
52.4999865
 31
0.0
  0
LINE
  5
53B
330
1D
100
AcDbEntity
  8
0
100
AcDbLine
 10
130.3314
 20
52.4999865
 30
0.0
 11
130.7859
 21
52.4999865
 31
0.0
  0
LINE
  5
53C
330
1D
100
AcDbEntity
  8
0
100
AcDbLine
 10
129.6611
 20
52.4999865
 30
0.0
 11
130.3314
 21
52.4999865
 31
0.0
  0
LINE
  5
53D
330
1D
100
AcDbEntity
  8
0
100
AcDbLine
 10
128.1453
 20
52.4329865
 30
0.0
 11
128.3951
 21
52.4999865
 31
0.0
  0
LINE
  5
53E
330
1D
100
AcDbEntity
  8
0
100
AcDbLine
 10
128.2506
 20
52.4999865
 30
0.0
 11
128.3951
 21
52.4999865
 31
0.0
  0
LINE
  5
53F
330
1D
100
AcDbEntity
  8
0
100
AcDbLine
 10
127.8898
 20
52.4999865
 30
0.0
 11
128.2506
 21
52.4999865
 31
0.0
  0
LINE
  5
540
330
1D
100
AcDbEntity
  8
0
100
AcDbLine
 10
127.8898
 20
52.4999865
 30
0.0
 11
128.2508
 21
52.4999865
 31
0.0
  0
LINE
  5
541
330
1D
100
AcDbEntity
  8
0
100
AcDbLine
 10
124.4777
 20
52.4999865
 30
0.0
 11
125.5977
 21
52.4999865
 31
0.0
  0
LINE
  5
542
330
1D
100
AcDbEntity
  8
0
100
AcDbLine
 10
123.2119
 20
52.4999865
 30
0.0
 11
124.4777
 21
52.4999865
 31
0.0
  0
LINE
  5
543
330
1D
100
AcDbEntity
  8
0
100
AcDbLine
 10
123.2119
 20
52.4999865
 30
0.0
 11
124.4779
 21
52.4999865
 31
0.0
  0
LINE
  5
544
330
1D
100
AcDbEntity
  8
0
100
AcDbLine
 10
121.8235
 20
52.4999865
 30
0.0
 11
123.2119
 21
52.4999865
 31
0.0
  0
LINE
  5
545
330
1D
100
AcDbEntity
  8
0
100
AcDbLine
 10
118.7855
 20
52.4999865
 30
0.0
 11
120.3391
 21
52.4999865
 31
0.0
  0
LINE
  5
546
330
1D
100
AcDbEntity
  8
0
100
AcDbLine
 10
117.1924
 20
52.4999865
 30
0.0
 11
118.7855
 21
52.4999865
 31
0.0
  0
LINE
  5
547
330
1D
100
AcDbEntity
  8
0
100
AcDbLine
 10
117.1924
 20
52.4999865
 30
0.0
 11
118.7858
 21
52.4999865
 31
0.0
  0
LINE
  5
548
330
1D
100
AcDbEntity
  8
0
100
AcDbLine
 10
111.3824
 20
52.4999865
 30
0.0
 11
113.1037
 21
52.4999865
 31
0.0
  0
LINE
  5
549
330
1D
100
AcDbEntity
  8
0
100
AcDbLine
 10
131.296
 20
52.5669865
 30
0.0
 11
131.4789
 21
52.7499865
 31
0.0
  0
LINE
  5
54B
330
1D
100
AcDbEntity
  8
0
100
AcDbLine
 10
131.4789
 20
52.7499865
 30
0.0
 11
131.5459
 21
52.9999865
 31
0.0
  0
LINE
  5
552
330
1D
100
AcDbEntity
  8
0
100
AcDbLine
 10
131.5459
 20
53.9999865
 30
0.0
 11
131.5459
 21
52.9999865
 31
0.0
  0
LINE
  5
555
330
1D
100
AcDbEntity
  8
0
100
AcDbLine
 10
131.5459
 20
52.9999865
 30
0.0
 11
131.5459
 21
53.9999865
 31
0.0
  0
LINE
  5
60E
330
1D
100
AcDbEntity
  8
0
100
AcDbLine
 10
111.0147
 20
52.4999865
 30
0.0
 11
112.4712
 21
52.4999865
 31
0.0
  0
LINE
  5
962
330
1D
100
AcDbEntity
  8
0
100
AcDbLine
 10
94.5823
 20
0.4496225
 30
0.0
 11
94.6854
 21
0.2196835
 31
0.0
  0
LINE
  5
964
330
1D
100
AcDbEntity
  8
0
100
AcDbLine
 10
32.78161
 20
54.1781865
 30
0.0
 11
33.27406
 21
54.0488865
 31
0.0
  0
LINE
  5
965
330
1D
100
AcDbEntity
  8
0
100
AcDbLine
 10
32.78161
 20
54.1781865
 30
0.0
 11
33.27403
 21
54.0488865
 31
0.0
  0
LINE
  5
966
330
1D
100
AcDbEntity
  8
0
100
AcDbLine
 10
32.78164
 20
54.1781865
 30
0.0
 11
33.27406
 21
54.0488865
 31
0.0
  0
LINE
  5
967
330
1D
100
AcDbEntity
  8
0
100
AcDbLine
 10
32.78164
 20
54.1781865
 30
0.0
 11
33.27407
 21
54.0488865
 31
0.0
  0
LINE
  5
968
330
1D
100
AcDbEntity
  8
0
100
AcDbLine
 10
33.27406
 20
54.0488865
 30
0.0
 11
91.75
 21
54.0488865
 31
0.0
  0
LINE
  5
969
330
1D
100
AcDbEntity
  8
0
100
AcDbLine
 10
33.27406
 20
54.0488865
 30
0.0
 11
91.75
 21
54.0488865
 31
0.0
  0
LINE
  5
96A
330
1D
100
AcDbEntity
  8
0
100
AcDbLine
 10
32.416864
 20
54.5326865
 30
0.0
 11
32.78161
 21
54.1781865
 31
0.0
  0
LINE
  5
96B
330
1D
100
AcDbEntity
  8
0
100
AcDbLine
 10
89.3852
 20
49.5524865
 30
0.0
 11
94.5821
 21
0.4497225
 31
0.0
  0
LINE
  5
96C
330
1D
100
AcDbEntity
  8
0
100
AcDbLine
 10
89.3851
 20
49.5527865
 30
0.0
 11
89.4138
 21
49.7153865
 31
0.0
  0
LINE
  5
96D
330
1D
100
AcDbEntity
  8
0
100
AcDbLine
 10
89.3851
 20
49.5527865
 30
0.0
 11
89.4137
 21
49.7153865
 31
0.0
  0
LINE
  5
96E
330
1D
100
AcDbEntity
  8
0
100
AcDbLine
 10
89.3851
 20
49.5527865
 30
0.0
 11
94.5823
 21
0.4496225
 31
0.0
  0
LINE
  5
96F
330
1D
100
AcDbEntity
  8
0
100
AcDbLine
 10
89.4137
 20
49.7153865
 30
0.0
 11
89.5243
 21
49.8380865
 31
0.0
  0
LINE
  5
970
330
1D
100
AcDbEntity
  8
0
100
AcDbLine
 10
89.4138
 20
49.7153865
 30
0.0
 11
89.5243
 21
49.8380865
 31
0.0
  0
LINE
  5
971
330
1D
100
AcDbEntity
  8
0
100
AcDbLine
 10
32.274417
 20
55.0203865
 30
0.0
 11
32.416894
 21
54.5326865
 31
0.0
  0
LINE
  5
972
330
1D
100
AcDbEntity
  8
0
100
AcDbLine
 10
32.274409
 20
55.0204865
 30
0.0
 11
32.416894
 21
54.5326865
 31
0.0
  0
LINE
  5
973
330
1D
100
AcDbEntity
  8
0
100
AcDbLine
 10
32.274379
 20
55.0203865
 30
0.0
 11
32.416864
 21
54.5326865
 31
0.0
  0
LINE
  5
974
330
1D
100
AcDbEntity
  8
0
100
AcDbLine
 10
31.75
 20
74.9999865
 30
0.0
 11
32.274417
 21
55.0203865
 31
0.0
  0
LINE
  5
975
330
1D
100
AcDbEntity
  8
0
100
AcDbLine
 10
31.75
 20
74.9999865
 30
0.0
 11
32.274409
 21
55.0203865
 31
0.0
  0
LINE
  5
AD4
330
1D
100
AcDbEntity
  8
0
100
AcDbLine
 10
31.75
 20
74.9999865
 30
0.0
 11
32.274409
 21
55.0204865
 31
0.0
  0
LINE
  5
AD5
330
1D
100
AcDbEntity
  8
0
100
AcDbLine
 10
31.75
 20
74.9999865
 30
0.0
 11
32.274417
 21
55.0203865
 31
0.0
  0
LINE
  5
AD6
330
1D
100
AcDbEntity
  8
0
100
AcDbLine
 10
89.8372
 20
49.8835865
 30
0.0
 11
90.2974
 21
49.8835865
 31
0.0
  0
LINE
  5
AD7
330
1D
100
AcDbEntity
  8
0
100
AcDbLine
 10
89.8374
 20
49.8835865
 30
0.0
 11
90.2973
 21
49.8835865
 31
0.0
  0
LINE
  5
AD8
330
1D
100
AcDbEntity
  8
0
100
AcDbLine
 10
90.2973
 20
49.8835865
 30
0.0
 11
91.058
 21
49.8835865
 31
0.0
  0
LINE
  5
AD9
330
1D
100
AcDbEntity
  8
0
100
AcDbLine
 10
89.6832
 20
49.8835865
 30
0.0
 11
89.8374
 21
49.8835865
 31
0.0
  0
LINE
  5
ADA
330
1D
100
AcDbEntity
  8
0
100
AcDbLine
 10
91.058
 20
49.8835865
 30
0.0
 11
92.1124
 21
49.8835865
 31
0.0
  0
LINE
  5
ADB
330
1D
100
AcDbEntity
  8
0
100
AcDbLine
 10
91.0583
 20
49.8835865
 30
0.0
 11
92.1119
 21
49.8835865
 31
0.0
  0
LINE
  5
ADC
330
1D
100
AcDbEntity
  8
0
100
AcDbLine
 10
90.2974
 20
49.8835865
 30
0.0
 11
91.0583
 21
49.8835865
 31
0.0
  0
LINE
  5
ADD
330
1D
100
AcDbEntity
  8
0
100
AcDbLine
 10
89.6834
 20
49.8835865
 30
0.0
 11
89.8372
 21
49.8835865
 31
0.0
  0
LINE
  5
ADE
330
1D
100
AcDbEntity
  8
0
100
AcDbLine
 10
91.7193
 20
54.0488865
 30
0.0
 11
92.7613
 21
54.0488865
 31
0.0
  0
LINE
  5
ADF
330
1D
100
AcDbEntity
  8
0
100
AcDbLine
 10
91.7201
 20
54.0488865
 30
0.0
 11
92.7618
 21
54.0488865
 31
0.0
  0
LINE
  5
AE0
330
1D
100
AcDbEntity
  8
0
100
AcDbLine
 10
91.4395
 20
54.0488865
 30
0.0
 11
91.75
 21
54.0488865
 31
0.0
  0
LINE
  5
AE1
330
1D
100
AcDbEntity
  8
0
100
AcDbLine
 10
91.4395
 20
54.0488865
 30
0.0
 11
91.7201
 21
54.0488865
 31
0.0
  0
LINE
  5
AE2
330
1D
100
AcDbEntity
  8
0
100
AcDbLine
 10
91.4391
 20
54.0488865
 30
0.0
 11
91.7193
 21
54.0488865
 31
0.0
  0
LINE
  5
AE3
330
1D
100
AcDbEntity
  8
0
100
AcDbLine
 10
91.4391
 20
54.0488865
 30
0.0
 11
91.75
 21
54.0488865
 31
0.0
  0
LINE
  5
AE4
330
1D
100
AcDbEntity
  8
0
100
AcDbLine
 10
92.1124
 20
49.8835865
 30
0.0
 11
93.4464
 21
49.8835865
 31
0.0
  0
LINE
  5
AE5
330
1D
100
AcDbEntity
  8
0
100
AcDbLine
 10
92.7613
 20
54.0488865
 30
0.0
 11
94.5318
 21
54.0488865
 31
0.0
  0
LINE
  5
AE6
330
1D
100
AcDbEntity
  8
0
100
AcDbLine
 10
94.5318
 20
54.0488865
 30
0.0
 11
96.9774
 21
54.0488865
 31
0.0
  0
LINE
  5
AE7
330
1D
100
AcDbEntity
  8
0
100
AcDbLine
 10
94.5315
 20
54.0488865
 30
0.0
 11
96.9772
 21
54.0488865
 31
0.0
  0
LINE
  5
AE8
330
1D
100
AcDbEntity
  8
0
100
AcDbLine
 10
92.7618
 20
54.0488865
 30
0.0
 11
94.5315
 21
54.0488865
 31
0.0
  0
LINE
  5
AE9
330
1D
100
AcDbEntity
  8
0
100
AcDbLine
 10
93.4464
 20
49.8835865
 30
0.0
 11
95.0472
 21
49.8835865
 31
0.0
  0
LINE
  5
AEA
330
1D
100
AcDbEntity
  8
0
100
AcDbLine
 10
93.4464
 20
49.8835865
 30
0.0
 11
95.0467
 21
49.8835865
 31
0.0
  0
LINE
  5
AEB
330
1D
100
AcDbEntity
  8
0
100
AcDbLine
 10
92.1119
 20
49.8835865
 30
0.0
 11
93.4464
 21
49.8835865
 31
0.0
  0
LINE
  5
AEC
330
1D
100
AcDbEntity
  8
0
100
AcDbLine
 10
91.75
 20
49.8835865
 30
0.0
 11
91.75
 21
54.0488865
 31
0.0
  0
LINE
  5
B01
330
1D
100
AcDbEntity
  8
0
100
AcDbLine
 10
91.75
 20
54.0488865
 30
0.0
 11
91.75
 21
49.8835865
 31
0.0
  0
LINE
  5
B02
330
1D
100
AcDbEntity
  8
0
100
AcDbLine
 10
89.5243
 20
49.8380865
 30
0.0
 11
89.6836
 21
49.8835865
 31
0.0
  0
LINE
  5
B03
330
1D
100
AcDbEntity
  8
0
100
AcDbLine
 10
89.5243
 20
49.8380865
 30
0.0
 11
89.6832
 21
49.8835865
 31
0.0
  0
LINE
  5
B04
330
1D
100
AcDbEntity
  8
0
100
AcDbLine
 10
94.865
 20
0.0583375
 30
0.0
 11
95.0995
 21
0.0000165
 31
0.0
  0
LINE
  5
B05
330
1D
100
AcDbEntity
  8
0
100
AcDbLine
 10
94.865
 20
0.0583375
 30
0.0
 11
95.0995
 21
0.0000165
 31
0.0
  0
LINE
  5
B06
330
1D
100
AcDbEntity
  8
0
100
AcDbLine
 10
94.6854
 20
0.2196835
 30
0.0
 11
94.7778
 21
0.1302015
 31
0.0
  0
LINE
  5
B07
330
1D
100
AcDbEntity
  8
0
100
AcDbLine
 10
94.7778
 20
0.1302015
 30
0.0
 11
94.865
 21
0.0583375
 31
0.0
  0
LINE
  5
B08
330
1D
100
AcDbEntity
  8
0
100
AcDbLine
 10
95.1142
 20
0.0000165
 30
0.0
 11
95.4024
 21
0.0000165
 31
0.0
  0
LINE
  5
B09
330
1D
100
AcDbEntity
  8
0
100
AcDbLine
 10
95.4024
 20
0.0000165
 30
0.0
 11
95.967500000045
 21
0.0000165
 31
0.0
  0
LINE
  5
B0A
330
1D
100
AcDbEntity
  8
0
100
AcDbLine
 10
95.114
 20
0.0000165
 30
0.0
 11
95.4024
 21
0.0000165
 31
0.0
  0
LINE
  5
B0B
330
1D
100
AcDbEntity
  8
0
100
AcDbLine
 10
95.1415
 20
0.0000165
 30
0.0
 11
95.4384
 21
0.0000165
 31
0.0
  0
LINE
  5
B0C
330
1D
100
AcDbEntity
  8
0
100
AcDbLine
 10
95.4024
 20
0.0000165
 30
0.0
 11
95.967500000045
 21
0.0000165
 31
0.0
  0
LINE
  5
B0D
330
1D
100
AcDbEntity
  8
0
100
AcDbLine
 10
96.7111
 20
0.0000015
 30
0.0
 11
97.4164
 21
0.0000015
 31
0.0
  0
LINE
  5
B0E
330
1D
100
AcDbEntity
  8
0
100
AcDbLine
 10
103.4656
 20
-0.0000135
 30
0.0
 11
104.9487
 21
-0.0000135
 31
0.0
  0
LINE
  5
B0F
330
1D
100
AcDbEntity
  8
0
100
AcDbLine
 10
104.9487
 20
-0.0000135
 30
0.0
 11
107.0577
 21
-0.0000135
 31
0.0
  0
LINE
  5
B10
330
1D
100
AcDbEntity
  8
0
100
AcDbLine
 10
103.4658
 20
-0.0000135
 30
0.0
 11
104.9482
 21
-0.0000135
 31
0.0
  0
LINE
  5
B11
330
1D
100
AcDbEntity
  8
0
100
AcDbLine
 10
104.9482
 20
-0.0000135
 30
0.0
 11
107.0577
 21
-0.0000135
 31
0.0
  0
LINE
  5
B12
330
1D
100
AcDbEntity
  8
0
100
AcDbLine
 10
109.343
 20
-0.0000135
 30
0.0
 11
111.4501
 21
-0.0000135
 31
0.0
  0
LINE
  5
B13
330
1D
100
AcDbEntity
  8
0
100
AcDbLine
 10
107.0577
 20
-0.0000135
 30
0.0
 11
109.3433
 21
-0.0000135
 31
0.0
  0
LINE
  5
B14
330
1D
100
AcDbEntity
  8
0
100
AcDbLine
 10
107.0577
 20
-0.0000135
 30
0.0
 11
109.343
 21
-0.0000135
 31
0.0
  0
LINE
  5
B15
330
1D
100
AcDbEntity
  8
0
100
AcDbLine
 10
111.4501
 20
-0.0000135
 30
0.0
 11
113.2707
 21
-0.0000135
 31
0.0
  0
LINE
  5
B16
330
1D
100
AcDbEntity
  8
0
100
AcDbLine
 10
98.2239
 20
0.0000015
 30
0.0
 11
99.6177
 21
0.0000015
 31
0.0
  0
LINE
  5
B17
330
1D
100
AcDbEntity
  8
0
100
AcDbLine
 10
109.3433
 20
-0.0000135
 30
0.0
 11
111.4502
 21
-0.0000135
 31
0.0
  0
LINE
  5
B18
330
1D
100
AcDbEntity
  8
0
100
AcDbLine
 10
113.2703
 20
-0.0000135
 30
0.0
 11
114.5006
 21
-0.0000135
 31
0.0
  0
LINE
  5
B19
330
1D
100
AcDbEntity
  8
0
100
AcDbLine
 10
114.5006
 20
-0.0000135
 30
0.0
 11
115.7771
 21
-0.0000135
 31
0.0
  0
LINE
  5
B1A
330
1D
100
AcDbEntity
  8
0
100
AcDbLine
 10
113.2707
 20
-0.0000135
 30
0.0
 11
114.5009
 21
-0.0000135
 31
0.0
  0
LINE
  5
B1B
330
1D
100
AcDbEntity
  8
0
100
AcDbLine
 10
115.7771
 20
-0.0000135
 30
0.0
 11
116.7502
 21
-0.0000135
 31
0.0
  0
LINE
  5
B1C
330
1D
100
AcDbEntity
  8
0
100
AcDbLine
 10
115.7771
 20
-0.0000135
 30
0.0
 11
116.7501
 21
-0.0000135
 31
0.0
  0
LINE
  5
B1D
330
1D
100
AcDbEntity
  8
0
100
AcDbLine
 10
114.5009
 20
-0.0000135
 30
0.0
 11
115.7771
 21
-0.0000135
 31
0.0
  0
LINE
  5
B1E
330
1D
100
AcDbEntity
  8
0
100
AcDbLine
 10
111.4502
 20
-0.0000135
 30
0.0
 11
113.2703
 21
-0.0000135
 31
0.0
  0
LINE
  5
B1F
330
1D
100
AcDbEntity
  8
0
100
AcDbLine
 10
101.1992
 20
0.0000015
 30
0.0
 11
103.4656
 21
-0.0000135
 31
0.0
  0
LINE
  5
B20
330
1D
100
AcDbEntity
  8
0
100
AcDbLine
 10
101.1991
 20
0.0000015
 30
0.0
 11
103.4658
 21
-0.0000135
 31
0.0
  0
LINE
  5
B21
330
1D
100
AcDbEntity
  8
0
100
AcDbLine
 10
99.6177
 20
0.0000015
 30
0.0
 11
101.1991
 21
0.0000015
 31
0.0
  0
LINE
  5
B22
330
1D
100
AcDbEntity
  8
0
100
AcDbLine
 10
99.6177
 20
0.0000015
 30
0.0
 11
101.1992
 21
0.0000015
 31
0.0
  0
LINE
  5
B23
330
1D
100
AcDbEntity
  8
0
100
AcDbLine
 10
98.224
 20
0.0000015
 30
0.0
 11
99.6177
 21
0.0000015
 31
0.0
  0
LINE
  5
B24
330
1D
100
AcDbEntity
  8
0
100
AcDbLine
 10
97.4164
 20
0.0000015
 30
0.0
 11
98.224
 21
0.0000015
 31
0.0
  0
LINE
  5
B25
330
1D
100
AcDbEntity
  8
0
100
AcDbLine
 10
97.4164
 20
0.0000015
 30
0.0
 11
98.2239
 21
0.0000015
 31
0.0
  0
LINE
  5
B26
330
1D
100
AcDbEntity
  8
0
100
AcDbLine
 10
95.4384
 20
0.0000165
 30
0.0
 11
95.9672
 21
0.0000165
 31
0.0
  0
LINE
  5
B27
330
1D
100
AcDbEntity
  8
0
100
AcDbLine
 10
95.9675
 20
0.0000165
 30
0.0
 11
96.7111
 21
0.0000015
 31
0.0
  0
LINE
  5
B28
330
1D
100
AcDbEntity
  8
0
100
AcDbLine
 10
95.9672
 20
0.0000165
 30
0.0
 11
96.7111
 21
0.0000015
 31
0.0
  0
LINE
  5
B29
330
1D
100
AcDbEntity
  8
0
100
AcDbLine
 10
95.4386
 20
0.0000165
 30
0.0
 11
95.9675
 21
0.0000165
 31
0.0
  0
LINE
  5
B2A
330
1D
100
AcDbEntity
  8
0
100
AcDbLine
 10
95.1417
 20
0.0000165
 30
0.0
 11
95.4386
 21
0.0000165
 31
0.0
  0
LINE
  5
B3D
330
1D
100
AcDbEntity
  8
0
100
AcDbLine
 10
116.7501
 20
-0.0000135
 30
0.0
 11
117.7155
 21
-0.0000135
 31
0.0
  0
LINE
  5
B3E
330
1D
100
AcDbEntity
  8
0
100
AcDbLine
 10
116.7503
 20
-0.0000135
 30
0.0
 11
117.7152
 21
-0.0000135
 31
0.0
  0
LINE
  5
B3F
330
1D
100
AcDbEntity
  8
0
100
AcDbLine
 10
117.7155
 20
-0.0000135
 30
0.0
 11
138.108
 21
-0.0000135
 31
0.0
  0
LINE
  5
B40
330
1D
100
AcDbEntity
  8
0
100
AcDbLine
 10
117.7152
 20
-0.0000135
 30
0.0
 11
138.108
 21
-0.0000135
 31
0.0
  0
LINE
  5
B4E
330
1D
100
AcDbEntity
  8
0
100
AcDbLine
 10
138.108
 20
-0.0000135
 30
0.0
 11
138.318
 21
-0.0000135
 31
0.0
  0
LINE
  5
B4F
330
1D
100
AcDbEntity
  8
0
100
AcDbLine
 10
138.414
 20
-0.0000135
 30
0.0
 11
138.635
 21
0.0583075
 31
0.0
  0
LINE
  5
B50
330
1D
100
AcDbEntity
  8
0
100
AcDbLine
 10
138.414
 20
-0.0000135
 30
0.0
 11
138.635
 21
0.0583075
 31
0.0
  0
LINE
  5
B51
330
1D
100
AcDbEntity
  8
0
100
AcDbLine
 10
138.318
 20
-0.0000135
 30
0.0
 11
138.414
 21
-0.0000135
 31
0.0
  0
LINE
  5
B52
330
1D
100
AcDbEntity
  8
0
100
AcDbLine
 10
138.635
 20
0.0583075
 30
0.0
 11
138.75
 21
0.1295035
 31
0.0
  0
LINE
  5
B53
330
1D
100
AcDbEntity
  8
0
100
AcDbLine
 10
138.75
 20
0.1295035
 30
0.0
 11
138.815
 21
0.2196535
 31
0.0
  0
LINE
  5
B54
330
1D
100
AcDbEntity
  8
0
100
AcDbLine
 10
138.141
 20
-0.0000135
 30
0.0
 11
138.4
 21
-0.0000135
 31
0.0
  0
LINE
  5
B55
330
1D
100
AcDbEntity
  8
0
100
AcDbLine
 10
138.141
 20
-0.0000135
 30
0.0
 11
138.401
 21
-0.0000135
 31
0.0
  0
LINE
  5
B56
330
1D
100
AcDbEntity
  8
0
100
AcDbLine
 10
138.108
 20
-0.0000135
 30
0.0
 11
138.318
 21
-0.0000135
 31
0.0
  0
LINE
  5
B57
330
1D
100
AcDbEntity
  8
0
100
AcDbLine
 10
138.815
 20
0.2196535
 30
0.0
 11
138.897
 21
0.4462775
 31
0.0
  0
LINE
  5
B58
330
1D
100
AcDbEntity
  8
0
100
AcDbLine
 10
138.897
 20
0.4462775
 30
0.0
 11
144.115
 21
49.5527865
 31
0.0
  0
LINE
  5
B59
330
1D
100
AcDbEntity
  8
0
100
AcDbLine
 10
138.897
 20
0.4461775
 30
0.0
 11
144.115
 21
49.5524865
 31
0.0
  0
LINE
  5
B5A
330
1D
100
AcDbEntity
  8
0
100
AcDbLine
 10
95.0467
 20
49.8835865
 30
0.0
 11
96.8949
 21
49.8835865
 31
0.0
  0
LINE
  5
B5B
330
1D
100
AcDbEntity
  8
0
100
AcDbLine
 10
96.8949
 20
49.8835865
 30
0.0
 11
98.9677
 21
49.8835865
 31
0.0
  0
LINE
  5
B5C
330
1D
100
AcDbEntity
  8
0
100
AcDbLine
 10
95.0472
 20
49.8835865
 30
0.0
 11
96.8943
 21
49.8835865
 31
0.0
  0
LINE
  5
B5D
330
1D
100
AcDbEntity
  8
0
100
AcDbLine
 10
96.8943
 20
49.8835865
 30
0.0
 11
98.9677
 21
49.8835865
 31
0.0
  0
LINE
  5
B5F
330
1D
100
AcDbEntity
  8
0
100
AcDbLine
 10
98.9677
 20
49.8835865
 30
0.0
 11
102.190539577916
 21
49.8835865
 31
0.0
  0
LINE
  5
B60
330
1D
100
AcDbEntity
  8
0
100
AcDbLine
 10
98.9677
 20
49.8835865
 30
0.0
 11
102.190339577916
 21
49.8835865
 31
0.0
  0
LINE
  5
B75
330
1D
100
AcDbEntity
  8
0
100
AcDbLine
 10
96.9774
 20
54.0488865
 30
0.0
 11
100.0242
 21
54.0488865
 31
0.0
  0
LINE
  5
B76
330
1D
100
AcDbEntity
  8
0
100
AcDbLine
 10
100.0242
 20
54.0488865
 30
0.0
 11
103.578
 21
54.0488865
 31
0.0
  0
LINE
  5
B77
330
1D
100
AcDbEntity
  8
0
100
AcDbLine
 10
103.578
 20
54.0488865
 30
0.0
 11
107.5318
 21
54.0488865
 31
0.0
  0
LINE
  5
B78
330
1D
100
AcDbEntity
  8
0
100
AcDbLine
 10
107.5318
 20
54.0488865
 30
0.0
 11
111.7658
 21
54.0488865
 31
0.0
  0
LINE
  5
B79
330
1D
100
AcDbEntity
  8
0
100
AcDbLine
 10
111.7658
 20
54.0488865
 30
0.0
 11
116.1526
 21
54.0488865
 31
0.0
  0
LINE
  5
B7A
330
1D
100
AcDbEntity
  8
0
100
AcDbLine
 10
116.1526
 20
54.0488865
 30
0.0
 11
120.5573
 21
54.0488865
 31
0.0
  0
LINE
  5
B7B
330
1D
100
AcDbEntity
  8
0
100
AcDbLine
 10
116.1525
 20
54.0488865
 30
0.0
 11
120.557
 21
54.0488865
 31
0.0
  0
LINE
  5
B7C
330
1D
100
AcDbEntity
  8
0
100
AcDbLine
 10
111.7668
 20
54.0488865
 30
0.0
 11
116.1525
 21
54.0488865
 31
0.0
  0
LINE
  5
B7D
330
1D
100
AcDbEntity
  8
0
100
AcDbLine
 10
107.532
 20
54.0488865
 30
0.0
 11
111.7668
 21
54.0488865
 31
0.0
  0
LINE
  5
B7E
330
1D
100
AcDbEntity
  8
0
100
AcDbLine
 10
103.5771
 20
54.0488865
 30
0.0
 11
107.532
 21
54.0488865
 31
0.0
  0
LINE
  5
B9B
330
1D
100
AcDbEntity
  8
0
100
AcDbLine
 10
100.0229
 20
54.0488865
 30
0.0
 11
103.5771
 21
54.0488865
 31
0.0
  0
LINE
  5
B9C
330
1D
100
AcDbEntity
  8
0
100
AcDbLine
 10
96.9772
 20
54.0488865
 30
0.0
 11
100.0229
 21
54.0488865
 31
0.0
  0
LINE
  5
BA6
330
1D
100
AcDbEntity
  8
0
100
AcDbLine
 10
131.222583553739
 20
49.8835865
 30
0.0
 11
133.296
 21
49.8835865
 31
0.0
  0
LINE
  5
BA7
330
1D
100
AcDbEntity
  8
0
100
AcDbLine
 10
137.458
 20
49.8835865
 30
0.0
 11
139.198
 21
49.8835865
 31
0.0
  0
LINE
  5
BA8
330
1D
100
AcDbEntity
  8
0
100
AcDbLine
 10
135.483
 20
49.8835865
 30
0.0
 11
137.458
 21
49.8835865
 31
0.0
  0
LINE
  5
BA9
330
1D
100
AcDbEntity
  8
0
100
AcDbLine
 10
133.296
 20
49.8835865
 30
0.0
 11
135.484
 21
49.8835865
 31
0.0
  0
LINE
  5
BAA
330
1D
100
AcDbEntity
  8
0
100
AcDbLine
 10
133.296
 20
49.8835865
 30
0.0
 11
135.483
 21
49.8835865
 31
0.0
  0
LINE
  5
BAB
330
1D
100
AcDbEntity
  8
0
100
AcDbLine
 10
135.484
 20
49.8835865
 30
0.0
 11
137.459
 21
49.8835865
 31
0.0
  0
LINE
  5
BAC
330
1D
100
AcDbEntity
  8
0
100
AcDbLine
 10
139.198
 20
49.8835865
 30
0.0
 11
140.828
 21
49.8835865
 31
0.0
  0
LINE
  5
BAD
330
1D
100
AcDbEntity
  8
0
100
AcDbLine
 10
137.459
 20
49.8835865
 30
0.0
 11
139.199
 21
49.8835865
 31
0.0
  0
LINE
  5
BAE
330
1D
100
AcDbEntity
  8
0
100
AcDbLine
 10
139.199
 20
49.8835865
 30
0.0
 11
140.828
 21
49.8835865
 31
0.0
  0
LINE
  5
BAF
330
1D
100
AcDbEntity
  8
0
100
AcDbLine
 10
140.828
 20
49.8835865
 30
0.0
 11
142.12
 21
49.8835865
 31
0.0
  0
LINE
  5
BB0
330
1D
100
AcDbEntity
  8
0
100
AcDbLine
 10
140.828
 20
49.8835865
 30
0.0
 11
142.121
 21
49.8835865
 31
0.0
  0
LINE
  5
BB1
330
1D
100
AcDbEntity
  8
0
100
AcDbLine
 10
141.75
 20
49.8835865
 30
0.0
 11
141.75
 21
54.0488865
 31
0.0
  0
LINE
  5
BB2
330
1D
100
AcDbEntity
  8
0
100
AcDbLine
 10
142.121
 20
49.8835865
 30
0.0
 11
143.057
 21
49.8835865
 31
0.0
  0
LINE
  5
BB3
330
1D
100
AcDbEntity
  8
0
100
AcDbLine
 10
142.12
 20
49.8835865
 30
0.0
 11
143.057
 21
49.8835865
 31
0.0
  0
LINE
  5
BB4
330
1D
100
AcDbEntity
  8
0
100
AcDbLine
 10
144.086
 20
49.7153865
 30
0.0
 11
144.115
 21
49.5527865
 31
0.0
  0
LINE
  5
BB5
330
1D
100
AcDbEntity
  8
0
100
AcDbLine
 10
143.625
 20
49.8835865
 30
0.0
 11
143.817
 21
49.8835865
 31
0.0
  0
LINE
  5
BB6
330
1D
100
AcDbEntity
  8
0
100
AcDbLine
 10
143.625
 20
49.8835865
 30
0.0
 11
143.816
 21
49.8835865
 31
0.0
  0
LINE
  5
BB7
330
1D
100
AcDbEntity
  8
0
100
AcDbLine
 10
143.976
 20
49.8380865
 30
0.0
 11
144.086
 21
49.7153865
 31
0.0
  0
LINE
  5
BB8
330
1D
100
AcDbEntity
  8
0
100
AcDbLine
 10
143.057
 20
49.8835865
 30
0.0
 11
143.625
 21
49.8835865
 31
0.0
  0
LINE
  5
BB9
330
1D
100
AcDbEntity
  8
0
100
AcDbLine
 10
120.5573
 20
54.0488865
 30
0.0
 11
124.8447
 21
54.0488865
 31
0.0
  0
LINE
  5
BBA
330
1D
100
AcDbEntity
  8
0
100
AcDbLine
 10
124.8447
 20
54.0488865
 30
0.0
 11
128.8877
 21
54.0488865
 31
0.0
  0
LINE
  5
BBB
330
1D
100
AcDbEntity
  8
0
100
AcDbLine
 10
128.8877
 20
54.0488865
 30
0.0
 11
132.561
 21
54.0488865
 31
0.0
  0
LINE
  5
BBC
330
1D
100
AcDbEntity
  8
0
100
AcDbLine
 10
132.561
 20
54.0488865
 30
0.0
 11
135.756
 21
54.0488865
 31
0.0
  0
LINE
  5
BBD
330
1D
100
AcDbEntity
  8
0
100
AcDbLine
 10
135.756
 20
54.0488865
 30
0.0
 11
138.37
 21
54.0488865
 31
0.0
  0
LINE
  5
BBE
330
1D
100
AcDbEntity
  8
0
100
AcDbLine
 10
138.37
 20
54.0488865
 30
0.0
 11
140.329
 21
54.0488865
 31
0.0
  0
LINE
  5
BBF
330
1D
100
AcDbEntity
  8
0
100
AcDbLine
 10
140.329
 20
54.0488865
 30
0.0
 11
141.572
 21
54.0488865
 31
0.0
  0
LINE
  5
BC0
330
1D
100
AcDbEntity
  8
0
100
AcDbLine
 10
141.572
 20
54.0488865
 30
0.0
 11
142.06
 21
54.0488865
 31
0.0
  0
LINE
  5
BC1
330
1D
100
AcDbEntity
  8
0
100
AcDbLine
 10
141.572
 20
54.0488865
 30
0.0
 11
142.061
 21
54.0488865
 31
0.0
  0
LINE
  5
BC2
330
1D
100
AcDbEntity
  8
0
100
AcDbLine
 10
140.33
 20
54.0488865
 30
0.0
 11
141.572
 21
54.0488865
 31
0.0
  0
LINE
  5
BC3
330
1D
100
AcDbEntity
  8
0
100
AcDbLine
 10
138.371
 20
54.0488865
 30
0.0
 11
140.33
 21
54.0488865
 31
0.0
  0
LINE
  5
BC4
330
1D
100
AcDbEntity
  8
0
100
AcDbLine
 10
135.755
 20
54.0488865
 30
0.0
 11
138.371
 21
54.0488865
 31
0.0
  0
LINE
  5
BC5
330
1D
100
AcDbEntity
  8
0
100
AcDbLine
 10
132.562
 20
54.0488865
 30
0.0
 11
135.755
 21
54.0488865
 31
0.0
  0
LINE
  5
BC6
330
1D
100
AcDbEntity
  8
0
100
AcDbLine
 10
128.8879
 20
54.0488865
 30
0.0
 11
132.562
 21
54.0488865
 31
0.0
  0
LINE
  5
BC7
330
1D
100
AcDbEntity
  8
0
100
AcDbLine
 10
124.845
 20
54.0488865
 30
0.0
 11
128.8879
 21
54.0488865
 31
0.0
  0
LINE
  5
BC8
330
1D
100
AcDbEntity
  8
0
100
AcDbLine
 10
120.557
 20
54.0488865
 30
0.0
 11
124.845
 21
54.0488865
 31
0.0
  0
LINE
  5
BC9
330
1D
100
AcDbEntity
  8
0
100
AcDbLine
 10
141.75
 20
54.0488865
 30
0.0
 11
200.226
 21
54.0488865
 31
0.0
  0
LINE
  5
BCA
330
1D
100
AcDbEntity
  8
0
100
AcDbLine
 10
141.781
 20
54.0488865
 30
0.0
 11
142.061
 21
54.0488865
 31
0.0
  0
LINE
  5
BCB
330
1D
100
AcDbEntity
  8
0
100
AcDbLine
 10
141.78
 20
54.0488865
 30
0.0
 11
142.06
 21
54.0488865
 31
0.0
  0
LINE
  5
BCC
330
1D
100
AcDbEntity
  8
0
100
AcDbLine
 10
200.226
 20
54.0488865
 30
0.0
 11
200.718
 21
54.1781865
 31
0.0
  0
LINE
  5
BCD
330
1D
100
AcDbEntity
  8
0
100
AcDbLine
 10
201.083
 20
54.5326865
 30
0.0
 11
201.226
 21
55.0203865
 31
0.0
  0
LINE
  5
BCE
330
1D
100
AcDbEntity
  8
0
100
AcDbLine
 10
141.75
 20
54.0488865
 30
0.0
 11
141.75
 21
49.8835865
 31
0.0
  0
LINE
  5
BCF
330
1D
100
AcDbEntity
  8
0
100
AcDbLine
 10
201.226
 20
55.0204865
 30
0.0
 11
201.75
 21
74.9999865
 31
0.0
  0
LINE
  5
BD0
330
1D
100
AcDbEntity
  8
0
100
AcDbLine
 10
201.226
 20
55.0203865
 30
0.0
 11
201.75
 21
74.9999865
 31
0.0
  0
LINE
  5
C80
330
1D
100
AcDbEntity
  8
0
100
AcDbLine
 10
201.562
 20
74.9999865
 30
0.0
 11
201.75
 21
74.9999865
 31
0.0
  0
LINE
  5
C81
330
1D
100
AcDbEntity
  8
0
100
AcDbLine
 10
201.561
 20
74.9999865
 30
0.0
 11
201.75
 21
74.9999865
 31
0.0
  0
LINE
  5
C82
330
1D
100
AcDbEntity
  8
0
100
AcDbLine
 10
143.817
 20
49.8835865
 30
0.0
 11
143.976
 21
49.8380865
 31
0.0
  0
LINE
  5
C83
330
1D
100
AcDbEntity
  8
0
100
AcDbLine
 10
200.718
 20
54.1781865
 30
0.0
 11
201.083
 21
54.5326865
 31
0.0
  0
LINE
  5
C84
330
1D
100
AcDbEntity
  8
0
100
AcDbLine
 10
201.561
 20
74.9999865
 30
0.0
 11
31.75
 21
74.9999865
 31
0.0
  0
LINE
  5
C85
330
1D
100
AcDbEntity
  8
0
100
AcDbLine
 10
107.0619
 20
19.6239865
 30
0.0
 11
101.9541
 21
51.3522865
 31
0.0
  0
LINE
  5
C86
330
1D
100
AcDbEntity
  8
0
100
AcDbLine
 10
126.2339
 20
19.6241865
 30
0.0
 11
131.341750115313
 21
51.351895739129
 31
0.0
  0
LINE
  5
C87
330
1D
100
AcDbEntity
  8
0
100
AcDbLine
 10
131.017
 20
52.4999865
 30
0.0
 11
131.296
 21
52.5669865
 31
0.0
  0
ENDSEC
  0
SECTION
  2
OBJECTS
  0
DICTIONARY
  5
C
330
0
100
AcDbDictionary
281
     1
  3
ACAD_GROUP
350
D
  3
ACAD_LAYOUT
350
1A
  3
ACAD_MLEADERSTYLE
350
C8A
  3
ACAD_MLINESTYLE
350
17
  3
ACAD_PLOTSETTINGS
350
19
  3
ACAD_PLOTSTYLENAME
350
E
  3
ACAD_SCALELIST
350
61A
  3
AcDbVariableDictionary
350
C88
  3
DWGPROPS
350
C91
  0
DICTIONARY
  5
D
102
{ACAD_REACTORS
330
C
102
}
330
C
100
AcDbDictionary
281
     1
  0
DICTIONARY
  5
1A
102
{ACAD_REACTORS
330
C
102
}
330
C
100
AcDbDictionary
281
     1
  3
Layout1
350
1C
  3
Model
350
1E
  0
DICTIONARY
  5
C8A
102
{ACAD_REACTORS
330
C
102
}
330
C
100
AcDbDictionary
281
     1
  0
DICTIONARY
  5
17
102
{ACAD_REACTORS
330
C
102
}
330
C
100
AcDbDictionary
281
     1
  3
Standard
350
18
  0
DICTIONARY
  5
19
102
{ACAD_REACTORS
330
C
102
}
330
C
100
AcDbDictionary
281
     1
  0
ACDBDICTIONARYWDFLT
  5
E
102
{ACAD_REACTORS
330
C
102
}
330
C
100
AcDbDictionary
281
     1
  3
Normal
350
F
100
AcDbDictionaryWithDefault
340
F
  0
DICTIONARY
  5
61A
102
{ACAD_REACTORS
330
C
102
}
330
C
100
AcDbDictionary
281
     1
  3
A0
350
61B
  3
A1
350
61C
  3
A2
350
61D
  3
A3
350
61E
  3
A4
350
61F
  3
A5
350
620
  3
A6
350
621
  3
A7
350
622
  3
A8
350
623
  3
A9
350
624
  3
B0
350
625
  3
B1
350
626
  3
B2
350
627
  3
B3
350
628
  3
B4
350
629
  3
B5
350
62A
  3
B6
350
62B
  3
B7
350
62C
  3
B8
350
62D
  3
B9
350
62E
  3
C0
350
62F
  3
C1
350
630
  3
C2
350
631
  3
C3
350
632
  3
C4
350
633
  3
C5
350
634
  3
C6
350
635
  3
C7
350
636
  3
C8
350
637
  3
C9
350
638
  3
D0
350
639
  3
D1
350
63A
  3
D2
350
63B
  0
DICTIONARY
  5
C88
102
{ACAD_REACTORS
330
C
102
}
330
C
100
AcDbDictionary
281
     1
  3
CANNOSCALE
350
C8B
  0
XRECORD
  5
C91
102
{ACAD_REACTORS
330
C
102
}
330
C
100
AcDbXrecord
280
     1
  1
DWGPROPS COOKIE
  2

  3

  4

  6

  7

  8
MARTIN
  9

300
=
301
=
302
=
303
=
304
=
305
=
306
=
307
=
308
=
309
=
 40
0.0
 41
2456183.595081019
 42
2456183.605677616
  1

 90
        0
  0
LAYOUT
  5
1C
102
{ACAD_REACTORS
330
1A
102
}
330
1A
100
AcDbPlotSettings
  1

  2
none_device
  4

  6

 40
0.0
 41
0.0
 42
0.0
 43
0.0
 44
0.0
 45
0.0
 46
0.0
 47
0.0
 48
0.0
 49
0.0
140
0.0
141
0.0
142
1.0
143
1.0
 70
   688
 72
     0
 73
     0
 74
     5
  7

 75
    16
147
1.0
148
0.0
149
0.0
100
AcDbLayout
  1
Layout1
 70
     1
 71
     1
 10
0.0
 20
0.0
 11
12.0
 21
9.0
 12
0.0
 22
0.0
 32
0.0
 14
1.000000000000E+20
 24
1.000000000000E+20
 34
1.000000000000E+20
 15
-1.000000000000E+20
 25
-1.000000000000E+20
 35
-1.000000000000E+20
146
0.0
 13
0.0
 23
0.0
 33
0.0
 16
1.0
 26
0.0
 36
0.0
 17
0.0
 27
1.0
 37
0.0
 76
     0
330
1B
  0
LAYOUT
  5
1E
102
{ACAD_REACTORS
330
1A
102
}
330
1A
100
AcDbPlotSettings
  1

  2
none_device
  4

  6

 40
0.0
 41
0.0
 42
0.0
 43
0.0
 44
0.0
 45
0.0
 46
0.0
 47
0.0
 48
0.0
 49
0.0
140
0.0
141
0.0
142
1.0
143
1.0
 70
  1712
 72
     0
 73
     0
 74
     0
  7

 75
     0
147
1.0
148
0.0
149
0.0
100
AcDbLayout
  1
Model
 70
     1
 71
     0
 10
0.0
 20
0.0
 11
12.0
 21
9.0
 12
0.0
 22
0.0
 32
0.0
 14
31.75
 24
-0.0000135
 34
0.0
 15
201.75
 25
74.9999865
 35
0.0
146
0.0
 13
0.0
 23
0.0
 33
0.0
 16
1.0
 26
0.0
 36
0.0
 17
0.0
 27
1.0
 37
0.0
 76
     0
330
1D
331
615
  0
MLINESTYLE
  5
18
102
{ACAD_REACTORS
330
17
102
}
330
17
100
AcDbMlineStyle
  2
Standard
 70
     0
  3

 62
   256
 51
90.0
 52
90.0
 71
     2
 49
0.5
 62
   256
  6
BYLAYER
 49
-0.5
 62
   256
  6
BYLAYER
  0
ACDBPLACEHOLDER
  5
F
102
{ACAD_REACTORS
330
E
102
}
330
E
  0
SCALE
  5
61B
102
{ACAD_REACTORS
330
61A
102
}
330
61A
100
AcDbScale
 70
     0
300
1:1
140
1.0
141
1.0
290
     1
  0
SCALE
  5
61C
102
{ACAD_REACTORS
330
61A
102
}
330
61A
100
AcDbScale
 70
     0
300
1:2
140
1.0
141
2.0
290
     0
  0
SCALE
  5
61D
102
{ACAD_REACTORS
330
61A
102
}
330
61A
100
AcDbScale
 70
     0
300
1:4
140
1.0
141
4.0
290
     0
  0
SCALE
  5
61E
102
{ACAD_REACTORS
330
61A
102
}
330
61A
100
AcDbScale
 70
     0
300
1:5
140
1.0
141
5.0
290
     0
  0
SCALE
  5
61F
102
{ACAD_REACTORS
330
61A
102
}
330
61A
100
AcDbScale
 70
     0
300
1:8
140
1.0
141
8.0
290
     0
  0
SCALE
  5
620
102
{ACAD_REACTORS
330
61A
102
}
330
61A
100
AcDbScale
 70
     0
300
1:10
140
1.0
141
10.0
290
     0
  0
SCALE
  5
621
102
{ACAD_REACTORS
330
61A
102
}
330
61A
100
AcDbScale
 70
     0
300
1:16
140
1.0
141
16.0
290
     0
  0
SCALE
  5
622
102
{ACAD_REACTORS
330
61A
102
}
330
61A
100
AcDbScale
 70
     0
300
1:20
140
1.0
141
20.0
290
     0
  0
SCALE
  5
623
102
{ACAD_REACTORS
330
61A
102
}
330
61A
100
AcDbScale
 70
     0
300
1:30
140
1.0
141
30.0
290
     0
  0
SCALE
  5
624
102
{ACAD_REACTORS
330
61A
102
}
330
61A
100
AcDbScale
 70
     0
300
1:40
140
1.0
141
40.0
290
     0
  0
SCALE
  5
625
102
{ACAD_REACTORS
330
61A
102
}
330
61A
100
AcDbScale
 70
     0
300
1:50
140
1.0
141
50.0
290
     0
  0
SCALE
  5
626
102
{ACAD_REACTORS
330
61A
102
}
330
61A
100
AcDbScale
 70
     0
300
1:100
140
1.0
141
100.0
290
     0
  0
SCALE
  5
627
102
{ACAD_REACTORS
330
61A
102
}
330
61A
100
AcDbScale
 70
     0
300
2:1
140
2.0
141
1.0
290
     0
  0
SCALE
  5
628
102
{ACAD_REACTORS
330
61A
102
}
330
61A
100
AcDbScale
 70
     0
300
4:1
140
4.0
141
1.0
290
     0
  0
SCALE
  5
629
102
{ACAD_REACTORS
330
61A
102
}
330
61A
100
AcDbScale
 70
     0
300
8:1
140
8.0
141
1.0
290
     0
  0
SCALE
  5
62A
102
{ACAD_REACTORS
330
61A
102
}
330
61A
100
AcDbScale
 70
     0
300
10:1
140
10.0
141
1.0
290
     0
  0
SCALE
  5
62B
102
{ACAD_REACTORS
330
61A
102
}
330
61A
100
AcDbScale
 70
     0
300
100:1
140
100.0
141
1.0
290
     0
  0
SCALE
  5
62C
102
{ACAD_REACTORS
330
61A
102
}
330
61A
100
AcDbScale
 70
     0
300
1/128" = 1'-0"
140
0.0078125
141
12.0
290
     0
  0
SCALE
  5
62D
102
{ACAD_REACTORS
330
61A
102
}
330
61A
100
AcDbScale
 70
     0
300
1/64" = 1'-0"
140
0.015625
141
12.0
290
     0
  0
SCALE
  5
62E
102
{ACAD_REACTORS
330
61A
102
}
330
61A
100
AcDbScale
 70
     0
300
1/32" = 1'-0"
140
0.03125
141
12.0
290
     0
  0
SCALE
  5
62F
102
{ACAD_REACTORS
330
61A
102
}
330
61A
100
AcDbScale
 70
     0
300
1/16" = 1'-0"
140
0.0625
141
12.0
290
     0
  0
SCALE
  5
630
102
{ACAD_REACTORS
330
61A
102
}
330
61A
100
AcDbScale
 70
     0
300
3/32" = 1'-0"
140
0.09375
141
12.0
290
     0
  0
SCALE
  5
631
102
{ACAD_REACTORS
330
61A
102
}
330
61A
100
AcDbScale
 70
     0
300
1/8" = 1'-0"
140
0.125
141
12.0
290
     0
  0
SCALE
  5
632
102
{ACAD_REACTORS
330
61A
102
}
330
61A
100
AcDbScale
 70
     0
300
3/16" = 1'-0"
140
0.1875
141
12.0
290
     0
  0
SCALE
  5
633
102
{ACAD_REACTORS
330
61A
102
}
330
61A
100
AcDbScale
 70
     0
300
1/4" = 1'-0"
140
0.25
141
12.0
290
     0
  0
SCALE
  5
634
102
{ACAD_REACTORS
330
61A
102
}
330
61A
100
AcDbScale
 70
     0
300
3/8" = 1'-0"
140
0.375
141
12.0
290
     0
  0
SCALE
  5
635
102
{ACAD_REACTORS
330
61A
102
}
330
61A
100
AcDbScale
 70
     0
300
1/2" = 1'-0"
140
0.5
141
12.0
290
     0
  0
SCALE
  5
636
102
{ACAD_REACTORS
330
61A
102
}
330
61A
100
AcDbScale
 70
     0
300
3/4" = 1'-0"
140
0.75
141
12.0
290
     0
  0
SCALE
  5
637
102
{ACAD_REACTORS
330
61A
102
}
330
61A
100
AcDbScale
 70
     0
300
1" = 1'-0"
140
1.0
141
12.0
290
     0
  0
SCALE
  5
638
102
{ACAD_REACTORS
330
61A
102
}
330
61A
100
AcDbScale
 70
     0
300
1-1/2" = 1'-0"
140
1.5
141
12.0
290
     0
  0
SCALE
  5
639
102
{ACAD_REACTORS
330
61A
102
}
330
61A
100
AcDbScale
 70
     0
300
3" = 1'-0"
140
3.0
141
12.0
290
     0
  0
SCALE
  5
63A
102
{ACAD_REACTORS
330
61A
102
}
330
61A
100
AcDbScale
 70
     0
300
6" = 1'-0"
140
6.0
141
12.0
290
     0
  0
SCALE
  5
63B
102
{ACAD_REACTORS
330
61A
102
}
330
61A
100
AcDbScale
 70
     0
300
1'-0" = 1'-0"
140
12.0
141
12.0
290
     0
  0
DICTIONARYVAR
  5
C8B
102
{ACAD_REACTORS
330
C88
102
}
330
C88
100
DictionaryVariables
280
     0
  1
1:1
  0
ENDSEC
  0
SECTION
  2
THUMBNAILIMAGE
 90
    16364
310
28000000B40000005500000001000800000000000000000000000000000000000000000000000000FFFFFF000000FF0000FFFF0000FF0000FFFF0000FF000000FF00FF000000000080808000C0C0C0000000FF007F7FFF000000A5005252A50000007F003F3F7F0000004C0026264C000000260013132600003FFF007F9FFF
310
000029A5005267A500001F7F003F4F7F0000134C00262F4C000009260013172600007FFF007FBFFF000052A500527CA500003F7F003F5F7F0000264C0026394C0000132600131C260000BFFF007FDFFF00007CA5005291A500005F7F003F6F7F0000394C0026424C00001C26001321260000FFFF007FFFFF0000A5A50052A5
310
A500007F7F003F7F7F00004C4C00264C4C00002626001326260000FFBF007FFFDF0000A57C0052A59100007F5F003F7F6F00004C3900264C420000261C001326210000FF7F007FFFBF0000A5520052A57C00007F3F003F7F5F00004C2600264C39000026130013261C0000FF3F007FFF9F0000A5290052A56700007F1F003F
310
7F4F00004C1300264C2F00002609001326170000FF00007FFF7F0000A5000052A55200007F00003F7F3F00004C0000264C260000260000132613003FFF00009FFF7F0029A5000067A552001F7F00004F7F3F00134C00002F4C260009260000172613007FFF0000BFFF7F0052A500007CA552003F7F00005F7F3F00264C0000
310
394C2600132600001C261300BFFF0000DFFF7F007CA5000091A552005F7F00006F7F3F00394C0000424C26001C26000021261300FFFF0000FFFF7F00A5A50000A5A552007F7F00007F7F3F004C4C00004C4C26002626000026261300FFBF0000FFDF7F00A57C0000A59152007F5F00007F6F3F004C3900004C422600261C00
310
0026211300FF7F0000FFBF7F00A5520000A57C52007F3F00007F5F3F004C2600004C39260026130000261C1300FF3F0000FF9F7F00A5290000A56752007F1F00007F4F3F004C1300004C2F26002609000026171300FF000000FF7F7F00A5000000A55252007F0000007F3F3F004C0000004C2626002600000026131300FF00
310
3F00FF7F9F00A5002900A55267007F001F007F3F4F004C0013004C262F002600090026131700FF007F00FF7FBF00A5005200A5527C007F003F007F3F5F004C0026004C2639002600130026131C00FF00BF00FF7FDF00A5007C00A55291007F005F007F3F6F004C0039004C26420026001C0026132100FF00FF00FF7FFF00A5
310
00A500A552A5007F007F007F3F7F004C004C004C264C002600260026132600BF00FF00DF7FFF007C00A5009152A5005F007F006F3F7F0039004C0042264C001C002600211326007F00FF00BF7FFF005200A5007C52A5003F007F005F3F7F0026004C0039264C00130026001C1326003F00FF009F7FFF002900A5006752A500
310
1F007F004F3F7F0013004C002F264C000900260017132600000000002D2D2D005B5B5B0089898900B7B7B700B3B3B30000000000000000000000000000000000000000000000000000000000000000000000000000000000000000000000000000000000000000000000000000000000000000000000000000000000000000
310
00000000000000000000000000000000000000000000000000000000000000000000000000000000000000000000000000000000000000000000000000000000000000000000000000000000000000000000000000000000000000000000000000000000000000000000000000000000000000000000000000000000000000
310
00000000000000000000000000000000000000000000000000000000000000000000000000000000000000000000000000000000000000000000000000000000000000000000000000000000000000000000000000000000000000000000000000000000000000000000000000000000000000000000000000000000000000
310
00000000000000000000000000000000000000000000000000000000000000000000000000000000000000000000000000000000000000000000000000000000000000000000000000000000000000000000000000000000000000000000000000000000000000000000000000000000000000000000000000000000000000
310
00000000000000000000000000000000000000000000000000000000000000000000000000000000000000000000000000000000000000000000000000000000000000000000000000000000000000000000000000000000000000000000000000000000000000000000000000000000000000000000000000000000000000
310
00000000000000000000000000000000000000000000000000000000000000000000000000000000070707070707070707070707070707070707070700000000000000000000000000000000000000000000000000000000000000000000000000000000000000000000000000000000000000000000000000000000000000
310
00000000000000000000000000000000000000000000000000000000000000000000000000000000000000000000000000000000000000000000000000000000000000000000000000000000000000000000000000000000000000000007000000000000000000000000000000000000070000000000000000000000000000
310
00000000000000000000000000000000000000000000000000000000000000000000000000000000000000000000000000000000000000000000000000000000000000000000000000000000000000000000000000000000000000000000000000000000000000000000000000000000000000000000000000000000000000
310
00000000000000000000000000000000000000070000000000000000000000000000000000000700000000000000000000000000000000000000000000000000000000000000000000000000000000000000000000000000000000000000000000000000000000000000000000000000000000000000000000000000000000
310
00000000000000000000000000000000000000000000000000000000000000000000000000000000000000000000000000000000000000000000000000000000000000000000000007000000000000000000000000000000000000070000000000000000000000000000000000000000000000000000000000000000000000
310
00000000000000000000000000000000000000000000000000000000000000000000000000000000000000000000000000000000000000000000000000000000000000000000000000000000000000000000000000000000000000000000000000000000000000000000000000000000000000000000000000000000000700
310
00000000000000000000000000000000000700000000000000000000000000000000000000000000000000000000000000000000000000000000000000000000000000000000000000000000000000000000000000000000000000000000000000000000000000000000000000000000000000000000000000000000000000
310
00000000000000000000000000000000000000000000000000000000000000000000000000000000000000000000000000000007000000000000000000000000000000000000070000000000000000000000000000000000000000000000000000000000000000000000000000000000000000000000000000000000000000
310
00000000000000000000000000000000000000000000000000000000000000000000000000000000000000000000000000000000000000000000000000000000000000000000000000000000000000000000000000000000000000000000000000000000000000070000000000000000000000000000000000000000070000
310
00000000000000000000000000000000000000000000000000000000000000000000000000000000000000000000000000000000000000000000000000000000000000000000000000000000000000000000000000000000000000000000000000000000000000000000000000000000000000000000000000000000000000
310
00000000000000000000000000000000000000000000000000000000000700000000000000000000000000000000000000000700000000000000000000000000000000000000000000000000000000000000000000000000000000000000000000000000000000000000000000000000000000000000000000000000000000
310
00000000000000000000000000000000000000000000000000000000000000000000000000000000000000000000000000000000000000000000000000000000000000000000000000000000000000000000070000000000000707070707070707070000000000070000000000000000000000000000000000000000000000
310
00000000000000000000000000000000000000000000000000000000000000000000000000000000000000000000000000000000000000000000000000000000000000000000000000000000000000000000000000000000000000000000000000000000000000000000000000000000000000000000000000000000000000
310
00000000000000000700000000000007000000000000000700000000000700000000000000000000000000000000000000000000000000000000000000000000000000000000000000000000000000000000000000000000000000000000000000000000000000000000000000000000000000000000000000000000000000
310
00000000000000000000000000000000000000000000000000000000000000000000000000000000000000000000000000000000000000000000000000070000000000000700000000000000070000000000070000000000000000000000000000000000000000000000000000000000000000000000000000000000000000
310
00000000000000000000000000000000000000000000000000000000000000000000000000000000000000000000000000000000000000000000000000000000000000000000000000000000000000000000000000000000000000000000000000000000000000000000000000000000000007000000000007000000000000
310
00000700000000000700000000000000000000000000000000000000000000000000000000000000000000000000000000000000000000000000000000000000000000000000000000000000000000000000000000000000000000000000000000000000000000000000000000000000000000000000000000000000000000
310
00000000000000000000000000000000000000000000000000000000000000000000000000000000070000000000070000000000000000000700000000070000000000000000000000000000000000000000000000000000000000000000000000000000000000000000000000000000000000000000000000000000000000
310
00000000000000000000000000000000000000000000000000000000000000000000000000000000000000000000000000000000000000000000000000000000000000000000000000000000000000000000000000000000000000000007000000000007000000000000000000070000000007000000000000000000000000
310
00000000000000000000000000000000000000000000000000000000000000000000000000000000000000000000000000000000000000000000000000000000000000000000000000000000000000000000000000000000000000000000000000000000000000000000000000000000000000000000000000000000000000
310
00000000000000000000000000000000000000070000000000070000000000000000000700000000070000000000000000000000000000000000000000000000000000000000000000000000000000000000000000000000000000000000000000000000000000000000000000000000000000000000000000000000000000
310
00000000000000000000000000000000000000000000000000000000000000000000000000000000000000000000000000000000000000000000000000000000000000000000000007000000000700000000000000000000070000000007000000000000000000000000000000000000000000000000000000000000000000
310
00000000000000000000000000000000000000000000000000000000000000000000000000000000000000000000000000000000000000000000000000000000000000000000000000000000000000000000000000000000000000000000000000000000000000000000000000000000000000000000000000000000070000
310
00000007000000000000000000000700000000000700000000000000000000000000000000000000000000000000000000000000000000000000000000000000000000000000000000000000000000000000000000000000000000000000000000000000000000000000000000000000000000000000000000000000000000
310
00000000000000000000000000000000000000000000000000000000000000000000000000000000000000000000000000000700000000000700000000000000000000070000000000070000000000000000000000000000000000000000000000000000000000000000000000000000000000000000000000000000000000
310
00000000000000000000000000000000000000000000000000000000000000000000000000000000000000000000000000000000000000000000000000000000000000000000000000000000000000000000000000000000000000000000000000000000000000070000000000070000000000000000000000070000000007
310
00000000000000000000000000000000000000000000000000000000000000000000000000000000000000000000000000000000000000000000000000000000000000000000000000000000000000000000000000000000000000000000000000000000000000000000000000000000000000000000000000000000000000
310
00000000000000000000000000000000000000000000000000000000000700000000070000000000000000000000000700000000070000000000000000000000000000000000000000000000000000000000000000000000000000000000000000000000000000000000000000000000000000000000000000000000000000
310
00000000000000000000000000000000000000000000000000000000000000000000000000000000000000000000000000000000000000000000000000000000000000000000000000000000000000000000070000000007000000000000000000000000070000000007000000000000000000000000000000000000000000
310
00000000000000000000000000000000000000000000000000000000000000000000000000000000000000000000000000000000000000000000000000000000000000000000000000000000000000000000000000000000000000000000000000000000000000000000000000000000000000000000000000000000000000
310
00000000000000000707070707070000000000000000000000000707070707070000000000000000000000000000000000000000000000000000000000000000000000000000000000000000000000000000000000000000000000000000000000000000000000000000000000000000000000000000000000000000000000
310
00000000000000000000000000000000000000000000000000000000000000000000000000000000000000000000000000000000000000000000000000000700000007070707070707070707070707070000000700000000000000000000000000000000000000000000000000000000000000000000000000000000000000
310
00000000000000000000000000000000000000000000000000000000000000000000000000000000000000000000000000000000000000000000000000000000000000000000000000000000000000000000000000000000000007070707070707070707070707070707070707070707070707070707070707070707070707
310
07070707070707070707070707070707070707070707070707070707070707070707070700000000000000000000000000000000000000000000000000000000000000000000000000000000000000000000000000000000000000000000000000000000000000000000000000000000000000000000000000000000000000
310
00000000000000000000000000000000070000000000000000000000000000000000000000000000000000000000000000000000000000000000000000000000000000000000000000000000000000000000000000000000070000000000000000000000000000000000000000000000000000000000000000000000000000
310
00000000000000000000000000000000000000000000000000000000000000000000000000000000000000000000000000000000000000000000000000000000000000000007000000000000000000000000000000000000000000000000000000000000000000000000000000000000000000000000000000000000000000
310
00000000000000000000000000000700000000000000000000000000000000000000000000000000000000000000000000000000000000000000000000000000000000000000000000000000000000000000000000000000000000000000000000000000000000000000000000000000000000000000000000000700000000
310
00000000000000000000000000000000000000000000000000000000000000000000000000000000000000000000000000000000000000000000000000000000000000070000000000000000000000000000000000000000000000000000000000000000000000000000000000000000000000000000000000000000000000
310
00000000000000000000000000000000000000000000000000000000000000000000000000000000000000000000000007000000000000000000000000000000000000000000000000000000000000000000000000000000000000000000000000000000000000000000000000000000000000000000000007000000000000
310
00000000000000000000000000000000000000000000000000000000000000000000000000000000000000000000000000000000000000000000000000000000000000000000000000000000000000000000000000000000000000000000000000000000000700000000000000000000000000000000000000000000000000
310
00000000000000000000000000000000000000000000000000000000000000000000000000000000000000000000070000000000000000000000000000000000000000000000000000000000000000000000000000000000000000000000000000000000000000000000000000000000000000000000000000000000000000
310
00000000000000000000000000000000000000000000000000000007000000000000000000000000000000000000000000000000000000000000000000000000000000000000000000000000000000000000000000000000000000000000000000000007000000000000000000000000000000000000000000000000000000
310
00000000000000000000000000000000000000000000000000000000000000000000000000000000000000000000000000000000000000000000000000000000000000000000000000000000000000000700000000000000000000000000000000000000000000000000000000000000000000000000000000000000000000
310
00000000000000000000000000000000000000000000000000070000000000000000000000000000000000000000000000000000000000000000000000000000000000000000000000000000000000000000000000000000000000000000000000000000000000000000000000000000000000000000000000000000000000
310
00000000000007070707070707070707070707070707070707070707070707070707070707070707070707070707070707070707070707070707070707070707070707070707070707070707070707000000000000000000000000000000000000000000000000000000000000000000000000000000000000000000000000
310
00000000000000000000000000000000000000000000000000000000000000000000000000000000000000000000000000000000000000000000000000000000000000000007000000000000000000000000000000000000000000000000000000000000000000000000000000000000000000000000000000070000000000
310
00000000000000000000000000000000000000000000000000000000000000000000000000000000000000000000000000000000000000000000000000000000000000000000000000000000000000000000000000000000000000000000000000000000000000000000000000000000000000000000000000000700000000
310
00000000000000000000000000000000000000000000000000000000000000000000000000000000000000000000000700000000000000000000000000000000000000000000000000000000000000000000000000000000000000000000000000000000000000000000000000000000000000000000000000000000000000
310
00000000000000000000000000000000000000000000000000000000000000000000000000000000000000000000000007000000000000000000000000000000000000000000000000000000000000000000000000000000000000000000000000000000070000000000000000000000000000000000000000000000000000
310
00000000000000000000000000000000000000000000000000000000000000000000000000000000000000000000000000000000000000000000000000000000000000000000000000000000000000000000000000000000000000000000000000000000000700000000000000000000000000000000000000000000000000
310
00000000000000000000000000000000000000000000000000000700000000000000000000000000000000000000000000000000000000000000000000000000000000000000000000000000000000000000000000000000000000000000000000000000000000000000000000000000000000000000000000000000000000
310
00000000000000000000000000000000000000000000000000000007000000000000000000000000000000000000000000000000000000000000000000000000000000000000000000000000000000070000000000000000000000000000000000000000000000000000000000000000000000000000000000000000000000
310
00000000000000000000000000000000000000000000000000000000000000000000000000000000000000000000000000000000000000000000000000000000000000000000000000000000000000000700000000000000000000000000000000000000000000000000000000000000000000000000000000000000000000
310
00000000000700000000000000000000000000000000000000000000000000000000000000000000000000000000000000000000000000000000000000000000000000000000000000000000000000000000000000000000000000000000000000000000000000000000000000000000000000000000000000000000000000
310
00000000000007000000000000000000000000000000000000000000000000000000000000000000000000000000000000000000000000000000070000000000000000000000000000000000000000000000000000000000000000000000000000000000000000000000000000000000000000000000000000000000000000
310
00000000000000000000000000000000000000000000000000000000000000000000000000000000000000000000000000000000000000000000000700000000000000000000000000000000000000000000000000000000000000000000000000000000000000000000000000000007000000000000000000000000000000
310
00000000000000000000000000000000000000000000000000000000000000000000000000000000000000000000000000000000000000000000000000000000000000000000000000000000000000000000000000000000000000000000000000000000000000000000000000000000070000000000000000000000000000
310
00000000000000000000000000000000000000000000000000000000000000000000000000070000000000000000000000000000000000000000000000000000000000000000000000000000000000000000000000000000000000000000000000000000000000000000000000000000000000000000000000000000000000
310
00000000000000000000000000000000000000000000000000000000000000000000000000000700000000000000000000000000000000000000000000000000000000000000000000000000000000000000000000000000000007000000000000000000000000000000000000000000000000000000000000000000000000
310
00000000000000000000000000000000000000000000000000000000000000000000000000000000000000000000000000000000000000000000000000000000000000000000000000000000000000000000000000000000000000070000000000000000000000000000000000000000000000000000000000000000000000
310
00000000000000000000000000000000070000000000000000000000000000000000000000000000000000000000000000000000000000000000000000000000000000000000000000000000000000000000000000000000000000000000000000000000000000000000000000000000000000000000000000000000000000
310
00000000000000000000000000000000000700000000000000000000000000000000000000000000000000000000000000000000000000000000000000000000000000000007000000000000000000000000000000000000000000000000000000000000000000000000000000000000000000000000000000000000000000
310
00000000000000000000000000000000000000000000000000000000000000000000000000000000000000000000000000000000000000000000000000000000000000000000070000000000000000000000000000000000000000000000000000000000000000000000000000000000000000000000000000000700000000
310
00000000000000000000000000000000000000000000000000000000000000000000000000000000000000000000000000000000000000000000000000000000000000000000000000000000000000000000000000000000000000000000000000000000000000000000000000000000000000000000000000000007000000
310
00000000000000000000000000000000000000000000000000000000000000000000000000000000000000000000000007000000000000000000000000000000000000000000000000000000000000000000000000000000000000000000000000000000000000000000000000000000000000000000000000000000000000
310
00000000000000000000000000000000000000000000000000000000000000000000000000000000000000070707070707070707070707070707070707070707070707070707070707070707070707070707070707070707070707070707070707070707070707070707070700000000000000000000000000000000000000
310
00000000000000000000000000000000000000000000000000000000000000000000000000000000000000000000000000000000000000000000000000000000000000000000000000000000000000000000000000000000000000000000000007000000000000000000000000000000000000000007000000000000000000
310
00000000000000000000000007000000000000000000000000000000000000000007000000000000000000000000000000000000000000000000000000000000000000000000000000000000000000000000000000000000000000000000000000000000000000000000000000000000000000000000000000000000000000
310
00000000000000000000000000000000000000000000070707070707070707070707070707070707070707070707070707070707070707070707070707070707070707070707070707070707070707070707070707070700000000000000000000000000000000000000000000000000000000000000000000000000000000
310
00000000000000000000000000000000000000000000000000000000000000000000000000000000000000000000000000000000000000000000000000000000000000000000000000000000000000000007000000000000000000000000000000000000000000000000000000000000000000000000000000000000000000
310
00000000000007000000000000000000000000000000000000000000000000000000000000000000000000000000000000000000000000000000000000000000000000000000000000000000000000000000000000000000000000000000000000000000000000000000000000000000000000000000000000000000000000
310
00000000000000070000000000000000000000000000000000000000000000000000000000000000000000000000000000000000000000000000000700000000000000000000000000000000000000000000000000000000000000000000000000000000000000000000000000000000000000000000000000000000000000
310
00000000000000000000000000000000000000000000000000000000000000000000000000000000000000000000000000000000000000000000000007000000000000000000000000000000000000000000000000000000000000000000000000000000000000000000000000000000070000000000000000000000000000
310
00000000000000000000000000000000000000000000000000000000000000000000000000000000000000000000000000000000000000000000000000000000000000000000000000000000000000000000000000000000000000000000000000000000000000000000000000000000000700000000000000000000000000
310
00000000000000000000000000000000000000000000000000000000000000000000000000000700000000000000000000000000000000000000000000000000000000000000000000000000000000000000000000000000000000000000000000000000000000000000000000000000000000000000000000000000000000
310
00000000000000000000000000000000000000000000000000000000000000000000000000000007000000000000000000000000000000000000000000000000000000000000000000000000000000000000000000000000000000070000000000000000000000000000000000000000000000000000000000000000000000
310
00000000000000000000000000000000000000000000000000000000000000000000000000000000000000000000000000000000000000000000000000000000000000000000000000000000000000000000000000000000000000000700000000000000000000000000000000000000000000000000000000000000000000
310
00000000000000000000000000000000000700000000000000000000000000000000000000000000000000000000000000000000000000000000000000000000000000000000000000000000000000000000000000000000000000000000000000000000000000000000000000000000000000000000000000000000000000
310
00000000000000000000000000000000000007000000000000000000000000000000000000000000000000000000000000000000000000000000000000000000000000000000070000000000000000000000000000000000000000000000000000000000000000000000000000000000000000000000000000000000000000
310
00000000000000000000000000000000000000000000000000000000000000000000000000000000000000000000000000000000000000000000000000000000000000000000000700000000000000000000000000000000000000000000000000000000000000000000000000000000000000000000000000000007000000
310
00000000000000000000000000000000000000000000000000000000000000000000000000000000000000000000000000000000000000000000000000000000000000000000000000000000000000000000000000000000000000000000000000000000000000000000000000000000000000000000000000000000070000
310
00000000000000000000000000000000000000000000000000000000000000000000000000000000000000000000000000070000000000000000000000000000000000000000000000000000000000000000000000000000000000000000000000000000000000000000000000000000000000000000000000000000000000
310
00000000000000000000000000000000000000000000000000000000000000000000000000000000000000000000000000000700000000000000000000000000000000000000000000000000000000000000000000000000000000000000000000000000000007000000000000000000000000000000000000000000000000
310
00000000000000000000000000000000000000000000000000000000000000000000000000000000000000000000000000000000000000000000000000000000000000000000000000000000000000000000000000000000000000000000000000000000000000070000000000000000000000000000000000000000000000
310
00000000000000000000000000000000000000000000000000000000070000000000000000000000000000000000000000000000000000000000000000000000000000000000000000000000000000000000000000000000000000000000000000000000000000000000000000000000000000000000000000000000000000
310
00000000000000000000000000000000000000000000000000000000070700000000000000000000000000000000000000000000000707070707000000000000000000000000000000000000000000000007070000000000000000000000000000000000000000000000000000000000000000000000000000000000000000
310
00000000000000000000000000000000000000000000000000000000000000000000000000000000000000000000000000000000000000000000000000000000000000000000000000000000000000000007070700000000000000000000000000000000000000000707070707070707070000000000000000000000000000
310
00000000000007070700000000000000000000000000000000000000000000000000000000000000000000000000000000000000000000000000000000000000000000000000000000000000000000000000000000000000000000000000000000000000000000000000000000000000000000000000000000000000000000
310
00000000000000070707000000000000000000000000000000000000070707070707070707070707070000000000000000000000000000000000000707070000000000000000000000000000000000000000000000000000000000000000000000000000000000000000000000000000000000000000000000000000000000
310
00000000000000000000000000000000000000000000000000000000000000000000000000000000000000000000000000000000000000000000000007070700000000000000000000000000000000000700070007000000000007000707000000000000000000000000000000000000070707000000000000000000000000
310
00000000000000000000000000000000000000000000000000000000000000000000000000000000000000000000000000000000000000000000000000000000000000000000000000000000000000000000000000000000000000000000000000000000000000000000000000000000000707070000000000000000000000
310
00000000000007070007000000000000000700070700000000000000000000000000000000000707070000000000000000000000000000000000000000000000000000000000000000000000000000000000000000000000000000000000000000000000000000000000000000000000000000000000000000000000000000
310
00000000000000000000000000000000000000000000000000000000000000000000000000000007070700000000000000000000000000000000070700070000000000000000000707070000000000000000000000000000000007000707000000000000000000000000000000000000000000000000000000000000000000
310
00000000000000000000000000000000000000000000000000000000000000000000000000000000000000000000000000000000000000000000000000000000000000000000000000000000000000000000000000000000000000000707070000000000000000000000000000000007070700000000000000000000000707
310
07000000000000000000000000000000070007070000000000000000000000000000000000000000000000000000000000000000000000000000000000000000000000000000000000000000000000000000000000000000000000000000000000000000000000000000000000000000000000000000000000000000000000
310
00000000000000000000000000000000000007070700000000000000000000000000000007000707000000000000000000000007070700000000000000000000000000000007000707000000000000000000000000000000000000000000000000000000000000000000000000000000000000000000000000000000000000
310
00000000000000000000000000000000000000000000000000000000000000000000000000000000000000000000000000000000000000000000000000000000000000000000000707000000000000000000000000000000000700070700000000000000000000000000000000000000000000000000000000000700070700
310
00000000000000000000000000000000000000000000000000000000000000000000000000000000000000000000000000000000000000000000000000000000000000000000000000000000000000000000000000000000000000000000000000000000000000000000000000000000000000000000000000000000070707
310
00000000000000000000000000000007000707000000000000000000000007070700000000000000000000000000000007000707000000000000000000000000000000000000000000000000000000000000000000000000000000000000000000000000000000000000000000000000000000000000000000000000000000
310
00000000000000000000000000000000000000000000000000000000000000000000000000000000000000000000000000000707070000000000000000000000000000000007070700000000000000000000000707070000000000000000000000000000000700070700000000000000000000000000000000000000000000
310
00000000000000000000000000000000000000000000000000000000000000000000000000000000000000000000000000000000000000000000000000000000000000000000000000000000000000000000000000000000000000000000000000000000000000070707000000000000000000000000000000000707000700
310
00000000000000000707070000000000000000000000000000000007000707000000000000000000000000000000000000000000000000000000000000000000000000000000000000000000000000000000000000000000000000000000000000000000000000000000000000000000000000000000000000000000000000
310
00000000000000000000000000000000000000000000000000000000000707070000000000000000000000000000000000070700070000000000000007000707000000000000000000000000000000000007070700000000000000000000000000000000000000000000000000000000000000000000000000000000000000
310
00000000000000000000000000000000000000000000000000000000000000000000000000000000000000000000000000000000000000000000000000000000000000000000000000000000000000000000070707000000000000000000000000000000000007000700070000000000070007070000000000000000000000
310
00000000000000070707000000000000000000000000000000000000000000000000000000000000000000000000000000000000000000000000000000000000000000000000000000000000000000000000000000000000000000000000000000000000000000000000000000000000000000000000000000000000000000
310
00000000000000000707070707070707070707070707000000000000000700070007070707070007000700000000000007070707070707070707070707070700000000000000000000000000000000000000000000000000000000000000000000000000000000000000000000000000000000000000000000000000000000
310
00000000000000000000000000000000000000000000000000000000000000000000000000000000000000000000000000000000000000000000000000070707000000000000000000000000000000000000000707070707070707070707000000000000000000000000000000000000000707070000000000000000000000
310
00000000000000000000000000000000000000000000000000000000000000000000000000000000000000000000000000000000000000000000000000000000000000000000000000000000000000000000000000000000000000000000000000000000000000000000000000000000000007070700000000000000000000
310
00000000000000000000000707070707070700000000000000000000000000000000000000000007070700000000000000000000000000000000000000000000000000000000000000000000000000000000000000000000000000000000000000000000000000000000000000000000000000000000000000000000000000
310
00000000000000000000000000000000000000000000000000000000000000000000000000000000000707070707070707070707070707070707070707070707070707070707070707070707070707070707070707070707070707070707000000000000000000000000000000000000000000000000000000000000000000
310
00000000000000000000000000000000000000000000000000000000000000000000000000000000000000000000000000000000000000000000000000000000000000000000000000000000000000000000000000000000000000000000000000000000000000000000000000000000000000000000000000000000000000
310
00000000000000000000000000000000000000000000000000000000000000000000000000000000000000000000000000000000000000000000000000000000000000000000000000000000000000000000000000000000000000000000000000000000000000000000000000000000000000000000000000000000000000
310
00000000000000000000000000000000000000000000000000000000000000000000000000000000000000000000000000000000000000000000000000000000000000000000000000000000000000000000000000000000000000000000000000000000000000000000000000000000000000000000000000000000000000
310
00000000000000000000000000000000000000000000000000000000000000000000000000000000000000000000000000000000000000000000000000000000000000000000000000000000000000000000000000000000000000000000000000000000000000000000000000000000000000000000000000000000000000
310
00000000000000000000000000000000000000000000000000000000000000000000000000000000000000000000000000000000000000000000000000000000000000000000000000000000000000000000000000000000000000000000000000000000000000000000000000000000000000000000000000000000000000
310
000000000000000000000000000000000000000000000000000000000000000000000000000000000000000000000000000000000000000000000000000000000000000000000000000000000000000000000000000000000000000000000000000000000000000000000000
  0
ENDSEC
  0
EOF
