  0
SECTION
  2
HEADER
  9
$ACADVER
  1
AC1015
  9
$ACADMAINTVER
 70
     6
  9
$DWGCODEPAGE
  3
ANSI_1252
  9
$INSBASE
 10
0.0
 20
0.0
 30
0.0
  9
$EXTMIN
 10
-0.0489135
 20
0.0
 30
0.0
  9
$EXTMAX
 10
182.9999865
 20
170.0
 30
0.0
  9
$LIMMIN
 10
0.0
 20
0.0
  9
$LIMMAX
 10
12.0
 20
9.0
  9
$ORTHOMODE
 70
     0
  9
$REGENMODE
 70
     1
  9
$FILLMODE
 70
     1
  9
$QTEXTMODE
 70
     0
  9
$MIRRTEXT
 70
     1
  9
$LTSCALE
 40
1.0
  9
$ATTMODE
 70
     1
  9
$TEXTSIZE
 40
0.2
  9
$TRACEWID
 40
0.05
  9
$TEXTSTYLE
  7
Standard
  9
$CLAYER
  8
0
  9
$CELTYPE
  6
ByBlock
  9
$CECOLOR
 62
   256
  9
$CELTSCALE
 40
1.0
  9
$DISPSILH
 70
     0
  9
$DIMSCALE
 40
1.0
  9
$DIMASZ
 40
0.18
  9
$DIMEXO
 40
0.0625
  9
$DIMDLI
 40
0.38
  9
$DIMRND
 40
0.0
  9
$DIMDLE
 40
0.0
  9
$DIMEXE
 40
0.18
  9
$DIMTP
 40
0.0
  9
$DIMTM
 40
0.0
  9
$DIMTXT
 40
0.18
  9
$DIMCEN
 40
0.09
  9
$DIMTSZ
 40
0.0
  9
$DIMTOL
 70
     0
  9
$DIMLIM
 70
     0
  9
$DIMTIH
 70
     1
  9
$DIMTOH
 70
     1
  9
$DIMSE1
 70
     0
  9
$DIMSE2
 70
     0
  9
$DIMTAD
 70
     0
  9
$DIMZIN
 70
     0
  9
$DIMBLK
  1

  9
$DIMASO
 70
     1
  9
$DIMSHO
 70
     1
  9
$DIMPOST
  1

  9
$DIMAPOST
  1

  9
$DIMALT
 70
     0
  9
$DIMALTD
 70
     2
  9
$DIMALTF
 40
25.4
  9
$DIMLFAC
 40
1.0
  9
$DIMTOFL
 70
     0
  9
$DIMTVP
 40
0.0
  9
$DIMTIX
 70
     0
  9
$DIMSOXD
 70
     0
  9
$DIMSAH
 70
     0
  9
$DIMBLK1
  1

  9
$DIMBLK2
  1

  9
$DIMSTYLE
  2
Standard
  9
$DIMCLRD
 70
     0
  9
$DIMCLRE
 70
     0
  9
$DIMCLRT
 70
     0
  9
$DIMTFAC
 40
1.0
  9
$DIMGAP
 40
0.09
  9
$DIMJUST
 70
     0
  9
$DIMSD1
 70
     0
  9
$DIMSD2
 70
     0
  9
$DIMTOLJ
 70
     1
  9
$DIMTZIN
 70
     0
  9
$DIMALTZ
 70
     0
  9
$DIMALTTZ
 70
     0
  9
$DIMUPT
 70
     0
  9
$DIMDEC
 70
     4
  9
$DIMTDEC
 70
     4
  9
$DIMALTU
 70
     2
  9
$DIMALTTD
 70
     2
  9
$DIMTXSTY
  7
Standard
  9
$DIMAUNIT
 70
     0
  9
$DIMADEC
 70
     0
  9
$DIMALTRND
 40
0.0
  9
$DIMAZIN
 70
     0
  9
$DIMDSEP
 70
    46
  9
$DIMATFIT
 70
     3
  9
$DIMFRAC
 70
     0
  9
$DIMLDRBLK
  1

  9
$DIMLUNIT
 70
     2
  9
$DIMLWD
 70
    -2
  9
$DIMLWE
 70
    -2
  9
$DIMTMOVE
 70
     2
  9
$LUNITS
 70
     2
  9
$LUPREC
 70
     4
  9
$SKETCHINC
 40
0.1
  9
$FILLETRAD
 40
0.5
  9
$AUNITS
 70
     0
  9
$AUPREC
 70
     0
  9
$MENU
  1
.
  9
$ELEVATION
 40
0.0
  9
$PELEVATION
 40
0.0
  9
$THICKNESS
 40
0.0
  9
$LIMCHECK
 70
     0
  9
$CHAMFERA
 40
0.5
  9
$CHAMFERB
 40
0.5
  9
$CHAMFERC
 40
1.0
  9
$CHAMFERD
 40
0.0
  9
$SKPOLY
 70
     0
  9
$TDCREATE
 40
2456183.678419595
  9
$TDUCREATE
 40
2456183.595086262
  9
$TDUPDATE
 40
2456183.680805845
  9
$TDUUPDATE
 40
2456183.597472512
  9
$TDINDWG
 40
0.0023859028
  9
$TDUSRTIMER
 40
0.0023859028
  9
$USRTIMER
 70
     1
  9
$ANGBASE
 50
0.0
  9
$ANGDIR
 70
     0
  9
$PDMODE
 70
     0
  9
$PDSIZE
 40
0.0
  9
$PLINEWID
 40
0.0
  9
$SPLFRAME
 70
     0
  9
$SPLINETYPE
 70
     6
  9
$SPLINESEGS
 70
     8
  9
$HANDSEED
  5
89A
  9
$SURFTAB1
 70
     6
  9
$SURFTAB2
 70
     6
  9
$SURFTYPE
 70
     6
  9
$SURFU
 70
     6
  9
$SURFV
 70
     6
  9
$UCSBASE
  2

  9
$UCSNAME
  2

  9
$UCSORG
 10
0.0
 20
0.0
 30
0.0
  9
$UCSXDIR
 10
1.0
 20
0.0
 30
0.0
  9
$UCSYDIR
 10
0.0
 20
1.0
 30
0.0
  9
$UCSORTHOREF
  2

  9
$UCSORTHOVIEW
 70
     0
  9
$UCSORGTOP
 10
0.0
 20
0.0
 30
0.0
  9
$UCSORGBOTTOM
 10
0.0
 20
0.0
 30
0.0
  9
$UCSORGLEFT
 10
0.0
 20
0.0
 30
0.0
  9
$UCSORGRIGHT
 10
0.0
 20
0.0
 30
0.0
  9
$UCSORGFRONT
 10
0.0
 20
0.0
 30
0.0
  9
$UCSORGBACK
 10
0.0
 20
0.0
 30
0.0
  9
$PUCSBASE
  2

  9
$PUCSNAME
  2

  9
$PUCSORG
 10
0.0
 20
0.0
 30
0.0
  9
$PUCSXDIR
 10
1.0
 20
0.0
 30
0.0
  9
$PUCSYDIR
 10
0.0
 20
1.0
 30
0.0
  9
$PUCSORTHOREF
  2

  9
$PUCSORTHOVIEW
 70
     0
  9
$PUCSORGTOP
 10
0.0
 20
0.0
 30
0.0
  9
$PUCSORGBOTTOM
 10
0.0
 20
0.0
 30
0.0
  9
$PUCSORGLEFT
 10
0.0
 20
0.0
 30
0.0
  9
$PUCSORGRIGHT
 10
0.0
 20
0.0
 30
0.0
  9
$PUCSORGFRONT
 10
0.0
 20
0.0
 30
0.0
  9
$PUCSORGBACK
 10
0.0
 20
0.0
 30
0.0
  9
$USERI1
 70
     0
  9
$USERI2
 70
     0
  9
$USERI3
 70
     0
  9
$USERI4
 70
     0
  9
$USERI5
 70
     0
  9
$USERR1
 40
0.0
  9
$USERR2
 40
0.0
  9
$USERR3
 40
0.0
  9
$USERR4
 40
0.0
  9
$USERR5
 40
0.0
  9
$WORLDVIEW
 70
     1
  9
$SHADEDGE
 70
     3
  9
$SHADEDIF
 70
    70
  9
$TILEMODE
 70
     1
  9
$MAXACTVP
 70
    64
  9
$PINSBASE
 10
0.0
 20
0.0
 30
0.0
  9
$PLIMCHECK
 70
     0
  9
$PEXTMIN
 10
1.000000000000E+20
 20
1.000000000000E+20
 30
1.000000000000E+20
  9
$PEXTMAX
 10
-1.000000000000E+20
 20
-1.000000000000E+20
 30
-1.000000000000E+20
  9
$PLIMMIN
 10
0.0
 20
0.0
  9
$PLIMMAX
 10
12.0
 20
9.0
  9
$UNITMODE
 70
     0
  9
$VISRETAIN
 70
     1
  9
$PLINEGEN
 70
     0
  9
$PSLTSCALE
 70
     1
  9
$TREEDEPTH
 70
  3020
  9
$CMLSTYLE
  2
Standard
  9
$CMLJUST
 70
     0
  9
$CMLSCALE
 40
1.0
  9
$PROXYGRAPHICS
 70
     1
  9
$MEASUREMENT
 70
     0
  9
$CELWEIGHT
370
    -1
  9
$ENDCAPS
280
     0
  9
$JOINSTYLE
280
     0
  9
$LWDISPLAY
290
     0
  9
$INSUNITS
 70
     0
  9
$HYPERLINKBASE
  1

  9
$STYLESHEET
  1

  9
$XEDIT
290
     1
  9
$CEPSNTYPE
380
     0
  9
$PSTYLEMODE
290
     1
  9
$FINGERPRINTGUID
  2
{88AEEDB7-45EC-4584-AEB8-9E8CE0860217}
  9
$VERSIONGUID
  2
{FAEB1C32-E019-11D5-929B-00C0DF256EC4}
  9
$EXTNAMES
290
     1
  9
$PSVPSCALE
 40
0.0
  9
$OLESTARTUP
290
     0
  0
ENDSEC
  0
SECTION
  2
CLASSES
  0
CLASS
  1
ACDBDICTIONARYWDFLT
  2
AcDbDictionaryWithDefault
  3
ObjectDBX Classes
 90
        0
280
     0
281
     0
  0
CLASS
  1
SCALE
  2
AcDbScale
  3
ObjectDBX Classes
 90
     1153
280
     0
281
     0
  0
CLASS
  1
DICTIONARYVAR
  2
AcDbDictionaryVar
  3
ObjectDBX Classes
 90
        0
280
     0
281
     0
  0
CLASS
  1
ACDBPLACEHOLDER
  2
AcDbPlaceHolder
  3
ObjectDBX Classes
 90
        0
280
     0
281
     0
  0
CLASS
  1
LAYOUT
  2
AcDbLayout
  3
ObjectDBX Classes
 90
        0
280
     0
281
     0
  0
ENDSEC
  0
SECTION
  2
TABLES
  0
TABLE
  2
VPORT
  5
8
330
0
100
AcDbSymbolTable
 70
     1
  0
VPORT
  5
781
330
8
100
AcDbSymbolTableRecord
100
AcDbViewportTableRecord
  2
*Active
 70
     0
 10
0.0
 20
0.0
 11
1.0
 21
1.0
 12
91.4755365
 22
85.0
 13
0.0
 23
0.0
 14
0.5
 24
0.5
 15
0.5
 25
0.5
 16
0.0
 26
0.0
 36
1.0
 17
0.0
 27
0.0
 37
0.0
 40
173.4
 41
2.271724137931
 42
50.0
 43
0.0
 44
0.0
 50
0.0
 51
0.0
 71
    16
 72
   100
 73
     1
 74
     3
 75
     0
 76
     0
 77
     0
 78
     0
281
     0
 65
     1
110
0.0
120
0.0
130
0.0
111
1.0
121
0.0
131
0.0
112
0.0
122
1.0
132
0.0
 79
     0
146
0.0
  0
ENDTAB
  0
TABLE
  2
LTYPE
  5
5
330
0
100
AcDbSymbolTable
 70
     1
  0
LTYPE
  5
14
330
5
100
AcDbSymbolTableRecord
100
AcDbLinetypeTableRecord
  2
ByBlock
 70
     0
  3

 72
    65
 73
     0
 40
0.0
  0
LTYPE
  5
15
330
5
100
AcDbSymbolTableRecord
100
AcDbLinetypeTableRecord
  2
ByLayer
 70
     0
  3

 72
    65
 73
     0
 40
0.0
  0
LTYPE
  5
16
330
5
100
AcDbSymbolTableRecord
100
AcDbLinetypeTableRecord
  2
Continuous
 70
     0
  3
Solid line
 72
    65
 73
     0
 40
0.0
  0
ENDTAB
  0
TABLE
  2
LAYER
  5
2
330
0
100
AcDbSymbolTable
 70
     1
  0
LAYER
  5
10
330
2
100
AcDbSymbolTableRecord
100
AcDbLayerTableRecord
  2
0
 70
     0
 62
     7
  6
Continuous
370
    -3
390
F
  0
ENDTAB
  0
TABLE
  2
STYLE
  5
3
330
0
100
AcDbSymbolTable
 70
     1
  0
STYLE
  5
11
330
3
100
AcDbSymbolTableRecord
100
AcDbTextStyleTableRecord
  2
Standard
 70
     0
 40
0.0
 41
1.0
 50
0.0
 71
     0
 42
0.2
  3
txt
  4

  0
ENDTAB
  0
TABLE
  2
VIEW
  5
6
330
0
100
AcDbSymbolTable
 70
     0
  0
ENDTAB
  0
TABLE
  2
UCS
  5
7
330
0
100
AcDbSymbolTable
 70
     0
  0
ENDTAB
  0
TABLE
  2
APPID
  5
9
330
0
100
AcDbSymbolTable
 70
     1
  0
APPID
  5
12
330
9
100
AcDbSymbolTableRecord
100
AcDbRegAppTableRecord
  2
ACAD
 70
     0
  0
ENDTAB
  0
TABLE
  2
DIMSTYLE
  5
A
330
0
100
AcDbSymbolTable
 70
     1
100
AcDbDimStyleTable
  0
DIMSTYLE
105
20
330
A
100
AcDbSymbolTableRecord
100
AcDbDimStyleTableRecord
  2
Standard
 70
     0
340
11
  0
ENDTAB
  0
TABLE
  2
BLOCK_RECORD
  5
1
330
0
100
AcDbSymbolTable
 70
     1
  0
BLOCK_RECORD
  5
1D
330
1
100
AcDbSymbolTableRecord
100
AcDbBlockTableRecord
  2
*Model_Space
340
1E
  0
BLOCK_RECORD
  5
1B
330
1
100
AcDbSymbolTableRecord
100
AcDbBlockTableRecord
  2
*Paper_Space
340
1C
  0
ENDTAB
  0
ENDSEC
  0
SECTION
  2
BLOCKS
  0
BLOCK
  5
784
330
1D
100
AcDbEntity
  8
0
100
AcDbBlockBegin
  2
*Model_Space
 70
     0
 10
0.0
 20
0.0
 30
0.0
  3
*Model_Space
  1
*Model_Space
  0
ENDBLK
  5
785
330
1D
100
AcDbEntity
  8
0
100
AcDbBlockEnd
  0
BLOCK
  5
782
330
1B
100
AcDbEntity
 67
     1
  8
0
100
AcDbBlockBegin
  2
*Paper_Space
 70
     0
 10
0.0
 20
0.0
 30
0.0
  3
*Paper_Space
  1
*Paper_Space
  0
ENDBLK
  5
783
330
1B
100
AcDbEntity
 67
     1
  8
0
100
AcDbBlockEnd
  0
ENDSEC
  0
SECTION
  2
ENTITIES
  0
LINE
  5
136
330
1D
100
AcDbEntity
  8
0
100
AcDbLine
 10
19.2632865
 20
111.132
 30
0.0
 11
19.4369865
 21
110.95
 31
0.0
  0
LINE
  5
139
330
1D
100
AcDbEntity
  8
0
100
AcDbLine
 10
19.1999865
 20
111.375
 30
0.0
 11
19.2632865
 21
111.132
 31
0.0
  0
LINE
  5
13C
330
1D
100
AcDbEntity
  8
0
100
AcDbLine
 10
19.4369865
 20
110.95
 30
0.0
 11
19.6772865
 21
110.876
 31
0.0
  0
LINE
  5
13D
330
1D
100
AcDbEntity
  8
0
100
AcDbLine
 10
19.6769865
 20
110.876
 30
0.0
 11
27.3233865
 21
110.57
 31
0.0
  0
LINE
  5
190
330
1D
100
AcDbEntity
  8
0
100
AcDbLine
 10
38.255332707559
 20
110.369753431255
 30
0.0
 11
38.408390476144
 21
110.347542743539
 31
0.0
  0
LINE
  5
191
330
1D
100
AcDbEntity
  8
0
100
AcDbLine
 10
34.5263865
 20
110.362
 30
0.0
 11
34.6044865
 21
110.373
 31
0.0
  0
LINE
  5
192
330
1D
100
AcDbEntity
  8
0
100
AcDbLine
 10
34.5001865
 20
110.358
 30
0.0
 11
34.558063423077
 21
110.366461538462
 31
0.0
  0
LINE
  5
1EC
330
1D
100
AcDbEntity
  8
0
100
AcDbLine
 10
49.6956865
 20
26.9749
 30
0.0
 11
49.695784243025
 21
26.918824826729
 31
0.0
  0
LINE
  5
201
330
1D
100
AcDbEntity
  8
0
100
AcDbLine
 10
49.9999865
 20
27.0
 30
0.0
 11
53.9999865
 21
27.0
 31
0.0
  0
LINE
  5
24D
330
1D
100
AcDbEntity
  8
0
100
AcDbLine
 10
45.1496865
 20
110.178
 30
0.0
 11
51.3998865
 21
110.149
 31
0.0
  0
LINE
  5
24E
330
1D
100
AcDbEntity
  8
0
100
AcDbLine
 10
51.5498865
 20
110.188
 30
0.0
 11
51.6597865
 21
110.298
 31
0.0
  0
LINE
  5
24F
330
1D
100
AcDbEntity
  8
0
100
AcDbLine
 10
51.3998865
 20
110.148
 30
0.0
 11
51.5498865
 21
110.188
 31
0.0
  0
LINE
  5
250
330
1D
100
AcDbEntity
  8
0
100
AcDbLine
 10
38.8999865
 20
110.264
 30
0.0
 11
45.1496865
 21
110.178
 31
0.0
  0
LINE
  5
251
330
1D
100
AcDbEntity
  8
0
100
AcDbLine
 10
38.83262827614
 20
110.276991942288
 30
0.0
 11
38.8999865
 21
110.264
 31
0.0
  0
LINE
  5
252
330
1D
100
AcDbEntity
  8
0
100
AcDbLine
 10
38.8310865
 20
110.277
 30
0.0
 11
38.8999865
 21
110.264
 31
0.0
  0
LINE
  5
254
330
1D
100
AcDbEntity
  8
0
100
AcDbLine
 10
38.6307865
 20
110.312
 30
0.0
 11
38.8310865
 21
110.277
 31
0.0
  0
LINE
  5
255
330
1D
100
AcDbEntity
  8
0
100
AcDbLine
 10
51.6597865
 20
110.298
 30
0.0
 11
51.6999865
 21
110.448
 31
0.0
  0
LINE
  5
258
330
1D
100
AcDbEntity
  8
0
100
AcDbLine
 10
38.3679865
 20
110.354
 30
0.0
 11
38.6307865
 21
110.312
 31
0.0
  0
LINE
  5
259
330
1D
100
AcDbEntity
  8
0
100
AcDbLine
 10
34.78793427144
 20
110.398222855936
 30
0.0
 11
35.0530865
 21
110.43
 31
0.0
  0
LINE
  5
25A
330
1D
100
AcDbEntity
  8
0
100
AcDbLine
 10
35.0530865
 20
110.43
 30
0.0
 11
35.4205865
 21
110.465
 31
0.0
  0
LINE
  5
25B
330
1D
100
AcDbEntity
  8
0
100
AcDbLine
 10
37.978783601704
 20
110.406904795363
 30
0.0
 11
38.181962712742
 21
110.380013442431
 31
0.0
  0
LINE
  5
25C
330
1D
100
AcDbEntity
  8
0
100
AcDbLine
 10
38.0318865
 20
110.401
 30
0.0
 11
38.3679865
 21
110.354
 31
0.0
  0
LINE
  5
25D
330
1D
100
AcDbEntity
  8
0
100
AcDbLine
 10
37.6361865
 20
110.445
 30
0.0
 11
38.0318865
 21
110.401
 31
0.0
  0
LINE
  5
25E
330
1D
100
AcDbEntity
  8
0
100
AcDbLine
 10
35.0694865
 20
110.432
 30
0.0
 11
35.4205865
 21
110.465
 31
0.0
  0
LINE
  5
25F
330
1D
100
AcDbEntity
  8
0
100
AcDbLine
 10
35.9321865
 20
110.496
 30
0.0
 11
36.4995865
 21
110.505
 31
0.0
  0
LINE
  5
260
330
1D
100
AcDbEntity
  8
0
100
AcDbLine
 10
36.4995865
 20
110.505
 30
0.0
 11
37.0828865
 21
110.487
 31
0.0
  0
LINE
  5
261
330
1D
100
AcDbEntity
  8
0
100
AcDbLine
 10
37.0828865
 20
110.487
 30
0.0
 11
37.6361865
 21
110.445
 31
0.0
  0
LINE
  5
262
330
1D
100
AcDbEntity
  8
0
100
AcDbLine
 10
35.4205865
 20
110.465
 30
0.0
 11
35.9321865
 21
110.496
 31
0.0
  0
LINE
  5
263
330
1D
100
AcDbEntity
  8
0
100
AcDbLine
 10
34.7935865
 20
110.399
 30
0.0
 11
35.0694865
 21
110.432
 31
0.0
  0
LINE
  5
264
330
1D
100
AcDbEntity
  8
0
100
AcDbLine
 10
27.3233865
 20
110.57
 30
0.0
 11
34.5001865
 21
110.358
 31
0.0
  0
LINE
  5
280
330
1D
100
AcDbEntity
  8
0
100
AcDbLine
 10
51.9999865
 20
113.676
 30
0.0
 11
52.2499865
 21
113.593
 31
0.0
  0
LINE
  5
286
330
1D
100
AcDbEntity
  8
0
100
AcDbLine
 10
51.6999865
 20
113.676
 30
0.0
 11
51.9999865
 21
113.676
 31
0.0
  0
LINE
  5
289
330
1D
100
AcDbEntity
  8
0
100
AcDbLine
 10
34.6044865
 20
110.373
 30
0.0
 11
34.7935865
 21
110.399
 31
0.0
  0
LINE
  5
2E2
330
1D
100
AcDbEntity
  8
0
100
AcDbLine
 10
19.1999865
 20
142.408
 30
0.0
 11
19.1999865
 21
142.498
 31
0.0
  0
LINE
  5
2E3
330
1D
100
AcDbEntity
  8
0
100
AcDbLine
 10
19.1999865
 20
142.408
 30
0.0
 11
19.1999865
 21
142.342
 31
0.0
  0
LINE
  5
2E4
330
1D
100
AcDbEntity
  8
0
100
AcDbLine
 10
19.1999865
 20
142.498
 30
0.0
 11
19.1999865
 21
142.41
 31
0.0
  0
LINE
  5
2E5
330
1D
100
AcDbEntity
  8
0
100
AcDbLine
 10
19.1999865
 20
142.498
 30
0.0
 11
19.1999865
 21
142.408
 31
0.0
  0
LINE
  5
2E6
330
1D
100
AcDbEntity
  8
0
100
AcDbLine
 10
19.1999865
 20
142.498
 30
0.0
 11
19.2626865
 21
142.74
 31
0.0
  0
LINE
  5
2E8
330
1D
100
AcDbEntity
  8
0
100
AcDbLine
 10
19.1999865
 20
142.342
 30
0.0
 11
19.1999865
 21
142.408
 31
0.0
  0
LINE
  5
2EA
330
1D
100
AcDbEntity
  8
0
100
AcDbLine
 10
19.1999865
 20
142.41
 30
0.0
 11
19.1999865
 21
142.498
 31
0.0
  0
LINE
  5
304
330
1D
100
AcDbEntity
  8
0
100
AcDbLine
 10
19.2626865
 20
142.74
 30
0.0
 11
19.4350865
 21
142.922
 31
0.0
  0
LINE
  5
308
330
1D
100
AcDbEntity
  8
0
100
AcDbLine
 10
19.4350865
 20
142.922
 30
0.0
 11
19.6739865
 21
142.997
 31
0.0
  0
LINE
  5
324
330
1D
100
AcDbEntity
  8
0
100
AcDbLine
 10
19.6739865
 20
142.997
 30
0.0
 11
20.2127865
 21
143.025
 31
0.0
  0
LINE
  5
325
330
1D
100
AcDbEntity
  8
0
100
AcDbLine
 10
20.3768865
 20
143.033
 30
0.0
 11
20.6158865
 21
143.026
 31
0.0
  0
LINE
  5
326
330
1D
100
AcDbEntity
  8
0
100
AcDbLine
 10
20.6158865
 20
143.026
 30
0.0
 11
20.9001865
 21
142.978
 31
0.0
  0
LINE
  5
327
330
1D
100
AcDbEntity
  8
0
100
AcDbLine
 10
20.2127865
 20
143.025
 30
0.0
 11
20.3279865
 21
143.031
 31
0.0
  0
LINE
  5
333
330
1D
100
AcDbEntity
  8
0
100
AcDbLine
 10
30.2929865
 20
141.077
 30
0.0
 11
32.3941865
 21
140.757
 31
0.0
  0
LINE
  5
338
330
1D
100
AcDbEntity
  8
0
100
AcDbLine
 10
24.5791865
 20
142.147
 30
0.0
 11
28.1529865
 21
141.444
 31
0.0
  0
LINE
  5
33A
330
1D
100
AcDbEntity
  8
0
100
AcDbLine
 10
28.1529865
 20
141.444
 30
0.0
 11
30.2929865
 21
141.077
 31
0.0
  0
LINE
  5
347
330
1D
100
AcDbEntity
  8
0
100
AcDbLine
 10
39.0799865
 20
140.018
 30
0.0
 11
41.6215865
 21
139.849
 31
0.0
  0
LINE
  5
348
330
1D
100
AcDbEntity
  8
0
100
AcDbLine
 10
41.6215865
 20
139.849
 30
0.0
 11
44.9363865
 21
139.714
 31
0.0
  0
LINE
  5
354
330
1D
100
AcDbEntity
  8
0
100
AcDbLine
 10
47.1093865
 20
139.67
 30
0.0
 11
51.3999865
 21
139.648
 31
0.0
  0
LINE
  5
355
330
1D
100
AcDbEntity
  8
0
100
AcDbLine
 10
44.9363865
 20
139.714
 30
0.0
 11
47.1093865
 21
139.67
 31
0.0
  0
LINE
  5
356
330
1D
100
AcDbEntity
  8
0
100
AcDbLine
 10
34.4575865
 20
140.483
 30
0.0
 11
36.4844865
 21
140.253
 31
0.0
  0
LINE
  5
357
330
1D
100
AcDbEntity
  8
0
100
AcDbLine
 10
36.4844865
 20
140.253
 30
0.0
 11
39.0799865
 21
140.018
 31
0.0
  0
LINE
  5
35A
330
1D
100
AcDbEntity
  8
0
100
AcDbLine
 10
32.3941865
 20
140.757
 30
0.0
 11
34.4575865
 21
140.483
 31
0.0
  0
LINE
  5
35B
330
1D
100
AcDbEntity
  8
0
100
AcDbLine
 10
20.9001865
 20
142.978
 30
0.0
 11
24.5791865
 21
142.147
 31
0.0
  0
LINE
  5
391
330
1D
100
AcDbEntity
  8
0
100
AcDbLine
 10
51.9999865
 20
136.12
 30
0.0
 11
52.2499865
 21
136.203
 31
0.0
  0
LINE
  5
395
330
1D
100
AcDbEntity
  8
0
100
AcDbLine
 10
51.6999865
 20
139.074
 30
0.0
 11
51.6999865
 21
139.279
 31
0.0
  0
LINE
  5
396
330
1D
100
AcDbEntity
  8
0
100
AcDbLine
 10
51.6999865
 20
139.279
 30
0.0
 11
51.6999865
 21
139.348
 31
0.0
  0
LINE
  5
397
330
1D
100
AcDbEntity
  8
0
100
AcDbLine
 10
51.6999865
 20
139.279
 30
0.0
 11
51.6999865
 21
139.074
 31
0.0
  0
LINE
  5
398
330
1D
100
AcDbEntity
  8
0
100
AcDbLine
 10
51.5499865
 20
139.608
 30
0.0
 11
51.6597865
 21
139.498
 31
0.0
  0
LINE
  5
399
330
1D
100
AcDbEntity
  8
0
100
AcDbLine
 10
51.3999865
 20
139.648
 30
0.0
 11
51.5499865
 21
139.608
 31
0.0
  0
LINE
  5
39A
330
1D
100
AcDbEntity
  8
0
100
AcDbLine
 10
51.6597865
 20
139.498
 30
0.0
 11
51.6999865
 21
139.348
 31
0.0
  0
LINE
  5
39B
330
1D
100
AcDbEntity
  8
0
100
AcDbLine
 10
51.6999865
 20
139.348
 30
0.0
 11
51.6999865
 21
139.279
 31
0.0
  0
LINE
  5
39F
330
1D
100
AcDbEntity
  8
0
100
AcDbLine
 10
51.6999865
 20
136.119
 30
0.0
 11
51.9999865
 21
136.119
 31
0.0
  0
LINE
  5
3BB
330
1D
100
AcDbEntity
  8
0
100
AcDbLine
 10
52.4999865
 20
110.616
 30
0.0
 11
52.4999865
 21
110.498
 31
0.0
  0
LINE
  5
3BC
330
1D
100
AcDbEntity
  8
0
100
AcDbLine
 10
52.4999865
 20
110.616
 30
0.0
 11
52.4999865
 21
110.96
 31
0.0
  0
LINE
  5
3BD
330
1D
100
AcDbEntity
  8
0
100
AcDbLine
 10
52.4999865
 20
110.607
 30
0.0
 11
52.4999865
 21
110.941
 31
0.0
  0
LINE
  5
3BE
330
1D
100
AcDbEntity
  8
0
100
AcDbLine
 10
52.4999865
 20
110.607
 30
0.0
 11
52.4999865
 21
110.498
 31
0.0
  0
LINE
  5
3BF
330
1D
100
AcDbEntity
  8
0
100
AcDbLine
 10
52.4999865
 20
110.498
 30
0.0
 11
52.4999865
 21
110.607
 31
0.0
  0
LINE
  5
3C0
330
1D
100
AcDbEntity
  8
0
100
AcDbLine
 10
52.4999865
 20
110.498
 30
0.0
 11
52.5669865
 21
110.25
 31
0.0
  0
LINE
  5
3C1
330
1D
100
AcDbEntity
  8
0
100
AcDbLine
 10
52.4999865
 20
110.498
 30
0.0
 11
52.4999865
 21
110.616
 31
0.0
  0
LINE
  5
3C2
330
1D
100
AcDbEntity
  8
0
100
AcDbLine
 10
52.4999865
 20
111.495
 30
0.0
 11
52.4999865
 21
112.261
 31
0.0
  0
LINE
  5
3C3
330
1D
100
AcDbEntity
  8
0
100
AcDbLine
 10
52.4999865
 20
111.495
 30
0.0
 11
52.4999865
 21
110.941
 31
0.0
  0
LINE
  5
3C4
330
1D
100
AcDbEntity
  8
0
100
AcDbLine
 10
52.4999865
 20
110.941
 30
0.0
 11
52.4999865
 21
111.495
 31
0.0
  0
LINE
  5
3C5
330
1D
100
AcDbEntity
  8
0
100
AcDbLine
 10
52.4999865
 20
110.941
 30
0.0
 11
52.4999865
 21
110.607
 31
0.0
  0
LINE
  5
3C6
330
1D
100
AcDbEntity
  8
0
100
AcDbLine
 10
52.4999865
 20
111.523
 30
0.0
 11
52.4999865
 21
110.96
 31
0.0
  0
LINE
  5
3C7
330
1D
100
AcDbEntity
  8
0
100
AcDbLine
 10
52.4999865
 20
111.523
 30
0.0
 11
52.4999865
 21
112.298
 31
0.0
  0
LINE
  5
3CA
330
1D
100
AcDbEntity
  8
0
100
AcDbLine
 10
54.2999865
 20
0.3
 30
0.0
 11
54.9999865
 21
0.0
 31
0.0
  0
LINE
  5
3CB
330
1D
100
AcDbEntity
  8
0
100
AcDbLine
 10
54.2999865
 20
0.3
 30
0.0
 11
54.9999865
 21
0.0
 31
0.0
  0
LINE
  5
3CC
330
1D
100
AcDbEntity
  8
0
100
AcDbLine
 10
54.9999865
 20
0.0
 30
0.0
 11
74.9999865
 21
0.0
 31
0.0
  0
LINE
  5
3CD
330
1D
100
AcDbEntity
  8
0
100
AcDbLine
 10
74.9999865
 20
0.0
 30
0.0
 11
74.9999865
 21
0.3
 31
0.0
  0
LINE
  5
3CE
330
1D
100
AcDbEntity
  8
0
100
AcDbLine
 10
74.9999865
 20
0.3
 30
0.0
 11
74.9999865
 21
1.0
 31
0.0
  0
LINE
  5
3CF
330
1D
100
AcDbEntity
  8
0
100
AcDbLine
 10
74.9999865
 20
0.3
 30
0.0
 11
74.9999865
 21
0.0
 31
0.0
  0
LINE
  5
3D1
330
1D
100
AcDbEntity
  8
0
100
AcDbLine
 10
52.5669865
 20
110.25
 30
0.0
 11
52.7499865
 21
110.067
 31
0.0
  0
LINE
  5
3D2
330
1D
100
AcDbEntity
  8
0
100
AcDbLine
 10
52.7499865
 20
110.067
 30
0.0
 11
52.9999865
 21
110.0
 31
0.0
  0
LINE
  5
3D7
330
1D
100
AcDbEntity
  8
0
100
AcDbLine
 10
52.9999865
 20
110.0
 30
0.0
 11
53.9999865
 21
110.0
 31
0.0
  0
LINE
  5
3DA
330
1D
100
AcDbEntity
  8
0
100
AcDbLine
 10
53.9999865
 20
1.0
 30
0.0
 11
53.9999865
 21
169.0
 31
0.0
  0
LINE
  5
3DB
330
1D
100
AcDbEntity
  8
0
100
AcDbLine
 10
74.9999865
 20
1.0
 30
0.0
 11
74.9999865
 21
169.0
 31
0.0
  0
LINE
  5
3DE
330
1D
100
AcDbEntity
  8
0
100
AcDbLine
 10
109.9999865
 20
9.644
 30
0.0
 11
109.9999865
 21
10.028
 31
0.0
  0
LINE
  5
3DF
330
1D
100
AcDbEntity
  8
0
100
AcDbLine
 10
109.9999865
 20
9.644
 30
0.0
 11
109.9999865
 21
9.5
 31
0.0
  0
LINE
  5
3E0
330
1D
100
AcDbEntity
  8
0
100
AcDbLine
 10
109.9999865
 20
10.5
 30
0.0
 11
109.9999865
 21
15.5
 31
0.0
  0
LINE
  5
3E1
330
1D
100
AcDbEntity
  8
0
100
AcDbLine
 10
109.9999865
 20
10.028
 30
0.0
 11
109.9999865
 21
10.668
 31
0.0
  0
LINE
  5
3E2
330
1D
100
AcDbEntity
  8
0
100
AcDbLine
 10
109.9999865
 20
10.028
 30
0.0
 11
109.9999865
 21
9.644
 31
0.0
  0
LINE
  5
3E3
330
1D
100
AcDbEntity
  8
0
100
AcDbLine
 10
109.9999865
 20
10.668
 30
0.0
 11
109.9999865
 21
11.516
 31
0.0
  0
LINE
  5
3E4
330
1D
100
AcDbEntity
  8
0
100
AcDbLine
 10
109.9999865
 20
10.668
 30
0.0
 11
109.9999865
 21
10.028
 31
0.0
  0
LINE
  5
3E5
330
1D
100
AcDbEntity
  8
0
100
AcDbLine
 10
109.9999865
 20
12.4374
 30
0.0
 11
109.9999865
 21
24.0
 31
0.0
  0
LINE
  5
3E6
330
1D
100
AcDbEntity
  8
0
100
AcDbLine
 10
109.9999865
 20
12.4374
 30
0.0
 11
109.9999865
 21
13.69551
 31
0.0
  0
LINE
  5
3E7
330
1D
100
AcDbEntity
  8
0
100
AcDbLine
 10
109.9999865
 20
12.4374
 30
0.0
 11
109.9999865
 21
36.1618
 31
0.0
  0
LINE
  5
3E8
330
1D
100
AcDbEntity
  8
0
100
AcDbLine
 10
109.9999865
 20
13.69551
 30
0.0
 11
109.9999865
 21
12.4374
 31
0.0
  0
LINE
  5
3E9
330
1D
100
AcDbEntity
  8
0
100
AcDbLine
 10
109.9999865
 20
13.69551
 30
0.0
 11
109.9999865
 21
24.0
 31
0.0
  0
LINE
  5
3EA
330
1D
100
AcDbEntity
  8
0
100
AcDbLine
 10
109.9999865
 20
13.69551
 30
0.0
 11
109.9999865
 21
34.8138
 31
0.0
  0
LINE
  5
3EB
330
1D
100
AcDbEntity
  8
0
100
AcDbLine
 10
109.9999865
 20
15.5
 30
0.0
 11
109.9999865
 21
10.5
 31
0.0
  0
LINE
  5
3EC
330
1D
100
AcDbEntity
  8
0
100
AcDbLine
 10
109.9999865
 20
15.11032
 30
0.0
 11
109.9999865
 21
15.25432
 31
0.0
  0
LINE
  5
3ED
330
1D
100
AcDbEntity
  8
0
100
AcDbLine
 10
109.9999865
 20
15.25432
 30
0.0
 11
109.9999865
 21
15.63832
 31
0.0
  0
LINE
  5
3EE
330
1D
100
AcDbEntity
  8
0
100
AcDbLine
 10
109.9999865
 20
15.25432
 30
0.0
 11
109.9999865
 21
15.11032
 31
0.0
  0
LINE
  5
3EF
330
1D
100
AcDbEntity
  8
0
100
AcDbLine
 10
109.9999865
 20
16.18492
 30
0.0
 11
109.9999865
 21
24.0
 31
0.0
  0
LINE
  5
3F0
330
1D
100
AcDbEntity
  8
0
100
AcDbLine
 10
109.9999865
 20
16.18492
 30
0.0
 11
109.9999865
 21
15.84241
 31
0.0
  0
LINE
  5
3F1
330
1D
100
AcDbEntity
  8
0
100
AcDbLine
 10
109.9999865
 20
16.18492
 30
0.0
 11
109.9999865
 21
27.355
 31
0.0
  0
LINE
  5
3F2
330
1D
100
AcDbEntity
  8
0
100
AcDbLine
 10
109.9999865
 20
15.84241
 30
0.0
 11
109.9999865
 21
16.18492
 31
0.0
  0
LINE
  5
3F3
330
1D
100
AcDbEntity
  8
0
100
AcDbLine
 10
109.9999865
 20
15.84241
 30
0.0
 11
109.9999865
 21
24.0
 31
0.0
  0
LINE
  5
3F4
330
1D
100
AcDbEntity
  8
0
100
AcDbLine
 10
109.9999865
 20
15.84241
 30
0.0
 11
109.9999865
 21
26.5462
 31
0.0
  0
LINE
  5
3F5
330
1D
100
AcDbEntity
  8
0
100
AcDbLine
 10
109.9999865
 20
15.63832
 30
0.0
 11
109.9999865
 21
16.27832
 31
0.0
  0
LINE
  5
3F6
330
1D
100
AcDbEntity
  8
0
100
AcDbLine
 10
109.9999865
 20
15.63832
 30
0.0
 11
109.9999865
 21
15.25432
 31
0.0
  0
LINE
  5
3F7
330
1D
100
AcDbEntity
  8
0
100
AcDbLine
 10
109.9999865
 20
16.27832
 30
0.0
 11
109.9999865
 21
17.12632
 31
0.0
  0
LINE
  5
3F8
330
1D
100
AcDbEntity
  8
0
100
AcDbLine
 10
109.9999865
 20
16.27832
 30
0.0
 11
109.9999865
 21
15.63832
 31
0.0
  0
LINE
  5
3F9
330
1D
100
AcDbEntity
  8
0
100
AcDbLine
 10
109.9999865
 20
17.12632
 30
0.0
 11
109.9999865
 21
18.08632
 31
0.0
  0
LINE
  5
3FA
330
1D
100
AcDbEntity
  8
0
100
AcDbLine
 10
109.9999865
 20
17.12632
 30
0.0
 11
109.9999865
 21
16.27832
 31
0.0
  0
LINE
  5
3FB
330
1D
100
AcDbEntity
  8
0
100
AcDbLine
 10
109.9999865
 20
22.5823
 30
0.0
 11
109.9999865
 21
21.9423
 31
0.0
  0
LINE
  5
3FC
330
1D
100
AcDbEntity
  8
0
100
AcDbLine
 10
109.9999865
 20
22.5823
 30
0.0
 11
109.9999865
 21
22.9663
 31
0.0
  0
LINE
  5
3FD
330
1D
100
AcDbEntity
  8
0
100
AcDbLine
 10
109.9999865
 20
21.9423
 30
0.0
 11
109.9999865
 21
21.0943
 31
0.0
  0
LINE
  5
3FE
330
1D
100
AcDbEntity
  8
0
100
AcDbLine
 10
109.9999865
 20
21.9423
 30
0.0
 11
109.9999865
 21
22.5823
 31
0.0
  0
LINE
  5
3FF
330
1D
100
AcDbEntity
  8
0
100
AcDbLine
 10
109.9999865
 20
21.0943
 30
0.0
 11
109.9999865
 21
20.1343
 31
0.0
  0
LINE
  5
400
330
1D
100
AcDbEntity
  8
0
100
AcDbLine
 10
109.9999865
 20
21.0943
 30
0.0
 11
109.9999865
 21
21.9423
 31
0.0
  0
LINE
  5
401
330
1D
100
AcDbEntity
  8
0
100
AcDbLine
 10
109.9999865
 20
20.1343
 30
0.0
 11
109.9999865
 21
19.11032
 31
0.0
  0
LINE
  5
402
330
1D
100
AcDbEntity
  8
0
100
AcDbLine
 10
109.9999865
 20
20.1343
 30
0.0
 11
109.9999865
 21
21.0943
 31
0.0
  0
LINE
  5
403
330
1D
100
AcDbEntity
  8
0
100
AcDbLine
 10
109.9999865
 20
19.11032
 30
0.0
 11
109.9999865
 21
18.08632
 31
0.0
  0
LINE
  5
404
330
1D
100
AcDbEntity
  8
0
100
AcDbLine
 10
109.9999865
 20
19.11032
 30
0.0
 11
109.9999865
 21
20.1343
 31
0.0
  0
LINE
  5
405
330
1D
100
AcDbEntity
  8
0
100
AcDbLine
 10
109.9999865
 20
18.08632
 30
0.0
 11
109.9999865
 21
19.11032
 31
0.0
  0
LINE
  5
406
330
1D
100
AcDbEntity
  8
0
100
AcDbLine
 10
109.9999865
 20
18.08632
 30
0.0
 11
109.9999865
 21
17.12632
 31
0.0
  0
LINE
  5
407
330
1D
100
AcDbEntity
  8
0
100
AcDbLine
 10
109.9999865
 20
17.5
 30
0.0
 11
109.9999865
 21
17.356
 31
0.0
  0
LINE
  5
408
330
1D
100
AcDbEntity
  8
0
100
AcDbLine
 10
109.9999865
 20
17.356
 30
0.0
 11
109.9999865
 21
16.972
 31
0.0
  0
LINE
  5
409
330
1D
100
AcDbEntity
  8
0
100
AcDbLine
 10
109.9999865
 20
17.356
 30
0.0
 11
109.9999865
 21
17.5
 31
0.0
  0
LINE
  5
40A
330
1D
100
AcDbEntity
  8
0
100
AcDbLine
 10
109.9999865
 20
16.972
 30
0.0
 11
109.9999865
 21
16.332
 31
0.0
  0
LINE
  5
40B
330
1D
100
AcDbEntity
  8
0
100
AcDbLine
 10
109.9999865
 20
16.972
 30
0.0
 11
109.9999865
 21
17.356
 31
0.0
  0
LINE
  5
40C
330
1D
100
AcDbEntity
  8
0
100
AcDbLine
 10
109.9999865
 20
16.332
 30
0.0
 11
109.9999865
 21
15.484
 31
0.0
  0
LINE
  5
40D
330
1D
100
AcDbEntity
  8
0
100
AcDbLine
 10
109.9999865
 20
16.332
 30
0.0
 11
109.9999865
 21
16.972
 31
0.0
  0
LINE
  5
40E
330
1D
100
AcDbEntity
  8
0
100
AcDbLine
 10
109.9999865
 20
15.484
 30
0.0
 11
109.9999865
 21
14.524
 31
0.0
  0
LINE
  5
40F
330
1D
100
AcDbEntity
  8
0
100
AcDbLine
 10
109.9999865
 20
15.484
 30
0.0
 11
109.9999865
 21
16.332
 31
0.0
  0
LINE
  5
410
330
1D
100
AcDbEntity
  8
0
100
AcDbLine
 10
109.9999865
 20
14.524
 30
0.0
 11
109.9999865
 21
13.5
 31
0.0
  0
LINE
  5
411
330
1D
100
AcDbEntity
  8
0
100
AcDbLine
 10
109.9999865
 20
14.524
 30
0.0
 11
109.9999865
 21
15.484
 31
0.0
  0
LINE
  5
412
330
1D
100
AcDbEntity
  8
0
100
AcDbLine
 10
109.9999865
 20
13.5
 30
0.0
 11
109.9999865
 21
12.476
 31
0.0
  0
LINE
  5
413
330
1D
100
AcDbEntity
  8
0
100
AcDbLine
 10
109.9999865
 20
13.5
 30
0.0
 11
109.9999865
 21
14.524
 31
0.0
  0
LINE
  5
414
330
1D
100
AcDbEntity
  8
0
100
AcDbLine
 10
109.9999865
 20
11.516
 30
0.0
 11
109.9999865
 21
12.476
 31
0.0
  0
LINE
  5
415
330
1D
100
AcDbEntity
  8
0
100
AcDbLine
 10
109.9999865
 20
11.516
 30
0.0
 11
109.9999865
 21
10.668
 31
0.0
  0
LINE
  5
416
330
1D
100
AcDbEntity
  8
0
100
AcDbLine
 10
109.9999865
 20
12.476
 30
0.0
 11
109.9999865
 21
13.5
 31
0.0
  0
LINE
  5
417
330
1D
100
AcDbEntity
  8
0
100
AcDbLine
 10
109.9999865
 20
12.476
 30
0.0
 11
109.9999865
 21
11.516
 31
0.0
  0
LINE
  5
418
330
1D
100
AcDbEntity
  8
0
100
AcDbLine
 10
109.9999865
 20
11.5
 30
0.0
 11
109.9999865
 21
9.5
 31
0.0
  0
LINE
  5
419
330
1D
100
AcDbEntity
  8
0
100
AcDbLine
 10
109.9999865
 20
11.5
 30
0.0
 11
109.9999865
 21
24.0
 31
0.0
  0
LINE
  5
41A
330
1D
100
AcDbEntity
  8
0
100
AcDbLine
 10
109.9999865
 20
9.5
 30
0.0
 11
113.9999865
 21
9.5
 31
0.0
  0
LINE
  5
41B
330
1D
100
AcDbEntity
  8
0
100
AcDbLine
 10
109.9999865
 20
9.5
 30
0.0
 11
109.9999865
 21
11.5
 31
0.0
  0
LINE
  5
41C
330
1D
100
AcDbEntity
  8
0
100
AcDbLine
 10
109.9999865
 20
9.5
 30
0.0
 11
109.9999865
 21
24.0
 31
0.0
  0
LINE
  5
41D
330
1D
100
AcDbEntity
  8
0
100
AcDbLine
 10
109.9999865
 20
9.5
 30
0.0
 11
109.9999865
 21
9.644
 31
0.0
  0
LINE
  5
41E
330
1D
100
AcDbEntity
  8
0
100
AcDbLine
 10
109.9999865
 20
9.5
 30
0.0
 11
109.9999865
 21
59.5
 31
0.0
  0
LINE
  5
41F
330
1D
100
AcDbEntity
  8
0
100
AcDbLine
 10
109.9999865
 20
23.1103
 30
0.0
 11
109.9999865
 21
22.9663
 31
0.0
  0
LINE
  5
420
330
1D
100
AcDbEntity
  8
0
100
AcDbLine
 10
109.9999865
 20
22.9663
 30
0.0
 11
109.9999865
 21
22.5823
 31
0.0
  0
LINE
  5
421
330
1D
100
AcDbEntity
  8
0
100
AcDbLine
 10
109.9999865
 20
22.9663
 30
0.0
 11
109.9999865
 21
23.1103
 31
0.0
  0
LINE
  5
422
330
1D
100
AcDbEntity
  8
0
100
AcDbLine
 10
109.9999865
 20
24.0
 30
0.0
 11
109.9999865
 21
22.756
 31
0.0
  0
LINE
  5
423
330
1D
100
AcDbEntity
  8
0
100
AcDbLine
 10
109.9999865
 20
24.0
 30
0.0
 11
109.9999865
 21
9.5
 31
0.0
  0
LINE
  5
424
330
1D
100
AcDbEntity
  8
0
100
AcDbLine
 10
109.9999865
 20
24.0
 30
0.0
 11
109.9999865
 21
13.69551
 31
0.0
  0
LINE
  5
425
330
1D
100
AcDbEntity
  8
0
100
AcDbLine
 10
109.9999865
 20
24.0
 30
0.0
 11
109.9999865
 21
12.4374
 31
0.0
  0
LINE
  5
426
330
1D
100
AcDbEntity
  8
0
100
AcDbLine
 10
109.9999865
 20
24.0
 30
0.0
 11
109.9999865
 21
15.84241
 31
0.0
  0
LINE
  5
427
330
1D
100
AcDbEntity
  8
0
100
AcDbLine
 10
109.9999865
 20
24.0
 30
0.0
 11
109.9999865
 21
16.18492
 31
0.0
  0
LINE
  5
428
330
1D
100
AcDbEntity
  8
0
100
AcDbLine
 10
109.9999865
 20
22.756
 30
0.0
 11
109.9999865
 21
24.0
 31
0.0
  0
LINE
  5
429
330
1D
100
AcDbEntity
  8
0
100
AcDbLine
 10
109.9999865
 20
22.756
 30
0.0
 11
109.9999865
 21
22.0
 31
0.0
  0
LINE
  5
42A
330
1D
100
AcDbEntity
  8
0
100
AcDbLine
 10
109.9999865
 20
22.756
 30
0.0
 11
109.9999865
 21
24.268
 31
0.0
  0
LINE
  5
42B
330
1D
100
AcDbEntity
  8
0
100
AcDbLine
 10
113.9999865
 20
9.5
 30
0.0
 11
113.9999865
 21
59.5
 31
0.0
  0
LINE
  5
42C
330
1D
100
AcDbEntity
  8
0
100
AcDbLine
 10
109.9999865
 20
22.0
 30
0.0
 11
109.9999865
 21
22.756
 31
0.0
  0
LINE
  5
42D
330
1D
100
AcDbEntity
  8
0
100
AcDbLine
 10
109.9999865
 20
26.5462
 30
0.0
 11
109.9999865
 21
15.84241
 31
0.0
  0
LINE
  5
42E
330
1D
100
AcDbEntity
  8
0
100
AcDbLine
 10
109.9999865
 20
26.5462
 30
0.0
 11
109.9999865
 21
27.355
 31
0.0
  0
LINE
  5
42F
330
1D
100
AcDbEntity
  8
0
100
AcDbLine
 10
109.9999865
 20
34.5212
 30
0.0
 11
109.9999865
 21
34.6652
 31
0.0
  0
LINE
  5
430
330
1D
100
AcDbEntity
  8
0
100
AcDbLine
 10
109.9999865
 20
34.6652
 30
0.0
 11
109.9999865
 21
35.0492
 31
0.0
  0
LINE
  5
431
330
1D
100
AcDbEntity
  8
0
100
AcDbLine
 10
109.9999865
 20
34.6652
 30
0.0
 11
109.9999865
 21
34.5212
 31
0.0
  0
LINE
  5
432
330
1D
100
AcDbEntity
  8
0
100
AcDbLine
 10
109.9999865
 20
35.0492
 30
0.0
 11
109.9999865
 21
35.6892
 31
0.0
  0
LINE
  5
433
330
1D
100
AcDbEntity
  8
0
100
AcDbLine
 10
109.9999865
 20
35.0492
 30
0.0
 11
109.9999865
 21
34.6652
 31
0.0
  0
LINE
  5
434
330
1D
100
AcDbEntity
  8
0
100
AcDbLine
 10
109.9999865
 20
34.8138
 30
0.0
 11
109.9999865
 21
13.69551
 31
0.0
  0
LINE
  5
435
330
1D
100
AcDbEntity
  8
0
100
AcDbLine
 10
109.9999865
 20
34.8138
 30
0.0
 11
109.9999865
 21
36.1618
 31
0.0
  0
LINE
  5
436
330
1D
100
AcDbEntity
  8
0
100
AcDbLine
 10
109.9999865
 20
27.355
 30
0.0
 11
109.9999865
 21
26.5462
 31
0.0
  0
LINE
  5
437
330
1D
100
AcDbEntity
  8
0
100
AcDbLine
 10
109.9999865
 20
27.355
 30
0.0
 11
109.9999865
 21
16.18492
 31
0.0
  0
LINE
  5
438
330
1D
100
AcDbEntity
  8
0
100
AcDbLine
 10
109.9999865
 20
35.6892
 30
0.0
 11
109.9999865
 21
36.5372
 31
0.0
  0
LINE
  5
439
330
1D
100
AcDbEntity
  8
0
100
AcDbLine
 10
109.9999865
 20
35.6892
 30
0.0
 11
109.9999865
 21
35.0492
 31
0.0
  0
LINE
  5
43A
330
1D
100
AcDbEntity
  8
0
100
AcDbLine
 10
109.9999865
 20
36.5372
 30
0.0
 11
109.9999865
 21
37.4972
 31
0.0
  0
LINE
  5
43B
330
1D
100
AcDbEntity
  8
0
100
AcDbLine
 10
109.9999865
 20
36.5372
 30
0.0
 11
109.9999865
 21
35.6892
 31
0.0
  0
LINE
  5
43C
330
1D
100
AcDbEntity
  8
0
100
AcDbLine
 10
109.9999865
 20
42.5212
 30
0.0
 11
109.9999865
 21
42.3772
 31
0.0
  0
LINE
  5
43D
330
1D
100
AcDbEntity
  8
0
100
AcDbLine
 10
109.9999865
 20
42.3772
 30
0.0
 11
109.9999865
 21
41.9932
 31
0.0
  0
LINE
  5
43E
330
1D
100
AcDbEntity
  8
0
100
AcDbLine
 10
109.9999865
 20
42.3772
 30
0.0
 11
109.9999865
 21
42.5212
 31
0.0
  0
LINE
  5
43F
330
1D
100
AcDbEntity
  8
0
100
AcDbLine
 10
109.9999865
 20
41.9932
 30
0.0
 11
109.9999865
 21
41.3532
 31
0.0
  0
LINE
  5
440
330
1D
100
AcDbEntity
  8
0
100
AcDbLine
 10
109.9999865
 20
41.9932
 30
0.0
 11
109.9999865
 21
42.3772
 31
0.0
  0
LINE
  5
441
330
1D
100
AcDbEntity
  8
0
100
AcDbLine
 10
109.9999865
 20
41.3532
 30
0.0
 11
109.9999865
 21
40.5052
 31
0.0
  0
LINE
  5
442
330
1D
100
AcDbEntity
  8
0
100
AcDbLine
 10
109.9999865
 20
41.3532
 30
0.0
 11
109.9999865
 21
41.9932
 31
0.0
  0
LINE
  5
443
330
1D
100
AcDbEntity
  8
0
100
AcDbLine
 10
109.9999865
 20
40.5052
 30
0.0
 11
109.9999865
 21
39.5452
 31
0.0
  0
LINE
  5
444
330
1D
100
AcDbEntity
  8
0
100
AcDbLine
 10
109.9999865
 20
40.5052
 30
0.0
 11
109.9999865
 21
41.3532
 31
0.0
  0
LINE
  5
445
330
1D
100
AcDbEntity
  8
0
100
AcDbLine
 10
109.9999865
 20
39.5452
 30
0.0
 11
109.9999865
 21
38.5212
 31
0.0
  0
LINE
  5
446
330
1D
100
AcDbEntity
  8
0
100
AcDbLine
 10
109.9999865
 20
39.5452
 30
0.0
 11
109.9999865
 21
40.5052
 31
0.0
  0
LINE
  5
447
330
1D
100
AcDbEntity
  8
0
100
AcDbLine
 10
109.9999865
 20
38.5212
 30
0.0
 11
109.9999865
 21
37.4972
 31
0.0
  0
LINE
  5
448
330
1D
100
AcDbEntity
  8
0
100
AcDbLine
 10
109.9999865
 20
38.5212
 30
0.0
 11
109.9999865
 21
39.5452
 31
0.0
  0
LINE
  5
449
330
1D
100
AcDbEntity
  8
0
100
AcDbLine
 10
109.9999865
 20
37.4972
 30
0.0
 11
109.9999865
 21
38.5212
 31
0.0
  0
LINE
  5
44A
330
1D
100
AcDbEntity
  8
0
100
AcDbLine
 10
109.9999865
 20
37.4972
 30
0.0
 11
109.9999865
 21
36.5372
 31
0.0
  0
LINE
  5
44B
330
1D
100
AcDbEntity
  8
0
100
AcDbLine
 10
109.9999865
 20
36.1618
 30
0.0
 11
109.9999865
 21
34.8138
 31
0.0
  0
LINE
  5
44C
330
1D
100
AcDbEntity
  8
0
100
AcDbLine
 10
109.9999865
 20
36.1618
 30
0.0
 11
109.9999865
 21
12.4374
 31
0.0
  0
LINE
  5
44D
330
1D
100
AcDbEntity
  8
0
100
AcDbLine
 10
109.9999865
 20
49.8391
 30
0.0
 11
109.9999865
 21
58.8304
 31
0.0
  0
LINE
  5
44E
330
1D
100
AcDbEntity
  8
0
100
AcDbLine
 10
109.9999865
 20
49.8391
 30
0.0
 11
109.9999865
 21
47.1417
 31
0.0
  0
LINE
  5
44F
330
1D
100
AcDbEntity
  8
0
100
AcDbLine
 10
109.9999865
 20
47.1417
 30
0.0
 11
109.9999865
 21
49.8391
 31
0.0
  0
LINE
  5
450
330
1D
100
AcDbEntity
  8
0
100
AcDbLine
 10
109.9999865
 20
47.1417
 30
0.0
 11
109.9999865
 21
57.5716
 31
0.0
  0
LINE
  5
451
330
1D
100
AcDbEntity
  8
0
100
AcDbLine
 10
109.9999865
 20
57.5716
 30
0.0
 11
109.9999865
 21
47.1417
 31
0.0
  0
LINE
  5
452
330
1D
100
AcDbEntity
  8
0
100
AcDbLine
 10
109.9999865
 20
57.5716
 30
0.0
 11
109.9999865
 21
58.8304
 31
0.0
  0
LINE
  5
453
330
1D
100
AcDbEntity
  8
0
100
AcDbLine
 10
109.9999865
 20
57.15
 30
0.0
 11
109.9999865
 21
57.294
 31
0.0
  0
LINE
  5
454
330
1D
100
AcDbEntity
  8
0
100
AcDbLine
 10
109.9999865
 20
58.8304
 30
0.0
 11
109.9999865
 21
57.5716
 31
0.0
  0
LINE
  5
455
330
1D
100
AcDbEntity
  8
0
100
AcDbLine
 10
109.9999865
 20
58.8304
 30
0.0
 11
109.9999865
 21
49.8391
 31
0.0
  0
LINE
  5
456
330
1D
100
AcDbEntity
  8
0
100
AcDbLine
 10
109.9999865
 20
60.126
 30
0.0
 11
109.9999865
 21
59.166
 31
0.0
  0
LINE
  5
457
330
1D
100
AcDbEntity
  8
0
100
AcDbLine
 10
109.9999865
 20
60.126
 30
0.0
 11
109.9999865
 21
61.15
 31
0.0
  0
LINE
  5
458
330
1D
100
AcDbEntity
  8
0
100
AcDbLine
 10
109.9999865
 20
59.166
 30
0.0
 11
109.9999865
 21
58.318
 31
0.0
  0
LINE
  5
459
330
1D
100
AcDbEntity
  8
0
100
AcDbLine
 10
109.9999865
 20
59.166
 30
0.0
 11
109.9999865
 21
60.126
 31
0.0
  0
LINE
  5
45A
330
1D
100
AcDbEntity
  8
0
100
AcDbLine
 10
109.9999865
 20
58.318
 30
0.0
 11
109.9999865
 21
57.678
 31
0.0
  0
LINE
  5
45B
330
1D
100
AcDbEntity
  8
0
100
AcDbLine
 10
109.9999865
 20
58.318
 30
0.0
 11
109.9999865
 21
59.166
 31
0.0
  0
LINE
  5
45C
330
1D
100
AcDbEntity
  8
0
100
AcDbLine
 10
109.9999865
 20
57.678
 30
0.0
 11
109.9999865
 21
57.294
 31
0.0
  0
LINE
  5
45D
330
1D
100
AcDbEntity
  8
0
100
AcDbLine
 10
109.9999865
 20
57.678
 30
0.0
 11
109.9999865
 21
58.318
 31
0.0
  0
LINE
  5
45E
330
1D
100
AcDbEntity
  8
0
100
AcDbLine
 10
109.9999865
 20
57.294
 30
0.0
 11
109.9999865
 21
57.15
 31
0.0
  0
LINE
  5
45F
330
1D
100
AcDbEntity
  8
0
100
AcDbLine
 10
109.9999865
 20
57.294
 30
0.0
 11
109.9999865
 21
57.678
 31
0.0
  0
LINE
  5
460
330
1D
100
AcDbEntity
  8
0
100
AcDbLine
 10
109.9999865
 20
60.3
 30
0.0
 11
109.9999865
 21
59.5
 31
0.0
  0
LINE
  5
461
330
1D
100
AcDbEntity
  8
0
100
AcDbLine
 10
109.9999865
 20
60.3
 30
0.0
 11
109.9999865
 21
11.5
 31
0.0
  0
LINE
  5
462
330
1D
100
AcDbEntity
  8
0
100
AcDbLine
 10
109.9999865
 20
59.5
 30
0.0
 11
109.9999865
 21
9.5
 31
0.0
  0
LINE
  5
463
330
1D
100
AcDbEntity
  8
0
100
AcDbLine
 10
109.9999865
 20
59.5
 30
0.0
 11
113.9999865
 21
59.5
 31
0.0
  0
LINE
  5
464
330
1D
100
AcDbEntity
  8
0
100
AcDbLine
 10
109.9999865
 20
59.5
 30
0.0
 11
109.9999865
 21
60.3
 31
0.0
  0
LINE
  5
465
330
1D
100
AcDbEntity
  8
0
100
AcDbLine
 10
109.9999865
 20
59.5
 30
0.0
 11
109.9999865
 21
110.5
 31
0.0
  0
LINE
  5
466
330
1D
100
AcDbEntity
  8
0
100
AcDbLine
 10
109.9999865
 20
46.696
 30
0.0
 11
109.9999865
 21
40.648
 31
0.0
  0
LINE
  5
467
330
1D
100
AcDbEntity
  8
0
100
AcDbLine
 10
109.9999865
 20
46.696
 30
0.0
 11
109.9999865
 21
53.752
 31
0.0
  0
LINE
  5
468
330
1D
100
AcDbEntity
  8
0
100
AcDbLine
 10
109.9999865
 20
53.752
 30
0.0
 11
109.9999865
 21
46.696
 31
0.0
  0
LINE
  5
469
330
1D
100
AcDbEntity
  8
0
100
AcDbLine
 10
109.9999865
 20
53.752
 30
0.0
 11
109.9999865
 21
61.06
 31
0.0
  0
LINE
  5
46A
330
1D
100
AcDbEntity
  8
0
100
AcDbLine
 10
109.9999865
 20
61.5539
 30
0.0
 11
109.9999865
 21
63.416
 31
0.0
  0
LINE
  5
46B
330
1D
100
AcDbEntity
  8
0
100
AcDbLine
 10
109.9999865
 20
61.5539
 30
0.0
 11
109.9999865
 21
63.5243
 31
0.0
  0
LINE
  5
46C
330
1D
100
AcDbEntity
  8
0
100
AcDbLine
 10
109.9999865
 20
62.174
 30
0.0
 11
109.9999865
 21
61.15
 31
0.0
  0
LINE
  5
46D
330
1D
100
AcDbEntity
  8
0
100
AcDbLine
 10
109.9999865
 20
62.174
 30
0.0
 11
109.9999865
 21
63.134
 31
0.0
  0
LINE
  5
46E
330
1D
100
AcDbEntity
  8
0
100
AcDbLine
 10
109.9999865
 20
63.416
 30
0.0
 11
109.9999865
 21
65.484
 31
0.0
  0
LINE
  5
46F
330
1D
100
AcDbEntity
  8
0
100
AcDbLine
 10
109.9999865
 20
63.416
 30
0.0
 11
109.9999865
 21
61.5539
 31
0.0
  0
LINE
  5
470
330
1D
100
AcDbEntity
  8
0
100
AcDbLine
 10
109.9999865
 20
63.5243
 30
0.0
 11
109.9999865
 21
61.5539
 31
0.0
  0
LINE
  5
471
330
1D
100
AcDbEntity
  8
0
100
AcDbLine
 10
109.9999865
 20
63.5243
 30
0.0
 11
109.9999865
 21
65.484
 31
0.0
  0
LINE
  5
472
330
1D
100
AcDbEntity
  8
0
100
AcDbLine
 10
109.9999865
 20
63.134
 30
0.0
 11
109.9999865
 21
62.174
 31
0.0
  0
LINE
  5
473
330
1D
100
AcDbEntity
  8
0
100
AcDbLine
 10
109.9999865
 20
63.134
 30
0.0
 11
109.9999865
 21
63.982
 31
0.0
  0
LINE
  5
474
330
1D
100
AcDbEntity
  8
0
100
AcDbLine
 10
109.9999865
 20
63.982
 30
0.0
 11
109.9999865
 21
63.134
 31
0.0
  0
LINE
  5
475
330
1D
100
AcDbEntity
  8
0
100
AcDbLine
 10
109.9999865
 20
63.982
 30
0.0
 11
109.9999865
 21
64.622
 31
0.0
  0
LINE
  5
476
330
1D
100
AcDbEntity
  8
0
100
AcDbLine
 10
109.9999865
 20
64.622
 30
0.0
 11
109.9999865
 21
63.982
 31
0.0
  0
LINE
  5
477
330
1D
100
AcDbEntity
  8
0
100
AcDbLine
 10
109.9999865
 20
64.622
 30
0.0
 11
109.9999865
 21
65.006
 31
0.0
  0
LINE
  5
478
330
1D
100
AcDbEntity
  8
0
100
AcDbLine
 10
109.9999865
 20
61.15
 30
0.0
 11
109.9999865
 21
60.126
 31
0.0
  0
LINE
  5
479
330
1D
100
AcDbEntity
  8
0
100
AcDbLine
 10
109.9999865
 20
61.15
 30
0.0
 11
109.9999865
 21
62.174
 31
0.0
  0
LINE
  5
47A
330
1D
100
AcDbEntity
  8
0
100
AcDbLine
 10
109.9999865
 20
61.06
 30
0.0
 11
109.9999865
 21
53.752
 31
0.0
  0
LINE
  5
47B
330
1D
100
AcDbEntity
  8
0
100
AcDbLine
 10
109.9999865
 20
61.06
 30
0.0
 11
109.9999865
 21
68.872
 31
0.0
  0
LINE
  5
47C
330
1D
100
AcDbEntity
  8
0
100
AcDbLine
 10
109.9999865
 20
40.648
 30
0.0
 11
109.9999865
 21
35.104
 31
0.0
  0
LINE
  5
47D
330
1D
100
AcDbEntity
  8
0
100
AcDbLine
 10
109.9999865
 20
40.648
 30
0.0
 11
109.9999865
 21
46.696
 31
0.0
  0
LINE
  5
47E
330
1D
100
AcDbEntity
  8
0
100
AcDbLine
 10
109.9999865
 20
35.104
 30
0.0
 11
109.9999865
 21
30.316
 31
0.0
  0
LINE
  5
47F
330
1D
100
AcDbEntity
  8
0
100
AcDbLine
 10
109.9999865
 20
35.104
 30
0.0
 11
109.9999865
 21
40.648
 31
0.0
  0
LINE
  5
480
330
1D
100
AcDbEntity
  8
0
100
AcDbLine
 10
109.9999865
 20
30.316
 30
0.0
 11
109.9999865
 21
27.04
 31
0.0
  0
LINE
  5
481
330
1D
100
AcDbEntity
  8
0
100
AcDbLine
 10
109.9999865
 20
30.316
 30
0.0
 11
109.9999865
 21
35.104
 31
0.0
  0
LINE
  5
482
330
1D
100
AcDbEntity
  8
0
100
AcDbLine
 10
109.9999865
 20
27.04
 30
0.0
 11
109.9999865
 21
24.268
 31
0.0
  0
LINE
  5
483
330
1D
100
AcDbEntity
  8
0
100
AcDbLine
 10
109.9999865
 20
27.04
 30
0.0
 11
109.9999865
 21
30.316
 31
0.0
  0
LINE
  5
484
330
1D
100
AcDbEntity
  8
0
100
AcDbLine
 10
113.9999865
 20
59.5
 30
0.0
 11
113.9999865
 21
9.5
 31
0.0
  0
LINE
  5
485
330
1D
100
AcDbEntity
  8
0
100
AcDbLine
 10
113.9999865
 20
59.5
 30
0.0
 11
113.9999865
 21
110.5
 31
0.0
  0
LINE
  5
486
330
1D
100
AcDbEntity
  8
0
100
AcDbLine
 10
109.9999865
 20
24.268
 30
0.0
 11
109.9999865
 21
22.756
 31
0.0
  0
LINE
  5
487
330
1D
100
AcDbEntity
  8
0
100
AcDbLine
 10
109.9999865
 20
24.268
 30
0.0
 11
109.9999865
 21
27.04
 31
0.0
  0
LINE
  5
488
330
1D
100
AcDbEntity
  8
0
100
AcDbLine
 10
74.9999865
 20
24.0
 30
0.0
 11
109.9999865
 21
24.0
 31
0.0
  0
LINE
  5
489
330
1D
100
AcDbEntity
  8
0
100
AcDbLine
 10
141.7199865
 20
22.0
 30
0.0
 11
143.6399865
 21
22.0
 31
0.0
  0
LINE
  5
48A
330
1D
100
AcDbEntity
  8
0
100
AcDbLine
 10
140.9999865
 20
22.0
 30
0.0
 11
141.7199865
 21
22.0
 31
0.0
  0
LINE
  5
48B
330
1D
100
AcDbEntity
  8
0
100
AcDbLine
 10
140.9999865
 20
22.0
 30
0.0
 11
140.9999865
 21
24.0
 31
0.0
  0
LINE
  5
48C
330
1D
100
AcDbEntity
  8
0
100
AcDbLine
 10
143.6399865
 20
22.0
 30
0.0
 11
146.8399865
 21
22.0
 31
0.0
  0
LINE
  5
48D
330
1D
100
AcDbEntity
  8
0
100
AcDbLine
 10
146.8399865
 20
22.0
 30
0.0
 11
151.0799865
 21
22.0
 31
0.0
  0
LINE
  5
48E
330
1D
100
AcDbEntity
  8
0
100
AcDbLine
 10
146.2439865
 20
22.0
 30
0.0
 11
148.9639865
 21
22.0
 31
0.0
  0
LINE
  5
48F
330
1D
100
AcDbEntity
  8
0
100
AcDbLine
 10
144.6119865
 20
22.0
 30
0.0
 11
146.2439865
 21
22.0
 31
0.0
  0
LINE
  5
490
330
1D
100
AcDbEntity
  8
0
100
AcDbLine
 10
143.9999865
 20
22.0
 30
0.0
 11
144.6119865
 21
22.0
 31
0.0
  0
LINE
  5
491
330
1D
100
AcDbEntity
  8
0
100
AcDbLine
 10
151.0799865
 20
22.0
 30
0.0
 11
155.8799865
 21
22.0
 31
0.0
  0
LINE
  5
492
330
1D
100
AcDbEntity
  8
0
100
AcDbLine
 10
155.8799865
 20
22.0
 30
0.0
 11
160.9999865
 21
22.0
 31
0.0
  0
LINE
  5
493
330
1D
100
AcDbEntity
  8
0
100
AcDbLine
 10
152.5679865
 20
22.0
 30
0.0
 11
156.6479865
 21
22.0
 31
0.0
  0
LINE
  5
494
330
1D
100
AcDbEntity
  8
0
100
AcDbLine
 10
148.9639865
 20
22.0
 30
0.0
 11
152.5679865
 21
22.0
 31
0.0
  0
LINE
  5
495
330
1D
100
AcDbEntity
  8
0
100
AcDbLine
 10
156.6479865
 20
22.0
 30
0.0
 11
160.9999865
 21
22.0
 31
0.0
  0
LINE
  5
496
330
1D
100
AcDbEntity
  8
0
100
AcDbLine
 10
160.9999865
 20
22.0
 30
0.0
 11
166.1199865
 21
22.0
 31
0.0
  0
LINE
  5
497
330
1D
100
AcDbEntity
  8
0
100
AcDbLine
 10
160.9999865
 20
22.0
 30
0.0
 11
165.3519865
 21
22.0
 31
0.0
  0
LINE
  5
498
330
1D
100
AcDbEntity
  8
0
100
AcDbLine
 10
165.3519865
 20
22.0
 30
0.0
 11
169.4319865
 21
22.0
 31
0.0
  0
LINE
  5
499
330
1D
100
AcDbEntity
  8
0
100
AcDbLine
 10
166.1199865
 20
22.0
 30
0.0
 11
170.9199865
 21
22.0
 31
0.0
  0
LINE
  5
49A
330
1D
100
AcDbEntity
  8
0
100
AcDbLine
 10
160.9999865
 20
24.0
 30
0.0
 11
166.1199865
 21
24.0
 31
0.0
  0
LINE
  5
49B
330
1D
100
AcDbEntity
  8
0
100
AcDbLine
 10
166.1199865
 20
24.0
 30
0.0
 11
170.9199865
 21
24.0
 31
0.0
  0
LINE
  5
49C
330
1D
100
AcDbEntity
  8
0
100
AcDbLine
 10
155.8799865
 20
24.0
 30
0.0
 11
160.9999865
 21
24.0
 31
0.0
  0
LINE
  5
49D
330
1D
100
AcDbEntity
  8
0
100
AcDbLine
 10
151.0799865
 20
24.0
 30
0.0
 11
155.8799865
 21
24.0
 31
0.0
  0
LINE
  5
49E
330
1D
100
AcDbEntity
  8
0
100
AcDbLine
 10
146.8399865
 20
24.0
 30
0.0
 11
151.0799865
 21
24.0
 31
0.0
  0
LINE
  5
49F
330
1D
100
AcDbEntity
  8
0
100
AcDbLine
 10
143.6399865
 20
24.0
 30
0.0
 11
146.8399865
 21
24.0
 31
0.0
  0
LINE
  5
4A0
330
1D
100
AcDbEntity
  8
0
100
AcDbLine
 10
141.7199865
 20
24.0
 30
0.0
 11
143.6399865
 21
24.0
 31
0.0
  0
LINE
  5
4A1
330
1D
100
AcDbEntity
  8
0
100
AcDbLine
 10
160.9999865
 20
27.65
 30
0.0
 11
166.1199865
 21
27.3963
 31
0.0
  0
LINE
  5
4A2
330
1D
100
AcDbEntity
  8
0
100
AcDbLine
 10
166.1199865
 20
27.3963
 30
0.0
 11
170.9199865
 21
26.7401
 31
0.0
  0
LINE
  5
4A3
330
1D
100
AcDbEntity
  8
0
100
AcDbLine
 10
155.8799865
 20
27.3963
 30
0.0
 11
160.9999865
 21
27.65
 31
0.0
  0
LINE
  5
4A4
330
1D
100
AcDbEntity
  8
0
100
AcDbLine
 10
151.0799865
 20
26.7401
 30
0.0
 11
155.8799865
 21
27.3963
 31
0.0
  0
LINE
  5
4A5
330
1D
100
AcDbEntity
  8
0
100
AcDbLine
 10
146.8399865
 20
25.8896
 30
0.0
 11
151.0799865
 21
26.7401
 31
0.0
  0
LINE
  5
4A6
330
1D
100
AcDbEntity
  8
0
100
AcDbLine
 10
143.6399865
 20
25.0876
 30
0.0
 11
146.8399865
 21
25.8896
 31
0.0
  0
LINE
  5
4A7
330
1D
100
AcDbEntity
  8
0
100
AcDbLine
 10
141.7199865
 20
24.4072
 30
0.0
 11
143.6399865
 21
25.0876
 31
0.0
  0
LINE
  5
4A8
330
1D
100
AcDbEntity
  8
0
100
AcDbLine
 10
140.9999865
 20
24.0
 30
0.0
 11
141.7199865
 21
24.4072
 31
0.0
  0
LINE
  5
4A9
330
1D
100
AcDbEntity
  8
0
100
AcDbLine
 10
140.9999865
 20
24.0
 30
0.0
 11
141.7199865
 21
24.0
 31
0.0
  0
LINE
  5
4AA
330
1D
100
AcDbEntity
  8
0
100
AcDbLine
 10
140.9999865
 20
24.0
 30
0.0
 11
140.9999865
 21
22.0
 31
0.0
  0
LINE
  5
4AB
330
1D
100
AcDbEntity
  8
0
100
AcDbLine
 10
113.9999865
 20
24.0
 30
0.0
 11
140.9999865
 21
24.0
 31
0.0
  0
LINE
  5
4AC
330
1D
100
AcDbEntity
  8
0
100
AcDbLine
 10
109.9999865
 20
65.484
 30
0.0
 11
109.9999865
 21
63.5243
 31
0.0
  0
LINE
  5
4AD
330
1D
100
AcDbEntity
  8
0
100
AcDbLine
 10
109.9999865
 20
65.484
 30
0.0
 11
109.9999865
 21
63.416
 31
0.0
  0
LINE
  5
4AE
330
1D
100
AcDbEntity
  8
0
100
AcDbLine
 10
109.9999865
 20
65.006
 30
0.0
 11
109.9999865
 21
64.622
 31
0.0
  0
LINE
  5
4AF
330
1D
100
AcDbEntity
  8
0
100
AcDbLine
 10
109.9999865
 20
65.006
 30
0.0
 11
109.9999865
 21
65.15
 31
0.0
  0
LINE
  5
4B0
330
1D
100
AcDbEntity
  8
0
100
AcDbLine
 10
109.9999865
 20
65.15
 30
0.0
 11
109.9999865
 21
65.006
 31
0.0
  0
LINE
  5
4B1
330
1D
100
AcDbEntity
  8
0
100
AcDbLine
 10
109.9999865
 20
81.0954
 30
0.0
 11
109.9999865
 21
81.2394
 31
0.0
  0
LINE
  5
4B2
330
1D
100
AcDbEntity
  8
0
100
AcDbLine
 10
109.9999865
 20
84.0
 30
0.0
 11
109.9999865
 21
86.0
 31
0.0
  0
LINE
  5
4B3
330
1D
100
AcDbEntity
  8
0
100
AcDbLine
 10
109.9999865
 20
84.0714
 30
0.0
 11
109.9999865
 21
83.1114
 31
0.0
  0
LINE
  5
4B4
330
1D
100
AcDbEntity
  8
0
100
AcDbLine
 10
109.9999865
 20
84.0714
 30
0.0
 11
109.9999865
 21
85.0954
 31
0.0
  0
LINE
  5
4B5
330
1D
100
AcDbEntity
  8
0
100
AcDbLine
 10
109.9999865
 20
83.1114
 30
0.0
 11
109.9999865
 21
82.2634
 31
0.0
  0
LINE
  5
4B6
330
1D
100
AcDbEntity
  8
0
100
AcDbLine
 10
109.9999865
 20
83.1114
 30
0.0
 11
109.9999865
 21
84.0714
 31
0.0
  0
LINE
  5
4B7
330
1D
100
AcDbEntity
  8
0
100
AcDbLine
 10
109.9999865
 20
82.2634
 30
0.0
 11
109.9999865
 21
81.6234
 31
0.0
  0
LINE
  5
4B8
330
1D
100
AcDbEntity
  8
0
100
AcDbLine
 10
109.9999865
 20
82.2634
 30
0.0
 11
109.9999865
 21
83.1114
 31
0.0
  0
LINE
  5
4B9
330
1D
100
AcDbEntity
  8
0
100
AcDbLine
 10
109.9999865
 20
81.6234
 30
0.0
 11
109.9999865
 21
81.2394
 31
0.0
  0
LINE
  5
4BA
330
1D
100
AcDbEntity
  8
0
100
AcDbLine
 10
109.9999865
 20
81.6234
 30
0.0
 11
109.9999865
 21
82.2634
 31
0.0
  0
LINE
  5
4BB
330
1D
100
AcDbEntity
  8
0
100
AcDbLine
 10
109.9999865
 20
81.2394
 30
0.0
 11
109.9999865
 21
81.0954
 31
0.0
  0
LINE
  5
4BC
330
1D
100
AcDbEntity
  8
0
100
AcDbLine
 10
109.9999865
 20
81.2394
 30
0.0
 11
109.9999865
 21
81.6234
 31
0.0
  0
LINE
  5
4BD
330
1D
100
AcDbEntity
  8
0
100
AcDbLine
 10
109.9999865
 20
68.872
 30
0.0
 11
109.9999865
 21
61.06
 31
0.0
  0
LINE
  5
4BE
330
1D
100
AcDbEntity
  8
0
100
AcDbLine
 10
109.9999865
 20
68.872
 30
0.0
 11
109.9999865
 21
76.684
 31
0.0
  0
LINE
  5
4BF
330
1D
100
AcDbEntity
  8
0
100
AcDbLine
 10
109.9999865
 20
76.684
 30
0.0
 11
109.9999865
 21
68.872
 31
0.0
  0
LINE
  5
4C0
330
1D
100
AcDbEntity
  8
0
100
AcDbLine
 10
109.9999865
 20
76.684
 30
0.0
 11
109.9999865
 21
85.0
 31
0.0
  0
LINE
  5
4C1
330
1D
100
AcDbEntity
  8
0
100
AcDbLine
 10
109.9999865
 20
85.0
 30
0.0
 11
109.9999865
 21
76.684
 31
0.0
  0
LINE
  5
4C2
330
1D
100
AcDbEntity
  8
0
100
AcDbLine
 10
109.9999865
 20
85.0
 30
0.0
 11
109.9999865
 21
93.316
 31
0.0
  0
LINE
  5
4C3
330
1D
100
AcDbEntity
  8
0
100
AcDbLine
 10
141.7199865
 20
79.8561
 30
0.0
 11
143.6399865
 21
75.0713
 31
0.0
  0
LINE
  5
4C4
330
1D
100
AcDbEntity
  8
0
100
AcDbLine
 10
109.9999865
 20
86.0
 30
0.0
 11
109.9999865
 21
84.0
 31
0.0
  0
LINE
  5
4C5
330
1D
100
AcDbEntity
  8
0
100
AcDbLine
 10
109.9999865
 20
86.1194
 30
0.0
 11
109.9999865
 21
85.0954
 31
0.0
  0
LINE
  5
4C6
330
1D
100
AcDbEntity
  8
0
100
AcDbLine
 10
109.9999865
 20
86.1194
 30
0.0
 11
109.9999865
 21
87.0794
 31
0.0
  0
LINE
  5
4C7
330
1D
100
AcDbEntity
  8
0
100
AcDbLine
 10
109.9999865
 20
87.0794
 30
0.0
 11
109.9999865
 21
86.1194
 31
0.0
  0
LINE
  5
4C8
330
1D
100
AcDbEntity
  8
0
100
AcDbLine
 10
109.9999865
 20
87.0794
 30
0.0
 11
109.9999865
 21
87.9274
 31
0.0
  0
LINE
  5
4C9
330
1D
100
AcDbEntity
  8
0
100
AcDbLine
 10
109.9999865
 20
87.9274
 30
0.0
 11
109.9999865
 21
87.0794
 31
0.0
  0
LINE
  5
4CA
330
1D
100
AcDbEntity
  8
0
100
AcDbLine
 10
109.9999865
 20
87.9274
 30
0.0
 11
109.9999865
 21
88.5674
 31
0.0
  0
LINE
  5
4CB
330
1D
100
AcDbEntity
  8
0
100
AcDbLine
 10
109.9999865
 20
88.5674
 30
0.0
 11
109.9999865
 21
87.9274
 31
0.0
  0
LINE
  5
4CC
330
1D
100
AcDbEntity
  8
0
100
AcDbLine
 10
109.9999865
 20
88.5674
 30
0.0
 11
109.9999865
 21
88.9514
 31
0.0
  0
LINE
  5
4CD
330
1D
100
AcDbEntity
  8
0
100
AcDbLine
 10
109.9999865
 20
88.9514
 30
0.0
 11
109.9999865
 21
88.5674
 31
0.0
  0
LINE
  5
4CE
330
1D
100
AcDbEntity
  8
0
100
AcDbLine
 10
109.9999865
 20
88.9514
 30
0.0
 11
109.9999865
 21
89.0954
 31
0.0
  0
LINE
  5
4CF
330
1D
100
AcDbEntity
  8
0
100
AcDbLine
 10
109.9999865
 20
89.0954
 30
0.0
 11
109.9999865
 21
88.9514
 31
0.0
  0
LINE
  5
4D0
330
1D
100
AcDbEntity
  8
0
100
AcDbLine
 10
109.9999865
 20
85.0954
 30
0.0
 11
109.9999865
 21
84.0714
 31
0.0
  0
LINE
  5
4D1
330
1D
100
AcDbEntity
  8
0
100
AcDbLine
 10
109.9999865
 20
85.0954
 30
0.0
 11
109.9999865
 21
86.1194
 31
0.0
  0
LINE
  5
4D2
330
1D
100
AcDbEntity
  8
0
100
AcDbLine
 10
109.9999865
 20
104.516
 30
0.0
 11
109.9999865
 21
106.4757
 31
0.0
  0
LINE
  5
4D3
330
1D
100
AcDbEntity
  8
0
100
AcDbLine
 10
109.9999865
 20
104.516
 30
0.0
 11
109.9999865
 21
106.584
 31
0.0
  0
LINE
  5
4D4
330
1D
100
AcDbEntity
  8
0
100
AcDbLine
 10
109.9999865
 20
106.584
 30
0.0
 11
109.9999865
 21
104.516
 31
0.0
  0
LINE
  5
4D5
330
1D
100
AcDbEntity
  8
0
100
AcDbLine
 10
109.9999865
 20
106.584
 30
0.0
 11
109.9999865
 21
108.4461
 31
0.0
  0
LINE
  5
4D6
330
1D
100
AcDbEntity
  8
0
100
AcDbLine
 10
109.9999865
 20
106.4757
 30
0.0
 11
109.9999865
 21
108.4461
 31
0.0
  0
LINE
  5
4D7
330
1D
100
AcDbEntity
  8
0
100
AcDbLine
 10
109.9999865
 20
106.4757
 30
0.0
 11
109.9999865
 21
104.516
 31
0.0
  0
LINE
  5
4D8
330
1D
100
AcDbEntity
  8
0
100
AcDbLine
 10
109.9999865
 20
108.4461
 30
0.0
 11
109.9999865
 21
106.584
 31
0.0
  0
LINE
  5
4D9
330
1D
100
AcDbEntity
  8
0
100
AcDbLine
 10
109.9999865
 20
108.4461
 30
0.0
 11
109.9999865
 21
106.4757
 31
0.0
  0
LINE
  5
4DA
330
1D
100
AcDbEntity
  8
0
100
AcDbLine
 10
109.9999865
 20
107.826
 30
0.0
 11
109.9999865
 21
108.85
 31
0.0
  0
LINE
  5
4DB
330
1D
100
AcDbEntity
  8
0
100
AcDbLine
 10
109.9999865
 20
107.826
 30
0.0
 11
109.9999865
 21
106.866
 31
0.0
  0
LINE
  5
4DC
330
1D
100
AcDbEntity
  8
0
100
AcDbLine
 10
109.9999865
 20
106.866
 30
0.0
 11
109.9999865
 21
107.826
 31
0.0
  0
LINE
  5
4DD
330
1D
100
AcDbEntity
  8
0
100
AcDbLine
 10
109.9999865
 20
106.866
 30
0.0
 11
109.9999865
 21
106.018
 31
0.0
  0
LINE
  5
4DE
330
1D
100
AcDbEntity
  8
0
100
AcDbLine
 10
109.9999865
 20
106.018
 30
0.0
 11
109.9999865
 21
106.866
 31
0.0
  0
LINE
  5
4DF
330
1D
100
AcDbEntity
  8
0
100
AcDbLine
 10
109.9999865
 20
106.018
 30
0.0
 11
109.9999865
 21
105.378
 31
0.0
  0
LINE
  5
4E0
330
1D
100
AcDbEntity
  8
0
100
AcDbLine
 10
109.9999865
 20
105.378
 30
0.0
 11
109.9999865
 21
106.018
 31
0.0
  0
LINE
  5
4E1
330
1D
100
AcDbEntity
  8
0
100
AcDbLine
 10
109.9999865
 20
105.378
 30
0.0
 11
109.9999865
 21
104.994
 31
0.0
  0
LINE
  5
4E2
330
1D
100
AcDbEntity
  8
0
100
AcDbLine
 10
109.9999865
 20
104.994
 30
0.0
 11
109.9999865
 21
105.378
 31
0.0
  0
LINE
  5
4E3
330
1D
100
AcDbEntity
  8
0
100
AcDbLine
 10
109.9999865
 20
104.994
 30
0.0
 11
109.9999865
 21
104.85
 31
0.0
  0
LINE
  5
4E4
330
1D
100
AcDbEntity
  8
0
100
AcDbLine
 10
109.9999865
 20
104.85
 30
0.0
 11
109.9999865
 21
104.994
 31
0.0
  0
LINE
  5
4E5
330
1D
100
AcDbEntity
  8
0
100
AcDbLine
 10
109.9999865
 20
108.85
 30
0.0
 11
109.9999865
 21
109.874
 31
0.0
  0
LINE
  5
4E6
330
1D
100
AcDbEntity
  8
0
100
AcDbLine
 10
109.9999865
 20
108.85
 30
0.0
 11
109.9999865
 21
107.826
 31
0.0
  0
LINE
  5
4E7
330
1D
100
AcDbEntity
  8
0
100
AcDbLine
 10
109.9999865
 20
109.874
 30
0.0
 11
109.9999865
 21
110.834
 31
0.0
  0
LINE
  5
4E8
330
1D
100
AcDbEntity
  8
0
100
AcDbLine
 10
109.9999865
 20
109.874
 30
0.0
 11
109.9999865
 21
108.85
 31
0.0
  0
LINE
  5
4E9
330
1D
100
AcDbEntity
  8
0
100
AcDbLine
 10
109.9999865
 20
109.7
 30
0.0
 11
109.9999865
 21
110.5
 31
0.0
  0
LINE
  5
4EA
330
1D
100
AcDbEntity
  8
0
100
AcDbLine
 10
109.9999865
 20
109.7
 30
0.0
 11
109.9999865
 21
60.3
 31
0.0
  0
LINE
  5
4EB
330
1D
100
AcDbEntity
  8
0
100
AcDbLine
 10
109.9999865
 20
111.17
 30
0.0
 11
109.9999865
 21
112.428
 31
0.0
  0
LINE
  5
4EC
330
1D
100
AcDbEntity
  8
0
100
AcDbLine
 10
109.9999865
 20
111.17
 30
0.0
 11
109.9999865
 21
120.161
 31
0.0
  0
LINE
  5
4ED
330
1D
100
AcDbEntity
  8
0
100
AcDbLine
 10
109.9999865
 20
110.834
 30
0.0
 11
109.9999865
 21
111.682
 31
0.0
  0
LINE
  5
4EE
330
1D
100
AcDbEntity
  8
0
100
AcDbLine
 10
109.9999865
 20
110.834
 30
0.0
 11
109.9999865
 21
109.874
 31
0.0
  0
LINE
  5
4EF
330
1D
100
AcDbEntity
  8
0
100
AcDbLine
 10
109.9999865
 20
111.682
 30
0.0
 11
109.9999865
 21
112.322
 31
0.0
  0
LINE
  5
4F0
330
1D
100
AcDbEntity
  8
0
100
AcDbLine
 10
109.9999865
 20
111.682
 30
0.0
 11
109.9999865
 21
110.834
 31
0.0
  0
LINE
  5
4F1
330
1D
100
AcDbEntity
  8
0
100
AcDbLine
 10
109.9999865
 20
110.5
 30
0.0
 11
113.9999865
 21
110.5
 31
0.0
  0
LINE
  5
4F2
330
1D
100
AcDbEntity
  8
0
100
AcDbLine
 10
109.9999865
 20
110.5
 30
0.0
 11
109.9999865
 21
160.5
 31
0.0
  0
LINE
  5
4F3
330
1D
100
AcDbEntity
  8
0
100
AcDbLine
 10
109.9999865
 20
110.5
 30
0.0
 11
109.9999865
 21
109.7
 31
0.0
  0
LINE
  5
4F4
330
1D
100
AcDbEntity
  8
0
100
AcDbLine
 10
109.9999865
 20
110.5
 30
0.0
 11
109.9999865
 21
59.5
 31
0.0
  0
LINE
  5
4F5
330
1D
100
AcDbEntity
  8
0
100
AcDbLine
 10
109.9999865
 20
108.94
 30
0.0
 11
109.9999865
 21
101.128
 31
0.0
  0
LINE
  5
4F6
330
1D
100
AcDbEntity
  8
0
100
AcDbLine
 10
109.9999865
 20
108.94
 30
0.0
 11
109.9999865
 21
116.248
 31
0.0
  0
LINE
  5
4F7
330
1D
100
AcDbEntity
  8
0
100
AcDbLine
 10
109.9999865
 20
101.128
 30
0.0
 11
109.9999865
 21
93.316
 31
0.0
  0
LINE
  5
4F8
330
1D
100
AcDbEntity
  8
0
100
AcDbLine
 10
109.9999865
 20
101.128
 30
0.0
 11
109.9999865
 21
108.94
 31
0.0
  0
LINE
  5
4F9
330
1D
100
AcDbEntity
  8
0
100
AcDbLine
 10
113.9999865
 20
110.5
 30
0.0
 11
113.9999865
 21
160.5
 31
0.0
  0
LINE
  5
4FA
330
1D
100
AcDbEntity
  8
0
100
AcDbLine
 10
113.9999865
 20
110.5
 30
0.0
 11
113.9999865
 21
59.5
 31
0.0
  0
LINE
  5
4FB
330
1D
100
AcDbEntity
  8
0
100
AcDbLine
 10
109.9999865
 20
93.316
 30
0.0
 11
109.9999865
 21
85.0
 31
0.0
  0
LINE
  5
4FC
330
1D
100
AcDbEntity
  8
0
100
AcDbLine
 10
109.9999865
 20
93.316
 30
0.0
 11
109.9999865
 21
101.128
 31
0.0
  0
LINE
  5
4FD
330
1D
100
AcDbEntity
  8
0
100
AcDbLine
 10
141.7199865
 20
90.12
 30
0.0
 11
143.6399865
 21
94.92
 31
0.0
  0
LINE
  5
4FE
330
1D
100
AcDbEntity
  8
0
100
AcDbLine
 10
141.7199865
 20
90.1439
 30
0.0
 11
143.6399865
 21
94.9287
 31
0.0
  0
LINE
  5
4FF
330
1D
100
AcDbEntity
  8
0
100
AcDbLine
 10
140.9999865
 20
85.0
 30
0.0
 11
141.7199865
 21
90.1439
 31
0.0
  0
LINE
  5
500
330
1D
100
AcDbEntity
  8
0
100
AcDbLine
 10
140.9999865
 20
85.0
 30
0.0
 11
141.7199865
 21
79.8561
 31
0.0
  0
LINE
  5
501
330
1D
100
AcDbEntity
  8
0
100
AcDbLine
 10
140.9999865
 20
85.0
 30
0.0
 11
141.7199865
 21
90.12
 31
0.0
  0
LINE
  5
502
330
1D
100
AcDbEntity
  8
0
100
AcDbLine
 10
140.9999865
 20
85.0
 30
0.0
 11
141.7199865
 21
79.88
 31
0.0
  0
LINE
  5
503
330
1D
100
AcDbEntity
  8
0
100
AcDbLine
 10
151.0799865
 20
67.64
 30
0.0
 11
155.8799865
 21
65.72
 31
0.0
  0
LINE
  5
504
330
1D
100
AcDbEntity
  8
0
100
AcDbLine
 10
152.5679865
 20
70.244
 30
0.0
 11
156.6479865
 21
68.612
 31
0.0
  0
LINE
  5
505
330
1D
100
AcDbEntity
  8
0
100
AcDbLine
 10
155.8799865
 20
65.6958
 30
0.0
 11
160.9999865
 21
65.0
 31
0.0
  0
LINE
  5
506
330
1D
100
AcDbEntity
  8
0
100
AcDbLine
 10
151.0799865
 20
67.6389
 30
0.0
 11
155.8799865
 21
65.6958
 31
0.0
  0
LINE
  5
507
330
1D
100
AcDbEntity
  8
0
100
AcDbLine
 10
146.8399865
 20
70.84
 30
0.0
 11
151.0799865
 21
67.64
 31
0.0
  0
LINE
  5
508
330
1D
100
AcDbEntity
  8
0
100
AcDbLine
 10
146.8399865
 20
70.8207
 30
0.0
 11
151.0799865
 21
67.6389
 31
0.0
  0
LINE
  5
509
330
1D
100
AcDbEntity
  8
0
100
AcDbLine
 10
156.6479865
 20
68.612
 30
0.0
 11
160.9999865
 21
68.0
 31
0.0
  0
LINE
  5
50A
330
1D
100
AcDbEntity
  8
0
100
AcDbLine
 10
165.3519865
 20
68.612
 30
0.0
 11
169.4319865
 21
70.244
 31
0.0
  0
LINE
  5
50B
330
1D
100
AcDbEntity
  8
0
100
AcDbLine
 10
166.1199865
 20
65.72
 30
0.0
 11
170.9199865
 21
67.64
 31
0.0
  0
LINE
  5
50C
330
1D
100
AcDbEntity
  8
0
100
AcDbLine
 10
160.9999865
 20
68.0
 30
0.0
 11
165.3519865
 21
68.612
 31
0.0
  0
LINE
  5
50D
330
1D
100
AcDbEntity
  8
0
100
AcDbLine
 10
160.9999865
 20
70.4286
 30
0.0
 11
164.7302865
 21
70.9531
 31
0.0
  0
LINE
  5
50E
330
1D
100
AcDbEntity
  8
0
100
AcDbLine
 10
155.8799865
 20
65.72
 30
0.0
 11
160.9999865
 21
65.0
 31
0.0
  0
LINE
  5
50F
330
1D
100
AcDbEntity
  8
0
100
AcDbLine
 10
143.6399865
 20
75.08
 30
0.0
 11
146.8399865
 21
70.84
 31
0.0
  0
LINE
  5
510
330
1D
100
AcDbEntity
  8
0
100
AcDbLine
 10
143.6399865
 20
94.92
 30
0.0
 11
146.8399865
 21
99.16
 31
0.0
  0
LINE
  5
511
330
1D
100
AcDbEntity
  8
0
100
AcDbLine
 10
143.6399865
 20
75.0713
 30
0.0
 11
146.8399865
 21
70.8207
 31
0.0
  0
LINE
  5
512
330
1D
100
AcDbEntity
  8
0
100
AcDbLine
 10
146.2439865
 20
76.568
 30
0.0
 11
148.9639865
 21
72.964
 31
0.0
  0
LINE
  5
513
330
1D
100
AcDbEntity
  8
0
100
AcDbLine
 10
144.6119865
 20
80.648
 30
0.0
 11
146.2439865
 21
76.568
 31
0.0
  0
LINE
  5
514
330
1D
100
AcDbEntity
  8
0
100
AcDbLine
 10
148.9639865
 20
72.964
 30
0.0
 11
152.5679865
 21
70.244
 31
0.0
  0
LINE
  5
515
330
1D
100
AcDbEntity
  8
0
100
AcDbLine
 10
150.6833865
 20
74.6834
 30
0.0
 11
153.7725865
 21
72.352
 31
0.0
  0
LINE
  5
516
330
1D
100
AcDbEntity
  8
0
100
AcDbLine
 10
148.3519865
 20
77.7726
 30
0.0
 11
150.6833865
 21
74.6834
 31
0.0
  0
LINE
  5
517
330
1D
100
AcDbEntity
  8
0
100
AcDbLine
 10
146.9530865
 20
81.2697
 30
0.0
 11
148.3519865
 21
77.7726
 31
0.0
  0
LINE
  5
518
330
1D
100
AcDbEntity
  8
0
100
AcDbLine
 10
146.2439865
 20
93.432
 30
0.0
 11
148.9639865
 21
97.036
 31
0.0
  0
LINE
  5
519
330
1D
100
AcDbEntity
  8
0
100
AcDbLine
 10
144.6119865
 20
89.352
 30
0.0
 11
146.2439865
 21
93.432
 31
0.0
  0
LINE
  5
51A
330
1D
100
AcDbEntity
  8
0
100
AcDbLine
 10
146.8399865
 20
99.16
 30
0.0
 11
151.0799865
 21
102.36
 31
0.0
  0
LINE
  5
51B
330
1D
100
AcDbEntity
  8
0
100
AcDbLine
 10
148.9639865
 20
97.036
 30
0.0
 11
152.5679865
 21
99.756
 31
0.0
  0
LINE
  5
51C
330
1D
100
AcDbEntity
  8
0
100
AcDbLine
 10
150.6833865
 20
95.3166
 30
0.0
 11
153.7725865
 21
97.648
 31
0.0
  0
LINE
  5
51D
330
1D
100
AcDbEntity
  8
0
100
AcDbLine
 10
148.3519865
 20
92.2274
 30
0.0
 11
150.6833865
 21
95.3166
 31
0.0
  0
LINE
  5
51E
330
1D
100
AcDbEntity
  8
0
100
AcDbLine
 10
146.9530865
 20
88.7303
 30
0.0
 11
148.3519865
 21
92.2274
 31
0.0
  0
LINE
  5
51F
330
1D
100
AcDbEntity
  8
0
100
AcDbLine
 10
146.4285865
 20
85.0
 30
0.0
 11
146.9530865
 21
81.2697
 31
0.0
  0
LINE
  5
520
330
1D
100
AcDbEntity
  8
0
100
AcDbLine
 10
146.4285865
 20
85.0
 30
0.0
 11
146.9530865
 21
88.7303
 31
0.0
  0
LINE
  5
521
330
1D
100
AcDbEntity
  8
0
100
AcDbLine
 10
143.9999865
 20
85.0
 30
0.0
 11
144.6119865
 21
80.648
 31
0.0
  0
LINE
  5
522
330
1D
100
AcDbEntity
  8
0
100
AcDbLine
 10
143.9999865
 20
85.0
 30
0.0
 11
144.6119865
 21
89.352
 31
0.0
  0
LINE
  5
523
330
1D
100
AcDbEntity
  8
0
100
AcDbLine
 10
151.0799865
 20
102.36
 30
0.0
 11
155.8799865
 21
104.28
 31
0.0
  0
LINE
  5
524
330
1D
100
AcDbEntity
  8
0
100
AcDbLine
 10
146.8399865
 20
99.1793
 30
0.0
 11
151.0799865
 21
102.3611
 31
0.0
  0
LINE
  5
525
330
1D
100
AcDbEntity
  8
0
100
AcDbLine
 10
143.6399865
 20
94.9287
 30
0.0
 11
146.8399865
 21
99.1793
 31
0.0
  0
LINE
  5
526
330
1D
100
AcDbEntity
  8
0
100
AcDbLine
 10
151.0799865
 20
102.36
 30
0.0
 11
155.8799865
 21
104.28
 31
0.0
  0
LINE
  5
527
330
1D
100
AcDbEntity
  8
0
100
AcDbLine
 10
152.5679865
 20
99.756
 30
0.0
 11
156.6479865
 21
101.388
 31
0.0
  0
LINE
  5
528
330
1D
100
AcDbEntity
  8
0
100
AcDbLine
 10
153.7725865
 20
97.648
 30
0.0
 11
157.2696865
 21
99.0469
 31
0.0
  0
LINE
  5
529
330
1D
100
AcDbEntity
  8
0
100
AcDbLine
 10
153.7725865
 20
72.352
 30
0.0
 11
157.2696865
 21
70.9531
 31
0.0
  0
LINE
  5
52A
330
1D
100
AcDbEntity
  8
0
100
AcDbLine
 10
155.8799865
 20
104.28
 30
0.0
 11
160.9999865
 21
105.0
 31
0.0
  0
LINE
  5
52B
330
1D
100
AcDbEntity
  8
0
100
AcDbLine
 10
155.8799865
 20
104.28
 30
0.0
 11
160.9999865
 21
105.0
 31
0.0
  0
LINE
  5
52C
330
1D
100
AcDbEntity
  8
0
100
AcDbLine
 10
157.2696865
 20
70.9531
 30
0.0
 11
160.9999865
 21
70.4286
 31
0.0
  0
LINE
  5
52D
330
1D
100
AcDbEntity
  8
0
100
AcDbLine
 10
157.2696865
 20
99.0469
 30
0.0
 11
160.9999865
 21
99.5714
 31
0.0
  0
LINE
  5
52E
330
1D
100
AcDbEntity
  8
0
100
AcDbLine
 10
160.9999865
 20
105.0
 30
0.0
 11
166.1199865
 21
104.28
 31
0.0
  0
LINE
  5
52F
330
1D
100
AcDbEntity
  8
0
100
AcDbLine
 10
156.6479865
 20
101.388
 30
0.0
 11
160.9999865
 21
102.0
 31
0.0
  0
LINE
  5
530
330
1D
100
AcDbEntity
  8
0
100
AcDbLine
 10
160.9999865
 20
102.0
 30
0.0
 11
165.3519865
 21
101.388
 31
0.0
  0
LINE
  5
531
330
1D
100
AcDbEntity
  8
0
100
AcDbLine
 10
160.9999865
 20
99.5714
 30
0.0
 11
164.7302865
 21
99.0469
 31
0.0
  0
LINE
  5
532
330
1D
100
AcDbEntity
  8
0
100
AcDbLine
 10
166.1199865
 20
104.28
 30
0.0
 11
170.9199865
 21
102.36
 31
0.0
  0
LINE
  5
533
330
1D
100
AcDbEntity
  8
0
100
AcDbLine
 10
165.3519865
 20
101.388
 30
0.0
 11
169.4319865
 21
99.756
 31
0.0
  0
LINE
  5
534
330
1D
100
AcDbEntity
  8
0
100
AcDbLine
 10
164.7302865
 20
99.0469
 30
0.0
 11
168.2273865
 21
97.648
 31
0.0
  0
LINE
  5
535
330
1D
100
AcDbEntity
  8
0
100
AcDbLine
 10
164.7302865
 20
70.9531
 30
0.0
 11
168.2273865
 21
72.352
 31
0.0
  0
LINE
  5
536
330
1D
100
AcDbEntity
  8
0
100
AcDbLine
 10
155.8799865
 20
104.3042
 30
0.0
 11
160.9999865
 21
105.0
 31
0.0
  0
LINE
  5
537
330
1D
100
AcDbEntity
  8
0
100
AcDbLine
 10
160.9999865
 20
105.0
 30
0.0
 11
166.1199865
 21
104.28
 31
0.0
  0
LINE
  5
538
330
1D
100
AcDbEntity
  8
0
100
AcDbLine
 10
160.9999865
 20
105.0
 30
0.0
 11
166.1199865
 21
104.3042
 31
0.0
  0
LINE
  5
539
330
1D
100
AcDbEntity
  8
0
100
AcDbLine
 10
151.0799865
 20
102.3611
 30
0.0
 11
155.8799865
 21
104.3042
 31
0.0
  0
LINE
  5
53A
330
1D
100
AcDbEntity
  8
0
100
AcDbLine
 10
141.7199865
 20
79.88
 30
0.0
 11
143.6399865
 21
75.08
 31
0.0
  0
LINE
  5
53B
330
1D
100
AcDbEntity
  8
0
100
AcDbLine
 10
160.9999865
 20
65.0
 30
0.0
 11
166.1199865
 21
65.6958
 31
0.0
  0
LINE
  5
53C
330
1D
100
AcDbEntity
  8
0
100
AcDbLine
 10
160.9999865
 20
65.0
 30
0.0
 11
166.1199865
 21
65.72
 31
0.0
  0
LINE
  5
53D
330
1D
100
AcDbEntity
  8
0
100
AcDbLine
 10
169.4319865
 20
22.0
 30
0.0
 11
173.0359865
 21
22.0
 31
0.0
  0
LINE
  5
53E
330
1D
100
AcDbEntity
  8
0
100
AcDbLine
 10
173.0359865
 20
22.0
 30
0.0
 11
175.7559865
 21
22.0
 31
0.0
  0
LINE
  5
53F
330
1D
100
AcDbEntity
  8
0
100
AcDbLine
 10
170.9199865
 20
22.0
 30
0.0
 11
175.1599865
 21
22.0
 31
0.0
  0
LINE
  5
540
330
1D
100
AcDbEntity
  8
0
100
AcDbLine
 10
175.1599865
 20
22.0
 30
0.0
 11
178.3599865
 21
22.0
 31
0.0
  0
LINE
  5
541
330
1D
100
AcDbEntity
  8
0
100
AcDbLine
 10
170.9199865
 20
24.0
 30
0.0
 11
175.1599865
 21
24.0
 31
0.0
  0
LINE
  5
542
330
1D
100
AcDbEntity
  8
0
100
AcDbLine
 10
175.7559865
 20
22.0
 30
0.0
 11
177.3879865
 21
22.0
 31
0.0
  0
LINE
  5
543
330
1D
100
AcDbEntity
  8
0
100
AcDbLine
 10
177.3879865
 20
22.0
 30
0.0
 11
177.9999865
 21
22.0
 31
0.0
  0
LINE
  5
544
330
1D
100
AcDbEntity
  8
0
100
AcDbLine
 10
178.3599865
 20
22.0
 30
0.0
 11
180.2799865
 21
22.0
 31
0.0
  0
LINE
  5
545
330
1D
100
AcDbEntity
  8
0
100
AcDbLine
 10
180.2799865
 20
22.0
 30
0.0
 11
180.9999865
 21
22.0
 31
0.0
  0
LINE
  5
546
330
1D
100
AcDbEntity
  8
0
100
AcDbLine
 10
175.1599865
 20
24.0
 30
0.0
 11
178.3599865
 21
24.0
 31
0.0
  0
LINE
  5
547
330
1D
100
AcDbEntity
  8
0
100
AcDbLine
 10
178.3599865
 20
24.0
 30
0.0
 11
180.2799865
 21
24.0
 31
0.0
  0
LINE
  5
548
330
1D
100
AcDbEntity
  8
0
100
AcDbLine
 10
180.9999865
 20
22.0
 30
0.0
 11
180.9999865
 21
24.0
 31
0.0
  0
LINE
  5
549
330
1D
100
AcDbEntity
  8
0
100
AcDbLine
 10
182.9999865
 20
24.0
 30
0.0
 11
182.9999865
 21
24.6421
 31
0.0
  0
LINE
  5
54A
330
1D
100
AcDbEntity
  8
0
100
AcDbLine
 10
180.2799865
 20
24.0
 30
0.0
 11
180.9999865
 21
24.0
 31
0.0
  0
LINE
  5
54B
330
1D
100
AcDbEntity
  8
0
100
AcDbLine
 10
170.9199865
 20
26.7401
 30
0.0
 11
175.1599865
 21
25.8896
 31
0.0
  0
LINE
  5
54C
330
1D
100
AcDbEntity
  8
0
100
AcDbLine
 10
175.1599865
 20
25.8896
 30
0.0
 11
175.9999865
 21
25.679075
 31
0.0
  0
LINE
  5
54D
330
1D
100
AcDbEntity
  8
0
100
AcDbLine
 10
170.9199865
 20
67.64
 30
0.0
 11
175.1599865
 21
70.84
 31
0.0
  0
LINE
  5
54E
330
1D
100
AcDbEntity
  8
0
100
AcDbLine
 10
169.4319865
 20
70.244
 30
0.0
 11
173.0359865
 21
72.964
 31
0.0
  0
LINE
  5
54F
330
1D
100
AcDbEntity
  8
0
100
AcDbLine
 10
168.2273865
 20
72.352
 30
0.0
 11
171.3165865
 21
74.6834
 31
0.0
  0
LINE
  5
550
330
1D
100
AcDbEntity
  8
0
100
AcDbLine
 10
173.0359865
 20
72.964
 30
0.0
 11
175.7559865
 21
76.568
 31
0.0
  0
LINE
  5
551
330
1D
100
AcDbEntity
  8
0
100
AcDbLine
 10
171.3165865
 20
74.6834
 30
0.0
 11
173.6479865
 21
77.7726
 31
0.0
  0
LINE
  5
552
330
1D
100
AcDbEntity
  8
0
100
AcDbLine
 10
170.9199865
 20
102.36
 30
0.0
 11
175.1599865
 21
99.16
 31
0.0
  0
LINE
  5
553
330
1D
100
AcDbEntity
  8
0
100
AcDbLine
 10
169.4319865
 20
99.756
 30
0.0
 11
173.0359865
 21
97.036
 31
0.0
  0
LINE
  5
554
330
1D
100
AcDbEntity
  8
0
100
AcDbLine
 10
168.2273865
 20
97.648
 30
0.0
 11
171.3165865
 21
95.3166
 31
0.0
  0
LINE
  5
555
330
1D
100
AcDbEntity
  8
0
100
AcDbLine
 10
173.0359865
 20
97.036
 30
0.0
 11
175.7559865
 21
93.432
 31
0.0
  0
LINE
  5
556
330
1D
100
AcDbEntity
  8
0
100
AcDbLine
 10
171.3165865
 20
95.3166
 30
0.0
 11
173.6479865
 21
92.2274
 31
0.0
  0
LINE
  5
557
330
1D
100
AcDbEntity
  8
0
100
AcDbLine
 10
173.6479865
 20
92.2274
 30
0.0
 11
175.0469865
 21
88.7303
 31
0.0
  0
LINE
  5
558
330
1D
100
AcDbEntity
  8
0
100
AcDbLine
 10
175.0469865
 20
88.7303
 30
0.0
 11
175.5709865
 21
85.0
 31
0.0
  0
LINE
  5
559
330
1D
100
AcDbEntity
  8
0
100
AcDbLine
 10
173.6479865
 20
77.7726
 30
0.0
 11
175.0469865
 21
81.2697
 31
0.0
  0
LINE
  5
55A
330
1D
100
AcDbEntity
  8
0
100
AcDbLine
 10
175.1599865
 20
99.16
 30
0.0
 11
178.3599865
 21
94.92
 31
0.0
  0
LINE
  5
55B
330
1D
100
AcDbEntity
  8
0
100
AcDbLine
 10
175.1599865
 20
70.84
 30
0.0
 11
178.3599865
 21
75.08
 31
0.0
  0
LINE
  5
55C
330
1D
100
AcDbEntity
  8
0
100
AcDbLine
 10
175.0469865
 20
81.2697
 30
0.0
 11
175.5709865
 21
85.0
 31
0.0
  0
LINE
  5
55D
330
1D
100
AcDbEntity
  8
0
100
AcDbLine
 10
170.9199865
 20
67.6389
 30
0.0
 11
175.1599865
 21
70.8207
 31
0.0
  0
LINE
  5
55E
330
1D
100
AcDbEntity
  8
0
100
AcDbLine
 10
175.1599865
 20
70.8207
 30
0.0
 11
178.3599865
 21
75.0713
 31
0.0
  0
LINE
  5
55F
330
1D
100
AcDbEntity
  8
0
100
AcDbLine
 10
170.9199865
 20
102.3611
 30
0.0
 11
175.1599865
 21
99.1793
 31
0.0
  0
LINE
  5
560
330
1D
100
AcDbEntity
  8
0
100
AcDbLine
 10
175.9999865
 20
25.3993
 30
0.0
 11
182.9999865
 21
25.3993
 31
0.0
  0
LINE
  5
561
330
1D
100
AcDbEntity
  8
0
100
AcDbLine
 10
175.9999865
 20
25.3993
 30
0.0
 11
175.9999865
 21
25.6513
 31
0.0
  0
LINE
  5
562
330
1D
100
AcDbEntity
  8
0
100
AcDbLine
 10
175.9999865
 20
25.6513
 30
0.0
 11
175.9999865
 21
25.3993
 31
0.0
  0
LINE
  5
592
330
1D
100
AcDbEntity
  8
0
100
AcDbLine
 10
175.7559865
 20
93.432
 30
0.0
 11
177.3879865
 21
89.352
 31
0.0
  0
LINE
  5
593
330
1D
100
AcDbEntity
  8
0
100
AcDbLine
 10
175.7559865
 20
76.568
 30
0.0
 11
177.3879865
 21
80.648
 31
0.0
  0
LINE
  5
5A4
330
1D
100
AcDbEntity
  8
0
100
AcDbLine
 10
177.3879865
 20
89.352
 30
0.0
 11
177.9999865
 21
85.0
 31
0.0
  0
LINE
  5
5A5
330
1D
100
AcDbEntity
  8
0
100
AcDbLine
 10
177.3879865
 20
80.648
 30
0.0
 11
177.9999865
 21
85.0
 31
0.0
  0
LINE
  5
5A7
330
1D
100
AcDbEntity
  8
0
100
AcDbLine
 10
177.116295726933
 20
25.3993
 30
0.0
 11
178.3599865
 21
25.0876
 31
0.0
  0
LINE
  5
5A8
330
1D
100
AcDbEntity
  8
0
100
AcDbLine
 10
175.1599865
 20
99.1793
 30
0.0
 11
178.3599865
 21
94.9287
 31
0.0
  0
LINE
  5
5A9
330
1D
100
AcDbEntity
  8
0
100
AcDbLine
 10
166.1199865
 20
104.3042
 30
0.0
 11
170.9199865
 21
102.3611
 31
0.0
  0
LINE
  5
5AA
330
1D
100
AcDbEntity
  8
0
100
AcDbLine
 10
166.1199865
 20
104.28
 30
0.0
 11
170.9199865
 21
102.36
 31
0.0
  0
LINE
  5
5AB
330
1D
100
AcDbEntity
  8
0
100
AcDbLine
 10
182.9999865
 20
25.3993
 30
0.0
 11
182.9999865
 21
25.6513
 31
0.0
  0
LINE
  5
5AC
330
1D
100
AcDbEntity
  8
0
100
AcDbLine
 10
182.9999865
 20
25.3993
 30
0.0
 11
182.9999865
 21
24.6421
 31
0.0
  0
LINE
  5
5AD
330
1D
100
AcDbEntity
  8
0
100
AcDbLine
 10
182.9999865
 20
25.6513
 30
0.0
 11
182.9999865
 21
26.3233
 31
0.0
  0
LINE
  5
5AE
330
1D
100
AcDbEntity
  8
0
100
AcDbLine
 10
182.9999865
 20
25.6513
 30
0.0
 11
182.9999865
 21
25.3993
 31
0.0
  0
LINE
  5
5AF
330
1D
100
AcDbEntity
  8
0
100
AcDbLine
 10
182.9999865
 20
26.3233
 30
0.0
 11
182.9999865
 21
27.4433
 31
0.0
  0
LINE
  5
5B0
330
1D
100
AcDbEntity
  8
0
100
AcDbLine
 10
182.9999865
 20
26.3233
 30
0.0
 11
182.9999865
 21
25.6513
 31
0.0
  0
LINE
  5
5B1
330
1D
100
AcDbEntity
  8
0
100
AcDbLine
 10
182.9999865
 20
27.4433
 30
0.0
 11
182.9999865
 21
28.9273
 31
0.0
  0
LINE
  5
5B2
330
1D
100
AcDbEntity
  8
0
100
AcDbLine
 10
182.9999865
 20
27.4433
 30
0.0
 11
182.9999865
 21
26.3233
 31
0.0
  0
LINE
  5
5B3
330
1D
100
AcDbEntity
  8
0
100
AcDbLine
 10
182.9999865
 20
38.4753
 30
0.0
 11
182.9999865
 21
37.3553
 31
0.0
  0
LINE
  5
5B4
330
1D
100
AcDbEntity
  8
0
100
AcDbLine
 10
182.9999865
 20
38.4753
 30
0.0
 11
182.9999865
 21
54.4105
 31
0.0
  0
LINE
  5
5B5
330
1D
100
AcDbEntity
  8
0
100
AcDbLine
 10
182.9999865
 20
37.3553
 30
0.0
 11
182.9999865
 21
35.8713
 31
0.0
  0
LINE
  5
5B6
330
1D
100
AcDbEntity
  8
0
100
AcDbLine
 10
182.9999865
 20
37.3553
 30
0.0
 11
182.9999865
 21
38.4753
 31
0.0
  0
LINE
  5
5B7
330
1D
100
AcDbEntity
  8
0
100
AcDbLine
 10
182.9999865
 20
35.8713
 30
0.0
 11
182.9999865
 21
34.1913
 31
0.0
  0
LINE
  5
5B8
330
1D
100
AcDbEntity
  8
0
100
AcDbLine
 10
182.9999865
 20
35.8713
 30
0.0
 11
182.9999865
 21
37.3553
 31
0.0
  0
LINE
  5
5B9
330
1D
100
AcDbEntity
  8
0
100
AcDbLine
 10
182.9999865
 20
34.1913
 30
0.0
 11
182.9999865
 21
32.3993
 31
0.0
  0
LINE
  5
5BA
330
1D
100
AcDbEntity
  8
0
100
AcDbLine
 10
182.9999865
 20
34.1913
 30
0.0
 11
182.9999865
 21
35.8713
 31
0.0
  0
LINE
  5
5BB
330
1D
100
AcDbEntity
  8
0
100
AcDbLine
 10
182.9999865
 20
32.3993
 30
0.0
 11
182.9999865
 21
30.6073
 31
0.0
  0
LINE
  5
5BC
330
1D
100
AcDbEntity
  8
0
100
AcDbLine
 10
182.9999865
 20
32.3993
 30
0.0
 11
182.9999865
 21
34.1913
 31
0.0
  0
LINE
  5
5BD
330
1D
100
AcDbEntity
  8
0
100
AcDbLine
 10
182.9999865
 20
28.9273
 30
0.0
 11
182.9999865
 21
30.6073
 31
0.0
  0
LINE
  5
5BE
330
1D
100
AcDbEntity
  8
0
100
AcDbLine
 10
182.9999865
 20
28.9273
 30
0.0
 11
182.9999865
 21
27.4433
 31
0.0
  0
LINE
  5
5BF
330
1D
100
AcDbEntity
  8
0
100
AcDbLine
 10
182.9999865
 20
30.6073
 30
0.0
 11
182.9999865
 21
32.3993
 31
0.0
  0
LINE
  5
5C0
330
1D
100
AcDbEntity
  8
0
100
AcDbLine
 10
182.9999865
 20
30.6073
 30
0.0
 11
182.9999865
 21
28.9273
 31
0.0
  0
LINE
  5
5C1
330
1D
100
AcDbEntity
  8
0
100
AcDbLine
 10
182.9999865
 20
24.6421
 30
0.0
 11
182.9999865
 21
25.3993
 31
0.0
  0
LINE
  5
5C2
330
1D
100
AcDbEntity
  8
0
100
AcDbLine
 10
182.9999865
 20
24.6421
 30
0.0
 11
182.9999865
 21
24.0
 31
0.0
  0
LINE
  5
5C3
330
1D
100
AcDbEntity
  8
0
100
AcDbLine
 10
178.3599865
 20
25.0876
 30
0.0
 11
180.2799865
 21
24.4072
 31
0.0
  0
LINE
  5
5C4
330
1D
100
AcDbEntity
  8
0
100
AcDbLine
 10
180.2799865
 20
24.4072
 30
0.0
 11
180.9999865
 21
24.0
 31
0.0
  0
LINE
  5
5C5
330
1D
100
AcDbEntity
  8
0
100
AcDbLine
 10
182.9999865
 20
54.4105
 30
0.0
 11
182.9999865
 21
54.6284
 31
0.0
  0
LINE
  5
5C6
330
1D
100
AcDbEntity
  8
0
100
AcDbLine
 10
182.9999865
 20
54.4105
 30
0.0
 11
182.9999865
 21
38.4753
 31
0.0
  0
LINE
  5
5C7
330
1D
100
AcDbEntity
  8
0
100
AcDbLine
 10
178.3599865
 20
94.92
 30
0.0
 11
180.2799865
 21
90.12
 31
0.0
  0
LINE
  5
5C8
330
1D
100
AcDbEntity
  8
0
100
AcDbLine
 10
180.2799865
 20
90.12
 30
0.0
 11
180.9999865
 21
85.0
 31
0.0
  0
LINE
  5
5C9
330
1D
100
AcDbEntity
  8
0
100
AcDbLine
 10
178.3599865
 20
75.08
 30
0.0
 11
180.2799865
 21
79.88
 31
0.0
  0
LINE
  5
5CA
330
1D
100
AcDbEntity
  8
0
100
AcDbLine
 10
180.2799865
 20
79.88
 30
0.0
 11
180.9999865
 21
85.0
 31
0.0
  0
LINE
  5
5CB
330
1D
100
AcDbEntity
  8
0
100
AcDbLine
 10
178.3599865
 20
75.0713
 30
0.0
 11
180.2799865
 21
79.8561
 31
0.0
  0
LINE
  5
5CC
330
1D
100
AcDbEntity
  8
0
100
AcDbLine
 10
180.2799865
 20
79.8561
 30
0.0
 11
180.9999865
 21
85.0
 31
0.0
  0
LINE
  5
5CD
330
1D
100
AcDbEntity
  8
0
100
AcDbLine
 10
178.3599865
 20
94.9287
 30
0.0
 11
180.2799865
 21
90.1439
 31
0.0
  0
LINE
  5
5CE
330
1D
100
AcDbEntity
  8
0
100
AcDbLine
 10
182.9999865
 20
69.2684
 30
0.0
 11
182.9999865
 21
77.0379
 31
0.0
  0
LINE
  5
5CF
330
1D
100
AcDbEntity
  8
0
100
AcDbLine
 10
182.9999865
 20
69.2684
 30
0.0
 11
182.9999865
 21
61.6916
 31
0.0
  0
LINE
  5
5D0
330
1D
100
AcDbEntity
  8
0
100
AcDbLine
 10
182.9999865
 20
77.0379
 30
0.0
 11
182.9999865
 21
85.0
 31
0.0
  0
LINE
  5
5D1
330
1D
100
AcDbEntity
  8
0
100
AcDbLine
 10
182.9999865
 20
77.0379
 30
0.0
 11
182.9999865
 21
69.2684
 31
0.0
  0
LINE
  5
5D2
330
1D
100
AcDbEntity
  8
0
100
AcDbLine
 10
182.9999865
 20
100.7316
 30
0.0
 11
182.9999865
 21
108.3084
 31
0.0
  0
LINE
  5
5D3
330
1D
100
AcDbEntity
  8
0
100
AcDbLine
 10
182.9999865
 20
100.7316
 30
0.0
 11
182.9999865
 21
92.9621
 31
0.0
  0
LINE
  5
5D4
330
1D
100
AcDbEntity
  8
0
100
AcDbLine
 10
182.9999865
 20
92.9621
 30
0.0
 11
182.9999865
 21
100.7316
 31
0.0
  0
LINE
  5
5D5
330
1D
100
AcDbEntity
  8
0
100
AcDbLine
 10
182.9999865
 20
92.9621
 30
0.0
 11
182.9999865
 21
85.0
 31
0.0
  0
LINE
  5
5D6
330
1D
100
AcDbEntity
  8
0
100
AcDbLine
 10
182.9999865
 20
85.0
 30
0.0
 11
182.9999865
 21
92.9621
 31
0.0
  0
LINE
  5
5D7
330
1D
100
AcDbEntity
  8
0
100
AcDbLine
 10
182.9999865
 20
85.0
 30
0.0
 11
182.9999865
 21
77.0379
 31
0.0
  0
LINE
  5
5D8
330
1D
100
AcDbEntity
  8
0
100
AcDbLine
 10
180.2799865
 20
90.1439
 30
0.0
 11
180.9999865
 21
85.0
 31
0.0
  0
LINE
  5
5D9
330
1D
100
AcDbEntity
  8
0
100
AcDbLine
 10
182.9999865
 20
54.6284
 30
0.0
 11
182.9999865
 21
54.4105
 31
0.0
  0
LINE
  5
5DA
330
1D
100
AcDbEntity
  8
0
100
AcDbLine
 10
182.9999865
 20
54.6284
 30
0.0
 11
182.9999865
 21
61.6916
 31
0.0
  0
LINE
  5
5DB
330
1D
100
AcDbEntity
  8
0
100
AcDbLine
 10
182.9999865
 20
61.6916
 30
0.0
 11
182.9999865
 21
54.6284
 31
0.0
  0
LINE
  5
5DC
330
1D
100
AcDbEntity
  8
0
100
AcDbLine
 10
182.9999865
 20
61.6916
 30
0.0
 11
182.9999865
 21
69.2684
 31
0.0
  0
LINE
  5
5DD
330
1D
100
AcDbEntity
  8
0
100
AcDbLine
 10
182.9999865
 20
108.3084
 30
0.0
 11
182.9999865
 21
115.372
 31
0.0
  0
LINE
  5
5DE
330
1D
100
AcDbEntity
  8
0
100
AcDbLine
 10
182.9999865
 20
108.3084
 30
0.0
 11
182.9999865
 21
100.7316
 31
0.0
  0
LINE
  5
5DF
330
1D
100
AcDbEntity
  8
0
100
AcDbLine
 10
180.9999865
 20
24.0
 30
0.0
 11
182.9999865
 21
24.0
 31
0.0
  0
LINE
  5
5E0
330
1D
100
AcDbEntity
  8
0
100
AcDbLine
 10
180.9999865
 20
24.0
 30
0.0
 11
180.9999865
 21
22.0
 31
0.0
  0
LINE
  5
5E1
330
1D
100
AcDbEntity
  8
0
100
AcDbLine
 10
166.1199865
 20
65.6958
 30
0.0
 11
170.9199865
 21
67.6389
 31
0.0
  0
LINE
  5
5E2
330
1D
100
AcDbEntity
  8
0
100
AcDbLine
 10
53.9999865
 20
1.0
 30
0.0
 11
53.9999865
 21
169.0
 31
0.0
  0
LINE
  5
5E3
330
1D
100
AcDbEntity
  8
0
100
AcDbLine
 10
53.9999865
 20
1.0
 30
0.0
 11
54.2999865
 21
0.3
 31
0.0
  0
LINE
  5
5E4
330
1D
100
AcDbEntity
  8
0
100
AcDbLine
 10
53.9999865
 20
1.0
 30
0.0
 11
54.2999865
 21
0.3
 31
0.0
  0
LINE
  5
5E7
330
1D
100
AcDbEntity
  8
0
100
AcDbLine
 10
74.9999865
 20
1.0
 30
0.0
 11
74.9999865
 21
169.0
 31
0.0
  0
LINE
  5
5E8
330
1D
100
AcDbEntity
  8
0
100
AcDbLine
 10
74.9999865
 20
1.0
 30
0.0
 11
74.9999865
 21
0.3
 31
0.0
  0
LINE
  5
5E9
330
1D
100
AcDbEntity
  8
0
100
AcDbLine
 10
52.4999865
 20
110.96
 30
0.0
 11
52.4999865
 21
110.616
 31
0.0
  0
LINE
  5
5EA
330
1D
100
AcDbEntity
  8
0
100
AcDbLine
 10
52.4999865
 20
110.96
 30
0.0
 11
52.4999865
 21
111.523
 31
0.0
  0
LINE
  5
5EC
330
1D
100
AcDbEntity
  8
0
100
AcDbLine
 10
52.4329865
 20
113.41
 30
0.0
 11
52.4999865
 21
113.161
 31
0.0
  0
LINE
  5
5ED
330
1D
100
AcDbEntity
  8
0
100
AcDbLine
 10
52.4999865
 20
113.161
 30
0.0
 11
52.4999865
 21
112.298
 31
0.0
  0
LINE
  5
5EE
330
1D
100
AcDbEntity
  8
0
100
AcDbLine
 10
52.4999865
 20
113.196
 30
0.0
 11
52.4999865
 21
113.449
 31
0.0
  0
LINE
  5
5F1
330
1D
100
AcDbEntity
  8
0
100
AcDbLine
 10
52.2499865
 20
113.593
 30
0.0
 11
52.4329865
 21
113.41
 31
0.0
  0
LINE
  5
5F5
330
1D
100
AcDbEntity
  8
0
100
AcDbLine
 10
52.4999865
 20
113.449
 30
0.0
 11
52.4999865
 21
113.196
 31
0.0
  0
LINE
  5
5F6
330
1D
100
AcDbEntity
  8
0
100
AcDbLine
 10
52.4999865
 20
113.225
 30
0.0
 11
52.4999865
 21
112.261
 31
0.0
  0
LINE
  5
5F8
330
1D
100
AcDbEntity
  8
0
100
AcDbLine
 10
52.4999865
 20
112.261
 30
0.0
 11
52.4999865
 21
111.495
 31
0.0
  0
LINE
  5
5F9
330
1D
100
AcDbEntity
  8
0
100
AcDbLine
 10
52.4999865
 20
112.261
 30
0.0
 11
52.4999865
 21
113.226
 31
0.0
  0
LINE
  5
5FA
330
1D
100
AcDbEntity
  8
0
100
AcDbLine
 10
52.4999865
 20
112.298
 30
0.0
 11
52.4999865
 21
111.523
 31
0.0
  0
LINE
  5
5FB
330
1D
100
AcDbEntity
  8
0
100
AcDbLine
 10
52.4999865
 20
112.298
 30
0.0
 11
52.4999865
 21
113.161
 31
0.0
  0
LINE
  5
612
330
1D
100
AcDbEntity
  8
0
100
AcDbLine
 10
52.2499865
 20
136.203
 30
0.0
 11
52.4329865
 21
136.386
 31
0.0
  0
LINE
  5
656
330
1D
100
AcDbEntity
  8
0
100
AcDbLine
 10
52.4999865
 20
138.273
 30
0.0
 11
52.4999865
 21
138.836
 31
0.0
  0
LINE
  5
659
330
1D
100
AcDbEntity
  8
0
100
AcDbLine
 10
52.4329865
 20
136.386
 30
0.0
 11
52.4999865
 21
136.635
 31
0.0
  0
LINE
  5
65A
330
1D
100
AcDbEntity
  8
0
100
AcDbLine
 10
52.4999865
 20
139.189
 30
0.0
 11
52.4999865
 21
139.298
 31
0.0
  0
LINE
  5
65B
330
1D
100
AcDbEntity
  8
0
100
AcDbLine
 10
52.4999865
 20
139.189
 30
0.0
 11
52.4999865
 21
138.855
 31
0.0
  0
LINE
  5
65C
330
1D
100
AcDbEntity
  8
0
100
AcDbLine
 10
52.4999865
 20
139.298
 30
0.0
 11
52.4999865
 21
139.18
 31
0.0
  0
LINE
  5
65D
330
1D
100
AcDbEntity
  8
0
100
AcDbLine
 10
52.4999865
 20
139.298
 30
0.0
 11
52.5669865
 21
139.546
 31
0.0
  0
LINE
  5
65E
330
1D
100
AcDbEntity
  8
0
100
AcDbLine
 10
52.4999865
 20
139.298
 30
0.0
 11
52.4999865
 21
139.189
 31
0.0
  0
LINE
  5
65F
330
1D
100
AcDbEntity
  8
0
100
AcDbLine
 10
52.4999865
 20
139.18
 30
0.0
 11
52.4999865
 21
138.836
 31
0.0
  0
LINE
  5
660
330
1D
100
AcDbEntity
  8
0
100
AcDbLine
 10
52.4999865
 20
139.18
 30
0.0
 11
52.4999865
 21
139.298
 31
0.0
  0
LINE
  5
661
330
1D
100
AcDbEntity
  8
0
100
AcDbLine
 10
52.4999865
 20
138.836
 30
0.0
 11
52.4999865
 21
139.18
 31
0.0
  0
LINE
  5
662
330
1D
100
AcDbEntity
  8
0
100
AcDbLine
 10
52.4999865
 20
138.836
 30
0.0
 11
52.4999865
 21
138.272
 31
0.0
  0
LINE
  5
663
330
1D
100
AcDbEntity
  8
0
100
AcDbLine
 10
52.4999865
 20
138.855
 30
0.0
 11
52.4999865
 21
138.301
 31
0.0
  0
LINE
  5
664
330
1D
100
AcDbEntity
  8
0
100
AcDbLine
 10
52.4999865
 20
138.855
 30
0.0
 11
52.4999865
 21
139.189
 31
0.0
  0
LINE
  5
666
330
1D
100
AcDbEntity
  8
0
100
AcDbLine
 10
52.4999865
 20
138.301
 30
0.0
 11
52.4999865
 21
138.855
 31
0.0
  0
LINE
  5
66A
330
1D
100
AcDbEntity
  8
0
100
AcDbLine
 10
52.5669865
 20
139.546
 30
0.0
 11
52.7499865
 21
139.729
 31
0.0
  0
LINE
  5
66B
330
1D
100
AcDbEntity
  8
0
100
AcDbLine
 10
52.7499865
 20
139.729
 30
0.0
 11
52.9999865
 21
139.796
 31
0.0
  0
LINE
  5
66F
330
1D
100
AcDbEntity
  8
0
100
AcDbLine
 10
53.9999865
 20
169.0
 30
0.0
 11
54.2999865
 21
169.7
 31
0.0
  0
LINE
  5
671
330
1D
100
AcDbEntity
  8
0
100
AcDbLine
 10
54.2999865
 20
169.7
 30
0.0
 11
54.9999865
 21
170.0
 31
0.0
  0
LINE
  5
673
330
1D
100
AcDbEntity
  8
0
100
AcDbLine
 10
52.9999865
 20
139.796
 30
0.0
 11
53.9999865
 21
139.796
 31
0.0
  0
LINE
  5
674
330
1D
100
AcDbEntity
  8
0
100
AcDbLine
 10
109.9999865
 20
112.428
 30
0.0
 11
109.9999865
 21
122.858
 31
0.0
  0
LINE
  5
675
330
1D
100
AcDbEntity
  8
0
100
AcDbLine
 10
109.9999865
 20
112.428
 30
0.0
 11
109.9999865
 21
111.17
 31
0.0
  0
LINE
  5
676
330
1D
100
AcDbEntity
  8
0
100
AcDbLine
 10
109.9999865
 20
112.322
 30
0.0
 11
109.9999865
 21
112.706
 31
0.0
  0
LINE
  5
677
330
1D
100
AcDbEntity
  8
0
100
AcDbLine
 10
109.9999865
 20
112.322
 30
0.0
 11
109.9999865
 21
111.682
 31
0.0
  0
LINE
  5
678
330
1D
100
AcDbEntity
  8
0
100
AcDbLine
 10
109.9999865
 20
112.85
 30
0.0
 11
109.9999865
 21
112.706
 31
0.0
  0
LINE
  5
679
330
1D
100
AcDbEntity
  8
0
100
AcDbLine
 10
109.9999865
 20
112.706
 30
0.0
 11
109.9999865
 21
112.85
 31
0.0
  0
LINE
  5
67A
330
1D
100
AcDbEntity
  8
0
100
AcDbLine
 10
109.9999865
 20
112.706
 30
0.0
 11
109.9999865
 21
112.322
 31
0.0
  0
LINE
  5
67B
330
1D
100
AcDbEntity
  8
0
100
AcDbLine
 10
109.9999865
 20
120.161
 30
0.0
 11
109.9999865
 21
111.17
 31
0.0
  0
LINE
  5
67C
330
1D
100
AcDbEntity
  8
0
100
AcDbLine
 10
109.9999865
 20
120.161
 30
0.0
 11
109.9999865
 21
122.858
 31
0.0
  0
LINE
  5
67D
330
1D
100
AcDbEntity
  8
0
100
AcDbLine
 10
109.9999865
 20
122.858
 30
0.0
 11
109.9999865
 21
120.161
 31
0.0
  0
LINE
  5
67E
330
1D
100
AcDbEntity
  8
0
100
AcDbLine
 10
109.9999865
 20
122.858
 30
0.0
 11
109.9999865
 21
112.428
 31
0.0
  0
LINE
  5
67F
330
1D
100
AcDbEntity
  8
0
100
AcDbLine
 10
109.9999865
 20
127.479
 30
0.0
 11
109.9999865
 21
127.623
 31
0.0
  0
LINE
  5
680
330
1D
100
AcDbEntity
  8
0
100
AcDbLine
 10
109.9999865
 20
127.623
 30
0.0
 11
109.9999865
 21
128.007
 31
0.0
  0
LINE
  5
681
330
1D
100
AcDbEntity
  8
0
100
AcDbLine
 10
109.9999865
 20
127.623
 30
0.0
 11
109.9999865
 21
127.479
 31
0.0
  0
LINE
  5
682
330
1D
100
AcDbEntity
  8
0
100
AcDbLine
 10
109.9999865
 20
128.007
 30
0.0
 11
109.9999865
 21
128.647
 31
0.0
  0
LINE
  5
683
330
1D
100
AcDbEntity
  8
0
100
AcDbLine
 10
109.9999865
 20
128.007
 30
0.0
 11
109.9999865
 21
127.623
 31
0.0
  0
LINE
  5
684
330
1D
100
AcDbEntity
  8
0
100
AcDbLine
 10
109.9999865
 20
128.647
 30
0.0
 11
109.9999865
 21
129.495
 31
0.0
  0
LINE
  5
685
330
1D
100
AcDbEntity
  8
0
100
AcDbLine
 10
109.9999865
 20
128.647
 30
0.0
 11
109.9999865
 21
128.007
 31
0.0
  0
LINE
  5
686
330
1D
100
AcDbEntity
  8
0
100
AcDbLine
 10
109.9999865
 20
129.495
 30
0.0
 11
109.9999865
 21
130.455
 31
0.0
  0
LINE
  5
687
330
1D
100
AcDbEntity
  8
0
100
AcDbLine
 10
109.9999865
 20
129.495
 30
0.0
 11
109.9999865
 21
128.647
 31
0.0
  0
LINE
  5
688
330
1D
100
AcDbEntity
  8
0
100
AcDbLine
 10
109.9999865
 20
130.455
 30
0.0
 11
109.9999865
 21
131.479
 31
0.0
  0
LINE
  5
689
330
1D
100
AcDbEntity
  8
0
100
AcDbLine
 10
109.9999865
 20
130.455
 30
0.0
 11
109.9999865
 21
129.495
 31
0.0
  0
LINE
  5
68A
330
1D
100
AcDbEntity
  8
0
100
AcDbLine
 10
109.9999865
 20
131.479
 30
0.0
 11
109.9999865
 21
132.503
 31
0.0
  0
LINE
  5
68B
330
1D
100
AcDbEntity
  8
0
100
AcDbLine
 10
109.9999865
 20
131.479
 30
0.0
 11
109.9999865
 21
130.455
 31
0.0
  0
LINE
  5
68C
330
1D
100
AcDbEntity
  8
0
100
AcDbLine
 10
109.9999865
 20
133.463
 30
0.0
 11
109.9999865
 21
132.503
 31
0.0
  0
LINE
  5
68D
330
1D
100
AcDbEntity
  8
0
100
AcDbLine
 10
109.9999865
 20
132.503
 30
0.0
 11
109.9999865
 21
131.479
 31
0.0
  0
LINE
  5
68E
330
1D
100
AcDbEntity
  8
0
100
AcDbLine
 10
109.9999865
 20
132.503
 30
0.0
 11
109.9999865
 21
133.463
 31
0.0
  0
LINE
  5
68F
330
1D
100
AcDbEntity
  8
0
100
AcDbLine
 10
109.9999865
 20
133.838
 30
0.0
 11
109.9999865
 21
157.563
 31
0.0
  0
LINE
  5
690
330
1D
100
AcDbEntity
  8
0
100
AcDbLine
 10
109.9999865
 20
129.352
 30
0.0
 11
109.9999865
 21
123.304
 31
0.0
  0
LINE
  5
691
330
1D
100
AcDbEntity
  8
0
100
AcDbLine
 10
109.9999865
 20
135.186
 30
0.0
 11
109.9999865
 21
156.304
 31
0.0
  0
LINE
  5
692
330
1D
100
AcDbEntity
  8
0
100
AcDbLine
 10
109.9999865
 20
142.645
 30
0.0
 11
109.9999865
 21
153.815
 31
0.0
  0
LINE
  5
693
330
1D
100
AcDbEntity
  8
0
100
AcDbLine
 10
109.9999865
 20
143.454
 30
0.0
 11
109.9999865
 21
154.158
 31
0.0
  0
LINE
  5
694
330
1D
100
AcDbEntity
  8
0
100
AcDbLine
 10
109.9999865
 20
145.732
 30
0.0
 11
109.9999865
 21
147.244
 31
0.0
  0
LINE
  5
695
330
1D
100
AcDbEntity
  8
0
100
AcDbLine
 10
109.9999865
 20
123.304
 30
0.0
 11
109.9999865
 21
116.248
 31
0.0
  0
LINE
  5
696
330
1D
100
AcDbEntity
  8
0
100
AcDbLine
 10
109.9999865
 20
123.304
 30
0.0
 11
109.9999865
 21
129.352
 31
0.0
  0
LINE
  5
697
330
1D
100
AcDbEntity
  8
0
100
AcDbLine
 10
109.9999865
 20
116.248
 30
0.0
 11
109.9999865
 21
108.94
 31
0.0
  0
LINE
  5
698
330
1D
100
AcDbEntity
  8
0
100
AcDbLine
 10
109.9999865
 20
116.248
 30
0.0
 11
109.9999865
 21
123.304
 31
0.0
  0
LINE
  5
699
330
1D
100
AcDbEntity
  8
0
100
AcDbLine
 10
109.9999865
 20
146.0
 30
0.0
 11
109.9999865
 21
147.244
 31
0.0
  0
LINE
  5
69A
330
1D
100
AcDbEntity
  8
0
100
AcDbLine
 10
109.9999865
 20
146.0
 30
0.0
 11
109.9999865
 21
160.5
 31
0.0
  0
LINE
  5
69B
330
1D
100
AcDbEntity
  8
0
100
AcDbLine
 10
109.9999865
 20
146.0
 30
0.0
 11
109.9999865
 21
156.304
 31
0.0
  0
LINE
  5
69C
330
1D
100
AcDbEntity
  8
0
100
AcDbLine
 10
109.9999865
 20
146.0
 30
0.0
 11
109.9999865
 21
157.563
 31
0.0
  0
LINE
  5
69D
330
1D
100
AcDbEntity
  8
0
100
AcDbLine
 10
109.9999865
 20
146.0
 30
0.0
 11
109.9999865
 21
154.158
 31
0.0
  0
LINE
  5
69E
330
1D
100
AcDbEntity
  8
0
100
AcDbLine
 10
109.9999865
 20
146.0
 30
0.0
 11
109.9999865
 21
153.815
 31
0.0
  0
LINE
  5
69F
330
1D
100
AcDbEntity
  8
0
100
AcDbLine
 10
141.7199865
 20
146.0
 30
0.0
 11
143.6399865
 21
146.0
 31
0.0
  0
LINE
  5
6A0
330
1D
100
AcDbEntity
  8
0
100
AcDbLine
 10
160.9999865
 20
142.35
 30
0.0
 11
166.1199865
 21
142.604
 31
0.0
  0
LINE
  5
6DE
330
1D
100
AcDbEntity
  8
0
100
AcDbLine
 10
166.1199865
 20
142.604
 30
0.0
 11
170.9199865
 21
143.26
 31
0.0
  0
LINE
  5
6DF
330
1D
100
AcDbEntity
  8
0
100
AcDbLine
 10
170.9199865
 20
143.26
 30
0.0
 11
175.1599865
 21
144.11
 31
0.0
  0
LINE
  5
6E0
330
1D
100
AcDbEntity
  8
0
100
AcDbLine
 10
155.8799865
 20
142.604
 30
0.0
 11
160.9999865
 21
142.35
 31
0.0
  0
LINE
  5
6E1
330
1D
100
AcDbEntity
  8
0
100
AcDbLine
 10
175.9999865
 20
144.601
 30
0.0
 11
182.9999865
 21
144.601
 31
0.0
  0
LINE
  5
6E2
330
1D
100
AcDbEntity
  8
0
100
AcDbLine
 10
175.9999865
 20
144.601
 30
0.0
 11
175.9999865
 21
144.349
 31
0.0
  0
LINE
  5
6E3
330
1D
100
AcDbEntity
  8
0
100
AcDbLine
 10
175.9999865
 20
144.349
 30
0.0
 11
175.9999865
 21
144.601
 31
0.0
  0
LINE
  5
6E7
330
1D
100
AcDbEntity
  8
0
100
AcDbLine
 10
175.1599865
 20
144.11
 30
0.0
 11
175.9999865
 21
144.320525
 31
0.0
  0
LINE
  5
6E8
330
1D
100
AcDbEntity
  8
0
100
AcDbLine
 10
177.119088744389
 20
144.601
 30
0.0
 11
178.3599865
 21
144.912
 31
0.0
  0
LINE
  5
6E9
330
1D
100
AcDbEntity
  8
0
100
AcDbLine
 10
178.3599865
 20
144.912
 30
0.0
 11
180.2799865
 21
145.593
 31
0.0
  0
LINE
  5
6EA
330
1D
100
AcDbEntity
  8
0
100
AcDbLine
 10
151.0799865
 20
143.26
 30
0.0
 11
155.8799865
 21
142.604
 31
0.0
  0
LINE
  5
6EB
330
1D
100
AcDbEntity
  8
0
100
AcDbLine
 10
146.8399865
 20
144.11
 30
0.0
 11
151.0799865
 21
143.26
 31
0.0
  0
LINE
  5
6EC
330
1D
100
AcDbEntity
  8
0
100
AcDbLine
 10
151.0799865
 20
146.0
 30
0.0
 11
155.8799865
 21
146.0
 31
0.0
  0
LINE
  5
6ED
330
1D
100
AcDbEntity
  8
0
100
AcDbLine
 10
160.9999865
 20
146.0
 30
0.0
 11
166.1199865
 21
146.0
 31
0.0
  0
LINE
  5
6EE
330
1D
100
AcDbEntity
  8
0
100
AcDbLine
 10
155.8799865
 20
146.0
 30
0.0
 11
160.9999865
 21
146.0
 31
0.0
  0
LINE
  5
6EF
330
1D
100
AcDbEntity
  8
0
100
AcDbLine
 10
155.8799865
 20
146.0
 30
0.0
 11
160.9999865
 21
146.0
 31
0.0
  0
LINE
  5
6F0
330
1D
100
AcDbEntity
  8
0
100
AcDbLine
 10
151.0799865
 20
146.0
 30
0.0
 11
155.8799865
 21
146.0
 31
0.0
  0
LINE
  5
6F1
330
1D
100
AcDbEntity
  8
0
100
AcDbLine
 10
146.8399865
 20
146.0
 30
0.0
 11
151.0799865
 21
146.0
 31
0.0
  0
LINE
  5
6F2
330
1D
100
AcDbEntity
  8
0
100
AcDbLine
 10
146.8399865
 20
146.0
 30
0.0
 11
151.0799865
 21
146.0
 31
0.0
  0
LINE
  5
6F3
330
1D
100
AcDbEntity
  8
0
100
AcDbLine
 10
143.6399865
 20
146.0
 30
0.0
 11
146.8399865
 21
146.0
 31
0.0
  0
LINE
  5
6F4
330
1D
100
AcDbEntity
  8
0
100
AcDbLine
 10
166.1199865
 20
146.0
 30
0.0
 11
170.9199865
 21
146.0
 31
0.0
  0
LINE
  5
6F5
330
1D
100
AcDbEntity
  8
0
100
AcDbLine
 10
160.9999865
 20
146.0
 30
0.0
 11
166.1199865
 21
146.0
 31
0.0
  0
LINE
  5
6F6
330
1D
100
AcDbEntity
  8
0
100
AcDbLine
 10
166.1199865
 20
146.0
 30
0.0
 11
170.9199865
 21
146.0
 31
0.0
  0
LINE
  5
6F7
330
1D
100
AcDbEntity
  8
0
100
AcDbLine
 10
170.9199865
 20
146.0
 30
0.0
 11
175.1599865
 21
146.0
 31
0.0
  0
LINE
  5
6F8
330
1D
100
AcDbEntity
  8
0
100
AcDbLine
 10
175.1599865
 20
146.0
 30
0.0
 11
178.3599865
 21
146.0
 31
0.0
  0
LINE
  5
6F9
330
1D
100
AcDbEntity
  8
0
100
AcDbLine
 10
178.3599865
 20
146.0
 30
0.0
 11
180.2799865
 21
146.0
 31
0.0
  0
LINE
  5
6FA
330
1D
100
AcDbEntity
  8
0
100
AcDbLine
 10
180.2799865
 20
146.0
 30
0.0
 11
180.9999865
 21
146.0
 31
0.0
  0
LINE
  5
6FB
330
1D
100
AcDbEntity
  8
0
100
AcDbLine
 10
180.2799865
 20
145.593
 30
0.0
 11
180.9999865
 21
146.0
 31
0.0
  0
LINE
  5
6FC
330
1D
100
AcDbEntity
  8
0
100
AcDbLine
 10
143.6399865
 20
144.912
 30
0.0
 11
146.8399865
 21
144.11
 31
0.0
  0
LINE
  5
6FD
330
1D
100
AcDbEntity
  8
0
100
AcDbLine
 10
141.7199865
 20
145.593
 30
0.0
 11
143.6399865
 21
144.912
 31
0.0
  0
LINE
  5
6FE
330
1D
100
AcDbEntity
  8
0
100
AcDbLine
 10
140.9999865
 20
146.0
 30
0.0
 11
141.7199865
 21
145.593
 31
0.0
  0
LINE
  5
6FF
330
1D
100
AcDbEntity
  8
0
100
AcDbLine
 10
140.9999865
 20
146.0
 30
0.0
 11
141.7199865
 21
146.0
 31
0.0
  0
LINE
  5
700
330
1D
100
AcDbEntity
  8
0
100
AcDbLine
 10
140.9999865
 20
146.0
 30
0.0
 11
140.9999865
 21
148.0
 31
0.0
  0
LINE
  5
701
330
1D
100
AcDbEntity
  8
0
100
AcDbLine
 10
182.9999865
 20
131.525
 30
0.0
 11
182.9999865
 21
132.645
 31
0.0
  0
LINE
  5
702
330
1D
100
AcDbEntity
  8
0
100
AcDbLine
 10
182.9999865
 20
131.525
 30
0.0
 11
182.9999865
 21
115.59
 31
0.0
  0
LINE
  5
703
330
1D
100
AcDbEntity
  8
0
100
AcDbLine
 10
182.9999865
 20
132.645
 30
0.0
 11
182.9999865
 21
134.129
 31
0.0
  0
LINE
  5
704
330
1D
100
AcDbEntity
  8
0
100
AcDbLine
 10
182.9999865
 20
132.645
 30
0.0
 11
182.9999865
 21
131.525
 31
0.0
  0
LINE
  5
705
330
1D
100
AcDbEntity
  8
0
100
AcDbLine
 10
182.9999865
 20
134.129
 30
0.0
 11
182.9999865
 21
135.809
 31
0.0
  0
LINE
  5
706
330
1D
100
AcDbEntity
  8
0
100
AcDbLine
 10
182.9999865
 20
134.129
 30
0.0
 11
182.9999865
 21
132.645
 31
0.0
  0
LINE
  5
707
330
1D
100
AcDbEntity
  8
0
100
AcDbLine
 10
182.9999865
 20
135.809
 30
0.0
 11
182.9999865
 21
137.601
 31
0.0
  0
LINE
  5
708
330
1D
100
AcDbEntity
  8
0
100
AcDbLine
 10
182.9999865
 20
135.809
 30
0.0
 11
182.9999865
 21
134.129
 31
0.0
  0
LINE
  5
709
330
1D
100
AcDbEntity
  8
0
100
AcDbLine
 10
182.9999865
 20
137.601
 30
0.0
 11
182.9999865
 21
139.393
 31
0.0
  0
LINE
  5
70A
330
1D
100
AcDbEntity
  8
0
100
AcDbLine
 10
182.9999865
 20
137.601
 30
0.0
 11
182.9999865
 21
135.809
 31
0.0
  0
LINE
  5
70B
330
1D
100
AcDbEntity
  8
0
100
AcDbLine
 10
182.9999865
 20
144.349
 30
0.0
 11
182.9999865
 21
143.677
 31
0.0
  0
LINE
  5
70C
330
1D
100
AcDbEntity
  8
0
100
AcDbLine
 10
182.9999865
 20
144.349
 30
0.0
 11
182.9999865
 21
144.601
 31
0.0
  0
LINE
  5
70D
330
1D
100
AcDbEntity
  8
0
100
AcDbLine
 10
182.9999865
 20
143.677
 30
0.0
 11
182.9999865
 21
142.557
 31
0.0
  0
LINE
  5
70E
330
1D
100
AcDbEntity
  8
0
100
AcDbLine
 10
182.9999865
 20
143.677
 30
0.0
 11
182.9999865
 21
144.349
 31
0.0
  0
LINE
  5
70F
330
1D
100
AcDbEntity
  8
0
100
AcDbLine
 10
182.9999865
 20
142.557
 30
0.0
 11
182.9999865
 21
141.073
 31
0.0
  0
LINE
  5
710
330
1D
100
AcDbEntity
  8
0
100
AcDbLine
 10
182.9999865
 20
142.557
 30
0.0
 11
182.9999865
 21
143.677
 31
0.0
  0
LINE
  5
711
330
1D
100
AcDbEntity
  8
0
100
AcDbLine
 10
182.9999865
 20
141.073
 30
0.0
 11
182.9999865
 21
139.393
 31
0.0
  0
LINE
  5
712
330
1D
100
AcDbEntity
  8
0
100
AcDbLine
 10
182.9999865
 20
141.073
 30
0.0
 11
182.9999865
 21
142.557
 31
0.0
  0
LINE
  5
713
330
1D
100
AcDbEntity
  8
0
100
AcDbLine
 10
182.9999865
 20
139.393
 30
0.0
 11
182.9999865
 21
137.601
 31
0.0
  0
LINE
  5
714
330
1D
100
AcDbEntity
  8
0
100
AcDbLine
 10
182.9999865
 20
139.393
 30
0.0
 11
182.9999865
 21
141.073
 31
0.0
  0
LINE
  5
715
330
1D
100
AcDbEntity
  8
0
100
AcDbLine
 10
182.9999865
 20
144.601
 30
0.0
 11
182.9999865
 21
145.358
 31
0.0
  0
LINE
  5
716
330
1D
100
AcDbEntity
  8
0
100
AcDbLine
 10
182.9999865
 20
144.601
 30
0.0
 11
182.9999865
 21
144.349
 31
0.0
  0
LINE
  5
717
330
1D
100
AcDbEntity
  8
0
100
AcDbLine
 10
182.9999865
 20
146.0
 30
0.0
 11
182.9999865
 21
145.358
 31
0.0
  0
LINE
  5
718
330
1D
100
AcDbEntity
  8
0
100
AcDbLine
 10
182.9999865
 20
145.358
 30
0.0
 11
182.9999865
 21
146.0
 31
0.0
  0
LINE
  5
719
330
1D
100
AcDbEntity
  8
0
100
AcDbLine
 10
182.9999865
 20
145.358
 30
0.0
 11
182.9999865
 21
144.601
 31
0.0
  0
LINE
  5
71A
330
1D
100
AcDbEntity
  8
0
100
AcDbLine
 10
182.9999865
 20
115.59
 30
0.0
 11
182.9999865
 21
115.372
 31
0.0
  0
LINE
  5
71B
330
1D
100
AcDbEntity
  8
0
100
AcDbLine
 10
182.9999865
 20
115.59
 30
0.0
 11
182.9999865
 21
131.525
 31
0.0
  0
LINE
  5
71C
330
1D
100
AcDbEntity
  8
0
100
AcDbLine
 10
182.9999865
 20
115.372
 30
0.0
 11
182.9999865
 21
108.3084
 31
0.0
  0
LINE
  5
71D
330
1D
100
AcDbEntity
  8
0
100
AcDbLine
 10
182.9999865
 20
115.372
 30
0.0
 11
182.9999865
 21
115.59
 31
0.0
  0
LINE
  5
71E
330
1D
100
AcDbEntity
  8
0
100
AcDbLine
 10
180.9999865
 20
146.0
 30
0.0
 11
182.9999865
 21
146.0
 31
0.0
  0
LINE
  5
71F
330
1D
100
AcDbEntity
  8
0
100
AcDbLine
 10
180.9999865
 20
146.0
 30
0.0
 11
180.9999865
 21
148.0
 31
0.0
  0
LINE
  5
720
330
1D
100
AcDbEntity
  8
0
100
AcDbLine
 10
109.9999865
 20
146.89
 30
0.0
 11
109.9999865
 21
147.034
 31
0.0
  0
LINE
  5
721
330
1D
100
AcDbEntity
  8
0
100
AcDbLine
 10
109.9999865
 20
147.034
 30
0.0
 11
109.9999865
 21
147.418
 31
0.0
  0
LINE
  5
722
330
1D
100
AcDbEntity
  8
0
100
AcDbLine
 10
109.9999865
 20
147.034
 30
0.0
 11
109.9999865
 21
146.89
 31
0.0
  0
LINE
  5
723
330
1D
100
AcDbEntity
  8
0
100
AcDbLine
 10
109.9999865
 20
147.418
 30
0.0
 11
109.9999865
 21
148.058
 31
0.0
  0
LINE
  5
724
330
1D
100
AcDbEntity
  8
0
100
AcDbLine
 10
109.9999865
 20
147.418
 30
0.0
 11
109.9999865
 21
147.034
 31
0.0
  0
LINE
  5
725
330
1D
100
AcDbEntity
  8
0
100
AcDbLine
 10
109.9999865
 20
148.058
 30
0.0
 11
109.9999865
 21
148.906
 31
0.0
  0
LINE
  5
726
330
1D
100
AcDbEntity
  8
0
100
AcDbLine
 10
109.9999865
 20
148.058
 30
0.0
 11
109.9999865
 21
147.418
 31
0.0
  0
LINE
  5
727
330
1D
100
AcDbEntity
  8
0
100
AcDbLine
 10
109.9999865
 20
148.906
 30
0.0
 11
109.9999865
 21
149.866
 31
0.0
  0
LINE
  5
728
330
1D
100
AcDbEntity
  8
0
100
AcDbLine
 10
109.9999865
 20
148.906
 30
0.0
 11
109.9999865
 21
148.058
 31
0.0
  0
LINE
  5
729
330
1D
100
AcDbEntity
  8
0
100
AcDbLine
 10
109.9999865
 20
149.866
 30
0.0
 11
109.9999865
 21
150.89
 31
0.0
  0
LINE
  5
72A
330
1D
100
AcDbEntity
  8
0
100
AcDbLine
 10
109.9999865
 20
149.866
 30
0.0
 11
109.9999865
 21
148.906
 31
0.0
  0
LINE
  5
72B
330
1D
100
AcDbEntity
  8
0
100
AcDbLine
 10
109.9999865
 20
150.89
 30
0.0
 11
109.9999865
 21
151.914
 31
0.0
  0
LINE
  5
72C
330
1D
100
AcDbEntity
  8
0
100
AcDbLine
 10
109.9999865
 20
150.89
 30
0.0
 11
109.9999865
 21
149.866
 31
0.0
  0
LINE
  5
72D
330
1D
100
AcDbEntity
  8
0
100
AcDbLine
 10
109.9999865
 20
151.914
 30
0.0
 11
109.9999865
 21
150.89
 31
0.0
  0
LINE
  5
72E
330
1D
100
AcDbEntity
  8
0
100
AcDbLine
 10
109.9999865
 20
151.914
 30
0.0
 11
109.9999865
 21
152.874
 31
0.0
  0
LINE
  5
72F
330
1D
100
AcDbEntity
  8
0
100
AcDbLine
 10
109.9999865
 20
152.874
 30
0.0
 11
109.9999865
 21
151.914
 31
0.0
  0
LINE
  5
730
330
1D
100
AcDbEntity
  8
0
100
AcDbLine
 10
109.9999865
 20
152.874
 30
0.0
 11
109.9999865
 21
153.722
 31
0.0
  0
LINE
  5
731
330
1D
100
AcDbEntity
  8
0
100
AcDbLine
 10
109.9999865
 20
152.5
 30
0.0
 11
109.9999865
 21
152.644
 31
0.0
  0
LINE
  5
732
330
1D
100
AcDbEntity
  8
0
100
AcDbLine
 10
109.9999865
 20
152.644
 30
0.0
 11
109.9999865
 21
153.028
 31
0.0
  0
LINE
  5
733
330
1D
100
AcDbEntity
  8
0
100
AcDbLine
 10
109.9999865
 20
152.644
 30
0.0
 11
109.9999865
 21
152.5
 31
0.0
  0
LINE
  5
734
330
1D
100
AcDbEntity
  8
0
100
AcDbLine
 10
109.9999865
 20
153.722
 30
0.0
 11
109.9999865
 21
152.874
 31
0.0
  0
LINE
  5
735
330
1D
100
AcDbEntity
  8
0
100
AcDbLine
 10
109.9999865
 20
153.722
 30
0.0
 11
109.9999865
 21
154.362
 31
0.0
  0
LINE
  5
736
330
1D
100
AcDbEntity
  8
0
100
AcDbLine
 10
109.9999865
 20
154.362
 30
0.0
 11
109.9999865
 21
153.722
 31
0.0
  0
LINE
  5
737
330
1D
100
AcDbEntity
  8
0
100
AcDbLine
 10
109.9999865
 20
154.362
 30
0.0
 11
109.9999865
 21
154.746
 31
0.0
  0
LINE
  5
738
330
1D
100
AcDbEntity
  8
0
100
AcDbLine
 10
109.9999865
 20
154.5
 30
0.0
 11
109.9999865
 21
159.5
 31
0.0
  0
LINE
  5
739
330
1D
100
AcDbEntity
  8
0
100
AcDbLine
 10
109.9999865
 20
153.815
 30
0.0
 11
109.9999865
 21
146.0
 31
0.0
  0
LINE
  5
73A
330
1D
100
AcDbEntity
  8
0
100
AcDbLine
 10
109.9999865
 20
153.815
 30
0.0
 11
109.9999865
 21
154.158
 31
0.0
  0
LINE
  5
73B
330
1D
100
AcDbEntity
  8
0
100
AcDbLine
 10
109.9999865
 20
153.815
 30
0.0
 11
109.9999865
 21
142.645
 31
0.0
  0
LINE
  5
73C
330
1D
100
AcDbEntity
  8
0
100
AcDbLine
 10
109.9999865
 20
154.158
 30
0.0
 11
109.9999865
 21
153.815
 31
0.0
  0
LINE
  5
73D
330
1D
100
AcDbEntity
  8
0
100
AcDbLine
 10
109.9999865
 20
154.158
 30
0.0
 11
109.9999865
 21
146.0
 31
0.0
  0
LINE
  5
73E
330
1D
100
AcDbEntity
  8
0
100
AcDbLine
 10
109.9999865
 20
154.158
 30
0.0
 11
109.9999865
 21
143.454
 31
0.0
  0
LINE
  5
73F
330
1D
100
AcDbEntity
  8
0
100
AcDbLine
 10
109.9999865
 20
153.028
 30
0.0
 11
109.9999865
 21
153.668
 31
0.0
  0
LINE
  5
740
330
1D
100
AcDbEntity
  8
0
100
AcDbLine
 10
109.9999865
 20
153.028
 30
0.0
 11
109.9999865
 21
152.644
 31
0.0
  0
LINE
  5
741
330
1D
100
AcDbEntity
  8
0
100
AcDbLine
 10
109.9999865
 20
153.668
 30
0.0
 11
109.9999865
 21
154.516
 31
0.0
  0
LINE
  5
742
330
1D
100
AcDbEntity
  8
0
100
AcDbLine
 10
109.9999865
 20
153.668
 30
0.0
 11
109.9999865
 21
153.028
 31
0.0
  0
LINE
  5
743
330
1D
100
AcDbEntity
  8
0
100
AcDbLine
 10
109.9999865
 20
154.89
 30
0.0
 11
109.9999865
 21
154.746
 31
0.0
  0
LINE
  5
744
330
1D
100
AcDbEntity
  8
0
100
AcDbLine
 10
109.9999865
 20
154.746
 30
0.0
 11
109.9999865
 21
154.362
 31
0.0
  0
LINE
  5
745
330
1D
100
AcDbEntity
  8
0
100
AcDbLine
 10
109.9999865
 20
154.746
 30
0.0
 11
109.9999865
 21
154.89
 31
0.0
  0
LINE
  5
746
330
1D
100
AcDbEntity
  8
0
100
AcDbLine
 10
109.9999865
 20
154.516
 30
0.0
 11
109.9999865
 21
155.476
 31
0.0
  0
LINE
  5
747
330
1D
100
AcDbEntity
  8
0
100
AcDbLine
 10
109.9999865
 20
154.516
 30
0.0
 11
109.9999865
 21
153.668
 31
0.0
  0
LINE
  5
748
330
1D
100
AcDbEntity
  8
0
100
AcDbLine
 10
109.9999865
 20
155.476
 30
0.0
 11
109.9999865
 21
156.5
 31
0.0
  0
LINE
  5
749
330
1D
100
AcDbEntity
  8
0
100
AcDbLine
 10
109.9999865
 20
155.476
 30
0.0
 11
109.9999865
 21
154.516
 31
0.0
  0
LINE
  5
74A
330
1D
100
AcDbEntity
  8
0
100
AcDbLine
 10
109.9999865
 20
156.5
 30
0.0
 11
109.9999865
 21
157.524
 31
0.0
  0
LINE
  5
74B
330
1D
100
AcDbEntity
  8
0
100
AcDbLine
 10
109.9999865
 20
156.5
 30
0.0
 11
109.9999865
 21
155.476
 31
0.0
  0
LINE
  5
74C
330
1D
100
AcDbEntity
  8
0
100
AcDbLine
 10
109.9999865
 20
157.524
 30
0.0
 11
109.9999865
 21
156.5
 31
0.0
  0
LINE
  5
74D
330
1D
100
AcDbEntity
  8
0
100
AcDbLine
 10
109.9999865
 20
157.524
 30
0.0
 11
109.9999865
 21
158.484
 31
0.0
  0
LINE
  5
74E
330
1D
100
AcDbEntity
  8
0
100
AcDbLine
 10
109.9999865
 20
158.484
 30
0.0
 11
109.9999865
 21
157.524
 31
0.0
  0
LINE
  5
74F
330
1D
100
AcDbEntity
  8
0
100
AcDbLine
 10
109.9999865
 20
158.484
 30
0.0
 11
109.9999865
 21
159.332
 31
0.0
  0
LINE
  5
750
330
1D
100
AcDbEntity
  8
0
100
AcDbLine
 10
109.9999865
 20
157.563
 30
0.0
 11
109.9999865
 21
146.0
 31
0.0
  0
LINE
  5
751
330
1D
100
AcDbEntity
  8
0
100
AcDbLine
 10
109.9999865
 20
157.563
 30
0.0
 11
109.9999865
 21
156.304
 31
0.0
  0
LINE
  5
752
330
1D
100
AcDbEntity
  8
0
100
AcDbLine
 10
109.9999865
 20
156.304
 30
0.0
 11
109.9999865
 21
157.563
 31
0.0
  0
LINE
  5
753
330
1D
100
AcDbEntity
  8
0
100
AcDbLine
 10
109.9999865
 20
156.304
 30
0.0
 11
109.9999865
 21
146.0
 31
0.0
  0
LINE
  5
754
330
1D
100
AcDbEntity
  8
0
100
AcDbLine
 10
109.9999865
 20
156.304
 30
0.0
 11
109.9999865
 21
135.186
 31
0.0
  0
LINE
  5
755
330
1D
100
AcDbEntity
  8
0
100
AcDbLine
 10
109.9999865
 20
159.5
 30
0.0
 11
109.9999865
 21
154.5
 31
0.0
  0
LINE
  5
756
330
1D
100
AcDbEntity
  8
0
100
AcDbLine
 10
109.9999865
 20
160.356
 30
0.0
 11
109.9999865
 21
159.972
 31
0.0
  0
LINE
  5
757
330
1D
100
AcDbEntity
  8
0
100
AcDbLine
 10
109.9999865
 20
160.356
 30
0.0
 11
109.9999865
 21
160.5
 31
0.0
  0
LINE
  5
758
330
1D
100
AcDbEntity
  8
0
100
AcDbLine
 10
109.9999865
 20
159.972
 30
0.0
 11
109.9999865
 21
159.332
 31
0.0
  0
LINE
  5
759
330
1D
100
AcDbEntity
  8
0
100
AcDbLine
 10
109.9999865
 20
159.972
 30
0.0
 11
109.9999865
 21
160.356
 31
0.0
  0
LINE
  5
75A
330
1D
100
AcDbEntity
  8
0
100
AcDbLine
 10
109.9999865
 20
159.332
 30
0.0
 11
109.9999865
 21
158.484
 31
0.0
  0
LINE
  5
75B
330
1D
100
AcDbEntity
  8
0
100
AcDbLine
 10
109.9999865
 20
159.332
 30
0.0
 11
109.9999865
 21
159.972
 31
0.0
  0
LINE
  5
75C
330
1D
100
AcDbEntity
  8
0
100
AcDbLine
 10
109.9999865
 20
158.5
 30
0.0
 11
109.9999865
 21
160.5
 31
0.0
  0
LINE
  5
75D
330
1D
100
AcDbEntity
  8
0
100
AcDbLine
 10
109.9999865
 20
160.5
 30
0.0
 11
113.9999865
 21
160.5
 31
0.0
  0
LINE
  5
75E
330
1D
100
AcDbEntity
  8
0
100
AcDbLine
 10
109.9999865
 20
160.5
 30
0.0
 11
109.9999865
 21
158.5
 31
0.0
  0
LINE
  5
75F
330
1D
100
AcDbEntity
  8
0
100
AcDbLine
 10
109.9999865
 20
160.5
 30
0.0
 11
109.9999865
 21
146.0
 31
0.0
  0
LINE
  5
760
330
1D
100
AcDbEntity
  8
0
100
AcDbLine
 10
109.9999865
 20
160.5
 30
0.0
 11
109.9999865
 21
160.356
 31
0.0
  0
LINE
  5
761
330
1D
100
AcDbEntity
  8
0
100
AcDbLine
 10
109.9999865
 20
148.0
 30
0.0
 11
109.9999865
 21
147.244
 31
0.0
  0
LINE
  5
762
330
1D
100
AcDbEntity
  8
0
100
AcDbLine
 10
160.9999865
 20
148.0
 30
0.0
 11
166.1199865
 21
148.0
 31
0.0
  0
LINE
  5
763
330
1D
100
AcDbEntity
  8
0
100
AcDbLine
 10
166.1199865
 20
148.0
 30
0.0
 11
170.9199865
 21
148.0
 31
0.0
  0
LINE
  5
764
330
1D
100
AcDbEntity
  8
0
100
AcDbLine
 10
170.9199865
 20
148.0
 30
0.0
 11
175.1599865
 21
148.0
 31
0.0
  0
LINE
  5
765
330
1D
100
AcDbEntity
  8
0
100
AcDbLine
 10
175.1599865
 20
148.0
 30
0.0
 11
178.3599865
 21
148.0
 31
0.0
  0
LINE
  5
766
330
1D
100
AcDbEntity
  8
0
100
AcDbLine
 10
178.3599865
 20
148.0
 30
0.0
 11
180.2799865
 21
148.0
 31
0.0
  0
LINE
  5
767
330
1D
100
AcDbEntity
  8
0
100
AcDbLine
 10
180.9999865
 20
148.0
 30
0.0
 11
180.9999865
 21
146.0
 31
0.0
  0
LINE
  5
768
330
1D
100
AcDbEntity
  8
0
100
AcDbLine
 10
180.2799865
 20
148.0
 30
0.0
 11
180.9999865
 21
148.0
 31
0.0
  0
LINE
  5
769
330
1D
100
AcDbEntity
  8
0
100
AcDbLine
 10
155.8799865
 20
148.0
 30
0.0
 11
160.9999865
 21
148.0
 31
0.0
  0
LINE
  5
76A
330
1D
100
AcDbEntity
  8
0
100
AcDbLine
 10
151.0799865
 20
148.0
 30
0.0
 11
155.8799865
 21
148.0
 31
0.0
  0
LINE
  5
76B
330
1D
100
AcDbEntity
  8
0
100
AcDbLine
 10
146.8399865
 20
148.0
 30
0.0
 11
151.0799865
 21
148.0
 31
0.0
  0
LINE
  5
76C
330
1D
100
AcDbEntity
  8
0
100
AcDbLine
 10
143.6399865
 20
148.0
 30
0.0
 11
146.8399865
 21
148.0
 31
0.0
  0
LINE
  5
76D
330
1D
100
AcDbEntity
  8
0
100
AcDbLine
 10
141.7199865
 20
148.0
 30
0.0
 11
143.6399865
 21
148.0
 31
0.0
  0
LINE
  5
76E
330
1D
100
AcDbEntity
  8
0
100
AcDbLine
 10
140.9999865
 20
148.0
 30
0.0
 11
140.9999865
 21
146.0
 31
0.0
  0
LINE
  5
76F
330
1D
100
AcDbEntity
  8
0
100
AcDbLine
 10
140.9999865
 20
148.0
 30
0.0
 11
141.7199865
 21
148.0
 31
0.0
  0
LINE
  5
770
330
1D
100
AcDbEntity
  8
0
100
AcDbLine
 10
113.9999865
 20
160.5
 30
0.0
 11
113.9999865
 21
110.5
 31
0.0
  0
LINE
  5
771
330
1D
100
AcDbEntity
  8
0
100
AcDbLine
 10
109.9999865
 20
147.244
 30
0.0
 11
109.9999865
 21
148.0
 31
0.0
  0
LINE
  5
772
330
1D
100
AcDbEntity
  8
0
100
AcDbLine
 10
109.9999865
 20
147.244
 30
0.0
 11
109.9999865
 21
146.0
 31
0.0
  0
LINE
  5
773
330
1D
100
AcDbEntity
  8
0
100
AcDbLine
 10
109.9999865
 20
147.244
 30
0.0
 11
109.9999865
 21
145.732
 31
0.0
  0
LINE
  5
774
330
1D
100
AcDbEntity
  8
0
100
AcDbLine
 10
113.9999865
 20
146.0
 30
0.0
 11
140.9999865
 21
146.0
 31
0.0
  0
LINE
  5
775
330
1D
100
AcDbEntity
  8
0
100
AcDbLine
 10
74.9999865
 20
146.0
 30
0.0
 11
109.9999865
 21
146.0
 31
0.0
  0
LINE
  5
776
330
1D
100
AcDbEntity
  8
0
100
AcDbLine
 10
74.9999865
 20
169.0
 30
0.0
 11
74.9999865
 21
169.7
 31
0.0
  0
LINE
  5
778
330
1D
100
AcDbEntity
  8
0
100
AcDbLine
 10
74.9999865
 20
170.0
 30
0.0
 11
74.9999865
 21
169.7
 31
0.0
  0
LINE
  5
779
330
1D
100
AcDbEntity
  8
0
100
AcDbLine
 10
54.9999865
 20
170.0
 30
0.0
 11
74.9999865
 21
170.0
 31
0.0
  0
LINE
  5
77A
330
1D
100
AcDbEntity
  8
0
100
AcDbLine
 10
74.9999865
 20
169.7
 30
0.0
 11
74.9999865
 21
170.0
 31
0.0
  0
LINE
  5
77B
330
1D
100
AcDbEntity
  8
0
100
AcDbLine
 10
74.9999865
 20
169.7
 30
0.0
 11
74.9999865
 21
169.0
 31
0.0
  0
LINE
  5
81E
330
1D
100
AcDbEntity
  8
0
100
AcDbLine
 10
-0.0489135
 20
67.302
 30
0.0
 11
-0.0488835
 21
26.2595
 31
0.0
  0
LINE
  5
81F
330
1D
100
AcDbEntity
  8
0
100
AcDbLine
 10
49.8346865
 20
27.1217
 30
0.0
 11
49.8346865
 21
77.673
 31
0.0
  0
LINE
  5
820
330
1D
100
AcDbEntity
  8
0
100
AcDbLine
 10
37.2123865
 20
24.6639
 30
0.0
 11
49.5352865
 21
24.6001
 31
0.0
  0
LINE
  5
821
330
1D
100
AcDbEntity
  8
0
100
AcDbLine
 10
37.2123865
 20
24.6642
 30
0.0
 11
49.5352865
 21
24.6001
 31
0.0
  0
LINE
  5
822
330
1D
100
AcDbEntity
  8
0
100
AcDbLine
 10
-0.0488835
 20
26.0805
 30
0.0
 11
0.0146855
 21
25.8362
 31
0.0
  0
LINE
  5
823
330
1D
100
AcDbEntity
  8
0
100
AcDbLine
 10
-0.0488835
 20
26.0805
 30
0.0
 11
-0.0488835
 21
26.2595
 31
0.0
  0
LINE
  5
824
330
1D
100
AcDbEntity
  8
0
100
AcDbLine
 10
-0.0488835
 20
26.0802
 30
0.0
 11
-0.0488835
 21
26.2595
 31
0.0
  0
LINE
  5
825
330
1D
100
AcDbEntity
  8
0
100
AcDbLine
 10
-0.0488835
 20
26.0802
 30
0.0
 11
-0.0488835
 21
26.2263
 31
0.0
  0
LINE
  5
826
330
1D
100
AcDbEntity
  8
0
100
AcDbLine
 10
-0.0488835
 20
26.0807
 30
0.0
 11
0.0146855
 21
25.836
 31
0.0
  0
LINE
  5
827
330
1D
100
AcDbEntity
  8
0
100
AcDbLine
 10
0.0146855
 20
25.8362
 30
0.0
 11
0.1892175
 21
25.6543
 31
0.0
  0
LINE
  5
828
330
1D
100
AcDbEntity
  8
0
100
AcDbLine
 10
0.0146855
 20
25.836
 30
0.0
 11
0.1892175
 21
25.6544
 31
0.0
  0
LINE
  5
829
330
1D
100
AcDbEntity
  8
0
100
AcDbLine
 10
0.1892175
 20
25.6543
 30
0.0
 11
0.4302035
 21
25.5809
 31
0.0
  0
LINE
  5
82A
330
1D
100
AcDbEntity
  8
0
100
AcDbLine
 10
0.1892175
 20
25.6544
 30
0.0
 11
0.4302035
 21
25.5809
 31
0.0
  0
LINE
  5
82B
330
1D
100
AcDbEntity
  8
0
100
AcDbLine
 10
0.4303965
 20
25.5808
 30
0.0
 11
12.4203865
 21
25.1626
 31
0.0
  0
LINE
  5
82C
330
1D
100
AcDbEntity
  8
0
100
AcDbLine
 10
12.4203865
 20
25.1626
 30
0.0
 11
24.8902865
 21
24.8501
 31
0.0
  0
LINE
  5
82D
330
1D
100
AcDbEntity
  8
0
100
AcDbLine
 10
24.8902865
 20
24.8501
 30
0.0
 11
37.2123865
 21
24.6639
 31
0.0
  0
LINE
  5
82E
330
1D
100
AcDbEntity
  8
0
100
AcDbLine
 10
12.4203865
 20
25.1623
 30
0.0
 11
24.8902865
 21
24.8498
 31
0.0
  0
LINE
  5
82F
330
1D
100
AcDbEntity
  8
0
100
AcDbLine
 10
24.8902865
 20
24.8498
 30
0.0
 11
37.2123865
 21
24.6642
 31
0.0
  0
LINE
  5
830
330
1D
100
AcDbEntity
  8
0
100
AcDbLine
 10
0.4303665
 20
25.5809
 30
0.0
 11
12.4203865
 21
25.1623
 31
0.0
  0
LINE
  5
831
330
1D
100
AcDbEntity
  8
0
100
AcDbLine
 10
49.8346865
 20
27.0
 30
0.0
 11
53.9999865
 21
27.0
 31
0.0
  0
LINE
  5
832
330
1D
100
AcDbEntity
  8
0
100
AcDbLine
 10
49.5352865
 20
24.6
 30
0.0
 11
49.6849865
 21
24.6403
 31
0.0
  0
LINE
  5
833
330
1D
100
AcDbEntity
  8
0
100
AcDbLine
 10
49.6849865
 20
24.6403
 30
0.0
 11
49.7945865
 21
24.75
 31
0.0
  0
LINE
  5
834
330
1D
100
AcDbEntity
  8
0
100
AcDbLine
 10
49.6849865
 20
24.6401
 30
0.0
 11
49.7945865
 21
24.75
 31
0.0
  0
LINE
  5
835
330
1D
100
AcDbEntity
  8
0
100
AcDbLine
 10
49.5352865
 20
24.6001
 30
0.0
 11
49.6849865
 21
24.6401
 31
0.0
  0
LINE
  5
836
330
1D
100
AcDbEntity
  8
0
100
AcDbLine
 10
49.8346865
 20
25.0576
 30
0.0
 11
49.8346865
 21
24.9001
 31
0.0
  0
LINE
  5
837
330
1D
100
AcDbEntity
  8
0
100
AcDbLine
 10
49.8346865
 20
25.4826
 30
0.0
 11
49.8346865
 21
25.0576
 31
0.0
  0
LINE
  5
838
330
1D
100
AcDbEntity
  8
0
100
AcDbLine
 10
49.8346865
 20
26.1726
 30
0.0
 11
49.8346865
 21
25.4826
 31
0.0
  0
LINE
  5
839
330
1D
100
AcDbEntity
  8
0
100
AcDbLine
 10
49.8346865
 20
27.1219
 30
0.0
 11
49.8346865
 21
26.1726
 31
0.0
  0
LINE
  5
83A
330
1D
100
AcDbEntity
  8
0
100
AcDbLine
 10
49.8346865
 20
26.1728
 30
0.0
 11
49.8346865
 21
27.1217
 31
0.0
  0
LINE
  5
83B
330
1D
100
AcDbEntity
  8
0
100
AcDbLine
 10
49.8346865
 20
25.4825
 30
0.0
 11
49.8346865
 21
26.1728
 31
0.0
  0
LINE
  5
83C
330
1D
100
AcDbEntity
  8
0
100
AcDbLine
 10
49.8346865
 20
25.057
 30
0.0
 11
49.8346865
 21
25.4825
 31
0.0
  0
LINE
  5
83D
330
1D
100
AcDbEntity
  8
0
100
AcDbLine
 10
49.8346865
 20
24.9
 30
0.0
 11
49.8346865
 21
25.057
 31
0.0
  0
LINE
  5
83E
330
1D
100
AcDbEntity
  8
0
100
AcDbLine
 10
49.7945865
 20
24.75
 30
0.0
 11
49.8346865
 21
24.9
 31
0.0
  0
LINE
  5
83F
330
1D
100
AcDbEntity
  8
0
100
AcDbLine
 10
38.0119865
 20
79.739
 30
0.0
 11
43.7693865
 21
79.489
 31
0.0
  0
LINE
  5
840
330
1D
100
AcDbEntity
  8
0
100
AcDbLine
 10
18.5707865
 20
81.783
 30
0.0
 11
24.8006865
 21
80.925
 31
0.0
  0
LINE
  5
841
330
1D
100
AcDbEntity
  8
0
100
AcDbLine
 10
18.5708865
 20
81.783
 30
0.0
 11
24.8007865
 21
80.925
 31
0.0
  0
LINE
  5
842
330
1D
100
AcDbEntity
  8
0
100
AcDbLine
 10
-0.0489135
 20
72.431
 30
0.0
 11
-0.0489135
 21
75.093
 31
0.0
  0
LINE
  5
843
330
1D
100
AcDbEntity
  8
0
100
AcDbLine
 10
-0.0489135
 20
67.302
 30
0.0
 11
-0.0489135
 21
69.59
 31
0.0
  0
LINE
  5
844
330
1D
100
AcDbEntity
  8
0
100
AcDbLine
 10
-0.0489135
 20
69.59
 30
0.0
 11
-0.0489135
 21
72.431
 31
0.0
  0
LINE
  5
845
330
1D
100
AcDbEntity
  8
0
100
AcDbLine
 10
6.9958565
 20
83.889
 30
0.0
 11
12.3527865
 21
82.831
 31
0.0
  0
LINE
  5
846
330
1D
100
AcDbEntity
  8
0
100
AcDbLine
 10
6.9953565
 20
83.889
 30
0.0
 11
12.3522865
 21
82.831
 31
0.0
  0
LINE
  5
847
330
1D
100
AcDbEntity
  8
0
100
AcDbLine
 10
-0.0489135
 20
83.649
 30
0.0
 11
-0.0489135
 21
84.19
 31
0.0
  0
LINE
  5
848
330
1D
100
AcDbEntity
  8
0
100
AcDbLine
 10
-0.0489135
 20
83.582
 30
0.0
 11
-0.0489135
 21
84.247
 31
0.0
  0
LINE
  5
849
330
1D
100
AcDbEntity
  8
0
100
AcDbLine
 10
-0.0489135
 20
75.093
 30
0.0
 11
-0.0489135
 21
77.581
 31
0.0
  0
LINE
  5
84A
330
1D
100
AcDbEntity
  8
0
100
AcDbLine
 10
-0.0489135
 20
74.401
 30
0.0
 11
-0.0489135
 21
76.312
 31
0.0
  0
LINE
  5
84B
330
1D
100
AcDbEntity
  8
0
100
AcDbLine
 10
-0.0489135
 20
77.581
 30
0.0
 11
-0.0489135
 21
79.88
 31
0.0
  0
LINE
  5
84C
330
1D
100
AcDbEntity
  8
0
100
AcDbLine
 10
-0.0489135
 20
77.581
 30
0.0
 11
-0.0489135
 21
78.701
 31
0.0
  0
LINE
  5
84D
330
1D
100
AcDbEntity
  8
0
100
AcDbLine
 10
-0.0489135
 20
77.581
 30
0.0
 11
-0.0489135
 21
79.879
 31
0.0
  0
LINE
  5
84E
330
1D
100
AcDbEntity
  8
0
100
AcDbLine
 10
-0.0489135
 20
76.312
 30
0.0
 11
-0.0489135
 21
78.701
 31
0.0
  0
LINE
  5
84F
330
1D
100
AcDbEntity
  8
0
100
AcDbLine
 10
-0.0489135
 20
79.88
 30
0.0
 11
-0.0489135
 21
80.945
 31
0.0
  0
LINE
  5
850
330
1D
100
AcDbEntity
  8
0
100
AcDbLine
 10
-0.0489135
 20
79.879
 30
0.0
 11
-0.0489135
 21
80.945
 31
0.0
  0
LINE
  5
851
330
1D
100
AcDbEntity
  8
0
100
AcDbLine
 10
-0.0489135
 20
78.701
 30
0.0
 11
-0.0489135
 21
80.893
 31
0.0
  0
LINE
  5
852
330
1D
100
AcDbEntity
  8
0
100
AcDbLine
 10
-0.0489135
 20
80.945
 30
0.0
 11
-0.0489135
 21
82.545
 31
0.0
  0
LINE
  5
853
330
1D
100
AcDbEntity
  8
0
100
AcDbLine
 10
-0.0489135
 20
80.945
 30
0.0
 11
-0.0489135
 21
82.564
 31
0.0
  0
LINE
  5
854
330
1D
100
AcDbEntity
  8
0
100
AcDbLine
 10
-0.0489135
 20
80.893
 30
0.0
 11
-0.0489135
 21
80.945
 31
0.0
  0
LINE
  5
855
330
1D
100
AcDbEntity
  8
0
100
AcDbLine
 10
-0.0489135
 20
82.564
 30
0.0
 11
-0.0489135
 21
83.582
 31
0.0
  0
LINE
  5
856
330
1D
100
AcDbEntity
  8
0
100
AcDbLine
 10
-0.0489135
 20
82.545
 30
0.0
 11
-0.0489135
 21
83.649
 31
0.0
  0
LINE
  5
857
330
1D
100
AcDbEntity
  8
0
100
AcDbLine
 10
-0.0489135
 20
82.544
 30
0.0
 11
-0.0489135
 21
83.649
 31
0.0
  0
LINE
  5
858
330
1D
100
AcDbEntity
  8
0
100
AcDbLine
 10
-0.0489135
 20
84.19
 30
0.0
 11
-0.0489135
 21
84.531
 31
0.0
  0
LINE
  5
859
330
1D
100
AcDbEntity
  8
0
100
AcDbLine
 10
-0.0489135
 20
84.607
 30
0.0
 11
0.0136145
 21
84.849
 31
0.0
  0
LINE
  5
85A
330
1D
100
AcDbEntity
  8
0
100
AcDbLine
 10
-0.0489135
 20
84.532
 30
0.0
 11
-0.0489135
 21
84.607
 31
0.0
  0
LINE
  5
85B
330
1D
100
AcDbEntity
  8
0
100
AcDbLine
 10
-0.0489135
 20
84.531
 30
0.0
 11
-0.0489135
 21
84.607
 31
0.0
  0
LINE
  5
85C
330
1D
100
AcDbEntity
  8
0
100
AcDbLine
 10
0.0136145
 20
84.849
 30
0.0
 11
0.1855605
 21
85.031
 31
0.0
  0
LINE
  5
85D
330
1D
100
AcDbEntity
  8
0
100
AcDbLine
 10
0.0136145
 20
84.849
 30
0.0
 11
0.1855605
 21
85.031
 31
0.0
  0
LINE
  5
85E
330
1D
100
AcDbEntity
  8
0
100
AcDbLine
 10
-0.0489135
 20
84.607
 30
0.0
 11
0.0136145
 21
84.849
 31
0.0
  0
LINE
  5
85F
330
1D
100
AcDbEntity
  8
0
100
AcDbLine
 10
-0.0489135
 20
84.247
 30
0.0
 11
-0.0489135
 21
84.532
 31
0.0
  0
LINE
  5
860
330
1D
100
AcDbEntity
  8
0
100
AcDbLine
 10
0.1855605
 20
85.031
 30
0.0
 11
0.4237805
 21
85.106
 31
0.0
  0
LINE
  5
861
330
1D
100
AcDbEntity
  8
0
100
AcDbLine
 10
0.4237805
 20
85.106
 30
0.0
 11
1.0820565
 21
85.141
 31
0.0
  0
LINE
  5
862
330
1D
100
AcDbEntity
  8
0
100
AcDbLine
 10
1.0820565
 20
85.141
 30
0.0
 11
1.6471565
 21
85.089
 31
0.0
  0
LINE
  5
863
330
1D
100
AcDbEntity
  8
0
100
AcDbLine
 10
1.0820565
 20
85.141
 30
0.0
 11
1.6471765
 21
85.09
 31
0.0
  0
LINE
  5
864
330
1D
100
AcDbEntity
  8
0
100
AcDbLine
 10
1.6471565
 20
85.089
 30
0.0
 11
6.9958565
 21
83.889
 31
0.0
  0
LINE
  5
865
330
1D
100
AcDbEntity
  8
0
100
AcDbLine
 10
1.6474265
 20
85.089
 30
0.0
 11
6.9953565
 21
83.889
 31
0.0
  0
LINE
  5
866
330
1D
100
AcDbEntity
  8
0
100
AcDbLine
 10
12.3527865
 20
82.831
 30
0.0
 11
18.5707865
 21
81.783
 31
0.0
  0
LINE
  5
867
330
1D
100
AcDbEntity
  8
0
100
AcDbLine
 10
12.3522865
 20
82.831
 30
0.0
 11
18.5708865
 21
81.783
 31
0.0
  0
LINE
  5
868
330
1D
100
AcDbEntity
  8
0
100
AcDbLine
 10
31.1280865
 20
79.62
 30
0.0
 11
32.2529865
 21
79.47
 31
0.0
  0
LINE
  5
869
330
1D
100
AcDbEntity
  8
0
100
AcDbLine
 10
28.3219865
 20
84.85
 30
0.0
 11
37.4243865
 21
84.85
 31
0.0
  0
LINE
  5
86A
330
1D
100
AcDbEntity
  8
0
100
AcDbLine
 10
27.7359865
 20
80.587
 30
0.0
 11
27.8447865
 21
80.542
 31
0.0
  0
LINE
  5
86B
330
1D
100
AcDbEntity
  8
0
100
AcDbLine
 10
24.8006865
 20
80.925
 30
0.0
 11
27.7359865
 21
80.587
 31
0.0
  0
LINE
  5
86C
330
1D
100
AcDbEntity
  8
0
100
AcDbLine
 10
30.1995865
 20
79.803
 30
0.0
 11
31.1280865
 21
79.62
 31
0.0
  0
LINE
  5
86D
330
1D
100
AcDbEntity
  8
0
100
AcDbLine
 10
29.3963865
 20
80.008
 30
0.0
 11
30.1995865
 21
79.803
 31
0.0
  0
LINE
  5
86E
330
1D
100
AcDbEntity
  8
0
100
AcDbLine
 10
28.6884865
 20
80.227
 30
0.0
 11
29.3963865
 21
80.008
 31
0.0
  0
LINE
  5
86F
330
1D
100
AcDbEntity
  8
0
100
AcDbLine
 10
28.1754865
 20
80.411
 30
0.0
 11
28.6884865
 21
80.227
 31
0.0
  0
LINE
  5
870
330
1D
100
AcDbEntity
  8
0
100
AcDbLine
 10
27.952982076434
 20
80.499140548797
 30
0.0
 11
28.0227865
 21
84.555
 31
0.0
  0
LINE
  5
871
330
1D
100
AcDbEntity
  8
0
100
AcDbLine
 10
27.8447865
 20
80.542
 30
0.0
 11
28.1754865
 21
80.411
 31
0.0
  0
LINE
  5
872
330
1D
100
AcDbEntity
  8
0
100
AcDbLine
 10
27.7360865
 20
80.587
 30
0.0
 11
27.857563087447
 21
80.536938817794
 31
0.0
  0
LINE
  5
873
330
1D
100
AcDbEntity
  8
0
100
AcDbLine
 10
28.0469865
 20
84.668
 30
0.0
 11
28.1122865
 21
84.764
 31
0.0
  0
LINE
  5
874
330
1D
100
AcDbEntity
  8
0
100
AcDbLine
 10
28.1122865
 20
84.764
 30
0.0
 11
28.2085865
 21
84.828
 31
0.0
  0
LINE
  5
875
330
1D
100
AcDbEntity
  8
0
100
AcDbLine
 10
28.0227865
 20
84.555
 30
0.0
 11
28.0469865
 21
84.668
 31
0.0
  0
LINE
  5
876
330
1D
100
AcDbEntity
  8
0
100
AcDbLine
 10
28.2085865
 20
84.828
 30
0.0
 11
28.3219865
 21
84.85
 31
0.0
  0
LINE
  5
877
330
1D
100
AcDbEntity
  8
0
100
AcDbLine
 10
24.8007865
 20
80.925
 30
0.0
 11
27.7360865
 21
80.587
 31
0.0
  0
LINE
  5
878
330
1D
100
AcDbEntity
  8
0
100
AcDbLine
 10
35.3293865
 20
79.414
 30
0.0
 11
36.2090865
 21
79.485
 31
0.0
  0
LINE
  5
879
330
1D
100
AcDbEntity
  8
0
100
AcDbLine
 10
34.4061865
 20
79.379
 30
0.0
 11
35.3293865
 21
79.414
 31
0.0
  0
LINE
  5
87A
330
1D
100
AcDbEntity
  8
0
100
AcDbLine
 10
33.4101865
 20
79.39
 30
0.0
 11
34.4061865
 21
79.379
 31
0.0
  0
LINE
  5
87B
330
1D
100
AcDbEntity
  8
0
100
AcDbLine
 10
36.9364865
 20
79.569
 30
0.0
 11
37.3834865
 21
79.634
 31
0.0
  0
LINE
  5
87C
330
1D
100
AcDbEntity
  8
0
100
AcDbLine
 10
36.2090865
 20
79.485
 30
0.0
 11
36.9364865
 21
79.569
 31
0.0
  0
LINE
  5
87D
330
1D
100
AcDbEntity
  8
0
100
AcDbLine
 10
32.2529865
 20
79.47
 30
0.0
 11
33.4101865
 21
79.39
 31
0.0
  0
LINE
  5
87E
330
1D
100
AcDbEntity
  8
0
100
AcDbLine
 10
37.8536865
 20
79.711
 30
0.0
 11
38.0119865
 21
79.739
 31
0.0
  0
LINE
  5
87F
330
1D
100
AcDbEntity
  8
0
100
AcDbLine
 10
37.3834865
 20
79.634
 30
0.0
 11
37.8536865
 21
79.711
 31
0.0
  0
LINE
  5
880
330
1D
100
AcDbEntity
  8
0
100
AcDbLine
 10
37.6991865
 20
84.668
 30
0.0
 11
37.7234865
 21
84.555
 31
0.0
  0
LINE
  5
881
330
1D
100
AcDbEntity
  8
0
100
AcDbLine
 10
37.7234865
 20
84.555
 30
0.0
 11
37.808154425028
 21
79.703543662754
 31
0.0
  0
LINE
  5
882
330
1D
100
AcDbEntity
  8
0
100
AcDbLine
 10
37.7234865
 20
84.555
 30
0.0
 11
37.808154425028
 21
79.703543662754
 31
0.0
  0
LINE
  5
883
330
1D
100
AcDbEntity
  8
0
100
AcDbLine
 10
37.6339865
 20
84.764
 30
0.0
 11
37.6991865
 21
84.668
 31
0.0
  0
LINE
  5
884
330
1D
100
AcDbEntity
  8
0
100
AcDbLine
 10
37.5376865
 20
84.827
 30
0.0
 11
37.6339865
 21
84.764
 31
0.0
  0
LINE
  5
885
330
1D
100
AcDbEntity
  8
0
100
AcDbLine
 10
37.4243865
 20
84.85
 30
0.0
 11
37.5376865
 21
84.827
 31
0.0
  0
LINE
  5
886
330
1D
100
AcDbEntity
  8
0
100
AcDbLine
 10
49.8346865
 20
79.101
 30
0.0
 11
49.8346865
 21
78.993
 31
0.0
  0
LINE
  5
887
330
1D
100
AcDbEntity
  8
0
100
AcDbLine
 10
49.8346865
 20
78.993
 30
0.0
 11
49.8346865
 21
78.52
 31
0.0
  0
LINE
  5
888
330
1D
100
AcDbEntity
  8
0
100
AcDbLine
 10
49.8346865
 20
78.52
 30
0.0
 11
49.8346865
 21
77.674
 31
0.0
  0
LINE
  5
889
330
1D
100
AcDbEntity
  8
0
100
AcDbLine
 10
49.8346865
 20
78.519
 30
0.0
 11
49.8346865
 21
78.994
 31
0.0
  0
LINE
  5
88A
330
1D
100
AcDbEntity
  8
0
100
AcDbLine
 10
49.8346865
 20
77.673
 30
0.0
 11
49.8346865
 21
78.519
 31
0.0
  0
LINE
  5
88B
330
1D
100
AcDbEntity
  8
0
100
AcDbLine
 10
49.8346865
 20
77.0
 30
0.0
 11
53.9999865
 21
77.0
 31
0.0
  0
LINE
  5
88C
330
1D
100
AcDbEntity
  8
0
100
AcDbLine
 10
49.7946865
 20
79.25
 30
0.0
 11
49.8346865
 21
79.1
 31
0.0
  0
LINE
  5
88D
330
1D
100
AcDbEntity
  8
0
100
AcDbLine
 10
49.8346865
 20
78.994
 30
0.0
 11
49.8346865
 21
79.1
 31
0.0
  0
LINE
  5
88E
330
1D
100
AcDbEntity
  8
0
100
AcDbLine
 10
49.6852865
 20
79.36
 30
0.0
 11
49.7946865
 21
79.25
 31
0.0
  0
LINE
  5
88F
330
1D
100
AcDbEntity
  8
0
100
AcDbLine
 10
49.5357865
 20
79.4
 30
0.0
 11
49.6852865
 21
79.36
 31
0.0
  0
LINE
  5
890
330
1D
100
AcDbEntity
  8
0
100
AcDbLine
 10
43.7693865
 20
79.489
 30
0.0
 11
49.5357865
 21
79.4
 31
0.0
  0
LINE
  5
891
330
1D
100
AcDbEntity
  8
0
100
AcDbLine
 10
52.4999865
 20
113.449
 30
0.0
 11
52.4999865
 21
138.301
 31
0.0
  0
LINE
  5
892
330
1D
100
AcDbEntity
  8
0
100
AcDbLine
 10
51.6999865
 20
139.074
 30
0.0
 11
51.6999865
 21
110.448
 31
0.0
  0
LINE
  5
893
330
1D
100
AcDbEntity
  8
0
100
AcDbLine
 10
19.1999865
 20
111.375
 30
0.0
 11
19.1999865
 21
142.342
 31
0.0
  0
ENDSEC
  0
SECTION
  2
OBJECTS
  0
DICTIONARY
  5
C
330
0
100
AcDbDictionary
281
     1
  3
ACAD_GROUP
350
D
  3
ACAD_LAYOUT
350
1A
  3
ACAD_MLEADERSTYLE
350
896
  3
ACAD_MLINESTYLE
350
17
  3
ACAD_PLOTSETTINGS
350
19
  3
ACAD_PLOTSTYLENAME
350
E
  3
ACAD_SCALELIST
350
786
  3
AcDbVariableDictionary
350
894
  3
DWGPROPS
350
899
  0
DICTIONARY
  5
D
102
{ACAD_REACTORS
330
C
102
}
330
C
100
AcDbDictionary
281
     1
  0
DICTIONARY
  5
1A
102
{ACAD_REACTORS
330
C
102
}
330
C
100
AcDbDictionary
281
     1
  3
Layout1
350
1C
  3
Model
350
1E
  0
DICTIONARY
  5
896
102
{ACAD_REACTORS
330
C
102
}
330
C
100
AcDbDictionary
281
     1
  0
DICTIONARY
  5
17
102
{ACAD_REACTORS
330
C
102
}
330
C
100
AcDbDictionary
281
     1
  3
Standard
350
18
  0
DICTIONARY
  5
19
102
{ACAD_REACTORS
330
C
102
}
330
C
100
AcDbDictionary
281
     1
  0
ACDBDICTIONARYWDFLT
  5
E
102
{ACAD_REACTORS
330
C
102
}
330
C
100
AcDbDictionary
281
     1
  3
Normal
350
F
100
AcDbDictionaryWithDefault
340
F
  0
DICTIONARY
  5
786
102
{ACAD_REACTORS
330
C
102
}
330
C
100
AcDbDictionary
281
     1
  3
A0
350
787
  3
A1
350
788
  3
A2
350
789
  3
A3
350
78A
  3
A4
350
78B
  3
A5
350
78C
  3
A6
350
78D
  3
A7
350
78E
  3
A8
350
78F
  3
A9
350
790
  3
B0
350
791
  3
B1
350
792
  3
B2
350
793
  3
B3
350
794
  3
B4
350
795
  3
B5
350
796
  3
B6
350
797
  3
B7
350
798
  3
B8
350
799
  3
B9
350
79A
  3
C0
350
79B
  3
C1
350
79C
  3
C2
350
79D
  3
C3
350
79E
  3
C4
350
79F
  3
C5
350
7A0
  3
C6
350
7A1
  3
C7
350
7A2
  3
C8
350
7A3
  3
C9
350
7A4
  3
D0
350
7A5
  3
D1
350
7A6
  3
D2
350
7A7
  0
DICTIONARY
  5
894
102
{ACAD_REACTORS
330
C
102
}
330
C
100
AcDbDictionary
281
     1
  3
CANNOSCALE
350
897
  0
XRECORD
  5
899
102
{ACAD_REACTORS
330
C
102
}
330
C
100
AcDbXrecord
280
     1
  1
DWGPROPS COOKIE
  2

  3

  4

  6

  7

  8
MARTIN
  9

300
=
301
=
302
=
303
=
304
=
305
=
306
=
307
=
308
=
309
=
 40
0.0
 41
2456183.595086262
 42
2456183.597472512
  1

 90
        0
  0
LAYOUT
  5
1C
102
{ACAD_REACTORS
330
1A
102
}
330
1A
100
AcDbPlotSettings
  1

  2
none_device
  4

  6

 40
0.0
 41
0.0
 42
0.0
 43
0.0
 44
0.0
 45
0.0
 46
0.0
 47
0.0
 48
0.0
 49
0.0
140
0.0
141
0.0
142
1.0
143
1.0
 70
   688
 72
     0
 73
     0
 74
     5
  7

 75
    16
147
1.0
148
0.0
149
0.0
100
AcDbLayout
  1
Layout1
 70
     1
 71
     1
 10
0.0
 20
0.0
 11
12.0
 21
9.0
 12
0.0
 22
0.0
 32
0.0
 14
1.000000000000E+20
 24
1.000000000000E+20
 34
1.000000000000E+20
 15
-1.000000000000E+20
 25
-1.000000000000E+20
 35
-1.000000000000E+20
146
0.0
 13
0.0
 23
0.0
 33
0.0
 16
1.0
 26
0.0
 36
0.0
 17
0.0
 27
1.0
 37
0.0
 76
     0
330
1B
  0
LAYOUT
  5
1E
102
{ACAD_REACTORS
330
1A
102
}
330
1A
100
AcDbPlotSettings
  1

  2
none_device
  4

  6

 40
0.0
 41
0.0
 42
0.0
 43
0.0
 44
0.0
 45
0.0
 46
0.0
 47
0.0
 48
0.0
 49
0.0
140
0.0
141
0.0
142
1.0
143
1.0
 70
  1712
 72
     0
 73
     0
 74
     0
  7

 75
     0
147
1.0
148
0.0
149
0.0
100
AcDbLayout
  1
Model
 70
     1
 71
     0
 10
0.0
 20
0.0
 11
12.0
 21
9.0
 12
0.0
 22
0.0
 32
0.0
 14
-0.0489135
 24
0.0
 34
0.0
 15
182.9999865
 25
170.0
 35
0.0
146
0.0
 13
0.0
 23
0.0
 33
0.0
 16
1.0
 26
0.0
 36
0.0
 17
0.0
 27
1.0
 37
0.0
 76
     0
330
1D
331
781
  0
MLINESTYLE
  5
18
102
{ACAD_REACTORS
330
17
102
}
330
17
100
AcDbMlineStyle
  2
Standard
 70
     0
  3

 62
   256
 51
90.0
 52
90.0
 71
     2
 49
0.5
 62
   256
  6
BYLAYER
 49
-0.5
 62
   256
  6
BYLAYER
  0
ACDBPLACEHOLDER
  5
F
102
{ACAD_REACTORS
330
E
102
}
330
E
  0
SCALE
  5
787
102
{ACAD_REACTORS
330
786
102
}
330
786
100
AcDbScale
 70
     0
300
1:1
140
1.0
141
1.0
290
     1
  0
SCALE
  5
788
102
{ACAD_REACTORS
330
786
102
}
330
786
100
AcDbScale
 70
     0
300
1:2
140
1.0
141
2.0
290
     0
  0
SCALE
  5
789
102
{ACAD_REACTORS
330
786
102
}
330
786
100
AcDbScale
 70
     0
300
1:4
140
1.0
141
4.0
290
     0
  0
SCALE
  5
78A
102
{ACAD_REACTORS
330
786
102
}
330
786
100
AcDbScale
 70
     0
300
1:5
140
1.0
141
5.0
290
     0
  0
SCALE
  5
78B
102
{ACAD_REACTORS
330
786
102
}
330
786
100
AcDbScale
 70
     0
300
1:8
140
1.0
141
8.0
290
     0
  0
SCALE
  5
78C
102
{ACAD_REACTORS
330
786
102
}
330
786
100
AcDbScale
 70
     0
300
1:10
140
1.0
141
10.0
290
     0
  0
SCALE
  5
78D
102
{ACAD_REACTORS
330
786
102
}
330
786
100
AcDbScale
 70
     0
300
1:16
140
1.0
141
16.0
290
     0
  0
SCALE
  5
78E
102
{ACAD_REACTORS
330
786
102
}
330
786
100
AcDbScale
 70
     0
300
1:20
140
1.0
141
20.0
290
     0
  0
SCALE
  5
78F
102
{ACAD_REACTORS
330
786
102
}
330
786
100
AcDbScale
 70
     0
300
1:30
140
1.0
141
30.0
290
     0
  0
SCALE
  5
790
102
{ACAD_REACTORS
330
786
102
}
330
786
100
AcDbScale
 70
     0
300
1:40
140
1.0
141
40.0
290
     0
  0
SCALE
  5
791
102
{ACAD_REACTORS
330
786
102
}
330
786
100
AcDbScale
 70
     0
300
1:50
140
1.0
141
50.0
290
     0
  0
SCALE
  5
792
102
{ACAD_REACTORS
330
786
102
}
330
786
100
AcDbScale
 70
     0
300
1:100
140
1.0
141
100.0
290
     0
  0
SCALE
  5
793
102
{ACAD_REACTORS
330
786
102
}
330
786
100
AcDbScale
 70
     0
300
2:1
140
2.0
141
1.0
290
     0
  0
SCALE
  5
794
102
{ACAD_REACTORS
330
786
102
}
330
786
100
AcDbScale
 70
     0
300
4:1
140
4.0
141
1.0
290
     0
  0
SCALE
  5
795
102
{ACAD_REACTORS
330
786
102
}
330
786
100
AcDbScale
 70
     0
300
8:1
140
8.0
141
1.0
290
     0
  0
SCALE
  5
796
102
{ACAD_REACTORS
330
786
102
}
330
786
100
AcDbScale
 70
     0
300
10:1
140
10.0
141
1.0
290
     0
  0
SCALE
  5
797
102
{ACAD_REACTORS
330
786
102
}
330
786
100
AcDbScale
 70
     0
300
100:1
140
100.0
141
1.0
290
     0
  0
SCALE
  5
798
102
{ACAD_REACTORS
330
786
102
}
330
786
100
AcDbScale
 70
     0
300
1/128" = 1'-0"
140
0.0078125
141
12.0
290
     0
  0
SCALE
  5
799
102
{ACAD_REACTORS
330
786
102
}
330
786
100
AcDbScale
 70
     0
300
1/64" = 1'-0"
140
0.015625
141
12.0
290
     0
  0
SCALE
  5
79A
102
{ACAD_REACTORS
330
786
102
}
330
786
100
AcDbScale
 70
     0
300
1/32" = 1'-0"
140
0.03125
141
12.0
290
     0
  0
SCALE
  5
79B
102
{ACAD_REACTORS
330
786
102
}
330
786
100
AcDbScale
 70
     0
300
1/16" = 1'-0"
140
0.0625
141
12.0
290
     0
  0
SCALE
  5
79C
102
{ACAD_REACTORS
330
786
102
}
330
786
100
AcDbScale
 70
     0
300
3/32" = 1'-0"
140
0.09375
141
12.0
290
     0
  0
SCALE
  5
79D
102
{ACAD_REACTORS
330
786
102
}
330
786
100
AcDbScale
 70
     0
300
1/8" = 1'-0"
140
0.125
141
12.0
290
     0
  0
SCALE
  5
79E
102
{ACAD_REACTORS
330
786
102
}
330
786
100
AcDbScale
 70
     0
300
3/16" = 1'-0"
140
0.1875
141
12.0
290
     0
  0
SCALE
  5
79F
102
{ACAD_REACTORS
330
786
102
}
330
786
100
AcDbScale
 70
     0
300
1/4" = 1'-0"
140
0.25
141
12.0
290
     0
  0
SCALE
  5
7A0
102
{ACAD_REACTORS
330
786
102
}
330
786
100
AcDbScale
 70
     0
300
3/8" = 1'-0"
140
0.375
141
12.0
290
     0
  0
SCALE
  5
7A1
102
{ACAD_REACTORS
330
786
102
}
330
786
100
AcDbScale
 70
     0
300
1/2" = 1'-0"
140
0.5
141
12.0
290
     0
  0
SCALE
  5
7A2
102
{ACAD_REACTORS
330
786
102
}
330
786
100
AcDbScale
 70
     0
300
3/4" = 1'-0"
140
0.75
141
12.0
290
     0
  0
SCALE
  5
7A3
102
{ACAD_REACTORS
330
786
102
}
330
786
100
AcDbScale
 70
     0
300
1" = 1'-0"
140
1.0
141
12.0
290
     0
  0
SCALE
  5
7A4
102
{ACAD_REACTORS
330
786
102
}
330
786
100
AcDbScale
 70
     0
300
1-1/2" = 1'-0"
140
1.5
141
12.0
290
     0
  0
SCALE
  5
7A5
102
{ACAD_REACTORS
330
786
102
}
330
786
100
AcDbScale
 70
     0
300
3" = 1'-0"
140
3.0
141
12.0
290
     0
  0
SCALE
  5
7A6
102
{ACAD_REACTORS
330
786
102
}
330
786
100
AcDbScale
 70
     0
300
6" = 1'-0"
140
6.0
141
12.0
290
     0
  0
SCALE
  5
7A7
102
{ACAD_REACTORS
330
786
102
}
330
786
100
AcDbScale
 70
     0
300
1'-0" = 1'-0"
140
12.0
141
12.0
290
     0
  0
DICTIONARYVAR
  5
897
102
{ACAD_REACTORS
330
894
102
}
330
894
100
DictionaryVariables
280
     0
  1
1:1
  0
ENDSEC
  0
SECTION
  2
THUMBNAILIMAGE
 90
    16364
310
28000000B40000005500000001000800000000000000000000000000000000000000000000000000FFFFFF000000FF0000FFFF0000FF0000FFFF0000FF000000FF00FF000000000080808000C0C0C0000000FF007F7FFF000000A5005252A50000007F003F3F7F0000004C0026264C000000260013132600003FFF007F9FFF
310
000029A5005267A500001F7F003F4F7F0000134C00262F4C000009260013172600007FFF007FBFFF000052A500527CA500003F7F003F5F7F0000264C0026394C0000132600131C260000BFFF007FDFFF00007CA5005291A500005F7F003F6F7F0000394C0026424C00001C26001321260000FFFF007FFFFF0000A5A50052A5
310
A500007F7F003F7F7F00004C4C00264C4C00002626001326260000FFBF007FFFDF0000A57C0052A59100007F5F003F7F6F00004C3900264C420000261C001326210000FF7F007FFFBF0000A5520052A57C00007F3F003F7F5F00004C2600264C39000026130013261C0000FF3F007FFF9F0000A5290052A56700007F1F003F
310
7F4F00004C1300264C2F00002609001326170000FF00007FFF7F0000A5000052A55200007F00003F7F3F00004C0000264C260000260000132613003FFF00009FFF7F0029A5000067A552001F7F00004F7F3F00134C00002F4C260009260000172613007FFF0000BFFF7F0052A500007CA552003F7F00005F7F3F00264C0000
310
394C2600132600001C261300BFFF0000DFFF7F007CA5000091A552005F7F00006F7F3F00394C0000424C26001C26000021261300FFFF0000FFFF7F00A5A50000A5A552007F7F00007F7F3F004C4C00004C4C26002626000026261300FFBF0000FFDF7F00A57C0000A59152007F5F00007F6F3F004C3900004C422600261C00
310
0026211300FF7F0000FFBF7F00A5520000A57C52007F3F00007F5F3F004C2600004C39260026130000261C1300FF3F0000FF9F7F00A5290000A56752007F1F00007F4F3F004C1300004C2F26002609000026171300FF000000FF7F7F00A5000000A55252007F0000007F3F3F004C0000004C2626002600000026131300FF00
310
3F00FF7F9F00A5002900A55267007F001F007F3F4F004C0013004C262F002600090026131700FF007F00FF7FBF00A5005200A5527C007F003F007F3F5F004C0026004C2639002600130026131C00FF00BF00FF7FDF00A5007C00A55291007F005F007F3F6F004C0039004C26420026001C0026132100FF00FF00FF7FFF00A5
310
00A500A552A5007F007F007F3F7F004C004C004C264C002600260026132600BF00FF00DF7FFF007C00A5009152A5005F007F006F3F7F0039004C0042264C001C002600211326007F00FF00BF7FFF005200A5007C52A5003F007F005F3F7F0026004C0039264C00130026001C1326003F00FF009F7FFF002900A5006752A500
310
1F007F004F3F7F0013004C002F264C000900260017132600000000002D2D2D005B5B5B0089898900B7B7B700B3B3B30000000000000000000000000000000000000000000000000000000000000000000000000000000000000000000000000000000000000000000000000000000000000000000000000000000000000000
310
00000000000000000000000000000000000000000000000000000000000000000000000000000000000000000000000000000000000000000000000000000000000000000000000000000000000000000000000000000000000000000000000000000000000000000000000000000000000000000000000000000000000000
310
00000000000000000000000000000000000000000000000000000000000000000000000000000000000000000000000000000000000000000000000000000000000000000000000000000000000000000000000000000000000000000000000000000000000000000000000000000000000000000000000000000000000000
310
00000000000000000000000000000000000000000000000000000000000000000000000000000000000000000000000000000000000000000000000000000000000000000000000000000000000000000000000000000000000000000000000000000000000000000000000000000000000000000000000000000000000000
310
00000000000000000000000000000000000000000000000000000000000000000000000000000000000000000000000000000000000000000000000000000000000000000000000000000000000000000000000000000000000000000000000000000000000000000000000000000000000000000000000000000000000000
310
00000000000000000000000000000000000000000000000000000707070707070707070700000000000000000000000000000000000000000000000000000000000000000000000000000000000000000000000000000000000000000000000000000000000000000000000000000000000000000000000000000000000000
310
00000000000000000000000000000000000000000000000000000000000000000000000000000000000000000000000000000000000000000000000000000000000000000000000000000000000000070000000000000000070000000000000000000000000000000000000000000000000000000000000000000000000000
310
00000000000000000000000000000000000000000000000000000000000000000000000000000000000000000000000000000000000000000000000000000000000000000000000000000000000000000000000000000000000000000000000000000000000000000000000000000000000000000000000000000000000000
310
00000000000700000000000000000700000000000000000000000000000000000000000000000000000000000000000000000000000000000000000000000000000000000000000000000000000000000000000000000000000000000000000000000000000000000000000000000000000000000000000000000000000000
310
00000000000000000000000000000000000000000000000000000000000000000000000000000000000000000000000000000000000000000000070000000000000000070000000000000000000000000000000000000000000000000000000000000000000000000000000000000000000000000000000000000000000000
310
00000000000000000000000000000000000000000000000000000000000000000000000000000000000000000000000000000000000000000000000000000000000000000000000000000000000000000000000000000000000000000000000000000000000000000000000000000007000000000000000007000000000000
310
00000000000000000007070700000000000000000000000000000000000000000000000000000000000000000000000000000000000000000000000000000000000000000000000000000000000000000000000000000000000000000000000000000000000000000000000000000000000000000000000000000000000000
310
00000000000000000000000000000000000000000000000000000000000000000000000000070000000000000000070000000000000000000000000000000700070000000000000000000000000000000000000000000000000000000000000000000000000000000000000000000000000000000000000000000000000000
310
00000000000000000000000000000000000000000000000000000000000000000000000000000000000000000000000000000000000000000000000000000000000000000000000000000000000000000000000000000000000007000000000000000007000000000000000000000000000000070007000000000000000000
310
00000000000000000000000000000000000000000000000000000000000000000000000000000000000000000000000000000000000000000000000000000000000000000000000000000000000000000000000000000000000000000000000000000000000000000000000000000000000000000000000000000000000000
310
00000000000000000000000000000000070000000000000000070000000000000000000000000000000700070000000000000000000000000000000000000000000000000000000000000000000000000000000000000000000000000000000000000000000000000000000000000000000000000000000000000000000000
310
00000000000000000000000000000000000000000000000000000000000000000000000000000000000000000000000000000000000000000000000000000000000000000007000000000000000007000000000000000000000000000000070007000000000000000000000000000000000000000000000000000000000000
310
00000000000000000000000000000000000000000000000000000000000000000000000000000000000000000000000000000000000000000000000000000000000000000000000000000000000000000000000000000000000000000000000000000000000000000000000000000000000000000000000000000700000000
310
00000000070000000000000000000000000000000700070000000000000000000000000000000000000000000000000000000000000000000000000000000000000000000000000000000000000000000000000000000000000000000000000000000000000000000000000000000000000000000000000000000000000000
310
00000000000000000000000000000000000000000000000000000000000000000000000000000000000000000000000007000000000000000007000000000000000000000000000000070007000000000000000000000000070707070707070707070707070707070707070000000000000000000000000000000000000000
310
00000000000000000000000000000000000000000000000000000000000000000000000000000000000000000000000000000000000000000000000000000000000000000000000000000000070707070707070707070707070707070707070707070707000700000000000000000707070707070707070707070707070707
310
00070707070707070707070707070707070707070707070707070707070707070707000000000000000000000000000000000000000000000000000000000000000000000000000000000000000000000000000000000000000000000000000000000000000000000000000000000000000000000000000000000000000000
310
00000700000000000000000000000000000000000000000000070707000000000000000007000000000000000000000000000000070007000000000000000000000000000000070707070707070707070707000000000700000000000000000000000000000000000000000000000000000000000000000000000000000000
310
00000000000000000000000000000000000000000000000000000000000000000000000000000000000000000000000000000000000000070000000000000000000000000000000000000000000007000700000000000000000700000000000000000000000000000007000700000000000000000000000000000000000000
310
00000000000000000000000007000000000000000000000000000000000000000000000000000000000000000000000000000000000000000000000000000000000000000000000000000000000000000000000000000000000000000000000000000000000000000000000007000000000000000000000000000000000000
310
00000000070007000000000000000007000000000000000000000000000000070007000000000000000000000000000000000000000000000000000000000000000700000000000000000000000000000000000000000000000000000000000000000000000000000000000000000000000000000000000000000000000000
310
00000000000000000000000000000000000000000000000000000000000000000000070000000000000000000000000000000000000000000007000700000000000000000700000000000000000000000000000007000700000000000000000000000000000000000000000000000000000000000000070000000000000000
310
00000000000000000000000000000000000000000000000000000000000000000000000000000000000000000000000000000000000000000000000000000000000000000000000000000000000000000000000000000007000000000000000000000000000000000000000000000700070000000000000000070000000000
310
00000000000000000000070007000000000000000000000000000000000000000000000000000000000000000700000000000000000000000000000000000000000000000000000000000000000000000000000000000000000000000000000000000000000000000000000000000000000000000000000000000000000000
310
00000000000000000000000000070000000000000000000000000000000000000000000007000700000000000000000700000000000000000000000000000007000700000000000000000000000000000000000000000000000000000000000000070000000000000000000000000000000000000000000000000000000000
310
00000000000000000000000000000000000000000000000000000000000000000000000000000000000000000000000000000000000000000000000000000000000007000000000000000000000000000000000000000000000700070000000000000000070000000000000000000000000000000700070000000000000000
310
00000000000000000000000000000000000000000000000700000000000000000000000000000000000000000000000000000000000000000000000000000000000000000000000000000000000000000000000000000000000000000000000000000000000000000000000000000000000000000000000700000000000000
310
00000000000000000000000000000007000700000000000000000700000000000000000000000000000007000700000000000000000000000000000000000000000000000000000000000000070000000000000000000000000000000000000000000000000000000000000000000000000000000000000000000000000000
310
00000000000000000000000000000000000000000000000000000000000000000000000000000000000000000007000000000000000000000000000000000000000000000700070000000000000000070000000000000000000000000000000700070000000000000000000000000000000000000000000000000000000000
310
00000700000000000000000000000000000000000000000000000000000000000000000000000000000000000000000000000000000000000000000000000000000000000000000000000000000000000000000000000000000000000000000000000700000000000000000000000000000000000000000000070007000000
310
00000000000700000000000000000000000000000007000700000000000000000000000000000000000000000000000000000000000000070000000000000000000000000000000000000000000000000000000000000000000000000000000000000000000000000000000000000000000000000000000000000000000000
310
00000000000000000000000000000000000000000000000007000000000000000000000000000000000000000000000700070000000000000000070000000000000000000000000000000700070000000000000000000000000000000000000000000000000000000000000007000000000000000000000000000000000000
310
00000000000000000000000000000000000000000000000000000000000000000000000000000000000000000000000000000000000000000000000000000000000000000000000000000000000700000000000000000000000000000000000000000000070007000000000000000007000000000000000000000000000000
310
07000700000000000000000000000000000000000000000000000000000000000000070000000000000000000000000000000000000000000000000000000000000000000000000000000000000000000000000000000000000000000000000000000000000000000000000000000000000000000000000000000000000000
310
00000007000000000000000000000000000000000000000000000700070000000000000000070000000000000000000000000000000700070000000000000000000000000000000000000000000000000000000000000007000000000000000000000000000000000000000000000000000000000000000000000000000000
310
00000000000000000000000000000000000000000000000000000000000000000000000000000000000000000000000000000000000000000700000000000000000000000000000000000000000000070007000000000000000007000000000000000000000000000000070007000000000000000000000000000000000000
310
00000000000000000000000000070000000000000000000000000000000000000000000000000000000000000000000000000000000000000000000000000000000000000000000000000000000000000000000000000000000000000000000000000000000000000000000000070000000000000000000000000000000000
310
00000000000700070000000000000000070000000000000000000000000000000700070000000000000000000000000000000000000000000000000000000000000007000000000000000000000000000000000000000000000000000000000000000000000000000000000000000000000000000000000000000000000000
310
00000000000000000000000000000000000000000000000000000000000000000000000700000000000000000000000000000000000000000000070007000000000000000007000000000000000000000000000000070707000000000000000000000000000000000000000000000000000000000000000700000000000000
310
00000000000000000000000000000000000000000000000000000000000000000000000000000000000000000000000000000000000000000000000000000000000000000000000000000000000000000000000000000000070000000000000000000000000000000000000000000007000700000000000000000700000000
310
00000000000000000000000700070000000000000000000000000000000000000000000000000000000000000007000000000000000000000000000000000000000000000000000000000000000000000000000000000000000000000000000000000000000000000000000000000000000000000000000000000000000000
310
00000000000000000000000000000700000000000000000000000000000000000000000000070007000000000000000007000000000000000000000000000000070007000000000000000000000000000000000000000007070000000000000000000700000000000000000000000000000000000000000000000000000000
310
00000000000000000000000000000000000000000000000000000000000000000000000000000000000000000000000000000000000000000000000000000000000000070000000000000000000000000000000000000000000007000700000000000000000700000000000000000000000000000007000700000000000000
310
00000000000000000000000707000007070000000000000007000000000000000000000000000000000000000000000000000000000000000000000000000000000000000000000000000000000000000000000000000000000000000000000000000000000000000000000000000000000000000000000007000000000000
310
00000000000000000000000000000000070007000000000000000007000000000000000000000000000000070007000000000000000000000000000000000707000707070707070700000000000700000000000000000000000000000000000000000000000000000000000000000000000000000000000000000000000000
310
00000000000000000000000000000000000000000000000000000000000000000000000000000000000000000000070000000000000000000000000000000000000000000007000700000000000000000700000000000000000000000000000007000700000000000000000000000000000707000707070707070007070707
310
00000007000000000000000000000000000000000000000000000000000000000000000000000000000000000000000000000000000000000000000000000000000000000000000000000000000000000000000000000000000000000000000000000007000000000000000000000000000000000000000000000700070000
310
00000000000007000000000000000000000000000000070007000000000000000000000000000700070707070000000007070007000700000700000000000000000000000000000000000000000000000000000000000000000000000000000000000000000000000000000000000000000000000000000000000000000000
310
00000000000000000000000000000000000000000000000000070000000000000000000000000000000000000000000007000700000000000000000700000000000000000000000000000007000700000000000000000000000000070700070000000000000000070007000700070000000000000000000000000000000000
310
00000000000000000000000000000000000000000000000000000000000000000000000000000000000000000000000000000000000000000000000000000000000000000000000000000000000007000000000000000000000000000000000000000000000707070000000000000000070000000000000000000000000000
310
00070007000000000000000000000000070007070000000000000000000007070707000700000000000000000000000000000000000000000000000000000000000000000000000000000000000000000000000000000000000000000000000000000000000000000000000000000000000000000000000000000000000000
310
00000000070000000000000000000000000707070707070707070707000700000000000000000700000000000000000000000000000007000700000000000000000000000007070700000000000000000000000007070007070000000000000000000000000000000000000000000000000000000000000000000000000000
310
00000000000000000000000000000000000000000000000000000000000000000000000000000000000000000000000000000000000000000007000000000000000707070707070000000700000000000000070000000000000000070000000000000000000000000000000700070000000000000000000000000707070000
310
00000000000000000000070700070700000000000000000000000000000000000000000000000000000000000000000000000000000000000000000000000000000000000000000000000000000000000000000000000000000000000000000000000000000000000000000000000700000707070707000000000007070707
310
07000000000000000700000000000000000700000000000000000000000000000007000700000000000000000000000007070700000000000000000000000007070007070000000000000000000000000000000000000000000000000000000000000000000000000000000000000000000000000000000000000000000000
310
00000000000000000000000000000000000000000000000000000000000000000000000007070700000000000000000000000000000000000000000000070000000000000000070000000000000000000000000000000700070000000000000000000000000707070000000000000000000000000000000007000000000000
310
00000000000000000000000000000000000000000000000000000000000000000000000000000000000000000000000000000000000000000000000000000000000000000000000000000000000000000000000000000000000000000000000000000000000000000000000000000000000007000000000000000007000000
310
00000000000000000000000007000700000000000000000000000007070700000000000000000000000007070007070000000000000000000000000000000000000000000000000000000000000000000000000000000000000000000000000000000000000000000000000000000000000000000000000000000000000000
310
00000000000000000000000000000000000000000000000000000000000000000000000000000000070000000000000000070000000000000000000000000000000700070000000000000000000000000707070000000000000000000000000707000707000000000000000000000000000000000000000000000000000000
310
00000000000000000000000000000000000000000000000000000000000000000000000000000000000000000000000000000000000000000000000000000000000000000000000000000000000000000000000000000000000000000007000000000000000007000000000000000000000000000000070007000000000000
310
00000000000007000707000000000000000000000007070700070000000000000000000000000000000000000000000000000000000000000000000000000000000000000000000000000000000000000000000000000000000000000000000000000000000000000000000000000000000000000000000000000000000000
310
00000000000000000000000000000000000000070000000000000000070000000000000000000000000000000700070000000000000000000000000007070007000000000000000007070700070007000000000000000000000000000000000000000000000000000000000000000000000000000000000000000000000000
310
00000000000000000000000000000000000000000000000000000000000000000000000000000000000000000000000000000000000000000000000000000000000000000000000007000000000000000007000000000000000000000000000000070007000000000000000000000000000700070007000000000000070007
310
00070000070000000000000000000000000000000000000000000000000000000000000000000000000000000000000000000000000000000000000000000000000000000000000000000000000000000000000000000000000000000000000000000000000000000000000000000000000000000000000000000000000700
310
00000000000000070000000000000000000000000000000700070000000000000000000000000000070007070707070707070007000700000007000000000000000000000000000000000000000000000000000000000000000000000000000000000000000000000000000000000000000000000000000000000000000000
310
00000000000000000000000000000000000000000000000000000000000000000000000000000000000000000000000000000007000000000000000007000000000000000000000000000000070007000000000000000000000000000000070700070707070707070707000000000700000000000000000000000000000000
310
00000000000000000000000000000000000000000000000000000000000000000000000000000000000000000000000000000000000000000000000000000000000000000000000000000000000000000000000000000000000000000000000000000000000000000700000000000000000700000000000000000000000000
310
00000700070000000000000000000000000000000000070707000000070700000000000007000000000000000000000000000000000000000000000000000000000000000000000000000000000000000000000000000000000000000000000000000000000000000000000000000000000000000000000000000000000000
310
00000000000000000000000000000000000000000000000000000000000007000000000000000007000000000000000000000000000000070007000000000000000000000000000000000000000007070700000000000000000700000000000000000000000000000000000000000000000000000000000000000000000000
310
00000000000000000000000000000000000000000000000000000000000000000000000000000000000000000000000000000000000000000000000000000000000000000000000000000000000000000000000700000000000000000700000000000000000000000000000007000700000000000000000000000000000000
310
00000000000000000000000000000007000000000000000000000000000000000000000000000000000000000000000000000000000000000000000000000000000000000000000000000000000000000000000000000000000000000000000000000000000000000000000000000000000000000000000007070707070707
310
07070707070707070707000000000000000007000000000000000000000000000000070707000000000000000000000000000000000000000000000000000000000000000700000000000000000000000000000000000000000000000000000000000000000000000000000000000000000000000000000000000000000000
310
00000000000000000000000000000000000000000000000000000000000000000000000000000000000000000000070000000000000000000000000000070700000000000000000700000000000000000000000000000007000700000000000000000000000000000000000000000000000000000000000000070000000000
310
00000000000000000000000000000000000000000000000000000000000000000000000000000000000000000000000000000000000000000000000000000000000000000000000000000000000000000000000000000000000000000000000000000007000000000000000000000000000007070000000000000000070000
310
00000000000000000000000000070007000000000000000000000000000000000000000000000000000000000000000700000000000000000000000000000000000000000000000000000000000000000000000000000000000000000000000000000000000000000000000000000000000000000000000000000000000000
310
00000000000000000000000000000000000000000000000000070000000000000000000000000000070700000000000000000700000000000000000000000000000007000700000000000000000000000000000000000000000000000000000000000000070000000000000000000000000000000000000000000000000000
310
00000000000000000000000000000000000000000000000000000000000000000000000000000000000000000000000000000000000000000000000000000000000000000000000000000000000007000000000000000000000000000007070000000000000000070000000000000000000000000000000700070000000000
310
00000000000000000000000000000000000000000000000000000700000000000000000000000000000000000000000000000000000000000000000000000000000000000000000000000000000000000000000000000000000000000000000000000000000000000000000000000000000000000000000000000000000000
310
00000000070000000000000000000000000000070700000000000000000700000000000000000000000000000007000700000000000000000000000000000000000000000000000000000000000000070000000000000000000000000000000000000000000000000000000000000000000000000000000000000000000000
310
00000000000000000000000000000000000000000000000000000000000000000000000000000000000000000000000000000000000000000007000000000000000000000000000007070000000000000000070000000000000000000000000000000700070000000000000000000000000000000000000000000000000000
310
00000000000700000000000000000000000000000000000000000000000000000000000000000000000000000000000000000000000000000000000000000000000000000000000000000000000000000000000000000000000000000000000000000000000000000000000000000700000000000000000000000000000707
310
00000000000000000700000000000000000000000000000007000700000000000000000000000000000000000000000000000000000000000000070000000000000000000000000000000000000000000000000000000000000000000000000000000000000000000000000000000000000000000000000000000000000000
310
00000000000000000000000000000000000000000000000000000000000000000000000007000000000000000000000000000007070000000000000000070000000000000000000000000000000700070000000000000000000000000000000000000000000000000000000000000007000000000000000000000000000000
310
00000000000000000000000000000000000000000000000000000000000000000000000000000000000000000000000000000000000000000000000000000000000000000000000000000000000000000000000000000000000700000000000000000000000000000707000000000000000007000000000000000000000000
310
00000007000700000000000000000000000000000000000000000000000000000000000000070000000000000000000000000000000000000000000000000000000000000000000000000000000000000000000000000000000000000000000000000000000000000000000000000000000000000000000000000000000000
310
00000000000000000000000000000007000000000000000000000000000007070000000000000000070000000000000000000000000000000700070000000000000000000000000000000000000000000000000000000000000007000000000000000000000000000000000000000000000000000000000000000000000000
310
00000000000000000000000000000000000000000000000000000000000000000000000000000000000000000000000000000000000000000000000000000000000000000700000000000000000000000000000707000000000000000007000000000000000000000000000000070007000000000000000000000000000000
310
00000000000000000000000000000000070000000000000000000000000000000000000000000000000000000000000000000000000000000000000000000000000000000000000000000000000000000000000000000000000000000000000000000000000000000000000000000000000000000000000000070000000000
310
00000000000000000007070000000000000000070000000000000000000000000000000700070000000000000000000000000000000000000000000000000000000000000007000000000000000000000000000000000000000000000000000000000000000000000000000000000000000000000000000000000000000000
310
00000000000000000000000000000000000000000000000000000000000000000000000000000000000000000000000700000000000000000000000007070707000000000000000007000000000000000000000000000000070007000000000000000000000000000000000000000000000000000000000000000700000000
310
00000000000000000000000000000000000000000000000000000000000000000000000000000000000000000000000000000000000000000000000000000000000000000000000000000000000000000000000000000000000000000000000000000000070000000707070707070707070000070700000000000000000700
310
00000000000000000000000000000700070000000000000000000000000000000000000000000000000000000000000007000000000000000000000000000000000000000000000000000000000000000000000000000000000000000000000000000000000000000000000000000000000000000000000000000000000000
310
00000000000000000000000000000000000000000000000000000707070700000000000000000000000007000000000000000007000000000000000000000000000000070007000000000000000000000000000000000707070707070707070700000000000700000000000000000000000000000000000000000000000000
310
00000000000000000000000000000000000000000000000000000000000000000000000000000000000000000000000000000000000000000000000000000000000000000000000000000000000000000000000000000000000000000000000700000000000000000707070707070707070707070707070707000707070707
310
07070707070707070707070707070707070707070707070707070707000000000000000000000000000000000000000000000000000000000000000000000000000000000000000000000000000000000000000000000000000000000000000000000000000000000000000000000000000000000000000000000000000000
310
00000000000000000000000000000000000000000007000000000000000007000000000000000000000000000000070007000000000000000000000000070707070707070707070707070707070707070000000000000000000000000000000000000000000000000000000000000000000000000000000000000000000000
310
00000000000000000000000000000000000000000000000000000000000000000000000000000000000000000000000000000000000000000000000000000000000000000000000000000700000000000000000700000000000000000000000000000007000700000000000000000000000000000000000000000000000000
310
00000000000000000000000000000000000000000000000000000000000000000000000000000000000000000000000000000000000000000000000000000000000000000000000000000000000000000000000000000000000000000000000000000000000000000000000000000000000000000000000000000000000000
310
07000000000000000007000000000000000000000000000000070007000000000000000000000000000000000000000000000000000000000000000000000000000000000000000000000000000000000000000000000000000000000000000000000000000000000000000000000000000000000000000000000000000000
310
00000000000000000000000000000000000000000000000000000000000000000000000000000000000000000000000000000000000700000000000000000700000000000000000000000000000007000700000000000000000000000000000000000000000000000000000000000000000000000000000000000000000000
310
00000000000000000000000000000000000000000000000000000000000000000000000000000000000000000000000000000000000000000000000000000000000000000000000000000000000000000000000000000000000000000000000000000000000000000000070000000000000000070000000000000000000000
310
00000000070007000000000000000000000000000000000000000000000000000000000000000000000000000000000000000000000000000000000000000000000000000000000000000000000000000000000000000000000000000000000000000000000000000000000000000000000000000000000000000000000000
310
00000000000000000000000000000000000000000000000000000000000000000700000000000000000700000000000000000000000000000007000700000000000000000000000000000000000000000000000000000000000000000000000000000000000000000000000000000000000000000000000000000000000000
310
00000000000000000000000000000000000000000000000000000000000000000000000000000000000000000000000000000000000000000000000000000000000000000000000000000000000000000000000000070000000000000000070000000000000000000000000000000707070000000000000000000000000000
310
00000000000000000000000000000000000000000000000000000000000000000000000000000000000000000000000000000000000000000000000000000000000000000000000000000000000000000000000000000000000000000000000000000000000000000000000000000000000000000000000000000000000000
310
00000000000000000000000700000000000000000700000000000000000000000000000000000000000000000000000000000000000000000000000000000000000000000000000000000000000000000000000000000000000000000000000000000000000000000000000000000000000000000000000000000000000000
310
00000000000000000000000000000000000000000000000000000000000000000000000000000000000000000000000000000000000000000000000000000000070000000000000000070000000000000000000000000000000000000000000000000000000000000000000000000000000000000000000000000000000000
310
00000000000000000000000000000000000000000000000000000000000000000000000000000000000000000000000000000000000000000000000000000000000000000000000000000000000000000000000000000000000000000000000000000000000000000000000000000000000000000007000000000000000007
310
00000000000000000000000000000000000000000000000000000000000000000000000000000000000000000000000000000000000000000000000000000000000000000000000000000000000000000000000000000000000000000000000000000000000000000000000000000000000000000000000000000000000000
310
00000000000000000000000000000000000000000000000000000000000000000000000000000000000000070707070707070707070000000000000000000000000000000000000000000000000000000000000000000000000000000000000000000000000000000000000000000000000000000000000000000000000000
310
00000000000000000000000000000000000000000000000000000000000000000000000000000000000000000000000000000000000000000000000000000000000000000000000000000000000000000000000000000000000000000000000000000000000000000000000000000000000000000000000000000000000000
310
00000000000000000000000000000000000000000000000000000000000000000000000000000000000000000000000000000000000000000000000000000000000000000000000000000000000000000000000000000000000000000000000000000000000000000000000000000000000000000000000000000000000000
310
00000000000000000000000000000000000000000000000000000000000000000000000000000000000000000000000000000000000000000000000000000000000000000000000000000000000000000000000000000000000000000000000000000000000000000000000000000000000000000000000000000000000000
310
00000000000000000000000000000000000000000000000000000000000000000000000000000000000000000000000000000000000000000000000000000000000000000000000000000000000000000000000000000000000000000000000000000000000000000000000000000000000000000000000000000000000000
310
00000000000000000000000000000000000000000000000000000000000000000000000000000000000000000000000000000000000000000000000000000000000000000000000000000000000000000000000000000000000000000000000000000000000000000000000000000000000000000000000000000000000000
310
000000000000000000000000000000000000000000000000000000000000000000000000000000000000000000000000000000000000000000000000000000000000000000000000000000000000000000000000000000000000000000000000000000000000000000000000
  0
ENDSEC
  0
EOF
