  0
SECTION
  2
HEADER
  9
$ACADVER
  1
AC1015
  9
$ACADMAINTVER
 70
     6
  9
$DWGCODEPAGE
  3
ANSI_1252
  9
$INSBASE
 10
0.0
 20
0.0
 30
0.0
  9
$EXTMIN
 10
31.75
 20
0.0
 30
0.0
  9
$EXTMAX
 10
201.75
 20
183.0
 30
0.0
  9
$LIMMIN
 10
0.0
 20
0.0
  9
$LIMMAX
 10
12.0
 20
9.0
  9
$ORTHOMODE
 70
     0
  9
$REGENMODE
 70
     1
  9
$FILLMODE
 70
     1
  9
$QTEXTMODE
 70
     0
  9
$MIRRTEXT
 70
     1
  9
$LTSCALE
 40
1.0
  9
$ATTMODE
 70
     1
  9
$TEXTSIZE
 40
0.2
  9
$TRACEWID
 40
0.05
  9
$TEXTSTYLE
  7
Standard
  9
$CLAYER
  8
0
  9
$CELTYPE
  6
ByBlock
  9
$CECOLOR
 62
   256
  9
$CELTSCALE
 40
1.0
  9
$DISPSILH
 70
     0
  9
$DIMSCALE
 40
1.0
  9
$DIMASZ
 40
0.18
  9
$DIMEXO
 40
0.0625
  9
$DIMDLI
 40
0.38
  9
$DIMRND
 40
0.0
  9
$DIMDLE
 40
0.0
  9
$DIMEXE
 40
0.18
  9
$DIMTP
 40
0.0
  9
$DIMTM
 40
0.0
  9
$DIMTXT
 40
0.18
  9
$DIMCEN
 40
0.09
  9
$DIMTSZ
 40
0.0
  9
$DIMTOL
 70
     0
  9
$DIMLIM
 70
     0
  9
$DIMTIH
 70
     1
  9
$DIMTOH
 70
     1
  9
$DIMSE1
 70
     0
  9
$DIMSE2
 70
     0
  9
$DIMTAD
 70
     0
  9
$DIMZIN
 70
     0
  9
$DIMBLK
  1

  9
$DIMASO
 70
     1
  9
$DIMSHO
 70
     1
  9
$DIMPOST
  1

  9
$DIMAPOST
  1

  9
$DIMALT
 70
     0
  9
$DIMALTD
 70
     2
  9
$DIMALTF
 40
25.4
  9
$DIMLFAC
 40
1.0
  9
$DIMTOFL
 70
     0
  9
$DIMTVP
 40
0.0
  9
$DIMTIX
 70
     0
  9
$DIMSOXD
 70
     0
  9
$DIMSAH
 70
     0
  9
$DIMBLK1
  1

  9
$DIMBLK2
  1

  9
$DIMSTYLE
  2
Standard
  9
$DIMCLRD
 70
     0
  9
$DIMCLRE
 70
     0
  9
$DIMCLRT
 70
     0
  9
$DIMTFAC
 40
1.0
  9
$DIMGAP
 40
0.09
  9
$DIMJUST
 70
     0
  9
$DIMSD1
 70
     0
  9
$DIMSD2
 70
     0
  9
$DIMTOLJ
 70
     1
  9
$DIMTZIN
 70
     0
  9
$DIMALTZ
 70
     0
  9
$DIMALTTZ
 70
     0
  9
$DIMUPT
 70
     0
  9
$DIMDEC
 70
     4
  9
$DIMTDEC
 70
     4
  9
$DIMALTU
 70
     2
  9
$DIMALTTD
 70
     2
  9
$DIMTXSTY
  7
Standard
  9
$DIMAUNIT
 70
     0
  9
$DIMADEC
 70
     0
  9
$DIMALTRND
 40
0.0
  9
$DIMAZIN
 70
     0
  9
$DIMDSEP
 70
    46
  9
$DIMATFIT
 70
     3
  9
$DIMFRAC
 70
     0
  9
$DIMLDRBLK
  1

  9
$DIMLUNIT
 70
     2
  9
$DIMLWD
 70
    -2
  9
$DIMLWE
 70
    -2
  9
$DIMTMOVE
 70
     2
  9
$LUNITS
 70
     2
  9
$LUPREC
 70
     4
  9
$SKETCHINC
 40
0.1
  9
$FILLETRAD
 40
0.5
  9
$AUNITS
 70
     0
  9
$AUPREC
 70
     0
  9
$MENU
  1
.
  9
$ELEVATION
 40
0.0
  9
$PELEVATION
 40
0.0
  9
$THICKNESS
 40
0.0
  9
$LIMCHECK
 70
     0
  9
$CHAMFERA
 40
0.5
  9
$CHAMFERB
 40
0.5
  9
$CHAMFERC
 40
1.0
  9
$CHAMFERD
 40
0.0
  9
$SKPOLY
 70
     0
  9
$TDCREATE
 40
2456183.622706158
  9
$TDUCREATE
 40
2456183.539372824
  9
$TDUPDATE
 40
2456183.628281609
  9
$TDUUPDATE
 40
2456183.544948276
  9
$TDINDWG
 40
0.0055752778
  9
$TDUSRTIMER
 40
0.0055752778
  9
$USRTIMER
 70
     1
  9
$ANGBASE
 50
0.0
  9
$ANGDIR
 70
     0
  9
$PDMODE
 70
     0
  9
$PDSIZE
 40
0.0
  9
$PLINEWID
 40
0.0
  9
$SPLFRAME
 70
     0
  9
$SPLINETYPE
 70
     6
  9
$SPLINESEGS
 70
     8
  9
$HANDSEED
  5
54F
  9
$SURFTAB1
 70
     6
  9
$SURFTAB2
 70
     6
  9
$SURFTYPE
 70
     6
  9
$SURFU
 70
     6
  9
$SURFV
 70
     6
  9
$UCSBASE
  2

  9
$UCSNAME
  2

  9
$UCSORG
 10
0.0
 20
0.0
 30
0.0
  9
$UCSXDIR
 10
1.0
 20
0.0
 30
0.0
  9
$UCSYDIR
 10
0.0
 20
1.0
 30
0.0
  9
$UCSORTHOREF
  2

  9
$UCSORTHOVIEW
 70
     0
  9
$UCSORGTOP
 10
0.0
 20
0.0
 30
0.0
  9
$UCSORGBOTTOM
 10
0.0
 20
0.0
 30
0.0
  9
$UCSORGLEFT
 10
0.0
 20
0.0
 30
0.0
  9
$UCSORGRIGHT
 10
0.0
 20
0.0
 30
0.0
  9
$UCSORGFRONT
 10
0.0
 20
0.0
 30
0.0
  9
$UCSORGBACK
 10
0.0
 20
0.0
 30
0.0
  9
$PUCSBASE
  2

  9
$PUCSNAME
  2

  9
$PUCSORG
 10
0.0
 20
0.0
 30
0.0
  9
$PUCSXDIR
 10
1.0
 20
0.0
 30
0.0
  9
$PUCSYDIR
 10
0.0
 20
1.0
 30
0.0
  9
$PUCSORTHOREF
  2

  9
$PUCSORTHOVIEW
 70
     0
  9
$PUCSORGTOP
 10
0.0
 20
0.0
 30
0.0
  9
$PUCSORGBOTTOM
 10
0.0
 20
0.0
 30
0.0
  9
$PUCSORGLEFT
 10
0.0
 20
0.0
 30
0.0
  9
$PUCSORGRIGHT
 10
0.0
 20
0.0
 30
0.0
  9
$PUCSORGFRONT
 10
0.0
 20
0.0
 30
0.0
  9
$PUCSORGBACK
 10
0.0
 20
0.0
 30
0.0
  9
$USERI1
 70
     0
  9
$USERI2
 70
     0
  9
$USERI3
 70
     0
  9
$USERI4
 70
     0
  9
$USERI5
 70
     0
  9
$USERR1
 40
0.0
  9
$USERR2
 40
0.0
  9
$USERR3
 40
0.0
  9
$USERR4
 40
0.0
  9
$USERR5
 40
0.0
  9
$WORLDVIEW
 70
     1
  9
$SHADEDGE
 70
     3
  9
$SHADEDIF
 70
    70
  9
$TILEMODE
 70
     1
  9
$MAXACTVP
 70
    64
  9
$PINSBASE
 10
0.0
 20
0.0
 30
0.0
  9
$PLIMCHECK
 70
     0
  9
$PEXTMIN
 10
1.000000000000E+20
 20
1.000000000000E+20
 30
1.000000000000E+20
  9
$PEXTMAX
 10
-1.000000000000E+20
 20
-1.000000000000E+20
 30
-1.000000000000E+20
  9
$PLIMMIN
 10
0.0
 20
0.0
  9
$PLIMMAX
 10
12.0
 20
9.0
  9
$UNITMODE
 70
     0
  9
$VISRETAIN
 70
     1
  9
$PLINEGEN
 70
     0
  9
$PSLTSCALE
 70
     1
  9
$TREEDEPTH
 70
  3020
  9
$CMLSTYLE
  2
Standard
  9
$CMLJUST
 70
     0
  9
$CMLSCALE
 40
1.0
  9
$PROXYGRAPHICS
 70
     1
  9
$MEASUREMENT
 70
     0
  9
$CELWEIGHT
370
    -1
  9
$ENDCAPS
280
     0
  9
$JOINSTYLE
280
     0
  9
$LWDISPLAY
290
     0
  9
$INSUNITS
 70
     0
  9
$HYPERLINKBASE
  1

  9
$STYLESHEET
  1

  9
$XEDIT
290
     1
  9
$CEPSNTYPE
380
     0
  9
$PSTYLEMODE
290
     1
  9
$FINGERPRINTGUID
  2
{3D6627D8-01FE-41CB-BB14-D3EBCA992849}
  9
$VERSIONGUID
  2
{FAEB1C32-E019-11D5-929B-00C0DF256EC4}
  9
$EXTNAMES
290
     1
  9
$PSVPSCALE
 40
0.0
  9
$OLESTARTUP
290
     0
  0
ENDSEC
  0
SECTION
  2
CLASSES
  0
CLASS
  1
ACDBDICTIONARYWDFLT
  2
AcDbDictionaryWithDefault
  3
ObjectDBX Classes
 90
        0
280
     0
281
     0
  0
CLASS
  1
SCALE
  2
AcDbScale
  3
ObjectDBX Classes
 90
     1153
280
     0
281
     0
  0
CLASS
  1
DICTIONARYVAR
  2
AcDbDictionaryVar
  3
ObjectDBX Classes
 90
        0
280
     0
281
     0
  0
CLASS
  1
ACDBPLACEHOLDER
  2
AcDbPlaceHolder
  3
ObjectDBX Classes
 90
        0
280
     0
281
     0
  0
CLASS
  1
LAYOUT
  2
AcDbLayout
  3
ObjectDBX Classes
 90
        0
280
     0
281
     0
  0
ENDSEC
  0
SECTION
  2
TABLES
  0
TABLE
  2
VPORT
  5
8
330
0
100
AcDbSymbolTable
 70
     1
  0
VPORT
  5
520
330
8
100
AcDbSymbolTableRecord
100
AcDbViewportTableRecord
  2
*Active
 70
     0
 10
0.0
 20
0.0
 11
1.0
 21
1.0
 12
100.875
 22
91.5
 13
0.0
 23
0.0
 14
0.5
 24
0.5
 15
0.5
 25
0.5
 16
0.0
 26
0.0
 36
1.0
 17
0.0
 27
0.0
 37
0.0
 40
186.66
 41
2.271724137931
 42
50.0
 43
0.0
 44
0.0
 50
0.0
 51
0.0
 71
    16
 72
   100
 73
     1
 74
     3
 75
     0
 76
     0
 77
     0
 78
     0
281
     0
 65
     1
110
0.0
120
0.0
130
0.0
111
1.0
121
0.0
131
0.0
112
0.0
122
1.0
132
0.0
 79
     0
146
0.0
  0
ENDTAB
  0
TABLE
  2
LTYPE
  5
5
330
0
100
AcDbSymbolTable
 70
     1
  0
LTYPE
  5
14
330
5
100
AcDbSymbolTableRecord
100
AcDbLinetypeTableRecord
  2
ByBlock
 70
     0
  3

 72
    65
 73
     0
 40
0.0
  0
LTYPE
  5
15
330
5
100
AcDbSymbolTableRecord
100
AcDbLinetypeTableRecord
  2
ByLayer
 70
     0
  3

 72
    65
 73
     0
 40
0.0
  0
LTYPE
  5
16
330
5
100
AcDbSymbolTableRecord
100
AcDbLinetypeTableRecord
  2
Continuous
 70
     0
  3
Solid line
 72
    65
 73
     0
 40
0.0
  0
ENDTAB
  0
TABLE
  2
LAYER
  5
2
330
0
100
AcDbSymbolTable
 70
     1
  0
LAYER
  5
10
330
2
100
AcDbSymbolTableRecord
100
AcDbLayerTableRecord
  2
0
 70
     0
 62
     7
  6
Continuous
370
    -3
390
F
  0
ENDTAB
  0
TABLE
  2
STYLE
  5
3
330
0
100
AcDbSymbolTable
 70
     1
  0
STYLE
  5
11
330
3
100
AcDbSymbolTableRecord
100
AcDbTextStyleTableRecord
  2
Standard
 70
     0
 40
0.0
 41
1.0
 50
0.0
 71
     0
 42
0.2
  3
txt
  4

  0
ENDTAB
  0
TABLE
  2
VIEW
  5
6
330
0
100
AcDbSymbolTable
 70
     0
  0
ENDTAB
  0
TABLE
  2
UCS
  5
7
330
0
100
AcDbSymbolTable
 70
     0
  0
ENDTAB
  0
TABLE
  2
APPID
  5
9
330
0
100
AcDbSymbolTable
 70
     1
  0
APPID
  5
12
330
9
100
AcDbSymbolTableRecord
100
AcDbRegAppTableRecord
  2
ACAD
 70
     0
  0
ENDTAB
  0
TABLE
  2
DIMSTYLE
  5
A
330
0
100
AcDbSymbolTable
 70
     1
100
AcDbDimStyleTable
  0
DIMSTYLE
105
20
330
A
100
AcDbSymbolTableRecord
100
AcDbDimStyleTableRecord
  2
Standard
 70
     0
340
11
  0
ENDTAB
  0
TABLE
  2
BLOCK_RECORD
  5
1
330
0
100
AcDbSymbolTable
 70
     0
  0
BLOCK_RECORD
  5
1D
330
1
100
AcDbSymbolTableRecord
100
AcDbBlockTableRecord
  2
*Model_Space
340
1E
  0
BLOCK_RECORD
  5
1B
330
1
100
AcDbSymbolTableRecord
100
AcDbBlockTableRecord
  2
*Paper_Space
340
1C
  0
ENDTAB
  0
ENDSEC
  0
SECTION
  2
BLOCKS
  0
BLOCK
  5
523
330
1D
100
AcDbEntity
  8
0
100
AcDbBlockBegin
  2
*Model_Space
 70
     0
 10
0.0
 20
0.0
 30
0.0
  3
*Model_Space
  1
*Model_Space
  0
ENDBLK
  5
524
330
1D
100
AcDbEntity
  8
0
100
AcDbBlockEnd
  0
BLOCK
  5
521
330
1B
100
AcDbEntity
 67
     1
  8
0
100
AcDbBlockBegin
  2
*Paper_Space
 70
     0
 10
0.0
 20
0.0
 30
0.0
  3
*Paper_Space
  1
*Paper_Space
  0
ENDBLK
  5
522
330
1B
100
AcDbEntity
 67
     1
  8
0
100
AcDbBlockEnd
  0
ENDSEC
  0
SECTION
  2
ENTITIES
  0
LINE
  5
21
330
1D
100
AcDbEntity
  8
0
100
AcDbLine
 10
94.5823
 20
0.449636
 30
0.0
 11
94.6854
 21
0.219697
 31
0.0
  0
LINE
  5
26
330
1D
100
AcDbEntity
  8
0
100
AcDbLine
 10
56.25
 20
75.0
 30
0.0
 11
56.25
 21
110.0
 31
0.0
  0
LINE
  5
3C
330
1D
100
AcDbEntity
  8
0
100
AcDbLine
 10
32.78161
 20
54.1782
 30
0.0
 11
33.27406
 21
54.0489
 31
0.0
  0
LINE
  5
3D
330
1D
100
AcDbEntity
  8
0
100
AcDbLine
 10
32.78161
 20
54.1782
 30
0.0
 11
33.27403
 21
54.0489
 31
0.0
  0
LINE
  5
3E
330
1D
100
AcDbEntity
  8
0
100
AcDbLine
 10
32.78164
 20
54.1782
 30
0.0
 11
33.27406
 21
54.0489
 31
0.0
  0
LINE
  5
3F
330
1D
100
AcDbEntity
  8
0
100
AcDbLine
 10
32.78164
 20
54.1782
 30
0.0
 11
33.27407
 21
54.0489
 31
0.0
  0
LINE
  5
41
330
1D
100
AcDbEntity
  8
0
100
AcDbLine
 10
33.27406
 20
54.0489
 30
0.0
 11
91.75
 21
54.0489
 31
0.0
  0
LINE
  5
42
330
1D
100
AcDbEntity
  8
0
100
AcDbLine
 10
33.27406
 20
54.0489
 30
0.0
 11
91.75
 21
54.0489
 31
0.0
  0
LINE
  5
46
330
1D
100
AcDbEntity
  8
0
100
AcDbLine
 10
32.416864
 20
54.5327
 30
0.0
 11
32.78161
 21
54.1782
 31
0.0
  0
LINE
  5
47
330
1D
100
AcDbEntity
  8
0
100
AcDbLine
 10
89.3852
 20
49.5525
 30
0.0
 11
94.5821
 21
0.449736
 31
0.0
  0
LINE
  5
48
330
1D
100
AcDbEntity
  8
0
100
AcDbLine
 10
89.3851
 20
49.5528
 30
0.0
 11
89.4138
 21
49.7154
 31
0.0
  0
LINE
  5
49
330
1D
100
AcDbEntity
  8
0
100
AcDbLine
 10
89.3851
 20
49.5528
 30
0.0
 11
89.4137
 21
49.7154
 31
0.0
  0
LINE
  5
4A
330
1D
100
AcDbEntity
  8
0
100
AcDbLine
 10
89.3851
 20
49.5528
 30
0.0
 11
94.5823
 21
0.449636
 31
0.0
  0
LINE
  5
4D
330
1D
100
AcDbEntity
  8
0
100
AcDbLine
 10
89.4137
 20
49.7154
 30
0.0
 11
89.5243
 21
49.8381
 31
0.0
  0
LINE
  5
4E
330
1D
100
AcDbEntity
  8
0
100
AcDbLine
 10
89.4138
 20
49.7154
 30
0.0
 11
89.5243
 21
49.8381
 31
0.0
  0
LINE
  5
50
330
1D
100
AcDbEntity
  8
0
100
AcDbLine
 10
32.274417
 20
55.0204
 30
0.0
 11
32.416894
 21
54.5327
 31
0.0
  0
LINE
  5
51
330
1D
100
AcDbEntity
  8
0
100
AcDbLine
 10
32.274409
 20
55.0205
 30
0.0
 11
32.416894
 21
54.5327
 31
0.0
  0
LINE
  5
5A
330
1D
100
AcDbEntity
  8
0
100
AcDbLine
 10
32.274379
 20
55.0204
 30
0.0
 11
32.416864
 21
54.5327
 31
0.0
  0
LINE
  5
63
330
1D
100
AcDbEntity
  8
0
100
AcDbLine
 10
31.75
 20
75.0
 30
0.0
 11
32.274417
 21
55.0204
 31
0.0
  0
LINE
  5
64
330
1D
100
AcDbEntity
  8
0
100
AcDbLine
 10
31.75
 20
75.0
 30
0.0
 11
32.274409
 21
55.0204
 31
0.0
  0
LINE
  5
65
330
1D
100
AcDbEntity
  8
0
100
AcDbLine
 10
41.894
 20
110.0
 30
0.0
 11
42.278
 21
110.0
 31
0.0
  0
LINE
  5
66
330
1D
100
AcDbEntity
  8
0
100
AcDbLine
 10
42.278
 20
110.0
 30
0.0
 11
42.918
 21
110.0
 31
0.0
  0
LINE
  5
67
330
1D
100
AcDbEntity
  8
0
100
AcDbLine
 10
42.918
 20
110.0
 30
0.0
 11
43.766
 21
110.0
 31
0.0
  0
LINE
  5
68
330
1D
100
AcDbEntity
  8
0
100
AcDbLine
 10
42.75
 20
110.0
 30
0.0
 11
47.75
 21
110.0
 31
0.0
  0
LINE
  5
69
330
1D
100
AcDbEntity
  8
0
100
AcDbLine
 10
42.75
 20
110.0
 30
0.0
 11
47.75
 21
110.0
 31
0.0
  0
LINE
  5
6A
330
1D
100
AcDbEntity
  8
0
100
AcDbLine
 10
43.75
 20
110.0
 30
0.0
 11
92.55
 21
110.0
 31
0.0
  0
LINE
  5
6B
330
1D
100
AcDbEntity
  8
0
100
AcDbLine
 10
43.766
 20
110.0
 30
0.0
 11
44.726
 21
110.0
 31
0.0
  0
LINE
  5
6C
330
1D
100
AcDbEntity
  8
0
100
AcDbLine
 10
45.75
 20
110.0
 30
0.0
 11
46.774
 21
110.0
 31
0.0
  0
LINE
  5
6D
330
1D
100
AcDbEntity
  8
0
100
AcDbLine
 10
44.726
 20
110.0
 30
0.0
 11
45.75
 21
110.0
 31
0.0
  0
LINE
  5
6E
330
1D
100
AcDbEntity
  8
0
100
AcDbLine
 10
44.6874
 20
110.0
 30
0.0
 11
56.25
 21
110.0
 31
0.0
  0
LINE
  5
6F
330
1D
100
AcDbEntity
  8
0
100
AcDbLine
 10
44.6874
 20
110.0
 30
0.0
 11
68.4118
 21
110.0
 31
0.0
  0
LINE
  5
70
330
1D
100
AcDbEntity
  8
0
100
AcDbLine
 10
46.774
 20
110.0
 30
0.0
 11
47.734
 21
110.0
 31
0.0
  0
LINE
  5
71
330
1D
100
AcDbEntity
  8
0
100
AcDbLine
 10
47.36032
 20
110.0
 30
0.0
 11
47.50432
 21
110.0
 31
0.0
  0
LINE
  5
72
330
1D
100
AcDbEntity
  8
0
100
AcDbLine
 10
47.734
 20
110.0
 30
0.0
 11
48.582
 21
110.0
 31
0.0
  0
LINE
  5
73
330
1D
100
AcDbEntity
  8
0
100
AcDbLine
 10
47.50432
 20
110.0
 30
0.0
 11
47.88832
 21
110.0
 31
0.0
  0
LINE
  5
74
330
1D
100
AcDbEntity
  8
0
100
AcDbLine
 10
47.88832
 20
110.0
 30
0.0
 11
48.52832
 21
110.0
 31
0.0
  0
LINE
  5
75
330
1D
100
AcDbEntity
  8
0
100
AcDbLine
 10
49.222
 20
110.0
 30
0.0
 11
49.606
 21
110.0
 31
0.0
  0
LINE
  5
76
330
1D
100
AcDbEntity
  8
0
100
AcDbLine
 10
48.582
 20
110.0
 30
0.0
 11
49.222
 21
110.0
 31
0.0
  0
LINE
  5
77
330
1D
100
AcDbEntity
  8
0
100
AcDbLine
 10
48.52832
 20
110.0
 30
0.0
 11
49.37632
 21
110.0
 31
0.0
  0
LINE
  5
78
330
1D
100
AcDbEntity
  8
0
100
AcDbLine
 10
49.606
 20
110.0
 30
0.0
 11
49.75
 21
110.0
 31
0.0
  0
LINE
  5
79
330
1D
100
AcDbEntity
  8
0
100
AcDbLine
 10
54.1923
 20
110.0
 30
0.0
 11
54.8323
 21
110.0
 31
0.0
  0
LINE
  5
7A
330
1D
100
AcDbEntity
  8
0
100
AcDbLine
 10
53.3443
 20
110.0
 30
0.0
 11
54.1923
 21
110.0
 31
0.0
  0
LINE
  5
7B
330
1D
100
AcDbEntity
  8
0
100
AcDbLine
 10
52.3843
 20
110.0
 30
0.0
 11
53.3443
 21
110.0
 31
0.0
  0
LINE
  5
7C
330
1D
100
AcDbEntity
  8
0
100
AcDbLine
 10
51.36032
 20
110.0
 30
0.0
 11
52.3843
 21
110.0
 31
0.0
  0
LINE
  5
7D
330
1D
100
AcDbEntity
  8
0
100
AcDbLine
 10
49.37632
 20
110.0
 30
0.0
 11
50.33632
 21
110.0
 31
0.0
  0
LINE
  5
7E
330
1D
100
AcDbEntity
  8
0
100
AcDbLine
 10
50.33632
 20
110.0
 30
0.0
 11
51.36032
 21
110.0
 31
0.0
  0
LINE
  5
7F
330
1D
100
AcDbEntity
  8
0
100
AcDbLine
 10
48.43492
 20
110.0
 30
0.0
 11
56.25
 21
110.0
 31
0.0
  0
LINE
  5
80
330
1D
100
AcDbEntity
  8
0
100
AcDbLine
 10
48.43492
 20
110.0
 30
0.0
 11
59.605
 21
110.0
 31
0.0
  0
LINE
  5
81
330
1D
100
AcDbEntity
  8
0
100
AcDbLine
 10
48.09241
 20
110.0
 30
0.0
 11
48.43492
 21
110.0
 31
0.0
  0
LINE
  5
82
330
1D
100
AcDbEntity
  8
0
100
AcDbLine
 10
48.09241
 20
110.0
 30
0.0
 11
56.25
 21
110.0
 31
0.0
  0
LINE
  5
83
330
1D
100
AcDbEntity
  8
0
100
AcDbLine
 10
48.09241
 20
110.0
 30
0.0
 11
56.25
 21
110.0
 31
0.0
  0
LINE
  5
84
330
1D
100
AcDbEntity
  8
0
100
AcDbLine
 10
48.09241
 20
110.0
 30
0.0
 11
58.7962
 21
110.0
 31
0.0
  0
LINE
  5
85
330
1D
100
AcDbEntity
  8
0
100
AcDbLine
 10
45.94551
 20
110.0
 30
0.0
 11
56.25
 21
110.0
 31
0.0
  0
LINE
  5
86
330
1D
100
AcDbEntity
  8
0
100
AcDbLine
 10
45.94551
 20
110.0
 30
0.0
 11
56.25
 21
110.0
 31
0.0
  0
LINE
  5
87
330
1D
100
AcDbEntity
  8
0
100
AcDbLine
 10
45.94551
 20
110.0
 30
0.0
 11
67.0638
 21
110.0
 31
0.0
  0
LINE
  5
88
330
1D
100
AcDbEntity
  8
0
100
AcDbLine
 10
44.6874
 20
110.0
 30
0.0
 11
45.94551
 21
110.0
 31
0.0
  0
LINE
  5
89
330
1D
100
AcDbEntity
  8
0
100
AcDbLine
 10
44.6874
 20
110.0
 30
0.0
 11
56.25
 21
110.0
 31
0.0
  0
LINE
  5
8A
330
1D
100
AcDbEntity
  8
0
100
AcDbLine
 10
44.6874
 20
110.0
 30
0.0
 11
68.4118
 21
110.0
 31
0.0
  0
LINE
  5
8B
330
1D
100
AcDbEntity
  8
0
100
AcDbLine
 10
43.75
 20
110.0
 30
0.0
 11
56.25
 21
110.0
 31
0.0
  0
LINE
  5
8C
330
1D
100
AcDbEntity
  8
0
100
AcDbLine
 10
41.75
 20
110.0
 30
0.0
 11
41.75
 21
114.0
 31
0.0
  0
LINE
  5
8D
330
1D
100
AcDbEntity
  8
0
100
AcDbLine
 10
41.75
 20
110.0
 30
0.0
 11
56.25
 21
110.0
 31
0.0
  0
LINE
  5
8E
330
1D
100
AcDbEntity
  8
0
100
AcDbLine
 10
41.75
 20
110.0
 30
0.0
 11
43.75
 21
110.0
 31
0.0
  0
LINE
  5
8F
330
1D
100
AcDbEntity
  8
0
100
AcDbLine
 10
41.75
 20
110.0
 30
0.0
 11
56.25
 21
110.0
 31
0.0
  0
LINE
  5
90
330
1D
100
AcDbEntity
  8
0
100
AcDbLine
 10
41.75
 20
110.0
 30
0.0
 11
91.75
 21
110.0
 31
0.0
  0
LINE
  5
91
330
1D
100
AcDbEntity
  8
0
100
AcDbLine
 10
41.75
 20
110.0
 30
0.0
 11
41.894
 21
110.0
 31
0.0
  0
LINE
  5
92
330
1D
100
AcDbEntity
  8
0
100
AcDbLine
 10
55.2163
 20
110.0
 30
0.0
 11
55.3603
 21
110.0
 31
0.0
  0
LINE
  5
93
330
1D
100
AcDbEntity
  8
0
100
AcDbLine
 10
54.8323
 20
110.0
 30
0.0
 11
55.2163
 21
110.0
 31
0.0
  0
LINE
  5
94
330
1D
100
AcDbEntity
  8
0
100
AcDbLine
 10
55.006
 20
110.0
 30
0.0
 11
56.25
 21
110.0
 31
0.0
  0
LINE
  5
95
330
1D
100
AcDbEntity
  8
0
100
AcDbLine
 10
55.006
 20
110.0
 30
0.0
 11
56.518
 21
110.0
 31
0.0
  0
LINE
  5
96
330
1D
100
AcDbEntity
  8
0
100
AcDbLine
 10
54.25
 20
110.0
 30
0.0
 11
55.006
 21
110.0
 31
0.0
  0
LINE
  5
97
330
1D
100
AcDbEntity
  8
0
100
AcDbLine
 10
54.25
 20
141.72
 30
0.0
 11
54.25
 21
143.64
 31
0.0
  0
LINE
  5
98
330
1D
100
AcDbEntity
  8
0
100
AcDbLine
 10
54.25
 20
141.72
 30
0.0
 11
54.25
 21
141.0
 31
0.0
  0
LINE
  5
99
330
1D
100
AcDbEntity
  8
0
100
AcDbLine
 10
54.25
 20
141.72
 30
0.0
 11
54.25
 21
143.64
 31
0.0
  0
LINE
  5
9A
330
1D
100
AcDbEntity
  8
0
100
AcDbLine
 10
54.25
 20
141.0
 30
0.0
 11
54.25
 21
141.72
 31
0.0
  0
LINE
  5
9B
330
1D
100
AcDbEntity
  8
0
100
AcDbLine
 10
54.25
 20
141.0
 30
0.0
 11
56.25
 21
141.0
 31
0.0
  0
LINE
  5
9C
330
1D
100
AcDbEntity
  8
0
100
AcDbLine
 10
41.75
 20
114.0
 30
0.0
 11
41.75
 21
110.0
 31
0.0
  0
LINE
  5
9D
330
1D
100
AcDbEntity
  8
0
100
AcDbLine
 10
41.75
 20
114.0
 30
0.0
 11
91.75
 21
114.0
 31
0.0
  0
LINE
  5
9E
330
1D
100
AcDbEntity
  8
0
100
AcDbLine
 10
54.25
 20
143.64
 30
0.0
 11
54.25
 21
146.84
 31
0.0
  0
LINE
  5
9F
330
1D
100
AcDbEntity
  8
0
100
AcDbLine
 10
54.25
 20
143.64
 30
0.0
 11
54.25
 21
141.72
 31
0.0
  0
LINE
  5
A0
330
1D
100
AcDbEntity
  8
0
100
AcDbLine
 10
54.25
 20
144.0
 30
0.0
 11
54.25
 21
144.612
 31
0.0
  0
LINE
  5
A1
330
1D
100
AcDbEntity
  8
0
100
AcDbLine
 10
54.25
 20
143.64
 30
0.0
 11
54.25
 21
146.84
 31
0.0
  0
LINE
  5
A2
330
1D
100
AcDbEntity
  8
0
100
AcDbLine
 10
54.25
 20
143.64
 30
0.0
 11
54.25
 21
141.72
 31
0.0
  0
LINE
  5
A3
330
1D
100
AcDbEntity
  8
0
100
AcDbLine
 10
54.25
 20
146.84
 30
0.0
 11
54.25
 21
151.08
 31
0.0
  0
LINE
  5
A4
330
1D
100
AcDbEntity
  8
0
100
AcDbLine
 10
54.25
 20
146.84
 30
0.0
 11
54.25
 21
143.64
 31
0.0
  0
LINE
  5
A5
330
1D
100
AcDbEntity
  8
0
100
AcDbLine
 10
54.25
 20
146.84
 30
0.0
 11
54.25
 21
151.08
 31
0.0
  0
LINE
  5
A6
330
1D
100
AcDbEntity
  8
0
100
AcDbLine
 10
54.25
 20
146.84
 30
0.0
 11
54.25
 21
143.64
 31
0.0
  0
LINE
  5
A7
330
1D
100
AcDbEntity
  8
0
100
AcDbLine
 10
54.25
 20
146.244
 30
0.0
 11
54.25
 21
144.612
 31
0.0
  0
LINE
  5
A8
330
1D
100
AcDbEntity
  8
0
100
AcDbLine
 10
54.25
 20
146.244
 30
0.0
 11
54.25
 21
148.964
 31
0.0
  0
LINE
  5
A9
330
1D
100
AcDbEntity
  8
0
100
AcDbLine
 10
54.25
 20
144.612
 30
0.0
 11
54.25
 21
144.0
 31
0.0
  0
LINE
  5
AA
330
1D
100
AcDbEntity
  8
0
100
AcDbLine
 10
54.25
 20
144.612
 30
0.0
 11
54.25
 21
146.244
 31
0.0
  0
LINE
  5
AB
330
1D
100
AcDbEntity
  8
0
100
AcDbLine
 10
54.25
 20
151.08
 30
0.0
 11
54.25
 21
155.88
 31
0.0
  0
LINE
  5
AC
330
1D
100
AcDbEntity
  8
0
100
AcDbLine
 10
54.25
 20
151.08
 30
0.0
 11
54.25
 21
146.84
 31
0.0
  0
LINE
  5
AD
330
1D
100
AcDbEntity
  8
0
100
AcDbLine
 10
54.25
 20
151.08
 30
0.0
 11
54.25
 21
155.88
 31
0.0
  0
LINE
  5
AE
330
1D
100
AcDbEntity
  8
0
100
AcDbLine
 10
54.25
 20
151.08
 30
0.0
 11
54.25
 21
146.84
 31
0.0
  0
LINE
  5
AF
330
1D
100
AcDbEntity
  8
0
100
AcDbLine
 10
54.25
 20
155.88
 30
0.0
 11
54.25
 21
161.0
 31
0.0
  0
LINE
  5
B0
330
1D
100
AcDbEntity
  8
0
100
AcDbLine
 10
54.25
 20
155.88
 30
0.0
 11
54.25
 21
151.08
 31
0.0
  0
LINE
  5
B1
330
1D
100
AcDbEntity
  8
0
100
AcDbLine
 10
54.25
 20
155.88
 30
0.0
 11
54.25
 21
161.0
 31
0.0
  0
LINE
  5
B2
330
1D
100
AcDbEntity
  8
0
100
AcDbLine
 10
54.25
 20
155.88
 30
0.0
 11
54.25
 21
151.08
 31
0.0
  0
LINE
  5
B3
330
1D
100
AcDbEntity
  8
0
100
AcDbLine
 10
54.25
 20
152.568
 30
0.0
 11
54.25
 21
148.964
 31
0.0
  0
LINE
  5
B4
330
1D
100
AcDbEntity
  8
0
100
AcDbLine
 10
54.25
 20
152.568
 30
0.0
 11
54.25
 21
156.648
 31
0.0
  0
LINE
  5
B5
330
1D
100
AcDbEntity
  8
0
100
AcDbLine
 10
54.25
 20
152.568
 30
0.0
 11
54.25
 21
156.648
 31
0.0
  0
LINE
  5
B6
330
1D
100
AcDbEntity
  8
0
100
AcDbLine
 10
54.25
 20
148.964
 30
0.0
 11
54.25
 21
146.244
 31
0.0
  0
LINE
  5
B7
330
1D
100
AcDbEntity
  8
0
100
AcDbLine
 10
54.25
 20
148.964
 30
0.0
 11
54.25
 21
152.568
 31
0.0
  0
LINE
  5
B8
330
1D
100
AcDbEntity
  8
0
100
AcDbLine
 10
54.25
 20
156.648
 30
0.0
 11
54.25
 21
152.568
 31
0.0
  0
LINE
  5
B9
330
1D
100
AcDbEntity
  8
0
100
AcDbLine
 10
54.25
 20
156.648
 30
0.0
 11
54.25
 21
161.0
 31
0.0
  0
LINE
  5
BA
330
1D
100
AcDbEntity
  8
0
100
AcDbLine
 10
54.25
 20
156.648
 30
0.0
 11
54.25
 21
152.568
 31
0.0
  0
LINE
  5
BB
330
1D
100
AcDbEntity
  8
0
100
AcDbLine
 10
54.25
 20
156.648
 30
0.0
 11
54.25
 21
161.0
 31
0.0
  0
LINE
  5
BC
330
1D
100
AcDbEntity
  8
0
100
AcDbLine
 10
54.25
 20
161.0
 30
0.0
 11
54.25
 21
156.648
 31
0.0
  0
LINE
  5
BD
330
1D
100
AcDbEntity
  8
0
100
AcDbLine
 10
54.25
 20
161.0
 30
0.0
 11
54.25
 21
155.88
 31
0.0
  0
LINE
  5
BE
330
1D
100
AcDbEntity
  8
0
100
AcDbLine
 10
54.25
 20
161.0
 30
0.0
 11
54.25
 21
165.352
 31
0.0
  0
LINE
  5
BF
330
1D
100
AcDbEntity
  8
0
100
AcDbLine
 10
54.25
 20
161.0
 30
0.0
 11
54.25
 21
166.12
 31
0.0
  0
LINE
  5
C0
330
1D
100
AcDbEntity
  8
0
100
AcDbLine
 10
54.25
 20
161.0
 30
0.0
 11
54.25
 21
165.352
 31
0.0
  0
LINE
  5
C1
330
1D
100
AcDbEntity
  8
0
100
AcDbLine
 10
54.25
 20
161.0
 30
0.0
 11
54.25
 21
166.12
 31
0.0
  0
LINE
  5
C2
330
1D
100
AcDbEntity
  8
0
100
AcDbLine
 10
54.25
 20
161.0
 30
0.0
 11
54.25
 21
156.648
 31
0.0
  0
LINE
  5
C3
330
1D
100
AcDbEntity
  8
0
100
AcDbLine
 10
54.25
 20
161.0
 30
0.0
 11
54.25
 21
155.88
 31
0.0
  0
LINE
  5
C4
330
1D
100
AcDbEntity
  8
0
100
AcDbLine
 10
54.25
 20
165.352
 30
0.0
 11
54.25
 21
169.432
 31
0.0
  0
LINE
  5
C5
330
1D
100
AcDbEntity
  8
0
100
AcDbLine
 10
54.25
 20
165.352
 30
0.0
 11
54.25
 21
161.0
 31
0.0
  0
LINE
  5
C6
330
1D
100
AcDbEntity
  8
0
100
AcDbLine
 10
54.25
 20
165.352
 30
0.0
 11
54.25
 21
161.0
 31
0.0
  0
LINE
  5
C7
330
1D
100
AcDbEntity
  8
0
100
AcDbLine
 10
54.25
 20
169.432
 30
0.0
 11
54.25
 21
173.036
 31
0.0
  0
LINE
  5
C8
330
1D
100
AcDbEntity
  8
0
100
AcDbLine
 10
54.25
 20
169.432
 30
0.0
 11
54.25
 21
165.352
 31
0.0
  0
LINE
  5
C9
330
1D
100
AcDbEntity
  8
0
100
AcDbLine
 10
54.25
 20
166.12
 30
0.0
 11
54.25
 21
161.0
 31
0.0
  0
LINE
  5
CA
330
1D
100
AcDbEntity
  8
0
100
AcDbLine
 10
54.25
 20
166.12
 30
0.0
 11
54.25
 21
170.92
 31
0.0
  0
LINE
  5
CB
330
1D
100
AcDbEntity
  8
0
100
AcDbLine
 10
54.25
 20
166.12
 30
0.0
 11
54.25
 21
161.0
 31
0.0
  0
LINE
  5
CC
330
1D
100
AcDbEntity
  8
0
100
AcDbLine
 10
54.25
 20
170.92
 30
0.0
 11
54.25
 21
166.12
 31
0.0
  0
LINE
  5
CD
330
1D
100
AcDbEntity
  8
0
100
AcDbLine
 10
54.25
 20
170.92
 30
0.0
 11
54.25
 21
175.16
 31
0.0
  0
LINE
  5
CE
330
1D
100
AcDbEntity
  8
0
100
AcDbLine
 10
56.25
 20
161.0
 30
0.0
 11
56.25
 21
155.88
 31
0.0
  0
LINE
  5
CF
330
1D
100
AcDbEntity
  8
0
100
AcDbLine
 10
56.25
 20
155.88
 30
0.0
 11
56.25
 21
151.08
 31
0.0
  0
LINE
  5
D0
330
1D
100
AcDbEntity
  8
0
100
AcDbLine
 10
56.25
 20
151.08
 30
0.0
 11
56.25
 21
146.84
 31
0.0
  0
LINE
  5
D1
330
1D
100
AcDbEntity
  8
0
100
AcDbLine
 10
56.25
 20
146.84
 30
0.0
 11
56.25
 21
143.64
 31
0.0
  0
LINE
  5
D2
330
1D
100
AcDbEntity
  8
0
100
AcDbLine
 10
56.25
 20
143.64
 30
0.0
 11
56.25
 21
141.72
 31
0.0
  0
LINE
  5
D3
330
1D
100
AcDbEntity
  8
0
100
AcDbLine
 10
56.25
 20
141.72
 30
0.0
 11
56.25
 21
141.0
 31
0.0
  0
LINE
  5
D4
330
1D
100
AcDbEntity
  8
0
100
AcDbLine
 10
56.25
 20
166.12
 30
0.0
 11
56.25
 21
161.0
 31
0.0
  0
LINE
  5
D5
330
1D
100
AcDbEntity
  8
0
100
AcDbLine
 10
54.25
 20
173.036
 30
0.0
 11
54.25
 21
175.756
 31
0.0
  0
LINE
  5
D6
330
1D
100
AcDbEntity
  8
0
100
AcDbLine
 10
54.25
 20
173.036
 30
0.0
 11
54.25
 21
169.432
 31
0.0
  0
LINE
  5
D7
330
1D
100
AcDbEntity
  8
0
100
AcDbLine
 10
54.25
 20
178.0
 30
0.0
 11
54.25
 21
177.388
 31
0.0
  0
LINE
  5
D8
330
1D
100
AcDbEntity
  8
0
100
AcDbLine
 10
54.25
 20
175.756
 30
0.0
 11
54.25
 21
177.388
 31
0.0
  0
LINE
  5
D9
330
1D
100
AcDbEntity
  8
0
100
AcDbLine
 10
54.25
 20
175.756
 30
0.0
 11
54.25
 21
173.036
 31
0.0
  0
LINE
  5
DA
330
1D
100
AcDbEntity
  8
0
100
AcDbLine
 10
54.25
 20
177.388
 30
0.0
 11
54.25
 21
178.0
 31
0.0
  0
LINE
  5
DB
330
1D
100
AcDbEntity
  8
0
100
AcDbLine
 10
54.25
 20
177.388
 30
0.0
 11
54.25
 21
175.756
 31
0.0
  0
LINE
  5
DC
330
1D
100
AcDbEntity
  8
0
100
AcDbLine
 10
54.25
 20
175.16
 30
0.0
 11
54.25
 21
170.92
 31
0.0
  0
LINE
  5
DD
330
1D
100
AcDbEntity
  8
0
100
AcDbLine
 10
54.25
 20
175.16
 30
0.0
 11
54.25
 21
178.36
 31
0.0
  0
LINE
  5
DE
330
1D
100
AcDbEntity
  8
0
100
AcDbLine
 10
54.25
 20
178.36
 30
0.0
 11
54.25
 21
175.16
 31
0.0
  0
LINE
  5
DF
330
1D
100
AcDbEntity
  8
0
100
AcDbLine
 10
54.25
 20
178.36
 30
0.0
 11
54.25
 21
180.28
 31
0.0
  0
LINE
  5
E0
330
1D
100
AcDbEntity
  8
0
100
AcDbLine
 10
56.25
 20
170.92
 30
0.0
 11
56.25
 21
166.12
 31
0.0
  0
LINE
  5
E1
330
1D
100
AcDbEntity
  8
0
100
AcDbLine
 10
56.25
 20
175.16
 30
0.0
 11
56.25
 21
170.92
 31
0.0
  0
LINE
  5
E2
330
1D
100
AcDbEntity
  8
0
100
AcDbLine
 10
54.25
 20
180.28
 30
0.0
 11
54.25
 21
178.36
 31
0.0
  0
LINE
  5
E3
330
1D
100
AcDbEntity
  8
0
100
AcDbLine
 10
54.25
 20
180.28
 30
0.0
 11
54.25
 21
181.0
 31
0.0
  0
LINE
  5
E4
330
1D
100
AcDbEntity
  8
0
100
AcDbLine
 10
54.25
 20
181.0
 30
0.0
 11
54.25
 21
180.28
 31
0.0
  0
LINE
  5
E5
330
1D
100
AcDbEntity
  8
0
100
AcDbLine
 10
54.25
 20
181.0
 30
0.0
 11
56.25
 21
181.0
 31
0.0
  0
LINE
  5
E6
330
1D
100
AcDbEntity
  8
0
100
AcDbLine
 10
56.25
 20
178.36
 30
0.0
 11
56.25
 21
175.16
 31
0.0
  0
LINE
  5
E7
330
1D
100
AcDbEntity
  8
0
100
AcDbLine
 10
56.25
 20
180.28
 30
0.0
 11
56.25
 21
178.36
 31
0.0
  0
LINE
  5
E8
330
1D
100
AcDbEntity
  8
0
100
AcDbLine
 10
56.25
 20
110.0
 30
0.0
 11
56.25
 21
75.0
 31
0.0
  0
LINE
  5
E9
330
1D
100
AcDbEntity
  8
0
100
AcDbLine
 10
56.25
 20
141.0
 30
0.0
 11
56.6572
 21
141.72
 31
0.0
  0
LINE
  5
EA
330
1D
100
AcDbEntity
  8
0
100
AcDbLine
 10
56.25
 20
141.0
 30
0.0
 11
56.25
 21
114.0
 31
0.0
  0
LINE
  5
EB
330
1D
100
AcDbEntity
  8
0
100
AcDbLine
 10
56.25
 20
183.0
 30
0.0
 11
56.25
 21
181.0
 31
0.0
  0
LINE
  5
EC
330
1D
100
AcDbEntity
  8
0
100
AcDbLine
 10
56.25
 20
183.0
 30
0.0
 11
56.8921
 21
183.0
 31
0.0
  0
LINE
  5
ED
330
1D
100
AcDbEntity
  8
0
100
AcDbLine
 10
56.25
 20
181.0
 30
0.0
 11
56.25
 21
183.0
 31
0.0
  0
LINE
  5
EE
330
1D
100
AcDbEntity
  8
0
100
AcDbLine
 10
56.25
 20
181.0
 30
0.0
 11
56.6572
 21
180.28
 31
0.0
  0
LINE
  5
EF
330
1D
100
AcDbEntity
  8
0
100
AcDbLine
 10
56.25
 20
181.0
 30
0.0
 11
56.25
 21
180.28
 31
0.0
  0
LINE
  5
F0
330
1D
100
AcDbEntity
  8
0
100
AcDbLine
 10
58.7962
 20
110.0
 30
0.0
 11
59.605
 21
110.0
 31
0.0
  0
LINE
  5
F1
330
1D
100
AcDbEntity
  8
0
100
AcDbLine
 10
59.29
 20
110.0
 30
0.0
 11
62.566
 21
110.0
 31
0.0
  0
LINE
  5
F2
330
1D
100
AcDbEntity
  8
0
100
AcDbLine
 10
56.518
 20
110.0
 30
0.0
 11
59.29
 21
110.0
 31
0.0
  0
LINE
  5
F3
330
1D
100
AcDbEntity
  8
0
100
AcDbLine
 10
57.3376
 20
143.64
 30
0.0
 11
58.1396
 21
146.84
 31
0.0
  0
LINE
  5
F4
330
1D
100
AcDbEntity
  8
0
100
AcDbLine
 10
56.6572
 20
141.72
 30
0.0
 11
57.3376
 21
143.64
 31
0.0
  0
LINE
  5
F5
330
1D
100
AcDbEntity
  8
0
100
AcDbLine
 10
67.0638
 20
110.0
 30
0.0
 11
68.4118
 21
110.0
 31
0.0
  0
LINE
  5
F6
330
1D
100
AcDbEntity
  8
0
100
AcDbLine
 10
67.0287
 20
110.0
 30
0.0
 11
67.6687
 21
110.0
 31
0.0
  0
LINE
  5
F7
330
1D
100
AcDbEntity
  8
0
100
AcDbLine
 10
66.6447
 20
110.0
 30
0.0
 11
67.0287
 21
110.0
 31
0.0
  0
LINE
  5
F8
330
1D
100
AcDbEntity
  8
0
100
AcDbLine
 10
66.5007
 20
110.0
 30
0.0
 11
66.6447
 21
110.0
 31
0.0
  0
LINE
  5
F9
330
1D
100
AcDbEntity
  8
0
100
AcDbLine
 10
70.5007
 20
110.0
 30
0.0
 11
71.5247
 21
110.0
 31
0.0
  0
LINE
  5
FA
330
1D
100
AcDbEntity
  8
0
100
AcDbLine
 10
71.5247
 20
110.0
 30
0.0
 11
72.4847
 21
110.0
 31
0.0
  0
LINE
  5
FB
330
1D
100
AcDbEntity
  8
0
100
AcDbLine
 10
72.4847
 20
110.0
 30
0.0
 11
73.3327
 21
110.0
 31
0.0
  0
LINE
  5
FC
330
1D
100
AcDbEntity
  8
0
100
AcDbLine
 10
69.4767
 20
110.0
 30
0.0
 11
70.5007
 21
110.0
 31
0.0
  0
LINE
  5
FD
330
1D
100
AcDbEntity
  8
0
100
AcDbLine
 10
68.5167
 20
110.0
 30
0.0
 11
69.4767
 21
110.0
 31
0.0
  0
LINE
  5
FE
330
1D
100
AcDbEntity
  8
0
100
AcDbLine
 10
67.6687
 20
110.0
 30
0.0
 11
68.5167
 21
110.0
 31
0.0
  0
LINE
  5
FF
330
1D
100
AcDbEntity
  8
0
100
AcDbLine
 10
67.354
 20
110.0
 30
0.0
 11
72.898
 21
110.0
 31
0.0
  0
LINE
  5
100
330
1D
100
AcDbEntity
  8
0
100
AcDbLine
 10
62.566
 20
110.0
 30
0.0
 11
67.354
 21
110.0
 31
0.0
  0
LINE
  5
101
330
1D
100
AcDbEntity
  8
0
100
AcDbLine
 10
73.3327
 20
110.0
 30
0.0
 11
73.9727
 21
110.0
 31
0.0
  0
LINE
  5
102
330
1D
100
AcDbEntity
  8
0
100
AcDbLine
 10
82.0891
 20
110.0
 30
0.0
 11
91.0804
 21
110.0
 31
0.0
  0
LINE
  5
103
330
1D
100
AcDbEntity
  8
0
100
AcDbLine
 10
79.3917
 20
110.0
 30
0.0
 11
89.8216
 21
110.0
 31
0.0
  0
LINE
  5
104
330
1D
100
AcDbEntity
  8
0
100
AcDbLine
 10
79.3917
 20
110.0
 30
0.0
 11
82.0891
 21
110.0
 31
0.0
  0
LINE
  5
105
330
1D
100
AcDbEntity
  8
0
100
AcDbLine
 10
73.9727
 20
110.0
 30
0.0
 11
74.3567
 21
110.0
 31
0.0
  0
LINE
  5
106
330
1D
100
AcDbEntity
  8
0
100
AcDbLine
 10
74.3567
 20
110.0
 30
0.0
 11
74.5007
 21
110.0
 31
0.0
  0
LINE
  5
107
330
1D
100
AcDbEntity
  8
0
100
AcDbLine
 10
72.898
 20
110.0
 30
0.0
 11
78.946
 21
110.0
 31
0.0
  0
LINE
  5
108
330
1D
100
AcDbEntity
  8
0
100
AcDbLine
 10
78.946
 20
110.0
 30
0.0
 11
86.002
 21
110.0
 31
0.0
  0
LINE
  5
109
330
1D
100
AcDbEntity
  8
0
100
AcDbLine
 10
89.544
 20
110.0
 30
0.0
 11
89.928
 21
110.0
 31
0.0
  0
LINE
  5
10A
330
1D
100
AcDbEntity
  8
0
100
AcDbLine
 10
89.4
 20
110.0
 30
0.0
 11
89.544
 21
110.0
 31
0.0
  0
LINE
  5
10B
330
1D
100
AcDbEntity
  8
0
100
AcDbLine
 10
92.376
 20
110.0
 30
0.0
 11
93.4
 21
110.0
 31
0.0
  0
LINE
  5
10C
330
1D
100
AcDbEntity
  8
0
100
AcDbLine
 10
91.416
 20
110.0
 30
0.0
 11
92.376
 21
110.0
 31
0.0
  0
LINE
  5
10D
330
1D
100
AcDbEntity
  8
0
100
AcDbLine
 10
90.568
 20
110.0
 30
0.0
 11
91.416
 21
110.0
 31
0.0
  0
LINE
  5
10E
330
1D
100
AcDbEntity
  8
0
100
AcDbLine
 10
89.928
 20
110.0
 30
0.0
 11
90.568
 21
110.0
 31
0.0
  0
LINE
  5
10F
330
1D
100
AcDbEntity
  8
0
100
AcDbLine
 10
89.8216
 20
110.0
 30
0.0
 11
91.0804
 21
110.0
 31
0.0
  0
LINE
  5
110
330
1D
100
AcDbEntity
  8
0
100
AcDbLine
 10
91.75
 20
110.0
 30
0.0
 11
142.75
 21
110.0
 31
0.0
  0
LINE
  5
111
330
1D
100
AcDbEntity
  8
0
100
AcDbLine
 10
93.8039
 20
110.0
 30
0.0
 11
95.7743
 21
110.0
 31
0.0
  0
LINE
  5
112
330
1D
100
AcDbEntity
  8
0
100
AcDbLine
 10
93.8039
 20
110.0
 30
0.0
 11
95.666
 21
110.0
 31
0.0
  0
LINE
  5
113
330
1D
100
AcDbEntity
  8
0
100
AcDbLine
 10
93.4
 20
110.0
 30
0.0
 11
94.424
 21
110.0
 31
0.0
  0
LINE
  5
114
330
1D
100
AcDbEntity
  8
0
100
AcDbLine
 10
94.424
 20
110.0
 30
0.0
 11
95.384
 21
110.0
 31
0.0
  0
LINE
  5
115
330
1D
100
AcDbEntity
  8
0
100
AcDbLine
 10
95.7743
 20
110.0
 30
0.0
 11
97.734
 21
110.0
 31
0.0
  0
LINE
  5
116
330
1D
100
AcDbEntity
  8
0
100
AcDbLine
 10
95.666
 20
110.0
 30
0.0
 11
97.734
 21
110.0
 31
0.0
  0
LINE
  5
117
330
1D
100
AcDbEntity
  8
0
100
AcDbLine
 10
95.384
 20
110.0
 30
0.0
 11
96.232
 21
110.0
 31
0.0
  0
LINE
  5
118
330
1D
100
AcDbEntity
  8
0
100
AcDbLine
 10
96.232
 20
110.0
 30
0.0
 11
96.872
 21
110.0
 31
0.0
  0
LINE
  5
119
330
1D
100
AcDbEntity
  8
0
100
AcDbLine
 10
96.872
 20
110.0
 30
0.0
 11
97.256
 21
110.0
 31
0.0
  0
LINE
  5
11A
330
1D
100
AcDbEntity
  8
0
100
AcDbLine
 10
97.256
 20
110.0
 30
0.0
 11
97.4
 21
110.0
 31
0.0
  0
LINE
  5
11B
330
1D
100
AcDbEntity
  8
0
100
AcDbLine
 10
92.55
 20
110.0
 30
0.0
 11
141.95
 21
110.0
 31
0.0
  0
LINE
  5
11C
330
1D
100
AcDbEntity
  8
0
100
AcDbLine
 10
91.75
 20
110.0
 30
0.0
 11
91.75
 21
114.0
 31
0.0
  0
LINE
  5
11D
330
1D
100
AcDbEntity
  8
0
100
AcDbLine
 10
91.75
 20
110.0
 30
0.0
 11
92.55
 21
110.0
 31
0.0
  0
LINE
  5
11E
330
1D
100
AcDbEntity
  8
0
100
AcDbLine
 10
91.75
 20
110.0
 30
0.0
 11
142.75
 21
110.0
 31
0.0
  0
LINE
  5
11F
330
1D
100
AcDbEntity
  8
0
100
AcDbLine
 10
86.002
 20
110.0
 30
0.0
 11
93.31
 21
110.0
 31
0.0
  0
LINE
  5
120
330
1D
100
AcDbEntity
  8
0
100
AcDbLine
 10
93.31
 20
110.0
 30
0.0
 11
101.122
 21
110.0
 31
0.0
  0
LINE
  5
121
330
1D
100
AcDbEntity
  8
0
100
AcDbLine
 10
101.122
 20
110.0
 30
0.0
 11
108.934
 21
110.0
 31
0.0
  0
LINE
  5
122
330
1D
100
AcDbEntity
  8
0
100
AcDbLine
 10
91.75
 20
114.0
 30
0.0
 11
142.75
 21
114.0
 31
0.0
  0
LINE
  5
123
330
1D
100
AcDbEntity
  8
0
100
AcDbLine
 10
91.75
 20
114.0
 30
0.0
 11
91.75
 21
110.0
 31
0.0
  0
LINE
  5
124
330
1D
100
AcDbEntity
  8
0
100
AcDbLine
 10
108.934
 20
110.0
 30
0.0
 11
117.25
 21
110.0
 31
0.0
  0
LINE
  5
125
330
1D
100
AcDbEntity
  8
0
100
AcDbLine
 10
116.3214
 20
110.0
 30
0.0
 11
117.3454
 21
110.0
 31
0.0
  0
LINE
  5
126
330
1D
100
AcDbEntity
  8
0
100
AcDbLine
 10
115.3614
 20
110.0
 30
0.0
 11
116.3214
 21
110.0
 31
0.0
  0
LINE
  5
127
330
1D
100
AcDbEntity
  8
0
100
AcDbLine
 10
114.5134
 20
110.0
 30
0.0
 11
115.3614
 21
110.0
 31
0.0
  0
LINE
  5
128
330
1D
100
AcDbEntity
  8
0
100
AcDbLine
 10
113.8734
 20
110.0
 30
0.0
 11
114.5134
 21
110.0
 31
0.0
  0
LINE
  5
129
330
1D
100
AcDbEntity
  8
0
100
AcDbLine
 10
113.4894
 20
110.0
 30
0.0
 11
113.8734
 21
110.0
 31
0.0
  0
LINE
  5
12A
330
1D
100
AcDbEntity
  8
0
100
AcDbLine
 10
113.3454
 20
110.0
 30
0.0
 11
113.4894
 21
110.0
 31
0.0
  0
LINE
  5
12B
330
1D
100
AcDbEntity
  8
0
100
AcDbLine
 10
116.25
 20
110.0
 30
0.0
 11
118.25
 21
110.0
 31
0.0
  0
LINE
  5
12C
330
1D
100
AcDbEntity
  8
0
100
AcDbLine
 10
117.3454
 20
110.0
 30
0.0
 11
118.3694
 21
110.0
 31
0.0
  0
LINE
  5
12D
330
1D
100
AcDbEntity
  8
0
100
AcDbLine
 10
118.3694
 20
110.0
 30
0.0
 11
119.3294
 21
110.0
 31
0.0
  0
LINE
  5
12E
330
1D
100
AcDbEntity
  8
0
100
AcDbLine
 10
119.3294
 20
110.0
 30
0.0
 11
120.1774
 21
110.0
 31
0.0
  0
LINE
  5
12F
330
1D
100
AcDbEntity
  8
0
100
AcDbLine
 10
120.1774
 20
110.0
 30
0.0
 11
120.8174
 21
110.0
 31
0.0
  0
LINE
  5
130
330
1D
100
AcDbEntity
  8
0
100
AcDbLine
 10
120.8174
 20
110.0
 30
0.0
 11
121.2014
 21
110.0
 31
0.0
  0
LINE
  5
131
330
1D
100
AcDbEntity
  8
0
100
AcDbLine
 10
121.2014
 20
110.0
 30
0.0
 11
121.3454
 21
110.0
 31
0.0
  0
LINE
  5
132
330
1D
100
AcDbEntity
  8
0
100
AcDbLine
 10
125.566
 20
110.0
 30
0.0
 11
133.378
 21
110.0
 31
0.0
  0
LINE
  5
133
330
1D
100
AcDbEntity
  8
0
100
AcDbLine
 10
117.25
 20
110.0
 30
0.0
 11
125.566
 21
110.0
 31
0.0
  0
LINE
  5
134
330
1D
100
AcDbEntity
  8
0
100
AcDbLine
 10
122.37
 20
141.72
 30
0.0
 11
127.17
 21
143.64
 31
0.0
  0
LINE
  5
135
330
1D
100
AcDbEntity
  8
0
100
AcDbLine
 10
122.3939
 20
141.72
 30
0.0
 11
127.1787
 21
143.64
 31
0.0
  0
LINE
  5
136
330
1D
100
AcDbEntity
  8
0
100
AcDbLine
 10
117.25
 20
141.0
 30
0.0
 11
122.3939
 21
141.72
 31
0.0
  0
LINE
  5
137
330
1D
100
AcDbEntity
  8
0
100
AcDbLine
 10
117.25
 20
141.0
 30
0.0
 11
122.37
 21
141.72
 31
0.0
  0
LINE
  5
138
330
1D
100
AcDbEntity
  8
0
100
AcDbLine
 10
112.13
 20
141.72
 30
0.0
 11
117.25
 21
141.0
 31
0.0
  0
LINE
  5
139
330
1D
100
AcDbEntity
  8
0
100
AcDbLine
 10
127.17
 20
143.64
 30
0.0
 11
131.41
 21
146.84
 31
0.0
  0
LINE
  5
13A
330
1D
100
AcDbEntity
  8
0
100
AcDbLine
 10
127.1787
 20
143.64
 30
0.0
 11
131.4293
 21
146.84
 31
0.0
  0
LINE
  5
13B
330
1D
100
AcDbEntity
  8
0
100
AcDbLine
 10
117.25
 20
144.0
 30
0.0
 11
121.602
 21
144.612
 31
0.0
  0
LINE
  5
13C
330
1D
100
AcDbEntity
  8
0
100
AcDbLine
 10
112.898
 20
144.612
 30
0.0
 11
117.25
 21
144.0
 31
0.0
  0
LINE
  5
13D
330
1D
100
AcDbEntity
  8
0
100
AcDbLine
 10
117.25
 20
146.4286
 30
0.0
 11
120.9803
 21
146.9531
 31
0.0
  0
LINE
  5
13E
330
1D
100
AcDbEntity
  8
0
100
AcDbLine
 10
125.682
 20
146.244
 30
0.0
 11
129.286
 21
148.964
 31
0.0
  0
LINE
  5
13F
330
1D
100
AcDbEntity
  8
0
100
AcDbLine
 10
121.602
 20
144.612
 30
0.0
 11
125.682
 21
146.244
 31
0.0
  0
LINE
  5
140
330
1D
100
AcDbEntity
  8
0
100
AcDbLine
 10
108.818
 20
146.244
 30
0.0
 11
112.898
 21
144.612
 31
0.0
  0
LINE
  5
141
330
1D
100
AcDbEntity
  8
0
100
AcDbLine
 10
107.33
 20
143.64
 30
0.0
 11
112.13
 21
141.72
 31
0.0
  0
LINE
  5
142
330
1D
100
AcDbEntity
  8
0
100
AcDbLine
 10
107.3213
 20
143.64
 30
0.0
 11
112.1061
 21
141.72
 31
0.0
  0
LINE
  5
143
330
1D
100
AcDbEntity
  8
0
100
AcDbLine
 10
112.1061
 20
141.72
 30
0.0
 11
117.25
 21
141.0
 31
0.0
  0
LINE
  5
144
330
1D
100
AcDbEntity
  8
0
100
AcDbLine
 10
58.9901
 20
151.08
 30
0.0
 11
59.6463
 21
155.88
 31
0.0
  0
LINE
  5
145
330
1D
100
AcDbEntity
  8
0
100
AcDbLine
 10
58.1396
 20
146.84
 30
0.0
 11
58.9901
 21
151.08
 31
0.0
  0
LINE
  5
146
330
1D
100
AcDbEntity
  8
0
100
AcDbLine
 10
99.89
 20
151.08
 30
0.0
 11
103.09
 21
146.84
 31
0.0
  0
LINE
  5
147
330
1D
100
AcDbEntity
  8
0
100
AcDbLine
 10
59.6463
 20
155.88
 30
0.0
 11
59.9
 21
161.0
 31
0.0
  0
LINE
  5
148
330
1D
100
AcDbEntity
  8
0
100
AcDbLine
 10
59.6463
 20
166.12
 30
0.0
 11
59.9
 21
161.0
 31
0.0
  0
LINE
  5
149
330
1D
100
AcDbEntity
  8
0
100
AcDbLine
 10
58.9901
 20
170.92
 30
0.0
 11
59.6463
 21
166.12
 31
0.0
  0
LINE
  5
14A
330
1D
100
AcDbEntity
  8
0
100
AcDbLine
 10
58.1396
 20
175.16
 30
0.0
 11
58.9901
 21
170.92
 31
0.0
  0
LINE
  5
14B
330
1D
100
AcDbEntity
  8
0
100
AcDbLine
 10
97.9458
 20
166.12
 30
0.0
 11
99.8889
 21
170.92
 31
0.0
  0
LINE
  5
14C
330
1D
100
AcDbEntity
  8
0
100
AcDbLine
 10
97.25
 20
161.0
 30
0.0
 11
97.9458
 21
155.88
 31
0.0
  0
LINE
  5
14D
330
1D
100
AcDbEntity
  8
0
100
AcDbLine
 10
97.25
 20
161.0
 30
0.0
 11
97.97
 21
155.88
 31
0.0
  0
LINE
  5
14E
330
1D
100
AcDbEntity
  8
0
100
AcDbLine
 10
97.25
 20
161.0
 30
0.0
 11
97.97
 21
166.12
 31
0.0
  0
LINE
  5
14F
330
1D
100
AcDbEntity
  8
0
100
AcDbLine
 10
97.25
 20
161.0
 30
0.0
 11
97.9458
 21
166.12
 31
0.0
  0
LINE
  5
150
330
1D
100
AcDbEntity
  8
0
100
AcDbLine
 10
102.494
 20
152.568
 30
0.0
 11
105.214
 21
148.964
 31
0.0
  0
LINE
  5
151
330
1D
100
AcDbEntity
  8
0
100
AcDbLine
 10
97.97
 20
166.12
 30
0.0
 11
99.89
 21
170.92
 31
0.0
  0
LINE
  5
152
330
1D
100
AcDbEntity
  8
0
100
AcDbLine
 10
100.25
 20
161.0
 30
0.0
 11
100.862
 21
165.352
 31
0.0
  0
LINE
  5
153
330
1D
100
AcDbEntity
  8
0
100
AcDbLine
 10
100.25
 20
161.0
 30
0.0
 11
100.862
 21
156.648
 31
0.0
  0
LINE
  5
154
330
1D
100
AcDbEntity
  8
0
100
AcDbLine
 10
100.862
 20
165.352
 30
0.0
 11
102.494
 21
169.432
 31
0.0
  0
LINE
  5
155
330
1D
100
AcDbEntity
  8
0
100
AcDbLine
 10
102.494
 20
169.432
 30
0.0
 11
105.214
 21
173.036
 31
0.0
  0
LINE
  5
156
330
1D
100
AcDbEntity
  8
0
100
AcDbLine
 10
102.6786
 20
161.0
 30
0.0
 11
103.2031
 21
164.7303
 31
0.0
  0
LINE
  5
157
330
1D
100
AcDbEntity
  8
0
100
AcDbLine
 10
102.6786
 20
161.0
 30
0.0
 11
103.2031
 21
157.2697
 31
0.0
  0
LINE
  5
158
330
1D
100
AcDbEntity
  8
0
100
AcDbLine
 10
100.862
 20
156.648
 30
0.0
 11
102.494
 21
152.568
 31
0.0
  0
LINE
  5
159
330
1D
100
AcDbEntity
  8
0
100
AcDbLine
 10
99.8889
 20
170.92
 30
0.0
 11
103.0707
 21
175.16
 31
0.0
  0
LINE
  5
15A
330
1D
100
AcDbEntity
  8
0
100
AcDbLine
 10
99.89
 20
170.92
 30
0.0
 11
103.09
 21
175.16
 31
0.0
  0
LINE
  5
15B
330
1D
100
AcDbEntity
  8
0
100
AcDbLine
 10
103.0707
 20
175.16
 30
0.0
 11
107.3213
 21
178.36
 31
0.0
  0
LINE
  5
15C
330
1D
100
AcDbEntity
  8
0
100
AcDbLine
 10
97.97
 20
155.88
 30
0.0
 11
99.89
 21
151.08
 31
0.0
  0
LINE
  5
15D
330
1D
100
AcDbEntity
  8
0
100
AcDbLine
 10
97.9458
 20
155.88
 30
0.0
 11
99.8889
 21
151.08
 31
0.0
  0
LINE
  5
15E
330
1D
100
AcDbEntity
  8
0
100
AcDbLine
 10
99.8889
 20
151.08
 30
0.0
 11
103.0707
 21
146.84
 31
0.0
  0
LINE
  5
15F
330
1D
100
AcDbEntity
  8
0
100
AcDbLine
 10
105.214
 20
148.964
 30
0.0
 11
108.818
 21
146.244
 31
0.0
  0
LINE
  5
160
330
1D
100
AcDbEntity
  8
0
100
AcDbLine
 10
103.09
 20
146.84
 30
0.0
 11
107.33
 21
143.64
 31
0.0
  0
LINE
  5
161
330
1D
100
AcDbEntity
  8
0
100
AcDbLine
 10
104.602
 20
153.7726
 30
0.0
 11
106.9334
 21
150.6834
 31
0.0
  0
LINE
  5
162
330
1D
100
AcDbEntity
  8
0
100
AcDbLine
 10
106.9334
 20
150.6834
 30
0.0
 11
110.0226
 21
148.352
 31
0.0
  0
LINE
  5
163
330
1D
100
AcDbEntity
  8
0
100
AcDbLine
 10
110.0226
 20
148.352
 30
0.0
 11
113.5197
 21
146.9531
 31
0.0
  0
LINE
  5
164
330
1D
100
AcDbEntity
  8
0
100
AcDbLine
 10
103.2031
 20
164.7303
 30
0.0
 11
104.602
 21
168.2274
 31
0.0
  0
LINE
  5
165
330
1D
100
AcDbEntity
  8
0
100
AcDbLine
 10
104.602
 20
168.2274
 30
0.0
 11
106.9334
 21
171.3166
 31
0.0
  0
LINE
  5
166
330
1D
100
AcDbEntity
  8
0
100
AcDbLine
 10
105.214
 20
173.036
 30
0.0
 11
108.818
 21
175.756
 31
0.0
  0
LINE
  5
167
330
1D
100
AcDbEntity
  8
0
100
AcDbLine
 10
106.9334
 20
171.3166
 30
0.0
 11
110.0226
 21
173.648
 31
0.0
  0
LINE
  5
168
330
1D
100
AcDbEntity
  8
0
100
AcDbLine
 10
110.0226
 20
173.648
 30
0.0
 11
113.5197
 21
175.047
 31
0.0
  0
LINE
  5
169
330
1D
100
AcDbEntity
  8
0
100
AcDbLine
 10
103.2031
 20
157.2697
 30
0.0
 11
104.602
 21
153.7726
 31
0.0
  0
LINE
  5
16A
330
1D
100
AcDbEntity
  8
0
100
AcDbLine
 10
103.0707
 20
146.84
 30
0.0
 11
107.3213
 21
143.64
 31
0.0
  0
LINE
  5
16B
330
1D
100
AcDbEntity
  8
0
100
AcDbLine
 10
57.9087
 20
176.0
 30
0.0
 11
58.5807
 21
176.0
 31
0.0
  0
LINE
  5
16C
330
1D
100
AcDbEntity
  8
0
100
AcDbLine
 10
57.6567
 20
176.0
 30
0.0
 11
57.9087
 21
176.0
 31
0.0
  0
LINE
  5
16D
330
1D
100
AcDbEntity
  8
0
100
AcDbLine
 10
57.6567
 20
176.0
 30
0.0
 11
57.6567
 21
183.0
 31
0.0
  0
LINE
  5
16E
330
1D
100
AcDbEntity
  8
0
100
AcDbLine
 10
59.7007
 20
176.0
 30
0.0
 11
61.1847
 21
176.0
 31
0.0
  0
LINE
  5
16F
330
1D
100
AcDbEntity
  8
0
100
AcDbLine
 10
58.5807
 20
176.0
 30
0.0
 11
59.7007
 21
176.0
 31
0.0
  0
LINE
  5
170
330
1D
100
AcDbEntity
  8
0
100
AcDbLine
 10
61.4727
 20
176.0
 30
0.0
 11
65.9734
 21
176.0
 31
0.0
  0
LINE
  5
171
330
1D
100
AcDbEntity
  8
0
100
AcDbLine
 10
61.4727
 20
176.0
 30
0.0
 11
64.3548
 21
176.0
 31
0.0
  0
LINE
  5
172
330
1D
100
AcDbEntity
  8
0
100
AcDbLine
 10
61.1847
 20
176.0
 30
0.0
 11
62.8647
 21
176.0
 31
0.0
  0
LINE
  5
173
330
1D
100
AcDbEntity
  8
0
100
AcDbLine
 10
64.3548
 20
176.0
 30
0.0
 11
68.4124
 21
176.0
 31
0.0
  0
LINE
  5
174
330
1D
100
AcDbEntity
  8
0
100
AcDbLine
 10
64.6567
 20
176.0
 30
0.0
 11
66.4487
 21
176.0
 31
0.0
  0
LINE
  5
175
330
1D
100
AcDbEntity
  8
0
100
AcDbLine
 10
64.6567
 20
176.0
 30
0.0
 11
65.8514
 21
176.0
 31
0.0
  0
LINE
  5
176
330
1D
100
AcDbEntity
  8
0
100
AcDbLine
 10
65.8514
 20
176.0
 30
0.0
 11
66.9714
 21
176.0
 31
0.0
  0
LINE
  5
177
330
1D
100
AcDbEntity
  8
0
100
AcDbLine
 10
66.4487
 20
176.0
 30
0.0
 11
68.1287
 21
176.0
 31
0.0
  0
LINE
  5
178
330
1D
100
AcDbEntity
  8
0
100
AcDbLine
 10
66.9714
 20
176.0
 30
0.0
 11
67.9607
 21
176.0
 31
0.0
  0
LINE
  5
179
330
1D
100
AcDbEntity
  8
0
100
AcDbLine
 10
68.1287
 20
176.0
 30
0.0
 11
69.6127
 21
176.0
 31
0.0
  0
LINE
  5
17A
330
1D
100
AcDbEntity
  8
0
100
AcDbLine
 10
67.9607
 20
176.0
 30
0.0
 11
68.7074
 21
176.0
 31
0.0
  0
LINE
  5
17B
330
1D
100
AcDbEntity
  8
0
100
AcDbLine
 10
68.7074
 20
176.0
 30
0.0
 11
69.1554
 21
176.0
 31
0.0
  0
LINE
  5
17C
330
1D
100
AcDbEntity
  8
0
100
AcDbLine
 10
69.1554
 20
176.0
 30
0.0
 11
69.3234
 21
176.0
 31
0.0
  0
LINE
  5
17D
330
1D
100
AcDbEntity
  8
0
100
AcDbLine
 10
62.8647
 20
176.0
 30
0.0
 11
64.6567
 21
176.0
 31
0.0
  0
LINE
  5
17E
330
1D
100
AcDbEntity
  8
0
100
AcDbLine
 10
63.462
 20
176.0
 30
0.0
 11
64.6567
 21
176.0
 31
0.0
  0
LINE
  5
17F
330
1D
100
AcDbEntity
  8
0
100
AcDbLine
 10
62.342
 20
176.0
 30
0.0
 11
63.462
 21
176.0
 31
0.0
  0
LINE
  5
180
330
1D
100
AcDbEntity
  8
0
100
AcDbLine
 10
61.3527
 20
176.0
 30
0.0
 11
62.342
 21
176.0
 31
0.0
  0
LINE
  5
181
330
1D
100
AcDbEntity
  8
0
100
AcDbLine
 10
60.606
 20
176.0
 30
0.0
 11
61.3527
 21
176.0
 31
0.0
  0
LINE
  5
182
330
1D
100
AcDbEntity
  8
0
100
AcDbLine
 10
60.158
 20
176.0
 30
0.0
 11
60.606
 21
176.0
 31
0.0
  0
LINE
  5
183
330
1D
100
AcDbEntity
  8
0
100
AcDbLine
 10
59.99
 20
176.0
 30
0.0
 11
60.158
 21
176.0
 31
0.0
  0
LINE
  5
184
330
1D
100
AcDbEntity
  8
0
100
AcDbLine
 10
67.5264
 20
176.0
 30
0.0
 11
69.6477
 21
176.0
 31
0.0
  0
LINE
  5
185
330
1D
100
AcDbEntity
  8
0
100
AcDbLine
 10
67.5264
 20
176.0
 30
0.0
 11
73.827598148148
 21
176.0
 31
0.0
  0
LINE
  5
186
330
1D
100
AcDbEntity
  8
0
100
AcDbLine
 10
69.6127
 20
176.0
 30
0.0
 11
70.7327
 21
176.0
 31
0.0
  0
LINE
  5
187
330
1D
100
AcDbEntity
  8
0
100
AcDbLine
 10
70.7327
 20
176.0
 30
0.0
 11
71.4047
 21
176.0
 31
0.0
  0
LINE
  5
188
330
1D
100
AcDbEntity
  8
0
100
AcDbLine
 10
71.4047
 20
176.0
 30
0.0
 11
71.6567
 21
176.0
 31
0.0
  0
LINE
  5
189
330
1D
100
AcDbEntity
  8
0
100
AcDbLine
 10
69.6477
 20
176.0
 30
0.0
 11
76.3567
 21
176.0
 31
0.0
  0
LINE
  5
18A
330
1D
100
AcDbEntity
  8
0
100
AcDbLine
 10
69.4707
 20
176.0
 30
0.0
 11
70.3035
 21
176.0
 31
0.0
  0
LINE
  5
18B
330
1D
100
AcDbEntity
  8
0
100
AcDbLine
 10
69.4707
 20
176.0
 30
0.0
 11
80.573287962963
 21
176.0
 31
0.0
  0
LINE
  5
18C
330
1D
100
AcDbEntity
  8
0
100
AcDbLine
 10
70.3035
 20
176.0
 30
0.0
 11
85.7567
 21
176.0
 31
0.0
  0
LINE
  5
18D
330
1D
100
AcDbEntity
  8
0
100
AcDbLine
 10
57.929075
 20
176.0
 30
0.0
 11
58.1396
 21
175.16
 31
0.0
  0
LINE
  5
18E
330
1D
100
AcDbEntity
  8
0
100
AcDbLine
 10
64.6567
 20
183.0
 30
0.0
 11
66.4487
 21
183.0
 31
0.0
  0
LINE
  5
18F
330
1D
100
AcDbEntity
  8
0
100
AcDbLine
 10
66.4487
 20
183.0
 30
0.0
 11
68.1287
 21
183.0
 31
0.0
  0
LINE
  5
190
330
1D
100
AcDbEntity
  8
0
100
AcDbLine
 10
68.1287
 20
183.0
 30
0.0
 11
69.6127
 21
183.0
 31
0.0
  0
LINE
  5
191
330
1D
100
AcDbEntity
  8
0
100
AcDbLine
 10
69.6127
 20
183.0
 30
0.0
 11
70.7327
 21
183.0
 31
0.0
  0
LINE
  5
192
330
1D
100
AcDbEntity
  8
0
100
AcDbLine
 10
62.8647
 20
183.0
 30
0.0
 11
64.6567
 21
183.0
 31
0.0
  0
LINE
  5
193
330
1D
100
AcDbEntity
  8
0
100
AcDbLine
 10
61.1847
 20
183.0
 30
0.0
 11
62.8647
 21
183.0
 31
0.0
  0
LINE
  5
194
330
1D
100
AcDbEntity
  8
0
100
AcDbLine
 10
59.7007
 20
183.0
 30
0.0
 11
61.1847
 21
183.0
 31
0.0
  0
LINE
  5
195
330
1D
100
AcDbEntity
  8
0
100
AcDbLine
 10
58.5807
 20
183.0
 30
0.0
 11
59.7007
 21
183.0
 31
0.0
  0
LINE
  5
196
330
1D
100
AcDbEntity
  8
0
100
AcDbLine
 10
57.9087
 20
183.0
 30
0.0
 11
58.5807
 21
183.0
 31
0.0
  0
LINE
  5
197
330
1D
100
AcDbEntity
  8
0
100
AcDbLine
 10
57.6567
 20
183.0
 30
0.0
 11
57.6567
 21
176.0
 31
0.0
  0
LINE
  5
198
330
1D
100
AcDbEntity
  8
0
100
AcDbLine
 10
57.6567
 20
183.0
 30
0.0
 11
57.9087
 21
183.0
 31
0.0
  0
LINE
  5
199
330
1D
100
AcDbEntity
  8
0
100
AcDbLine
 10
70.7327
 20
183.0
 30
0.0
 11
86.6605
 21
183.0
 31
0.0
  0
LINE
  5
19A
330
1D
100
AcDbEntity
  8
0
100
AcDbLine
 10
56.8921
 20
183.0
 30
0.0
 11
57.6567
 21
183.0
 31
0.0
  0
LINE
  5
19B
330
1D
100
AcDbEntity
  8
0
100
AcDbLine
 10
57.3376
 20
178.36
 30
0.0
 11
57.6567
 21
177.086783042394
 31
0.0
  0
LINE
  5
19C
330
1D
100
AcDbEntity
  8
0
100
AcDbLine
 10
56.6572
 20
180.28
 30
0.0
 11
57.3376
 21
178.36
 31
0.0
  0
LINE
  5
19D
330
1D
100
AcDbEntity
  8
0
100
AcDbLine
 10
86.6605
 20
183.0
 30
0.0
 11
86.8784
 21
183.0
 31
0.0
  0
LINE
  5
19E
330
1D
100
AcDbEntity
  8
0
100
AcDbLine
 10
108.818
 20
175.756
 30
0.0
 11
112.898
 21
177.388
 31
0.0
  0
LINE
  5
19F
330
1D
100
AcDbEntity
  8
0
100
AcDbLine
 10
107.33
 20
178.36
 30
0.0
 11
112.13
 21
180.28
 31
0.0
  0
LINE
  5
1A0
330
1D
100
AcDbEntity
  8
0
100
AcDbLine
 10
93.9416
 20
183.0
 30
0.0
 11
101.5184
 21
183.0
 31
0.0
  0
LINE
  5
1A1
330
1D
100
AcDbEntity
  8
0
100
AcDbLine
 10
101.5184
 20
183.0
 30
0.0
 11
109.2879
 21
183.0
 31
0.0
  0
LINE
  5
1A2
330
1D
100
AcDbEntity
  8
0
100
AcDbLine
 10
109.2879
 20
183.0
 30
0.0
 11
117.25
 21
183.0
 31
0.0
  0
LINE
  5
1A3
330
1D
100
AcDbEntity
  8
0
100
AcDbLine
 10
107.3213
 20
178.36
 30
0.0
 11
112.1061
 21
180.28
 31
0.0
  0
LINE
  5
1A4
330
1D
100
AcDbEntity
  8
0
100
AcDbLine
 10
86.8784
 20
183.0
 30
0.0
 11
93.9416
 21
183.0
 31
0.0
  0
LINE
  5
1A5
330
1D
100
AcDbEntity
  8
0
100
AcDbLine
 10
103.09
 20
175.16
 30
0.0
 11
107.33
 21
178.36
 31
0.0
  0
LINE
  5
1A6
330
1D
100
AcDbEntity
  8
0
100
AcDbLine
 10
113.5197
 20
146.9531
 30
0.0
 11
117.25
 21
146.4286
 31
0.0
  0
LINE
  5
1A7
330
1D
100
AcDbEntity
  8
0
100
AcDbLine
 10
117.25
 20
178.0
 30
0.0
 11
121.602
 21
177.388
 31
0.0
  0
LINE
  5
1A8
330
1D
100
AcDbEntity
  8
0
100
AcDbLine
 10
112.898
 20
177.388
 30
0.0
 11
117.25
 21
178.0
 31
0.0
  0
LINE
  5
1A9
330
1D
100
AcDbEntity
  8
0
100
AcDbLine
 10
112.13
 20
180.28
 30
0.0
 11
117.25
 21
181.0
 31
0.0
  0
LINE
  5
1AA
330
1D
100
AcDbEntity
  8
0
100
AcDbLine
 10
117.25
 20
175.571
 30
0.0
 11
120.9803
 21
175.047
 31
0.0
  0
LINE
  5
1AB
330
1D
100
AcDbEntity
  8
0
100
AcDbLine
 10
113.5197
 20
175.047
 30
0.0
 11
117.25
 21
175.571
 31
0.0
  0
LINE
  5
1AC
330
1D
100
AcDbEntity
  8
0
100
AcDbLine
 10
122.37
 20
180.28
 30
0.0
 11
127.17
 21
178.36
 31
0.0
  0
LINE
  5
1AD
330
1D
100
AcDbEntity
  8
0
100
AcDbLine
 10
121.602
 20
177.388
 30
0.0
 11
125.682
 21
175.756
 31
0.0
  0
LINE
  5
1AE
330
1D
100
AcDbEntity
  8
0
100
AcDbLine
 10
120.9803
 20
175.047
 30
0.0
 11
124.4774
 21
173.648
 31
0.0
  0
LINE
  5
1AF
330
1D
100
AcDbEntity
  8
0
100
AcDbLine
 10
120.9803
 20
146.9531
 30
0.0
 11
124.4774
 21
148.352
 31
0.0
  0
LINE
  5
1B0
330
1D
100
AcDbEntity
  8
0
100
AcDbLine
 10
124.4774
 20
148.352
 30
0.0
 11
127.5666
 21
150.6834
 31
0.0
  0
LINE
  5
1B1
330
1D
100
AcDbEntity
  8
0
100
AcDbLine
 10
125.682
 20
175.756
 30
0.0
 11
129.286
 21
173.036
 31
0.0
  0
LINE
  5
1B2
330
1D
100
AcDbEntity
  8
0
100
AcDbLine
 10
124.4774
 20
173.648
 30
0.0
 11
127.5666
 21
171.3166
 31
0.0
  0
LINE
  5
1B3
330
1D
100
AcDbEntity
  8
0
100
AcDbLine
 10
127.5666
 20
150.6834
 30
0.0
 11
129.898
 21
153.7726
 31
0.0
  0
LINE
  5
1B4
330
1D
100
AcDbEntity
  8
0
100
AcDbLine
 10
129.286
 20
148.964
 30
0.0
 11
132.006
 21
152.568
 31
0.0
  0
LINE
  5
1B5
330
1D
100
AcDbEntity
  8
0
100
AcDbLine
 10
129.898
 20
153.7726
 30
0.0
 11
131.2969
 21
157.2697
 31
0.0
  0
LINE
  5
1B6
330
1D
100
AcDbEntity
  8
0
100
AcDbLine
 10
129.286
 20
173.036
 30
0.0
 11
132.006
 21
169.432
 31
0.0
  0
LINE
  5
1B7
330
1D
100
AcDbEntity
  8
0
100
AcDbLine
 10
129.898
 20
168.2274
 30
0.0
 11
131.2969
 21
164.7303
 31
0.0
  0
LINE
  5
1B8
330
1D
100
AcDbEntity
  8
0
100
AcDbLine
 10
127.5666
 20
171.3166
 30
0.0
 11
129.898
 21
168.2274
 31
0.0
  0
LINE
  5
1B9
330
1D
100
AcDbEntity
  8
0
100
AcDbLine
 10
129.898
 20
153.7726
 30
0.0
 11
131.2969
 21
157.2697
 31
0.0
  0
LINE
  5
1BA
330
1D
100
AcDbEntity
  8
0
100
AcDbLine
 10
127.17
 20
178.36
 30
0.0
 11
131.41
 21
175.16
 31
0.0
  0
LINE
  5
1BB
330
1D
100
AcDbEntity
  8
0
100
AcDbLine
 10
127.1787
 20
178.36
 30
0.0
 11
131.4293
 21
175.16
 31
0.0
  0
LINE
  5
1BC
330
1D
100
AcDbEntity
  8
0
100
AcDbLine
 10
122.3939
 20
180.28
 30
0.0
 11
127.1787
 21
178.36
 31
0.0
  0
LINE
  5
1BD
330
1D
100
AcDbEntity
  8
0
100
AcDbLine
 10
117.25
 20
183.0
 30
0.0
 11
125.2121
 21
183.0
 31
0.0
  0
LINE
  5
1BE
330
1D
100
AcDbEntity
  8
0
100
AcDbLine
 10
125.2121
 20
183.0
 30
0.0
 11
132.9816
 21
183.0
 31
0.0
  0
LINE
  5
1BF
330
1D
100
AcDbEntity
  8
0
100
AcDbLine
 10
117.25
 20
181.0
 30
0.0
 11
122.3939
 21
180.28
 31
0.0
  0
LINE
  5
1C0
330
1D
100
AcDbEntity
  8
0
100
AcDbLine
 10
117.25
 20
181.0
 30
0.0
 11
122.37
 21
180.28
 31
0.0
  0
LINE
  5
1C1
330
1D
100
AcDbEntity
  8
0
100
AcDbLine
 10
112.1061
 20
180.28
 30
0.0
 11
117.25
 21
181.0
 31
0.0
  0
LINE
  5
1C2
330
1D
100
AcDbEntity
  8
0
100
AcDbLine
 10
56.25
 20
114.0
 30
0.0
 11
56.25
 21
141.0
 31
0.0
  0
LINE
  5
1C4
330
1D
100
AcDbEntity
  8
0
100
AcDbLine
 10
31.75
 20
75.0
 30
0.0
 11
32.274409
 21
55.0205
 31
0.0
  0
LINE
  5
1C5
330
1D
100
AcDbEntity
  8
0
100
AcDbLine
 10
31.75
 20
75.0
 30
0.0
 11
32.274417
 21
55.0204
 31
0.0
  0
LINE
  5
1CF
330
1D
100
AcDbEntity
  8
0
100
AcDbLine
 10
89.8372
 20
49.8836
 30
0.0
 11
90.2974
 21
49.8836
 31
0.0
  0
LINE
  5
1D0
330
1D
100
AcDbEntity
  8
0
100
AcDbLine
 10
89.8374
 20
49.8836
 30
0.0
 11
90.2973
 21
49.8836
 31
0.0
  0
LINE
  5
1D1
330
1D
100
AcDbEntity
  8
0
100
AcDbLine
 10
90.2973
 20
49.8836
 30
0.0
 11
91.058
 21
49.8836
 31
0.0
  0
LINE
  5
1D2
330
1D
100
AcDbEntity
  8
0
100
AcDbLine
 10
89.6832
 20
49.8836
 30
0.0
 11
89.8374
 21
49.8836
 31
0.0
  0
LINE
  5
1D5
330
1D
100
AcDbEntity
  8
0
100
AcDbLine
 10
91.058
 20
49.8836
 30
0.0
 11
92.1124
 21
49.8836
 31
0.0
  0
LINE
  5
1D6
330
1D
100
AcDbEntity
  8
0
100
AcDbLine
 10
91.0583
 20
49.8836
 30
0.0
 11
92.1119
 21
49.8836
 31
0.0
  0
LINE
  5
1D7
330
1D
100
AcDbEntity
  8
0
100
AcDbLine
 10
90.2974
 20
49.8836
 30
0.0
 11
91.0583
 21
49.8836
 31
0.0
  0
LINE
  5
1D8
330
1D
100
AcDbEntity
  8
0
100
AcDbLine
 10
89.6834
 20
49.8836
 30
0.0
 11
89.8372
 21
49.8836
 31
0.0
  0
LINE
  5
1D9
330
1D
100
AcDbEntity
  8
0
100
AcDbLine
 10
91.7193
 20
54.0489
 30
0.0
 11
92.7613
 21
54.0489
 31
0.0
  0
LINE
  5
1DA
330
1D
100
AcDbEntity
  8
0
100
AcDbLine
 10
91.7201
 20
54.0489
 30
0.0
 11
92.7618
 21
54.0489
 31
0.0
  0
LINE
  5
1DB
330
1D
100
AcDbEntity
  8
0
100
AcDbLine
 10
91.4395
 20
54.0489
 30
0.0
 11
91.75
 21
54.0489
 31
0.0
  0
LINE
  5
1DC
330
1D
100
AcDbEntity
  8
0
100
AcDbLine
 10
91.4395
 20
54.0489
 30
0.0
 11
91.7201
 21
54.0489
 31
0.0
  0
LINE
  5
1DD
330
1D
100
AcDbEntity
  8
0
100
AcDbLine
 10
91.4391
 20
54.0489
 30
0.0
 11
91.7193
 21
54.0489
 31
0.0
  0
LINE
  5
1DE
330
1D
100
AcDbEntity
  8
0
100
AcDbLine
 10
91.4391
 20
54.0489
 30
0.0
 11
91.75
 21
54.0489
 31
0.0
  0
LINE
  5
1E8
330
1D
100
AcDbEntity
  8
0
100
AcDbLine
 10
92.1124
 20
49.8836
 30
0.0
 11
93.4464
 21
49.8836
 31
0.0
  0
LINE
  5
1E9
330
1D
100
AcDbEntity
  8
0
100
AcDbLine
 10
92.7613
 20
54.0489
 30
0.0
 11
94.5318
 21
54.0489
 31
0.0
  0
LINE
  5
1EA
330
1D
100
AcDbEntity
  8
0
100
AcDbLine
 10
94.5318
 20
54.0489
 30
0.0
 11
96.9774
 21
54.0489
 31
0.0
  0
LINE
  5
1EB
330
1D
100
AcDbEntity
  8
0
100
AcDbLine
 10
94.5315
 20
54.0489
 30
0.0
 11
96.9772
 21
54.0489
 31
0.0
  0
LINE
  5
1EC
330
1D
100
AcDbEntity
  8
0
100
AcDbLine
 10
92.7618
 20
54.0489
 30
0.0
 11
94.5315
 21
54.0489
 31
0.0
  0
LINE
  5
1ED
330
1D
100
AcDbEntity
  8
0
100
AcDbLine
 10
93.4464
 20
49.8836
 30
0.0
 11
95.0472
 21
49.8836
 31
0.0
  0
LINE
  5
1EE
330
1D
100
AcDbEntity
  8
0
100
AcDbLine
 10
93.4464
 20
49.8836
 30
0.0
 11
95.0467
 21
49.8836
 31
0.0
  0
LINE
  5
1EF
330
1D
100
AcDbEntity
  8
0
100
AcDbLine
 10
92.1119
 20
49.8836
 30
0.0
 11
93.4464
 21
49.8836
 31
0.0
  0
LINE
  5
1F1
330
1D
100
AcDbEntity
  8
0
100
AcDbLine
 10
91.75
 20
49.8836
 30
0.0
 11
91.75
 21
54.0489
 31
0.0
  0
LINE
  5
1F2
330
1D
100
AcDbEntity
  8
0
100
AcDbLine
 10
131.2969
 20
164.7303
 30
0.0
 11
131.8214
 21
161.0
 31
0.0
  0
LINE
  5
1F3
330
1D
100
AcDbEntity
  8
0
100
AcDbLine
 10
131.2969
 20
164.7303
 30
0.0
 11
131.8214
 21
161.0
 31
0.0
  0
LINE
  5
1F4
330
1D
100
AcDbEntity
  8
0
100
AcDbLine
 10
131.2969
 20
157.2697
 30
0.0
 11
131.8214
 21
161.0
 31
0.0
  0
LINE
  5
1F5
330
1D
100
AcDbEntity
  8
0
100
AcDbLine
 10
131.2969
 20
157.2697
 30
0.0
 11
131.8214
 21
161.0
 31
0.0
  0
LINE
  5
1F6
330
1D
100
AcDbEntity
  8
0
100
AcDbLine
 10
131.41
 20
146.84
 30
0.0
 11
134.61
 21
151.08
 31
0.0
  0
LINE
  5
1F7
330
1D
100
AcDbEntity
  8
0
100
AcDbLine
 10
131.41
 20
175.16
 30
0.0
 11
134.61
 21
170.92
 31
0.0
  0
LINE
  5
1F8
330
1D
100
AcDbEntity
  8
0
100
AcDbLine
 10
131.410000000044
 20
146.840000000058
 30
0.0
 11
134.61
 21
151.08
 31
0.0
  0
LINE
  5
1F9
330
1D
100
AcDbEntity
  8
0
100
AcDbLine
 10
131.4293
 20
175.16
 30
0.0
 11
134.6111
 21
170.92
 31
0.0
  0
LINE
  5
1FA
330
1D
100
AcDbEntity
  8
0
100
AcDbLine
 10
134.61
 20
151.08
 30
0.0
 11
136.53
 21
155.88
 31
0.0
  0
LINE
  5
1FB
330
1D
100
AcDbEntity
  8
0
100
AcDbLine
 10
133.378
 20
110.0
 30
0.0
 11
141.19
 21
110.0
 31
0.0
  0
LINE
  5
1FC
330
1D
100
AcDbEntity
  8
0
100
AcDbLine
 10
134.610000000001
 20
151.080000000002
 30
0.0
 11
136.53
 21
155.88
 31
0.0
  0
LINE
  5
1FD
330
1D
100
AcDbEntity
  8
0
100
AcDbLine
 10
133.638
 20
165.352
 30
0.0
 11
134.25
 21
161.0
 31
0.0
  0
LINE
  5
1FE
330
1D
100
AcDbEntity
  8
0
100
AcDbLine
 10
132.006
 20
169.432
 30
0.0
 11
133.638
 21
165.352
 31
0.0
  0
LINE
  5
1FF
330
1D
100
AcDbEntity
  8
0
100
AcDbLine
 10
134.61
 20
170.92
 30
0.0
 11
136.53
 21
166.12
 31
0.0
  0
LINE
  5
200
330
1D
100
AcDbEntity
  8
0
100
AcDbLine
 10
133.638
 20
156.648
 30
0.0
 11
134.25
 21
161.0
 31
0.0
  0
LINE
  5
201
330
1D
100
AcDbEntity
  8
0
100
AcDbLine
 10
132.006
 20
152.568
 30
0.0
 11
133.638
 21
156.648
 31
0.0
  0
LINE
  5
202
330
1D
100
AcDbEntity
  8
0
100
AcDbLine
 10
132.9816
 20
183.0
 30
0.0
 11
140.5584
 21
183.0
 31
0.0
  0
LINE
  5
203
330
1D
100
AcDbEntity
  8
0
100
AcDbLine
 10
134.6111
 20
170.92
 30
0.0
 11
136.5542
 21
166.12
 31
0.0
  0
LINE
  5
204
330
1D
100
AcDbEntity
  8
0
100
AcDbLine
 10
134.6111
 20
151.08
 30
0.0
 11
136.5542
 21
155.88
 31
0.0
  0
LINE
  5
205
330
1D
100
AcDbEntity
  8
0
100
AcDbLine
 10
131.4293
 20
146.84
 30
0.0
 11
134.6111
 21
151.08
 31
0.0
  0
LINE
  5
206
330
1D
100
AcDbEntity
  8
0
100
AcDbLine
 10
91.75
 20
54.0489
 30
0.0
 11
91.75
 21
49.8836
 31
0.0
  0
LINE
  5
207
330
1D
100
AcDbEntity
  8
0
100
AcDbLine
 10
89.5243
 20
49.8381
 30
0.0
 11
89.6836
 21
49.8836
 31
0.0
  0
LINE
  5
208
330
1D
100
AcDbEntity
  8
0
100
AcDbLine
 10
89.5243
 20
49.8381
 30
0.0
 11
89.6832
 21
49.8836
 31
0.0
  0
LINE
  5
20A
330
1D
100
AcDbEntity
  8
0
100
AcDbLine
 10
94.865
 20
0.058351
 30
0.0
 11
95.0995
 21
0.00003
 31
0.0
  0
LINE
  5
20B
330
1D
100
AcDbEntity
  8
0
100
AcDbLine
 10
94.865
 20
0.058351
 30
0.0
 11
95.0995
 21
0.00003
 31
0.0
  0
LINE
  5
20D
330
1D
100
AcDbEntity
  8
0
100
AcDbLine
 10
94.6854
 20
0.219697
 30
0.0
 11
94.7778
 21
0.130215
 31
0.0
  0
LINE
  5
210
330
1D
100
AcDbEntity
  8
0
100
AcDbLine
 10
94.7778
 20
0.130215
 30
0.0
 11
94.865
 21
0.058351
 31
0.0
  0
LINE
  5
212
330
1D
100
AcDbEntity
  8
0
100
AcDbLine
 10
95.1142
 20
0.00003
 30
0.0
 11
95.4024
 21
0.00003
 31
0.0
  0
LINE
  5
213
330
1D
100
AcDbEntity
  8
0
100
AcDbLine
 10
95.4024
 20
0.00003
 30
0.0
 11
95.967500000045
 21
0.00003
 31
0.0
  0
LINE
  5
214
330
1D
100
AcDbEntity
  8
0
100
AcDbLine
 10
95.114
 20
0.00003
 30
0.0
 11
95.4024
 21
0.00003
 31
0.0
  0
LINE
  5
215
330
1D
100
AcDbEntity
  8
0
100
AcDbLine
 10
95.1415
 20
0.00003
 30
0.0
 11
95.4384
 21
0.00003
 31
0.0
  0
LINE
  5
216
330
1D
100
AcDbEntity
  8
0
100
AcDbLine
 10
95.4024
 20
0.00003
 30
0.0
 11
95.967500000045
 21
0.00003
 31
0.0
  0
LINE
  5
217
330
1D
100
AcDbEntity
  8
0
100
AcDbLine
 10
96.7111
 20
0.000015
 30
0.0
 11
97.4164
 21
0.000015
 31
0.0
  0
LINE
  5
218
330
1D
100
AcDbEntity
  8
0
100
AcDbLine
 10
103.4656
 20
0.0
 30
0.0
 11
104.9487
 21
0.0
 31
0.0
  0
LINE
  5
219
330
1D
100
AcDbEntity
  8
0
100
AcDbLine
 10
104.9487
 20
0.0
 30
0.0
 11
107.0577
 21
0.0
 31
0.0
  0
LINE
  5
21A
330
1D
100
AcDbEntity
  8
0
100
AcDbLine
 10
103.4658
 20
0.0
 30
0.0
 11
104.9482
 21
0.0
 31
0.0
  0
LINE
  5
21B
330
1D
100
AcDbEntity
  8
0
100
AcDbLine
 10
104.9482
 20
0.0
 30
0.0
 11
107.0577
 21
0.0
 31
0.0
  0
LINE
  5
21C
330
1D
100
AcDbEntity
  8
0
100
AcDbLine
 10
109.343
 20
0.0
 30
0.0
 11
111.4501
 21
0.0
 31
0.0
  0
LINE
  5
21D
330
1D
100
AcDbEntity
  8
0
100
AcDbLine
 10
107.0577
 20
0.0
 30
0.0
 11
109.3433
 21
0.0
 31
0.0
  0
LINE
  5
21E
330
1D
100
AcDbEntity
  8
0
100
AcDbLine
 10
107.0577
 20
0.0
 30
0.0
 11
109.343
 21
0.0
 31
0.0
  0
LINE
  5
21F
330
1D
100
AcDbEntity
  8
0
100
AcDbLine
 10
111.4501
 20
0.0
 30
0.0
 11
113.2707
 21
0.0
 31
0.0
  0
LINE
  5
220
330
1D
100
AcDbEntity
  8
0
100
AcDbLine
 10
98.2239
 20
0.000015
 30
0.0
 11
99.6177
 21
0.000015
 31
0.0
  0
LINE
  5
221
330
1D
100
AcDbEntity
  8
0
100
AcDbLine
 10
109.3433
 20
0.0
 30
0.0
 11
111.4502
 21
0.0
 31
0.0
  0
LINE
  5
222
330
1D
100
AcDbEntity
  8
0
100
AcDbLine
 10
113.2703
 20
0.0
 30
0.0
 11
114.5006
 21
0.0
 31
0.0
  0
LINE
  5
223
330
1D
100
AcDbEntity
  8
0
100
AcDbLine
 10
114.5006
 20
0.0
 30
0.0
 11
115.7771
 21
0.0
 31
0.0
  0
LINE
  5
224
330
1D
100
AcDbEntity
  8
0
100
AcDbLine
 10
113.2707
 20
0.0
 30
0.0
 11
114.5009
 21
0.0
 31
0.0
  0
LINE
  5
225
330
1D
100
AcDbEntity
  8
0
100
AcDbLine
 10
115.7771
 20
0.0
 30
0.0
 11
116.7502
 21
0.0
 31
0.0
  0
LINE
  5
226
330
1D
100
AcDbEntity
  8
0
100
AcDbLine
 10
115.7771
 20
0.0
 30
0.0
 11
116.7501
 21
0.0
 31
0.0
  0
LINE
  5
227
330
1D
100
AcDbEntity
  8
0
100
AcDbLine
 10
114.5009
 20
0.0
 30
0.0
 11
115.7771
 21
0.0
 31
0.0
  0
LINE
  5
228
330
1D
100
AcDbEntity
  8
0
100
AcDbLine
 10
111.4502
 20
0.0
 30
0.0
 11
113.2703
 21
0.0
 31
0.0
  0
LINE
  5
229
330
1D
100
AcDbEntity
  8
0
100
AcDbLine
 10
101.1992
 20
0.000015
 30
0.0
 11
103.4656
 21
0.0
 31
0.0
  0
LINE
  5
22A
330
1D
100
AcDbEntity
  8
0
100
AcDbLine
 10
101.1991
 20
0.000015
 30
0.0
 11
103.4658
 21
0.0
 31
0.0
  0
LINE
  5
22B
330
1D
100
AcDbEntity
  8
0
100
AcDbLine
 10
99.6177
 20
0.000015
 30
0.0
 11
101.1991
 21
0.000015
 31
0.0
  0
LINE
  5
22C
330
1D
100
AcDbEntity
  8
0
100
AcDbLine
 10
99.6177
 20
0.000015
 30
0.0
 11
101.1992
 21
0.000015
 31
0.0
  0
LINE
  5
22D
330
1D
100
AcDbEntity
  8
0
100
AcDbLine
 10
98.224
 20
0.000015
 30
0.0
 11
99.6177
 21
0.000015
 31
0.0
  0
LINE
  5
22E
330
1D
100
AcDbEntity
  8
0
100
AcDbLine
 10
97.4164
 20
0.000015
 30
0.0
 11
98.224
 21
0.000015
 31
0.0
  0
LINE
  5
22F
330
1D
100
AcDbEntity
  8
0
100
AcDbLine
 10
97.4164
 20
0.000015
 30
0.0
 11
98.2239
 21
0.000015
 31
0.0
  0
LINE
  5
231
330
1D
100
AcDbEntity
  8
0
100
AcDbLine
 10
95.4384
 20
0.00003
 30
0.0
 11
95.9672
 21
0.00003
 31
0.0
  0
LINE
  5
232
330
1D
100
AcDbEntity
  8
0
100
AcDbLine
 10
95.9675
 20
0.00003
 30
0.0
 11
96.7111
 21
0.000015
 31
0.0
  0
LINE
  5
23D
330
1D
100
AcDbEntity
  8
0
100
AcDbLine
 10
95.9672
 20
0.00003
 30
0.0
 11
96.7111
 21
0.000015
 31
0.0
  0
LINE
  5
25C
330
1D
100
AcDbEntity
  8
0
100
AcDbLine
 10
95.4386
 20
0.00003
 30
0.0
 11
95.9675
 21
0.00003
 31
0.0
  0
LINE
  5
25E
330
1D
100
AcDbEntity
  8
0
100
AcDbLine
 10
95.1417
 20
0.00003
 30
0.0
 11
95.4386
 21
0.00003
 31
0.0
  0
LINE
  5
28B
330
1D
100
AcDbEntity
  8
0
100
AcDbLine
 10
111.6077
 20
32.6402
 30
0.0
 11
111.6527
 21
33.6549
 31
0.0
  0
LINE
  5
28C
330
1D
100
AcDbEntity
  8
0
100
AcDbLine
 10
111.6077
 20
32.6402
 30
0.0
 11
111.7649
 21
31.6338
 31
0.0
  0
LINE
  5
28D
330
1D
100
AcDbEntity
  8
0
100
AcDbLine
 10
111.6527
 20
33.6549
 30
0.0
 11
111.9222
 21
34.7116
 31
0.0
  0
LINE
  5
28E
330
1D
100
AcDbEntity
  8
0
100
AcDbLine
 10
111.7649
 20
31.6338
 30
0.0
 11
112.0345
 21
30.8576
 31
0.0
  0
LINE
  5
28F
330
1D
100
AcDbEntity
  8
0
100
AcDbLine
 10
112.0345
 20
30.8576
 30
0.0
 11
112.4188
 21
30.1436
 31
0.0
  0
LINE
  5
290
330
1D
100
AcDbEntity
  8
0
100
AcDbLine
 10
112.4188
 20
30.1436
 30
0.0
 11
113.0322
 21
29.3674
 31
0.0
  0
LINE
  5
291
330
1D
100
AcDbEntity
  8
0
100
AcDbLine
 10
113.0322
 20
29.3674
 30
0.0
 11
113.7605
 21
28.7397
 31
0.0
  0
LINE
  5
292
330
1D
100
AcDbEntity
  8
0
100
AcDbLine
 10
113.7605
 20
28.7397
 30
0.0
 11
114.281
 21
28.4143
 31
0.0
  0
LINE
  5
293
330
1D
100
AcDbEntity
  8
0
100
AcDbLine
 10
114.281
 20
28.4143
 30
0.0
 11
115.4942
 21
27.9403
 31
0.0
  0
LINE
  5
2A3
330
1D
100
AcDbEntity
  8
0
100
AcDbLine
 10
111.9222
 20
34.7116
 30
0.0
 11
112.399
 21
35.6723
 31
0.0
  0
LINE
  5
2A6
330
1D
100
AcDbEntity
  8
0
100
AcDbLine
 10
112.399
 20
35.6723
 30
0.0
 11
113.0982
 21
36.546
 31
0.0
  0
LINE
  5
2AA
330
1D
100
AcDbEntity
  8
0
100
AcDbLine
 10
113.0982
 20
36.546
 30
0.0
 11
113.9582
 21
37.2405
 31
0.0
  0
LINE
  5
2B2
330
1D
100
AcDbEntity
  8
0
100
AcDbLine
 10
113.9582
 20
37.2405
 30
0.0
 11
114.8351
 21
37.6927
 31
0.0
  0
LINE
  5
2BC
330
1D
100
AcDbEntity
  8
0
100
AcDbLine
 10
116.7499
 20
27.7849
 30
0.0
 11
117.8029
 21
27.8937
 31
0.0
  0
LINE
  5
2C3
330
1D
100
AcDbEntity
  8
0
100
AcDbLine
 10
115.4942
 20
27.9403
 30
0.0
 11
116.7498
 21
27.785
 31
0.0
  0
LINE
  5
2C5
330
1D
100
AcDbEntity
  8
0
100
AcDbLine
 10
115.7769
 20
37.9687
 30
0.0
 11
116.7502
 21
38.0609
 31
0.0
  0
LINE
  5
2C6
330
1D
100
AcDbEntity
  8
0
100
AcDbLine
 10
116.7499
 20
38.0609
 30
0.0
 11
118.0203
 21
37.9026
 31
0.0
  0
LINE
  5
2CB
330
1D
100
AcDbEntity
  8
0
100
AcDbLine
 10
114.8351
 20
37.6927
 30
0.0
 11
115.7769
 21
37.9687
 31
0.0
  0
LINE
  5
2CE
330
1D
100
AcDbEntity
  8
0
100
AcDbLine
 10
116.7501
 20
0.0
 30
0.0
 11
117.7155
 21
0.0
 31
0.0
  0
LINE
  5
2D0
330
1D
100
AcDbEntity
  8
0
100
AcDbLine
 10
116.7503
 20
0.0
 30
0.0
 11
117.7152
 21
0.0
 31
0.0
  0
LINE
  5
2E5
330
1D
100
AcDbEntity
  8
0
100
AcDbLine
 10
117.7155
 20
0.0
 30
0.0
 11
138.108
 21
0.0
 31
0.0
  0
LINE
  5
2EF
330
1D
100
AcDbEntity
  8
0
100
AcDbLine
 10
117.7152
 20
0.0
 30
0.0
 11
138.108
 21
0.0
 31
0.0
  0
LINE
  5
321
330
1D
100
AcDbEntity
  8
0
100
AcDbLine
 10
118.8337
 20
28.2244
 30
0.0
 11
119.7361
 21
28.7374
 31
0.0
  0
LINE
  5
326
330
1D
100
AcDbEntity
  8
0
100
AcDbLine
 10
117.8029
 20
27.8937
 30
0.0
 11
118.8337
 21
28.2244
 31
0.0
  0
LINE
  5
32F
330
1D
100
AcDbEntity
  8
0
100
AcDbLine
 10
119.7361
 20
28.7374
 30
0.0
 11
120.541
 21
29.4453
 31
0.0
  0
LINE
  5
332
330
1D
100
AcDbEntity
  8
0
100
AcDbLine
 10
120.541
 20
29.4453
 30
0.0
 11
121.147
 21
30.2485
 31
0.0
  0
LINE
  5
337
330
1D
100
AcDbEntity
  8
0
100
AcDbLine
 10
121.147
 20
30.2485
 30
0.0
 11
121.5935
 21
31.177
 31
0.0
  0
LINE
  5
344
330
1D
100
AcDbEntity
  8
0
100
AcDbLine
 10
119.904
 20
36.9854
 30
0.0
 11
120.668
 21
36.258
 31
0.0
  0
LINE
  5
34A
330
1D
100
AcDbEntity
  8
0
100
AcDbLine
 10
121.2742
 20
35.3783
 30
0.0
 11
121.6658
 21
34.4551
 31
0.0
  0
LINE
  5
34D
330
1D
100
AcDbEntity
  8
0
100
AcDbLine
 10
120.668
 20
36.258
 30
0.0
 11
121.2742
 21
35.3783
 31
0.0
  0
LINE
  5
350
330
1D
100
AcDbEntity
  8
0
100
AcDbLine
 10
119.2192
 20
37.4324
 30
0.0
 11
119.904
 21
36.9854
 31
0.0
  0
LINE
  5
356
330
1D
100
AcDbEntity
  8
0
100
AcDbLine
 10
118.0203
 20
37.9026
 30
0.0
 11
119.2192
 21
37.4324
 31
0.0
  0
LINE
  5
359
330
1D
100
AcDbEntity
  8
0
100
AcDbLine
 10
121.5935
 20
31.177
 30
0.0
 11
121.8623
 21
32.3019
 31
0.0
  0
LINE
  5
369
330
1D
100
AcDbEntity
  8
0
100
AcDbLine
 10
121.6658
 20
34.4551
 30
0.0
 11
121.8719
 21
33.4591
 31
0.0
  0
LINE
  5
36D
330
1D
100
AcDbEntity
  8
0
100
AcDbLine
 10
121.8623
 20
32.3019
 30
0.0
 11
121.8719
 21
33.4591
 31
0.0
  0
LINE
  5
37E
330
1D
100
AcDbEntity
  8
0
100
AcDbLine
 10
138.108
 20
0.0
 30
0.0
 11
138.318
 21
0.0
 31
0.0
  0
LINE
  5
37F
330
1D
100
AcDbEntity
  8
0
100
AcDbLine
 10
138.414
 20
0.0
 30
0.0
 11
138.635
 21
0.058321
 31
0.0
  0
LINE
  5
380
330
1D
100
AcDbEntity
  8
0
100
AcDbLine
 10
138.414
 20
0.0
 30
0.0
 11
138.635
 21
0.058321
 31
0.0
  0
LINE
  5
381
330
1D
100
AcDbEntity
  8
0
100
AcDbLine
 10
138.318
 20
0.0
 30
0.0
 11
138.414
 21
0.0
 31
0.0
  0
LINE
  5
382
330
1D
100
AcDbEntity
  8
0
100
AcDbLine
 10
138.635
 20
0.058321
 30
0.0
 11
138.75
 21
0.129517
 31
0.0
  0
LINE
  5
384
330
1D
100
AcDbEntity
  8
0
100
AcDbLine
 10
138.75
 20
0.129517
 30
0.0
 11
138.815
 21
0.219667
 31
0.0
  0
LINE
  5
386
330
1D
100
AcDbEntity
  8
0
100
AcDbLine
 10
138.141
 20
0.0
 30
0.0
 11
138.4
 21
0.0
 31
0.0
  0
LINE
  5
387
330
1D
100
AcDbEntity
  8
0
100
AcDbLine
 10
138.141
 20
0.0
 30
0.0
 11
138.401
 21
0.0
 31
0.0
  0
LINE
  5
388
330
1D
100
AcDbEntity
  8
0
100
AcDbLine
 10
138.108
 20
0.0
 30
0.0
 11
138.318
 21
0.0
 31
0.0
  0
LINE
  5
391
330
1D
100
AcDbEntity
  8
0
100
AcDbLine
 10
138.815
 20
0.219667
 30
0.0
 11
138.897
 21
0.446291
 31
0.0
  0
LINE
  5
395
330
1D
100
AcDbEntity
  8
0
100
AcDbLine
 10
138.897
 20
0.446291
 30
0.0
 11
144.115
 21
49.5528
 31
0.0
  0
LINE
  5
396
330
1D
100
AcDbEntity
  8
0
100
AcDbLine
 10
138.897
 20
0.446191
 30
0.0
 11
144.115
 21
49.5525
 31
0.0
  0
LINE
  5
3A7
330
1D
100
AcDbEntity
  8
0
100
AcDbLine
 10
95.0467
 20
49.8836
 30
0.0
 11
96.8949
 21
49.8836
 31
0.0
  0
LINE
  5
3A8
330
1D
100
AcDbEntity
  8
0
100
AcDbLine
 10
96.8949
 20
49.8836
 30
0.0
 11
98.9677
 21
49.8836
 31
0.0
  0
LINE
  5
3A9
330
1D
100
AcDbEntity
  8
0
100
AcDbLine
 10
95.0472
 20
49.8836
 30
0.0
 11
96.8943
 21
49.8836
 31
0.0
  0
LINE
  5
3AA
330
1D
100
AcDbEntity
  8
0
100
AcDbLine
 10
96.8943
 20
49.8836
 30
0.0
 11
98.9677
 21
49.8836
 31
0.0
  0
LINE
  5
3AE
330
1D
100
AcDbEntity
  8
0
100
AcDbLine
 10
101.2432
 20
49.8836
 30
0.0
 11
103.6946
 21
49.8836
 31
0.0
  0
LINE
  5
3B0
330
1D
100
AcDbEntity
  8
0
100
AcDbLine
 10
98.9677
 20
49.8836
 30
0.0
 11
101.2434
 21
49.8836
 31
0.0
  0
LINE
  5
3B1
330
1D
100
AcDbEntity
  8
0
100
AcDbLine
 10
98.9677
 20
49.8836
 30
0.0
 11
101.2432
 21
49.8836
 31
0.0
  0
LINE
  5
3B2
330
1D
100
AcDbEntity
  8
0
100
AcDbLine
 10
101.2434
 20
49.8836
 30
0.0
 11
103.6946
 21
49.8836
 31
0.0
  0
LINE
  5
3BA
330
1D
100
AcDbEntity
  8
0
100
AcDbLine
 10
106.1408
 20
49.8836
 30
0.0
 11
108.6938
 21
49.8836
 31
0.0
  0
LINE
  5
3BB
330
1D
100
AcDbEntity
  8
0
100
AcDbLine
 10
111.3282
 20
49.8836
 30
0.0
 11
114.0169
 21
49.8836
 31
0.0
  0
LINE
  5
3BC
330
1D
100
AcDbEntity
  8
0
100
AcDbLine
 10
108.6938
 20
49.8836
 30
0.0
 11
111.3279
 21
49.8836
 31
0.0
  0
LINE
  5
3BD
330
1D
100
AcDbEntity
  8
0
100
AcDbLine
 10
108.6938
 20
49.8836
 30
0.0
 11
111.3282
 21
49.8836
 31
0.0
  0
LINE
  5
3BE
330
1D
100
AcDbEntity
  8
0
100
AcDbLine
 10
111.3279
 20
49.8836
 30
0.0
 11
114.0169
 21
49.8836
 31
0.0
  0
LINE
  5
3BF
330
1D
100
AcDbEntity
  8
0
100
AcDbLine
 10
106.1411
 20
49.8836
 30
0.0
 11
108.6938
 21
49.8836
 31
0.0
  0
LINE
  5
3C0
330
1D
100
AcDbEntity
  8
0
100
AcDbLine
 10
103.6946
 20
49.8836
 30
0.0
 11
106.1411
 21
49.8836
 31
0.0
  0
LINE
  5
3C1
330
1D
100
AcDbEntity
  8
0
100
AcDbLine
 10
103.6946
 20
49.8836
 30
0.0
 11
106.1408
 21
49.8836
 31
0.0
  0
LINE
  5
3CA
330
1D
100
AcDbEntity
  8
0
100
AcDbLine
 10
114.0169
 20
49.8836
 30
0.0
 11
116.75
 21
49.8836
 31
0.0
  0
LINE
  5
3CB
330
1D
100
AcDbEntity
  8
0
100
AcDbLine
 10
136.53
 20
155.88
 30
0.0
 11
137.25
 21
161.0
 31
0.0
  0
LINE
  5
3CC
330
1D
100
AcDbEntity
  8
0
100
AcDbLine
 10
136.766
 20
110.0
 30
0.0
 11
138.834
 21
110.0
 31
0.0
  0
LINE
  5
3CD
330
1D
100
AcDbEntity
  8
0
100
AcDbLine
 10
136.766
 20
110.0
 30
0.0
 11
138.7257
 21
110.0
 31
0.0
  0
LINE
  5
3CE
330
1D
100
AcDbEntity
  8
0
100
AcDbLine
 10
138.268
 20
110.0
 30
0.0
 11
139.116
 21
110.0
 31
0.0
  0
LINE
  5
3CF
330
1D
100
AcDbEntity
  8
0
100
AcDbLine
 10
137.628
 20
110.0
 30
0.0
 11
138.268
 21
110.0
 31
0.0
  0
LINE
  5
3D0
330
1D
100
AcDbEntity
  8
0
100
AcDbLine
 10
137.244
 20
110.0
 30
0.0
 11
137.628
 21
110.0
 31
0.0
  0
LINE
  5
3D1
330
1D
100
AcDbEntity
  8
0
100
AcDbLine
 10
137.1
 20
110.0
 30
0.0
 11
137.244
 21
110.0
 31
0.0
  0
LINE
  5
3D2
330
1D
100
AcDbEntity
  8
0
100
AcDbLine
 10
136.53
 20
166.12
 30
0.0
 11
137.25
 21
161.0
 31
0.0
  0
LINE
  5
3D3
330
1D
100
AcDbEntity
  8
0
100
AcDbLine
 10
136.5542
 20
166.12
 30
0.0
 11
137.25
 21
161.0
 31
0.0
  0
LINE
  5
3D4
330
1D
100
AcDbEntity
  8
0
100
AcDbLine
 10
136.5542
 20
155.88
 30
0.0
 11
137.25
 21
161.0
 31
0.0
  0
LINE
  5
3D5
330
1D
100
AcDbEntity
  8
0
100
AcDbLine
 10
96.9774
 20
54.0489
 30
0.0
 11
100.0242
 21
54.0489
 31
0.0
  0
LINE
  5
3D6
330
1D
100
AcDbEntity
  8
0
100
AcDbLine
 10
100.0242
 20
54.0489
 30
0.0
 11
103.578
 21
54.0489
 31
0.0
  0
LINE
  5
3D7
330
1D
100
AcDbEntity
  8
0
100
AcDbLine
 10
103.578
 20
54.0489
 30
0.0
 11
107.5318
 21
54.0489
 31
0.0
  0
LINE
  5
3D8
330
1D
100
AcDbEntity
  8
0
100
AcDbLine
 10
107.5318
 20
54.0489
 30
0.0
 11
111.7658
 21
54.0489
 31
0.0
  0
LINE
  5
3D9
330
1D
100
AcDbEntity
  8
0
100
AcDbLine
 10
111.7658
 20
54.0489
 30
0.0
 11
116.1526
 21
54.0489
 31
0.0
  0
LINE
  5
3DA
330
1D
100
AcDbEntity
  8
0
100
AcDbLine
 10
116.1526
 20
54.0489
 30
0.0
 11
120.5573
 21
54.0489
 31
0.0
  0
LINE
  5
3DB
330
1D
100
AcDbEntity
  8
0
100
AcDbLine
 10
116.1525
 20
54.0489
 30
0.0
 11
120.557
 21
54.0489
 31
0.0
  0
LINE
  5
3DC
330
1D
100
AcDbEntity
  8
0
100
AcDbLine
 10
111.7668
 20
54.0489
 30
0.0
 11
116.1525
 21
54.0489
 31
0.0
  0
LINE
  5
3DD
330
1D
100
AcDbEntity
  8
0
100
AcDbLine
 10
107.532
 20
54.0489
 30
0.0
 11
111.7668
 21
54.0489
 31
0.0
  0
LINE
  5
3DE
330
1D
100
AcDbEntity
  8
0
100
AcDbLine
 10
103.5771
 20
54.0489
 30
0.0
 11
107.532
 21
54.0489
 31
0.0
  0
LINE
  5
3DF
330
1D
100
AcDbEntity
  8
0
100
AcDbLine
 10
138.834
 20
110.0
 30
0.0
 11
140.6961
 21
110.0
 31
0.0
  0
LINE
  5
3E0
330
1D
100
AcDbEntity
  8
0
100
AcDbLine
 10
138.7257
 20
110.0
 30
0.0
 11
140.6961
 21
110.0
 31
0.0
  0
LINE
  5
3E1
330
1D
100
AcDbEntity
  8
0
100
AcDbLine
 10
140.076
 20
110.0
 30
0.0
 11
141.1
 21
110.0
 31
0.0
  0
LINE
  5
3E2
330
1D
100
AcDbEntity
  8
0
100
AcDbLine
 10
139.116
 20
110.0
 30
0.0
 11
140.076
 21
110.0
 31
0.0
  0
LINE
  5
3E3
330
1D
100
AcDbEntity
  8
0
100
AcDbLine
 10
141.1
 20
110.0
 30
0.0
 11
142.124
 21
110.0
 31
0.0
  0
LINE
  5
3E4
330
1D
100
AcDbEntity
  8
0
100
AcDbLine
 10
142.124
 20
110.0
 30
0.0
 11
143.084
 21
110.0
 31
0.0
  0
LINE
  5
3E5
330
1D
100
AcDbEntity
  8
0
100
AcDbLine
 10
141.95
 20
110.0
 30
0.0
 11
190.75
 21
110.0
 31
0.0
  0
LINE
  5
3E6
330
1D
100
AcDbEntity
  8
0
100
AcDbLine
 10
141.95
 20
110.0
 30
0.0
 11
142.75
 21
110.0
 31
0.0
  0
LINE
  5
3E7
330
1D
100
AcDbEntity
  8
0
100
AcDbLine
 10
143.42
 20
110.0
 30
0.0
 11
144.678
 21
110.0
 31
0.0
  0
LINE
  5
3E8
330
1D
100
AcDbEntity
  8
0
100
AcDbLine
 10
143.42
 20
110.0
 30
0.0
 11
152.411
 21
110.0
 31
0.0
  0
LINE
  5
3E9
330
1D
100
AcDbEntity
  8
0
100
AcDbLine
 10
143.084
 20
110.0
 30
0.0
 11
143.932
 21
110.0
 31
0.0
  0
LINE
  5
3EA
330
1D
100
AcDbEntity
  8
0
100
AcDbLine
 10
143.932
 20
110.0
 30
0.0
 11
144.572
 21
110.0
 31
0.0
  0
LINE
  5
3EB
330
1D
100
AcDbEntity
  8
0
100
AcDbLine
 10
144.678
 20
110.0
 30
0.0
 11
155.108
 21
110.0
 31
0.0
  0
LINE
  5
3EC
330
1D
100
AcDbEntity
  8
0
100
AcDbLine
 10
144.572
 20
110.0
 30
0.0
 11
144.956
 21
110.0
 31
0.0
  0
LINE
  5
3ED
330
1D
100
AcDbEntity
  8
0
100
AcDbLine
 10
144.956
 20
110.0
 30
0.0
 11
145.1
 21
110.0
 31
0.0
  0
LINE
  5
3EE
330
1D
100
AcDbEntity
  8
0
100
AcDbLine
 10
142.75
 20
110.0
 30
0.0
 11
192.75
 21
110.0
 31
0.0
  0
LINE
  5
3EF
330
1D
100
AcDbEntity
  8
0
100
AcDbLine
 10
142.75
 20
110.0
 30
0.0
 11
142.75
 21
114.0
 31
0.0
  0
LINE
  5
3F0
330
1D
100
AcDbEntity
  8
0
100
AcDbLine
 10
142.75
 20
114.0
 30
0.0
 11
142.75
 21
110.0
 31
0.0
  0
LINE
  5
3F1
330
1D
100
AcDbEntity
  8
0
100
AcDbLine
 10
142.75
 20
114.0
 30
0.0
 11
192.75
 21
114.0
 31
0.0
  0
LINE
  5
3F2
330
1D
100
AcDbEntity
  8
0
100
AcDbLine
 10
141.19
 20
110.0
 30
0.0
 11
148.498
 21
110.0
 31
0.0
  0
LINE
  5
3F3
330
1D
100
AcDbEntity
  8
0
100
AcDbLine
 10
148.498
 20
110.0
 30
0.0
 11
155.554
 21
110.0
 31
0.0
  0
LINE
  5
3F4
330
1D
100
AcDbEntity
  8
0
100
AcDbLine
 10
152.411
 20
110.0
 30
0.0
 11
155.108
 21
110.0
 31
0.0
  0
LINE
  5
3F5
330
1D
100
AcDbEntity
  8
0
100
AcDbLine
 10
155.554
 20
110.0
 30
0.0
 11
161.602
 21
110.0
 31
0.0
  0
LINE
  5
3F6
330
1D
100
AcDbEntity
  8
0
100
AcDbLine
 10
151.816
 20
176.0
 30
0.0
 11
165.029
 21
176.0
 31
0.0
  0
LINE
  5
3F7
330
1D
100
AcDbEntity
  8
0
100
AcDbLine
 10
148.743
 20
176.0
 30
0.0
 11
164.196
 21
176.0
 31
0.0
  0
LINE
  5
3F8
330
1D
100
AcDbEntity
  8
0
100
AcDbLine
 10
147.84
 20
183.0
 30
0.0
 11
163.767
 21
183.0
 31
0.0
  0
LINE
  5
3F9
330
1D
100
AcDbEntity
  8
0
100
AcDbLine
 10
147.622
 20
183.0
 30
0.0
 11
147.84
 21
183.0
 31
0.0
  0
LINE
  5
3FA
330
1D
100
AcDbEntity
  8
0
100
AcDbLine
 10
140.5584
 20
183.0
 30
0.0
 11
147.622
 21
183.0
 31
0.0
  0
LINE
  5
3FB
330
1D
100
AcDbEntity
  8
0
100
AcDbLine
 10
100.0229
 20
54.0489
 30
0.0
 11
103.5771
 21
54.0489
 31
0.0
  0
LINE
  5
3FC
330
1D
100
AcDbEntity
  8
0
100
AcDbLine
 10
96.9772
 20
54.0489
 30
0.0
 11
100.0229
 21
54.0489
 31
0.0
  0
LINE
  5
3FD
330
1D
100
AcDbEntity
  8
0
100
AcDbLine
 10
116.75
 20
49.8836
 30
0.0
 11
119.1514
 21
49.8836
 31
0.0
  0
LINE
  5
3FE
330
1D
100
AcDbEntity
  8
0
100
AcDbLine
 10
116.75
 20
49.8836
 30
0.0
 11
119.1517
 21
49.8836
 31
0.0
  0
LINE
  5
421
330
1D
100
AcDbEntity
  8
0
100
AcDbLine
 10
119.1517
 20
49.8836
 30
0.0
 11
122.3212
 21
49.8836
 31
0.0
  0
LINE
  5
425
330
1D
100
AcDbEntity
  8
0
100
AcDbLine
 10
119.1514
 20
49.8836
 30
0.0
 11
122.3209
 21
49.8836
 31
0.0
  0
LINE
  5
426
330
1D
100
AcDbEntity
  8
0
100
AcDbLine
 10
125.4125
 20
49.8836
 30
0.0
 11
128.3822
 21
49.8836
 31
0.0
  0
LINE
  5
427
330
1D
100
AcDbEntity
  8
0
100
AcDbLine
 10
122.3212
 20
49.8836
 30
0.0
 11
125.4125
 21
49.8836
 31
0.0
  0
LINE
  5
428
330
1D
100
AcDbEntity
  8
0
100
AcDbLine
 10
122.3209
 20
49.8836
 30
0.0
 11
125.4123
 21
49.8836
 31
0.0
  0
LINE
  5
429
330
1D
100
AcDbEntity
  8
0
100
AcDbLine
 10
125.4123
 20
49.8836
 30
0.0
 11
128.3822
 21
49.8836
 31
0.0
  0
LINE
  5
42A
330
1D
100
AcDbEntity
  8
0
100
AcDbLine
 10
128.3822
 20
49.8836
 30
0.0
 11
130.9196
 21
49.8836
 31
0.0
  0
LINE
  5
42B
330
1D
100
AcDbEntity
  8
0
100
AcDbLine
 10
130.9196
 20
49.8836
 30
0.0
 11
133.296
 21
49.8836
 31
0.0
  0
LINE
  5
42C
330
1D
100
AcDbEntity
  8
0
100
AcDbLine
 10
137.458
 20
49.8836
 30
0.0
 11
139.198
 21
49.8836
 31
0.0
  0
LINE
  5
42D
330
1D
100
AcDbEntity
  8
0
100
AcDbLine
 10
135.483
 20
49.8836
 30
0.0
 11
137.458
 21
49.8836
 31
0.0
  0
LINE
  5
42E
330
1D
100
AcDbEntity
  8
0
100
AcDbLine
 10
133.296
 20
49.8836
 30
0.0
 11
135.484
 21
49.8836
 31
0.0
  0
LINE
  5
42F
330
1D
100
AcDbEntity
  8
0
100
AcDbLine
 10
133.296
 20
49.8836
 30
0.0
 11
135.483
 21
49.8836
 31
0.0
  0
LINE
  5
430
330
1D
100
AcDbEntity
  8
0
100
AcDbLine
 10
135.484
 20
49.8836
 30
0.0
 11
137.459
 21
49.8836
 31
0.0
  0
LINE
  5
431
330
1D
100
AcDbEntity
  8
0
100
AcDbLine
 10
139.198
 20
49.8836
 30
0.0
 11
140.828
 21
49.8836
 31
0.0
  0
LINE
  5
432
330
1D
100
AcDbEntity
  8
0
100
AcDbLine
 10
137.459
 20
49.8836
 30
0.0
 11
139.199
 21
49.8836
 31
0.0
  0
LINE
  5
433
330
1D
100
AcDbEntity
  8
0
100
AcDbLine
 10
139.199
 20
49.8836
 30
0.0
 11
140.828
 21
49.8836
 31
0.0
  0
LINE
  5
434
330
1D
100
AcDbEntity
  8
0
100
AcDbLine
 10
140.828
 20
49.8836
 30
0.0
 11
142.12
 21
49.8836
 31
0.0
  0
LINE
  5
435
330
1D
100
AcDbEntity
  8
0
100
AcDbLine
 10
140.828
 20
49.8836
 30
0.0
 11
142.121
 21
49.8836
 31
0.0
  0
LINE
  5
437
330
1D
100
AcDbEntity
  8
0
100
AcDbLine
 10
141.75
 20
49.8836
 30
0.0
 11
141.75
 21
54.0489
 31
0.0
  0
LINE
  5
441
330
1D
100
AcDbEntity
  8
0
100
AcDbLine
 10
142.121
 20
49.8836
 30
0.0
 11
143.057
 21
49.8836
 31
0.0
  0
LINE
  5
442
330
1D
100
AcDbEntity
  8
0
100
AcDbLine
 10
142.12
 20
49.8836
 30
0.0
 11
143.057
 21
49.8836
 31
0.0
  0
LINE
  5
443
330
1D
100
AcDbEntity
  8
0
100
AcDbLine
 10
144.086
 20
49.7154
 30
0.0
 11
144.115
 21
49.5528
 31
0.0
  0
LINE
  5
444
330
1D
100
AcDbEntity
  8
0
100
AcDbLine
 10
143.625
 20
49.8836
 30
0.0
 11
143.817
 21
49.8836
 31
0.0
  0
LINE
  5
445
330
1D
100
AcDbEntity
  8
0
100
AcDbLine
 10
143.625
 20
49.8836
 30
0.0
 11
143.816
 21
49.8836
 31
0.0
  0
LINE
  5
446
330
1D
100
AcDbEntity
  8
0
100
AcDbLine
 10
143.976
 20
49.8381
 30
0.0
 11
144.086
 21
49.7154
 31
0.0
  0
LINE
  5
447
330
1D
100
AcDbEntity
  8
0
100
AcDbLine
 10
143.057
 20
49.8836
 30
0.0
 11
143.625
 21
49.8836
 31
0.0
  0
LINE
  5
44B
330
1D
100
AcDbEntity
  8
0
100
AcDbLine
 10
120.5573
 20
54.0489
 30
0.0
 11
124.8447
 21
54.0489
 31
0.0
  0
LINE
  5
44C
330
1D
100
AcDbEntity
  8
0
100
AcDbLine
 10
124.8447
 20
54.0489
 30
0.0
 11
128.8877
 21
54.0489
 31
0.0
  0
LINE
  5
44D
330
1D
100
AcDbEntity
  8
0
100
AcDbLine
 10
128.8877
 20
54.0489
 30
0.0
 11
132.561
 21
54.0489
 31
0.0
  0
LINE
  5
44E
330
1D
100
AcDbEntity
  8
0
100
AcDbLine
 10
132.561
 20
54.0489
 30
0.0
 11
135.756
 21
54.0489
 31
0.0
  0
LINE
  5
44F
330
1D
100
AcDbEntity
  8
0
100
AcDbLine
 10
135.756
 20
54.0489
 30
0.0
 11
138.37
 21
54.0489
 31
0.0
  0
LINE
  5
450
330
1D
100
AcDbEntity
  8
0
100
AcDbLine
 10
138.37
 20
54.0489
 30
0.0
 11
140.329
 21
54.0489
 31
0.0
  0
LINE
  5
451
330
1D
100
AcDbEntity
  8
0
100
AcDbLine
 10
140.329
 20
54.0489
 30
0.0
 11
141.572
 21
54.0489
 31
0.0
  0
LINE
  5
452
330
1D
100
AcDbEntity
  8
0
100
AcDbLine
 10
141.572
 20
54.0489
 30
0.0
 11
142.06
 21
54.0489
 31
0.0
  0
LINE
  5
453
330
1D
100
AcDbEntity
  8
0
100
AcDbLine
 10
141.572
 20
54.0489
 30
0.0
 11
142.061
 21
54.0489
 31
0.0
  0
LINE
  5
454
330
1D
100
AcDbEntity
  8
0
100
AcDbLine
 10
140.33
 20
54.0489
 30
0.0
 11
141.572
 21
54.0489
 31
0.0
  0
LINE
  5
455
330
1D
100
AcDbEntity
  8
0
100
AcDbLine
 10
138.371
 20
54.0489
 30
0.0
 11
140.33
 21
54.0489
 31
0.0
  0
LINE
  5
456
330
1D
100
AcDbEntity
  8
0
100
AcDbLine
 10
135.755
 20
54.0489
 30
0.0
 11
138.371
 21
54.0489
 31
0.0
  0
LINE
  5
457
330
1D
100
AcDbEntity
  8
0
100
AcDbLine
 10
132.562
 20
54.0489
 30
0.0
 11
135.755
 21
54.0489
 31
0.0
  0
LINE
  5
458
330
1D
100
AcDbEntity
  8
0
100
AcDbLine
 10
128.8879
 20
54.0489
 30
0.0
 11
132.562
 21
54.0489
 31
0.0
  0
LINE
  5
459
330
1D
100
AcDbEntity
  8
0
100
AcDbLine
 10
124.845
 20
54.0489
 30
0.0
 11
128.8879
 21
54.0489
 31
0.0
  0
LINE
  5
45A
330
1D
100
AcDbEntity
  8
0
100
AcDbLine
 10
120.557
 20
54.0489
 30
0.0
 11
124.845
 21
54.0489
 31
0.0
  0
LINE
  5
45B
330
1D
100
AcDbEntity
  8
0
100
AcDbLine
 10
141.75
 20
54.0489
 30
0.0
 11
200.226
 21
54.0489
 31
0.0
  0
LINE
  5
45C
330
1D
100
AcDbEntity
  8
0
100
AcDbLine
 10
141.781
 20
54.0489
 30
0.0
 11
142.061
 21
54.0489
 31
0.0
  0
LINE
  5
45D
330
1D
100
AcDbEntity
  8
0
100
AcDbLine
 10
141.78
 20
54.0489
 30
0.0
 11
142.06
 21
54.0489
 31
0.0
  0
LINE
  5
45E
330
1D
100
AcDbEntity
  8
0
100
AcDbLine
 10
200.226
 20
54.0489
 30
0.0
 11
200.718
 21
54.1782
 31
0.0
  0
LINE
  5
45F
330
1D
100
AcDbEntity
  8
0
100
AcDbLine
 10
201.083
 20
54.5327
 30
0.0
 11
201.226
 21
55.0204
 31
0.0
  0
LINE
  5
460
330
1D
100
AcDbEntity
  8
0
100
AcDbLine
 10
141.75
 20
54.0489
 30
0.0
 11
141.75
 21
49.8836
 31
0.0
  0
LINE
  5
462
330
1D
100
AcDbEntity
  8
0
100
AcDbLine
 10
201.226
 20
55.0205
 30
0.0
 11
201.75
 21
75.0
 31
0.0
  0
LINE
  5
464
330
1D
100
AcDbEntity
  8
0
100
AcDbLine
 10
201.226
 20
55.0204
 30
0.0
 11
201.75
 21
75.0
 31
0.0
  0
LINE
  5
465
330
1D
100
AcDbEntity
  8
0
100
AcDbLine
 10
178.25
 20
75.0
 30
0.0
 11
178.25
 21
110.0
 31
0.0
  0
LINE
  5
466
330
1D
100
AcDbEntity
  8
0
100
AcDbLine
 10
162.975
 20
110.0
 30
0.0
 11
163.999
 21
110.0
 31
0.0
  0
LINE
  5
467
330
1D
100
AcDbEntity
  8
0
100
AcDbLine
 10
162.015
 20
110.0
 30
0.0
 11
162.975
 21
110.0
 31
0.0
  0
LINE
  5
468
330
1D
100
AcDbEntity
  8
0
100
AcDbLine
 10
161.167
 20
110.0
 30
0.0
 11
162.015
 21
110.0
 31
0.0
  0
LINE
  5
469
330
1D
100
AcDbEntity
  8
0
100
AcDbLine
 10
160.527
 20
110.0
 30
0.0
 11
161.167
 21
110.0
 31
0.0
  0
LINE
  5
46A
330
1D
100
AcDbEntity
  8
0
100
AcDbLine
 10
160.143
 20
110.0
 30
0.0
 11
160.527
 21
110.0
 31
0.0
  0
LINE
  5
46B
330
1D
100
AcDbEntity
  8
0
100
AcDbLine
 10
159.999
 20
110.0
 30
0.0
 11
160.143
 21
110.0
 31
0.0
  0
LINE
  5
46C
330
1D
100
AcDbEntity
  8
0
100
AcDbLine
 10
163.999
 20
110.0
 30
0.0
 11
165.023
 21
110.0
 31
0.0
  0
LINE
  5
46D
330
1D
100
AcDbEntity
  8
0
100
AcDbLine
 10
166.088
 20
110.0
 30
0.0
 11
189.813
 21
110.0
 31
0.0
  0
LINE
  5
46E
330
1D
100
AcDbEntity
  8
0
100
AcDbLine
 10
166.088
 20
110.0
 30
0.0
 11
167.436
 21
110.0
 31
0.0
  0
LINE
  5
46F
330
1D
100
AcDbEntity
  8
0
100
AcDbLine
 10
165.023
 20
110.0
 30
0.0
 11
165.983
 21
110.0
 31
0.0
  0
LINE
  5
470
330
1D
100
AcDbEntity
  8
0
100
AcDbLine
 10
165.983
 20
110.0
 30
0.0
 11
166.831
 21
110.0
 31
0.0
  0
LINE
  5
471
330
1D
100
AcDbEntity
  8
0
100
AcDbLine
 10
166.831
 20
110.0
 30
0.0
 11
167.471
 21
110.0
 31
0.0
  0
LINE
  5
472
330
1D
100
AcDbEntity
  8
0
100
AcDbLine
 10
161.602
 20
110.0
 30
0.0
 11
167.146
 21
110.0
 31
0.0
  0
LINE
  5
473
330
1D
100
AcDbEntity
  8
0
100
AcDbLine
 10
167.436
 20
110.0
 30
0.0
 11
188.554
 21
110.0
 31
0.0
  0
LINE
  5
474
330
1D
100
AcDbEntity
  8
0
100
AcDbLine
 10
174.895
 20
110.0
 30
0.0
 11
186.065
 21
110.0
 31
0.0
  0
LINE
  5
475
330
1D
100
AcDbEntity
  8
0
100
AcDbLine
 10
174.895
 20
110.0
 30
0.0
 11
175.704
 21
110.0
 31
0.0
  0
LINE
  5
476
330
1D
100
AcDbEntity
  8
0
100
AcDbLine
 10
167.471
 20
110.0
 30
0.0
 11
167.855
 21
110.0
 31
0.0
  0
LINE
  5
477
330
1D
100
AcDbEntity
  8
0
100
AcDbLine
 10
167.855
 20
110.0
 30
0.0
 11
167.999
 21
110.0
 31
0.0
  0
LINE
  5
478
330
1D
100
AcDbEntity
  8
0
100
AcDbLine
 10
167.146
 20
110.0
 30
0.0
 11
171.934
 21
110.0
 31
0.0
  0
LINE
  5
479
330
1D
100
AcDbEntity
  8
0
100
AcDbLine
 10
171.934
 20
110.0
 30
0.0
 11
175.21
 21
110.0
 31
0.0
  0
LINE
  5
47A
330
1D
100
AcDbEntity
  8
0
100
AcDbLine
 10
175.704
 20
110.0
 30
0.0
 11
186.408
 21
110.0
 31
0.0
  0
LINE
  5
47B
330
1D
100
AcDbEntity
  8
0
100
AcDbLine
 10
175.21
 20
110.0
 30
0.0
 11
177.982
 21
110.0
 31
0.0
  0
LINE
  5
47C
330
1D
100
AcDbEntity
  8
0
100
AcDbLine
 10
160.403
 20
176.0
 30
0.0
 11
166.974
 21
176.0
 31
0.0
  0
LINE
  5
47D
330
1D
100
AcDbEntity
  8
0
100
AcDbLine
 10
159.947990740741
 20
176.0
 30
0.0
 11
164.852
 21
176.0
 31
0.0
  0
LINE
  5
47E
330
1D
100
AcDbEntity
  8
0
100
AcDbLine
 10
164.196
 20
176.0
 30
0.0
 11
165.029
 21
176.0
 31
0.0
  0
LINE
  5
47F
330
1D
100
AcDbEntity
  8
0
100
AcDbLine
 10
164.852
 20
176.0
 30
0.0
 11
166.974
 21
176.0
 31
0.0
  0
LINE
  5
480
330
1D
100
AcDbEntity
  8
0
100
AcDbLine
 10
164.887
 20
176.0
 30
0.0
 11
166.371
 21
176.0
 31
0.0
  0
LINE
  5
481
330
1D
100
AcDbEntity
  8
0
100
AcDbLine
 10
163.767
 20
176.0
 30
0.0
 11
164.887
 21
176.0
 31
0.0
  0
LINE
  5
482
330
1D
100
AcDbEntity
  8
0
100
AcDbLine
 10
163.095
 20
176.0
 30
0.0
 11
163.767
 21
176.0
 31
0.0
  0
LINE
  5
483
330
1D
100
AcDbEntity
  8
0
100
AcDbLine
 10
166.088
 20
176.0
 30
0.0
 11
170.145
 21
176.0
 31
0.0
  0
LINE
  5
484
330
1D
100
AcDbEntity
  8
0
100
AcDbLine
 10
168.527
 20
176.0
 30
0.0
 11
173.027
 21
176.0
 31
0.0
  0
LINE
  5
485
330
1D
100
AcDbEntity
  8
0
100
AcDbLine
 10
168.649
 20
176.0
 30
0.0
 11
169.843
 21
176.0
 31
0.0
  0
LINE
  5
486
330
1D
100
AcDbEntity
  8
0
100
AcDbLine
 10
168.051
 20
176.0
 30
0.0
 11
169.843
 21
176.0
 31
0.0
  0
LINE
  5
487
330
1D
100
AcDbEntity
  8
0
100
AcDbLine
 10
167.529
 20
176.0
 30
0.0
 11
168.649
 21
176.0
 31
0.0
  0
LINE
  5
488
330
1D
100
AcDbEntity
  8
0
100
AcDbLine
 10
166.371
 20
176.0
 30
0.0
 11
168.051
 21
176.0
 31
0.0
  0
LINE
  5
489
330
1D
100
AcDbEntity
  8
0
100
AcDbLine
 10
166.539
 20
176.0
 30
0.0
 11
167.529
 21
176.0
 31
0.0
  0
LINE
  5
48A
330
1D
100
AcDbEntity
  8
0
100
AcDbLine
 10
165.793
 20
176.0
 30
0.0
 11
166.539
 21
176.0
 31
0.0
  0
LINE
  5
48B
330
1D
100
AcDbEntity
  8
0
100
AcDbLine
 10
165.345
 20
176.0
 30
0.0
 11
165.793
 21
176.0
 31
0.0
  0
LINE
  5
48C
330
1D
100
AcDbEntity
  8
0
100
AcDbLine
 10
165.177
 20
176.0
 30
0.0
 11
165.345
 21
176.0
 31
0.0
  0
LINE
  5
48D
330
1D
100
AcDbEntity
  8
0
100
AcDbLine
 10
162.843
 20
176.0
 30
0.0
 11
163.095
 21
176.0
 31
0.0
  0
LINE
  5
48E
330
1D
100
AcDbEntity
  8
0
100
AcDbLine
 10
170.145
 20
176.0
 30
0.0
 11
173.027
 21
176.0
 31
0.0
  0
LINE
  5
48F
330
1D
100
AcDbEntity
  8
0
100
AcDbLine
 10
171.635
 20
176.0
 30
0.0
 11
173.315
 21
176.0
 31
0.0
  0
LINE
  5
490
330
1D
100
AcDbEntity
  8
0
100
AcDbLine
 10
169.843
 20
176.0
 30
0.0
 11
171.038
 21
176.0
 31
0.0
  0
LINE
  5
491
330
1D
100
AcDbEntity
  8
0
100
AcDbLine
 10
169.843
 20
176.0
 30
0.0
 11
171.635
 21
176.0
 31
0.0
  0
LINE
  5
492
330
1D
100
AcDbEntity
  8
0
100
AcDbLine
 10
171.038
 20
176.0
 30
0.0
 11
172.158
 21
176.0
 31
0.0
  0
LINE
  5
493
330
1D
100
AcDbEntity
  8
0
100
AcDbLine
 10
173.315
 20
176.0
 30
0.0
 11
174.799
 21
176.0
 31
0.0
  0
LINE
  5
494
330
1D
100
AcDbEntity
  8
0
100
AcDbLine
 10
172.158
 20
176.0
 30
0.0
 11
173.147
 21
176.0
 31
0.0
  0
LINE
  5
495
330
1D
100
AcDbEntity
  8
0
100
AcDbLine
 10
173.147
 20
176.0
 30
0.0
 11
173.894
 21
176.0
 31
0.0
  0
LINE
  5
496
330
1D
100
AcDbEntity
  8
0
100
AcDbLine
 10
174.799
 20
176.0
 30
0.0
 11
175.919
 21
176.0
 31
0.0
  0
LINE
  5
497
330
1D
100
AcDbEntity
  8
0
100
AcDbLine
 10
173.894
 20
176.0
 30
0.0
 11
174.342
 21
176.0
 31
0.0
  0
LINE
  5
498
330
1D
100
AcDbEntity
  8
0
100
AcDbLine
 10
168.051
 20
183.0
 30
0.0
 11
169.843
 21
183.0
 31
0.0
  0
LINE
  5
499
330
1D
100
AcDbEntity
  8
0
100
AcDbLine
 10
166.371
 20
183.0
 30
0.0
 11
168.051
 21
183.0
 31
0.0
  0
LINE
  5
49A
330
1D
100
AcDbEntity
  8
0
100
AcDbLine
 10
164.887
 20
183.0
 30
0.0
 11
166.371
 21
183.0
 31
0.0
  0
LINE
  5
49B
330
1D
100
AcDbEntity
  8
0
100
AcDbLine
 10
163.767
 20
183.0
 30
0.0
 11
164.887
 21
183.0
 31
0.0
  0
LINE
  5
49C
330
1D
100
AcDbEntity
  8
0
100
AcDbLine
 10
169.843
 20
183.0
 30
0.0
 11
171.635
 21
183.0
 31
0.0
  0
LINE
  5
49D
330
1D
100
AcDbEntity
  8
0
100
AcDbLine
 10
171.635
 20
183.0
 30
0.0
 11
173.315
 21
183.0
 31
0.0
  0
LINE
  5
49E
330
1D
100
AcDbEntity
  8
0
100
AcDbLine
 10
173.315
 20
183.0
 30
0.0
 11
174.799
 21
183.0
 31
0.0
  0
LINE
  5
49F
330
1D
100
AcDbEntity
  8
0
100
AcDbLine
 10
174.799
 20
183.0
 30
0.0
 11
175.919
 21
183.0
 31
0.0
  0
LINE
  5
4A0
330
1D
100
AcDbEntity
  8
0
100
AcDbLine
 10
174.342
 20
176.0
 30
0.0
 11
174.51
 21
176.0
 31
0.0
  0
LINE
  5
4A1
330
1D
100
AcDbEntity
  8
0
100
AcDbLine
 10
174.854
 20
166.12
 30
0.0
 11
175.51
 21
170.92
 31
0.0
  0
LINE
  5
4A2
330
1D
100
AcDbEntity
  8
0
100
AcDbLine
 10
174.6
 20
161.0
 30
0.0
 11
174.854
 21
155.88
 31
0.0
  0
LINE
  5
4A3
330
1D
100
AcDbEntity
  8
0
100
AcDbLine
 10
174.6
 20
161.0
 30
0.0
 11
174.854
 21
166.12
 31
0.0
  0
LINE
  5
4A4
330
1D
100
AcDbEntity
  8
0
100
AcDbLine
 10
175.51
 20
170.92
 30
0.0
 11
176.36
 21
175.16
 31
0.0
  0
LINE
  5
4A5
330
1D
100
AcDbEntity
  8
0
100
AcDbLine
 10
175.919
 20
183.0
 30
0.0
 11
176.591
 21
183.0
 31
0.0
  0
LINE
  5
4A6
330
1D
100
AcDbEntity
  8
0
100
AcDbLine
 10
175.919
 20
176.0
 30
0.0
 11
176.591
 21
176.0
 31
0.0
  0
LINE
  5
4A7
330
1D
100
AcDbEntity
  8
0
100
AcDbLine
 10
176.36
 20
175.16
 30
0.0
 11
176.570525
 21
176.0
 31
0.0
  0
LINE
  5
4A8
330
1D
100
AcDbEntity
  8
0
100
AcDbLine
 10
174.854
 20
155.88
 30
0.0
 11
175.51
 21
151.08
 31
0.0
  0
LINE
  5
4A9
330
1D
100
AcDbEntity
  8
0
100
AcDbLine
 10
175.51
 20
151.08
 30
0.0
 11
176.36
 21
146.84
 31
0.0
  0
LINE
  5
4AA
330
1D
100
AcDbEntity
  8
0
100
AcDbLine
 10
176.843
 20
176.0
 30
0.0
 11
176.843
 21
183.0
 31
0.0
  0
LINE
  5
4AB
330
1D
100
AcDbEntity
  8
0
100
AcDbLine
 10
176.591
 20
176.0
 30
0.0
 11
176.843
 21
176.0
 31
0.0
  0
LINE
  5
4AC
330
1D
100
AcDbEntity
  8
0
100
AcDbLine
 10
176.843
 20
177.087182044888
 30
0.0
 11
177.162
 21
178.36
 31
0.0
  0
LINE
  5
4AD
330
1D
100
AcDbEntity
  8
0
100
AcDbLine
 10
177.162
 20
178.36
 30
0.0
 11
177.843
 21
180.28
 31
0.0
  0
LINE
  5
4AE
330
1D
100
AcDbEntity
  8
0
100
AcDbLine
 10
176.591
 20
183.0
 30
0.0
 11
176.843
 21
183.0
 31
0.0
  0
LINE
  5
4AF
330
1D
100
AcDbEntity
  8
0
100
AcDbLine
 10
176.843
 20
183.0
 30
0.0
 11
177.608
 21
183.0
 31
0.0
  0
LINE
  5
4B0
330
1D
100
AcDbEntity
  8
0
100
AcDbLine
 10
176.843
 20
183.0
 30
0.0
 11
176.843
 21
176.0
 31
0.0
  0
LINE
  5
4B1
330
1D
100
AcDbEntity
  8
0
100
AcDbLine
 10
177.608
 20
183.0
 30
0.0
 11
178.25
 21
183.0
 31
0.0
  0
LINE
  5
4B2
330
1D
100
AcDbEntity
  8
0
100
AcDbLine
 10
177.843
 20
180.28
 30
0.0
 11
178.25
 21
181.0
 31
0.0
  0
LINE
  5
4B3
330
1D
100
AcDbEntity
  8
0
100
AcDbLine
 10
176.36
 20
146.84
 30
0.0
 11
177.162
 21
143.64
 31
0.0
  0
LINE
  5
4B4
330
1D
100
AcDbEntity
  8
0
100
AcDbLine
 10
177.162
 20
143.64
 30
0.0
 11
177.843
 21
141.72
 31
0.0
  0
LINE
  5
4B5
330
1D
100
AcDbEntity
  8
0
100
AcDbLine
 10
177.982
 20
110.0
 30
0.0
 11
179.494
 21
110.0
 31
0.0
  0
LINE
  5
4B6
330
1D
100
AcDbEntity
  8
0
100
AcDbLine
 10
179.14
 20
110.0
 30
0.0
 11
179.284
 21
110.0
 31
0.0
  0
LINE
  5
4B7
330
1D
100
AcDbEntity
  8
0
100
AcDbLine
 10
179.284
 20
110.0
 30
0.0
 11
179.668
 21
110.0
 31
0.0
  0
LINE
  5
4B8
330
1D
100
AcDbEntity
  8
0
100
AcDbLine
 10
179.668
 20
110.0
 30
0.0
 11
180.308
 21
110.0
 31
0.0
  0
LINE
  5
4B9
330
1D
100
AcDbEntity
  8
0
100
AcDbLine
 10
180.308
 20
110.0
 30
0.0
 11
181.156
 21
110.0
 31
0.0
  0
LINE
  5
4BA
330
1D
100
AcDbEntity
  8
0
100
AcDbLine
 10
181.156
 20
110.0
 30
0.0
 11
182.116
 21
110.0
 31
0.0
  0
LINE
  5
4BB
330
1D
100
AcDbEntity
  8
0
100
AcDbLine
 10
182.116
 20
110.0
 30
0.0
 11
183.14
 21
110.0
 31
0.0
  0
LINE
  5
4BC
330
1D
100
AcDbEntity
  8
0
100
AcDbLine
 10
184.164
 20
110.0
 30
0.0
 11
185.124
 21
110.0
 31
0.0
  0
LINE
  5
4BD
330
1D
100
AcDbEntity
  8
0
100
AcDbLine
 10
183.14
 20
110.0
 30
0.0
 11
184.164
 21
110.0
 31
0.0
  0
LINE
  5
4BE
330
1D
100
AcDbEntity
  8
0
100
AcDbLine
 10
185.124
 20
110.0
 30
0.0
 11
185.972
 21
110.0
 31
0.0
  0
LINE
  5
4BF
330
1D
100
AcDbEntity
  8
0
100
AcDbLine
 10
184.75
 20
110.0
 30
0.0
 11
184.894
 21
110.0
 31
0.0
  0
LINE
  5
4C0
330
1D
100
AcDbEntity
  8
0
100
AcDbLine
 10
184.894
 20
110.0
 30
0.0
 11
185.278
 21
110.0
 31
0.0
  0
LINE
  5
4C1
330
1D
100
AcDbEntity
  8
0
100
AcDbLine
 10
186.75
 20
110.0
 30
0.0
 11
191.75
 21
110.0
 31
0.0
  0
LINE
  5
4C2
330
1D
100
AcDbEntity
  8
0
100
AcDbLine
 10
186.612
 20
110.0
 30
0.0
 11
186.996
 21
110.0
 31
0.0
  0
LINE
  5
4C3
330
1D
100
AcDbEntity
  8
0
100
AcDbLine
 10
185.972
 20
110.0
 30
0.0
 11
186.612
 21
110.0
 31
0.0
  0
LINE
  5
4C4
330
1D
100
AcDbEntity
  8
0
100
AcDbLine
 10
186.065
 20
110.0
 30
0.0
 11
186.408
 21
110.0
 31
0.0
  0
LINE
  5
4C5
330
1D
100
AcDbEntity
  8
0
100
AcDbLine
 10
185.278
 20
110.0
 30
0.0
 11
185.918
 21
110.0
 31
0.0
  0
LINE
  5
4C6
330
1D
100
AcDbEntity
  8
0
100
AcDbLine
 10
185.918
 20
110.0
 30
0.0
 11
186.766
 21
110.0
 31
0.0
  0
LINE
  5
4C7
330
1D
100
AcDbEntity
  8
0
100
AcDbLine
 10
186.996
 20
110.0
 30
0.0
 11
187.14
 21
110.0
 31
0.0
  0
LINE
  5
4C8
330
1D
100
AcDbEntity
  8
0
100
AcDbLine
 10
188.554
 20
110.0
 30
0.0
 11
189.813
 21
110.0
 31
0.0
  0
LINE
  5
4C9
330
1D
100
AcDbEntity
  8
0
100
AcDbLine
 10
186.766
 20
110.0
 30
0.0
 11
187.726
 21
110.0
 31
0.0
  0
LINE
  5
4CA
330
1D
100
AcDbEntity
  8
0
100
AcDbLine
 10
187.726
 20
110.0
 30
0.0
 11
188.75
 21
110.0
 31
0.0
  0
LINE
  5
4CB
330
1D
100
AcDbEntity
  8
0
100
AcDbLine
 10
190.734
 20
110.0
 30
0.0
 11
191.582
 21
110.0
 31
0.0
  0
LINE
  5
4CC
330
1D
100
AcDbEntity
  8
0
100
AcDbLine
 10
189.774
 20
110.0
 30
0.0
 11
190.734
 21
110.0
 31
0.0
  0
LINE
  5
4CD
330
1D
100
AcDbEntity
  8
0
100
AcDbLine
 10
188.75
 20
110.0
 30
0.0
 11
189.774
 21
110.0
 31
0.0
  0
LINE
  5
4CE
330
1D
100
AcDbEntity
  8
0
100
AcDbLine
 10
192.606
 20
110.0
 30
0.0
 11
192.75
 21
110.0
 31
0.0
  0
LINE
  5
4CF
330
1D
100
AcDbEntity
  8
0
100
AcDbLine
 10
192.222
 20
110.0
 30
0.0
 11
192.606
 21
110.0
 31
0.0
  0
LINE
  5
4D0
330
1D
100
AcDbEntity
  8
0
100
AcDbLine
 10
191.582
 20
110.0
 30
0.0
 11
192.222
 21
110.0
 31
0.0
  0
LINE
  5
4D1
330
1D
100
AcDbEntity
  8
0
100
AcDbLine
 10
192.75
 20
110.0
 30
0.0
 11
192.75
 21
114.0
 31
0.0
  0
LINE
  5
4D2
330
1D
100
AcDbEntity
  8
0
100
AcDbLine
 10
190.75
 20
110.0
 30
0.0
 11
192.75
 21
110.0
 31
0.0
  0
LINE
  5
4D3
330
1D
100
AcDbEntity
  8
0
100
AcDbLine
 10
192.75
 20
114.0
 30
0.0
 11
192.75
 21
110.0
 31
0.0
  0
LINE
  5
4D4
330
1D
100
AcDbEntity
  8
0
100
AcDbLine
 10
179.494
 20
110.0
 30
0.0
 11
180.25
 21
110.0
 31
0.0
  0
LINE
  5
4D5
330
1D
100
AcDbEntity
  8
0
100
AcDbLine
 10
178.25
 20
110.0
 30
0.0
 11
178.25
 21
75.0
 31
0.0
  0
LINE
  5
4D6
330
1D
100
AcDbEntity
  8
0
100
AcDbLine
 10
178.25
 20
110.0
 30
0.0
 11
179.494
 21
110.0
 31
0.0
  0
LINE
  5
4D7
330
1D
100
AcDbEntity
  8
0
100
AcDbLine
 10
178.25
 20
110.0
 30
0.0
 11
192.75
 21
110.0
 31
0.0
  0
LINE
  5
4D8
330
1D
100
AcDbEntity
  8
0
100
AcDbLine
 10
178.25
 20
110.0
 30
0.0
 11
190.75
 21
110.0
 31
0.0
  0
LINE
  5
4D9
330
1D
100
AcDbEntity
  8
0
100
AcDbLine
 10
178.25
 20
110.0
 30
0.0
 11
186.065
 21
110.0
 31
0.0
  0
LINE
  5
4DA
330
1D
100
AcDbEntity
  8
0
100
AcDbLine
 10
178.25
 20
110.0
 30
0.0
 11
186.408
 21
110.0
 31
0.0
  0
LINE
  5
4DB
330
1D
100
AcDbEntity
  8
0
100
AcDbLine
 10
178.25
 20
110.0
 30
0.0
 11
189.813
 21
110.0
 31
0.0
  0
LINE
  5
4DC
330
1D
100
AcDbEntity
  8
0
100
AcDbLine
 10
178.25
 20
110.0
 30
0.0
 11
188.554
 21
110.0
 31
0.0
  0
LINE
  5
4DD
330
1D
100
AcDbEntity
  8
0
100
AcDbLine
 10
178.25
 20
161.0
 30
0.0
 11
178.25
 21
166.12
 31
0.0
  0
LINE
  5
4DE
330
1D
100
AcDbEntity
  8
0
100
AcDbLine
 10
178.25
 20
161.0
 30
0.0
 11
178.25
 21
155.88
 31
0.0
  0
LINE
  5
4DF
330
1D
100
AcDbEntity
  8
0
100
AcDbLine
 10
178.25
 20
166.12
 30
0.0
 11
178.25
 21
170.92
 31
0.0
  0
LINE
  5
4E0
330
1D
100
AcDbEntity
  8
0
100
AcDbLine
 10
178.25
 20
166.12
 30
0.0
 11
178.25
 21
161.0
 31
0.0
  0
LINE
  5
4E1
330
1D
100
AcDbEntity
  8
0
100
AcDbLine
 10
178.25
 20
170.92
 30
0.0
 11
178.25
 21
175.16
 31
0.0
  0
LINE
  5
4E2
330
1D
100
AcDbEntity
  8
0
100
AcDbLine
 10
178.25
 20
170.92
 30
0.0
 11
178.25
 21
166.12
 31
0.0
  0
LINE
  5
4E3
330
1D
100
AcDbEntity
  8
0
100
AcDbLine
 10
178.25
 20
175.16
 30
0.0
 11
178.25
 21
178.36
 31
0.0
  0
LINE
  5
4E4
330
1D
100
AcDbEntity
  8
0
100
AcDbLine
 10
178.25
 20
175.16
 30
0.0
 11
178.25
 21
170.92
 31
0.0
  0
LINE
  5
4E5
330
1D
100
AcDbEntity
  8
0
100
AcDbLine
 10
178.25
 20
178.36
 30
0.0
 11
178.25
 21
180.28
 31
0.0
  0
LINE
  5
4E6
330
1D
100
AcDbEntity
  8
0
100
AcDbLine
 10
178.25
 20
178.36
 30
0.0
 11
178.25
 21
175.16
 31
0.0
  0
LINE
  5
4E7
330
1D
100
AcDbEntity
  8
0
100
AcDbLine
 10
178.25
 20
180.28
 30
0.0
 11
178.25
 21
181.0
 31
0.0
  0
LINE
  5
4E8
330
1D
100
AcDbEntity
  8
0
100
AcDbLine
 10
178.25
 20
180.28
 30
0.0
 11
178.25
 21
178.36
 31
0.0
  0
LINE
  5
4E9
330
1D
100
AcDbEntity
  8
0
100
AcDbLine
 10
178.25
 20
155.88
 30
0.0
 11
178.25
 21
161.0
 31
0.0
  0
LINE
  5
4EA
330
1D
100
AcDbEntity
  8
0
100
AcDbLine
 10
178.25
 20
155.88
 30
0.0
 11
178.25
 21
151.08
 31
0.0
  0
LINE
  5
4EB
330
1D
100
AcDbEntity
  8
0
100
AcDbLine
 10
178.25
 20
151.08
 30
0.0
 11
178.25
 21
155.88
 31
0.0
  0
LINE
  5
4EC
330
1D
100
AcDbEntity
  8
0
100
AcDbLine
 10
178.25
 20
151.08
 30
0.0
 11
178.25
 21
146.84
 31
0.0
  0
LINE
  5
4ED
330
1D
100
AcDbEntity
  8
0
100
AcDbLine
 10
178.25
 20
146.84
 30
0.0
 11
178.25
 21
151.08
 31
0.0
  0
LINE
  5
4EE
330
1D
100
AcDbEntity
  8
0
100
AcDbLine
 10
178.25
 20
146.84
 30
0.0
 11
178.25
 21
143.64
 31
0.0
  0
LINE
  5
4EF
330
1D
100
AcDbEntity
  8
0
100
AcDbLine
 10
178.25
 20
143.64
 30
0.0
 11
178.25
 21
146.84
 31
0.0
  0
LINE
  5
4F0
330
1D
100
AcDbEntity
  8
0
100
AcDbLine
 10
178.25
 20
143.64
 30
0.0
 11
178.25
 21
141.72
 31
0.0
  0
LINE
  5
4F1
330
1D
100
AcDbEntity
  8
0
100
AcDbLine
 10
178.25
 20
141.72
 30
0.0
 11
178.25
 21
143.64
 31
0.0
  0
LINE
  5
4F2
330
1D
100
AcDbEntity
  8
0
100
AcDbLine
 10
178.25
 20
141.72
 30
0.0
 11
178.25
 21
141.0
 31
0.0
  0
LINE
  5
4F3
330
1D
100
AcDbEntity
  8
0
100
AcDbLine
 10
178.25
 20
183.0
 30
0.0
 11
178.25
 21
181.0
 31
0.0
  0
LINE
  5
4F4
330
1D
100
AcDbEntity
  8
0
100
AcDbLine
 10
178.25
 20
181.0
 30
0.0
 11
178.25
 21
183.0
 31
0.0
  0
LINE
  5
4F5
330
1D
100
AcDbEntity
  8
0
100
AcDbLine
 10
178.25
 20
181.0
 30
0.0
 11
180.25
 21
181.0
 31
0.0
  0
LINE
  5
4F6
330
1D
100
AcDbEntity
  8
0
100
AcDbLine
 10
178.25
 20
181.0
 30
0.0
 11
178.25
 21
180.28
 31
0.0
  0
LINE
  5
4F7
330
1D
100
AcDbEntity
  8
0
100
AcDbLine
 10
180.25
 20
166.12
 30
0.0
 11
180.25
 21
161.0
 31
0.0
  0
LINE
  5
4F8
330
1D
100
AcDbEntity
  8
0
100
AcDbLine
 10
180.25
 20
166.12
 30
0.0
 11
180.25
 21
170.92
 31
0.0
  0
LINE
  5
4F9
330
1D
100
AcDbEntity
  8
0
100
AcDbLine
 10
180.25
 20
170.92
 30
0.0
 11
180.25
 21
166.12
 31
0.0
  0
LINE
  5
4FA
330
1D
100
AcDbEntity
  8
0
100
AcDbLine
 10
180.25
 20
170.92
 30
0.0
 11
180.25
 21
175.16
 31
0.0
  0
LINE
  5
4FB
330
1D
100
AcDbEntity
  8
0
100
AcDbLine
 10
180.25
 20
175.16
 30
0.0
 11
180.25
 21
170.92
 31
0.0
  0
LINE
  5
4FC
330
1D
100
AcDbEntity
  8
0
100
AcDbLine
 10
180.25
 20
175.16
 30
0.0
 11
180.25
 21
178.36
 31
0.0
  0
LINE
  5
4FD
330
1D
100
AcDbEntity
  8
0
100
AcDbLine
 10
180.25
 20
178.36
 30
0.0
 11
180.25
 21
175.16
 31
0.0
  0
LINE
  5
4FE
330
1D
100
AcDbEntity
  8
0
100
AcDbLine
 10
180.25
 20
178.36
 30
0.0
 11
180.25
 21
180.28
 31
0.0
  0
LINE
  5
4FF
330
1D
100
AcDbEntity
  8
0
100
AcDbLine
 10
180.25
 20
180.28
 30
0.0
 11
180.25
 21
178.36
 31
0.0
  0
LINE
  5
500
330
1D
100
AcDbEntity
  8
0
100
AcDbLine
 10
180.25
 20
180.28
 30
0.0
 11
180.25
 21
181.0
 31
0.0
  0
LINE
  5
501
330
1D
100
AcDbEntity
  8
0
100
AcDbLine
 10
180.25
 20
181.0
 30
0.0
 11
180.25
 21
180.28
 31
0.0
  0
LINE
  5
502
330
1D
100
AcDbEntity
  8
0
100
AcDbLine
 10
180.25
 20
161.0
 30
0.0
 11
180.25
 21
155.88
 31
0.0
  0
LINE
  5
503
330
1D
100
AcDbEntity
  8
0
100
AcDbLine
 10
180.25
 20
161.0
 30
0.0
 11
180.25
 21
166.12
 31
0.0
  0
LINE
  5
504
330
1D
100
AcDbEntity
  8
0
100
AcDbLine
 10
180.25
 20
155.88
 30
0.0
 11
180.25
 21
161.0
 31
0.0
  0
LINE
  5
505
330
1D
100
AcDbEntity
  8
0
100
AcDbLine
 10
180.25
 20
155.88
 30
0.0
 11
180.25
 21
151.08
 31
0.0
  0
LINE
  5
506
330
1D
100
AcDbEntity
  8
0
100
AcDbLine
 10
180.25
 20
151.08
 30
0.0
 11
180.25
 21
155.88
 31
0.0
  0
LINE
  5
507
330
1D
100
AcDbEntity
  8
0
100
AcDbLine
 10
180.25
 20
151.08
 30
0.0
 11
180.25
 21
146.84
 31
0.0
  0
LINE
  5
508
330
1D
100
AcDbEntity
  8
0
100
AcDbLine
 10
180.25
 20
146.84
 30
0.0
 11
180.25
 21
151.08
 31
0.0
  0
LINE
  5
509
330
1D
100
AcDbEntity
  8
0
100
AcDbLine
 10
180.25
 20
146.84
 30
0.0
 11
180.25
 21
143.64
 31
0.0
  0
LINE
  5
50A
330
1D
100
AcDbEntity
  8
0
100
AcDbLine
 10
180.25
 20
143.64
 30
0.0
 11
180.25
 21
146.84
 31
0.0
  0
LINE
  5
50B
330
1D
100
AcDbEntity
  8
0
100
AcDbLine
 10
180.25
 20
143.64
 30
0.0
 11
180.25
 21
141.72
 31
0.0
  0
LINE
  5
50C
330
1D
100
AcDbEntity
  8
0
100
AcDbLine
 10
180.25
 20
141.72
 30
0.0
 11
180.25
 21
143.64
 31
0.0
  0
LINE
  5
50D
330
1D
100
AcDbEntity
  8
0
100
AcDbLine
 10
180.25
 20
141.72
 30
0.0
 11
180.25
 21
141.0
 31
0.0
  0
LINE
  5
50E
330
1D
100
AcDbEntity
  8
0
100
AcDbLine
 10
180.25
 20
141.0
 30
0.0
 11
180.25
 21
141.72
 31
0.0
  0
LINE
  5
50F
330
1D
100
AcDbEntity
  8
0
100
AcDbLine
 10
178.25
 20
141.0
 30
0.0
 11
178.25
 21
114.0
 31
0.0
  0
LINE
  5
510
330
1D
100
AcDbEntity
  8
0
100
AcDbLine
 10
178.25
 20
141.0
 30
0.0
 11
178.25
 21
141.72
 31
0.0
  0
LINE
  5
511
330
1D
100
AcDbEntity
  8
0
100
AcDbLine
 10
178.25
 20
141.0
 30
0.0
 11
180.25
 21
141.0
 31
0.0
  0
LINE
  5
512
330
1D
100
AcDbEntity
  8
0
100
AcDbLine
 10
178.25
 20
114.0
 30
0.0
 11
178.25
 21
141.0
 31
0.0
  0
LINE
  5
513
330
1D
100
AcDbEntity
  8
0
100
AcDbLine
 10
177.843
 20
141.72
 30
0.0
 11
178.25
 21
141.0
 31
0.0
  0
LINE
  5
519
330
1D
100
AcDbEntity
  8
0
100
AcDbLine
 10
201.562
 20
75.0
 30
0.0
 11
201.75
 21
75.0
 31
0.0
  0
LINE
  5
51A
330
1D
100
AcDbEntity
  8
0
100
AcDbLine
 10
201.561
 20
75.0
 30
0.0
 11
201.75
 21
75.0
 31
0.0
  0
LINE
  5
51B
330
1D
100
AcDbEntity
  8
0
100
AcDbLine
 10
143.817
 20
49.8836
 30
0.0
 11
143.976
 21
49.8381
 31
0.0
  0
LINE
  5
547
330
1D
100
AcDbEntity
  8
0
100
AcDbLine
 10
200.718
 20
54.1782
 30
0.0
 11
201.083
 21
54.5327
 31
0.0
  0
LINE
  5
548
330
1D
100
AcDbEntity
  8
0
100
AcDbLine
 10
201.561
 20
75.0
 30
0.0
 11
31.75
 21
75.0
 31
0.0
  0
ENDSEC
  0
SECTION
  2
OBJECTS
  0
DICTIONARY
  5
C
330
0
100
AcDbDictionary
281
     1
  3
ACAD_GROUP
350
D
  3
ACAD_LAYOUT
350
1A
  3
ACAD_MLEADERSTYLE
350
54B
  3
ACAD_MLINESTYLE
350
17
  3
ACAD_PLOTSETTINGS
350
19
  3
ACAD_PLOTSTYLENAME
350
E
  3
ACAD_SCALELIST
350
525
  3
AcDbVariableDictionary
350
549
  3
DWGPROPS
350
54E
  0
DICTIONARY
  5
D
102
{ACAD_REACTORS
330
C
102
}
330
C
100
AcDbDictionary
281
     1
  0
DICTIONARY
  5
1A
102
{ACAD_REACTORS
330
C
102
}
330
C
100
AcDbDictionary
281
     1
  3
Layout1
350
1C
  3
Model
350
1E
  0
DICTIONARY
  5
54B
102
{ACAD_REACTORS
330
C
102
}
330
C
100
AcDbDictionary
281
     1
  0
DICTIONARY
  5
17
102
{ACAD_REACTORS
330
C
102
}
330
C
100
AcDbDictionary
281
     1
  3
Standard
350
18
  0
DICTIONARY
  5
19
102
{ACAD_REACTORS
330
C
102
}
330
C
100
AcDbDictionary
281
     1
  0
ACDBDICTIONARYWDFLT
  5
E
102
{ACAD_REACTORS
330
C
102
}
330
C
100
AcDbDictionary
281
     1
  3
Normal
350
F
100
AcDbDictionaryWithDefault
340
F
  0
DICTIONARY
  5
525
102
{ACAD_REACTORS
330
C
102
}
330
C
100
AcDbDictionary
281
     1
  3
A0
350
526
  3
A1
350
527
  3
A2
350
528
  3
A3
350
529
  3
A4
350
52A
  3
A5
350
52B
  3
A6
350
52C
  3
A7
350
52D
  3
A8
350
52E
  3
A9
350
52F
  3
B0
350
530
  3
B1
350
531
  3
B2
350
532
  3
B3
350
533
  3
B4
350
534
  3
B5
350
535
  3
B6
350
536
  3
B7
350
537
  3
B8
350
538
  3
B9
350
539
  3
C0
350
53A
  3
C1
350
53B
  3
C2
350
53C
  3
C3
350
53D
  3
C4
350
53E
  3
C5
350
53F
  3
C6
350
540
  3
C7
350
541
  3
C8
350
542
  3
C9
350
543
  3
D0
350
544
  3
D1
350
545
  3
D2
350
546
  0
DICTIONARY
  5
549
102
{ACAD_REACTORS
330
C
102
}
330
C
100
AcDbDictionary
281
     1
  3
CANNOSCALE
350
54C
  0
XRECORD
  5
54E
102
{ACAD_REACTORS
330
C
102
}
330
C
100
AcDbXrecord
280
     1
  1
DWGPROPS COOKIE
  2

  3

  4

  6

  7

  8
MARTIN
  9

300
=
301
=
302
=
303
=
304
=
305
=
306
=
307
=
308
=
309
=
 40
0.0
 41
2456183.539372824
 42
2456183.544948276
  1

 90
        0
  0
LAYOUT
  5
1C
102
{ACAD_REACTORS
330
1A
102
}
330
1A
100
AcDbPlotSettings
  1

  2
none_device
  4

  6

 40
0.0
 41
0.0
 42
0.0
 43
0.0
 44
0.0
 45
0.0
 46
0.0
 47
0.0
 48
0.0
 49
0.0
140
0.0
141
0.0
142
1.0
143
1.0
 70
   688
 72
     0
 73
     0
 74
     5
  7

 75
    16
147
1.0
148
0.0
149
0.0
100
AcDbLayout
  1
Layout1
 70
     1
 71
     1
 10
0.0
 20
0.0
 11
12.0
 21
9.0
 12
0.0
 22
0.0
 32
0.0
 14
1.000000000000E+20
 24
1.000000000000E+20
 34
1.000000000000E+20
 15
-1.000000000000E+20
 25
-1.000000000000E+20
 35
-1.000000000000E+20
146
0.0
 13
0.0
 23
0.0
 33
0.0
 16
1.0
 26
0.0
 36
0.0
 17
0.0
 27
1.0
 37
0.0
 76
     0
330
1B
  0
LAYOUT
  5
1E
102
{ACAD_REACTORS
330
1A
102
}
330
1A
100
AcDbPlotSettings
  1

  2
none_device
  4

  6

 40
0.0
 41
0.0
 42
0.0
 43
0.0
 44
0.0
 45
0.0
 46
0.0
 47
0.0
 48
0.0
 49
0.0
140
0.0
141
0.0
142
1.0
143
1.0
 70
  1712
 72
     0
 73
     0
 74
     0
  7

 75
     0
147
1.0
148
0.0
149
0.0
100
AcDbLayout
  1
Model
 70
     1
 71
     0
 10
0.0
 20
0.0
 11
12.0
 21
9.0
 12
0.0
 22
0.0
 32
0.0
 14
31.75
 24
0.0
 34
0.0
 15
201.75
 25
183.0
 35
0.0
146
0.0
 13
0.0
 23
0.0
 33
0.0
 16
1.0
 26
0.0
 36
0.0
 17
0.0
 27
1.0
 37
0.0
 76
     0
330
1D
331
520
  0
MLINESTYLE
  5
18
102
{ACAD_REACTORS
330
17
102
}
330
17
100
AcDbMlineStyle
  2
Standard
 70
     0
  3

 62
   256
 51
90.0
 52
90.0
 71
     2
 49
0.5
 62
   256
  6
BYLAYER
 49
-0.5
 62
   256
  6
BYLAYER
  0
ACDBPLACEHOLDER
  5
F
102
{ACAD_REACTORS
330
E
102
}
330
E
  0
SCALE
  5
526
102
{ACAD_REACTORS
330
525
102
}
330
525
100
AcDbScale
 70
     0
300
1:1
140
1.0
141
1.0
290
     1
  0
SCALE
  5
527
102
{ACAD_REACTORS
330
525
102
}
330
525
100
AcDbScale
 70
     0
300
1:2
140
1.0
141
2.0
290
     0
  0
SCALE
  5
528
102
{ACAD_REACTORS
330
525
102
}
330
525
100
AcDbScale
 70
     0
300
1:4
140
1.0
141
4.0
290
     0
  0
SCALE
  5
529
102
{ACAD_REACTORS
330
525
102
}
330
525
100
AcDbScale
 70
     0
300
1:5
140
1.0
141
5.0
290
     0
  0
SCALE
  5
52A
102
{ACAD_REACTORS
330
525
102
}
330
525
100
AcDbScale
 70
     0
300
1:8
140
1.0
141
8.0
290
     0
  0
SCALE
  5
52B
102
{ACAD_REACTORS
330
525
102
}
330
525
100
AcDbScale
 70
     0
300
1:10
140
1.0
141
10.0
290
     0
  0
SCALE
  5
52C
102
{ACAD_REACTORS
330
525
102
}
330
525
100
AcDbScale
 70
     0
300
1:16
140
1.0
141
16.0
290
     0
  0
SCALE
  5
52D
102
{ACAD_REACTORS
330
525
102
}
330
525
100
AcDbScale
 70
     0
300
1:20
140
1.0
141
20.0
290
     0
  0
SCALE
  5
52E
102
{ACAD_REACTORS
330
525
102
}
330
525
100
AcDbScale
 70
     0
300
1:30
140
1.0
141
30.0
290
     0
  0
SCALE
  5
52F
102
{ACAD_REACTORS
330
525
102
}
330
525
100
AcDbScale
 70
     0
300
1:40
140
1.0
141
40.0
290
     0
  0
SCALE
  5
530
102
{ACAD_REACTORS
330
525
102
}
330
525
100
AcDbScale
 70
     0
300
1:50
140
1.0
141
50.0
290
     0
  0
SCALE
  5
531
102
{ACAD_REACTORS
330
525
102
}
330
525
100
AcDbScale
 70
     0
300
1:100
140
1.0
141
100.0
290
     0
  0
SCALE
  5
532
102
{ACAD_REACTORS
330
525
102
}
330
525
100
AcDbScale
 70
     0
300
2:1
140
2.0
141
1.0
290
     0
  0
SCALE
  5
533
102
{ACAD_REACTORS
330
525
102
}
330
525
100
AcDbScale
 70
     0
300
4:1
140
4.0
141
1.0
290
     0
  0
SCALE
  5
534
102
{ACAD_REACTORS
330
525
102
}
330
525
100
AcDbScale
 70
     0
300
8:1
140
8.0
141
1.0
290
     0
  0
SCALE
  5
535
102
{ACAD_REACTORS
330
525
102
}
330
525
100
AcDbScale
 70
     0
300
10:1
140
10.0
141
1.0
290
     0
  0
SCALE
  5
536
102
{ACAD_REACTORS
330
525
102
}
330
525
100
AcDbScale
 70
     0
300
100:1
140
100.0
141
1.0
290
     0
  0
SCALE
  5
537
102
{ACAD_REACTORS
330
525
102
}
330
525
100
AcDbScale
 70
     0
300
1/128" = 1'-0"
140
0.0078125
141
12.0
290
     0
  0
SCALE
  5
538
102
{ACAD_REACTORS
330
525
102
}
330
525
100
AcDbScale
 70
     0
300
1/64" = 1'-0"
140
0.015625
141
12.0
290
     0
  0
SCALE
  5
539
102
{ACAD_REACTORS
330
525
102
}
330
525
100
AcDbScale
 70
     0
300
1/32" = 1'-0"
140
0.03125
141
12.0
290
     0
  0
SCALE
  5
53A
102
{ACAD_REACTORS
330
525
102
}
330
525
100
AcDbScale
 70
     0
300
1/16" = 1'-0"
140
0.0625
141
12.0
290
     0
  0
SCALE
  5
53B
102
{ACAD_REACTORS
330
525
102
}
330
525
100
AcDbScale
 70
     0
300
3/32" = 1'-0"
140
0.09375
141
12.0
290
     0
  0
SCALE
  5
53C
102
{ACAD_REACTORS
330
525
102
}
330
525
100
AcDbScale
 70
     0
300
1/8" = 1'-0"
140
0.125
141
12.0
290
     0
  0
SCALE
  5
53D
102
{ACAD_REACTORS
330
525
102
}
330
525
100
AcDbScale
 70
     0
300
3/16" = 1'-0"
140
0.1875
141
12.0
290
     0
  0
SCALE
  5
53E
102
{ACAD_REACTORS
330
525
102
}
330
525
100
AcDbScale
 70
     0
300
1/4" = 1'-0"
140
0.25
141
12.0
290
     0
  0
SCALE
  5
53F
102
{ACAD_REACTORS
330
525
102
}
330
525
100
AcDbScale
 70
     0
300
3/8" = 1'-0"
140
0.375
141
12.0
290
     0
  0
SCALE
  5
540
102
{ACAD_REACTORS
330
525
102
}
330
525
100
AcDbScale
 70
     0
300
1/2" = 1'-0"
140
0.5
141
12.0
290
     0
  0
SCALE
  5
541
102
{ACAD_REACTORS
330
525
102
}
330
525
100
AcDbScale
 70
     0
300
3/4" = 1'-0"
140
0.75
141
12.0
290
     0
  0
SCALE
  5
542
102
{ACAD_REACTORS
330
525
102
}
330
525
100
AcDbScale
 70
     0
300
1" = 1'-0"
140
1.0
141
12.0
290
     0
  0
SCALE
  5
543
102
{ACAD_REACTORS
330
525
102
}
330
525
100
AcDbScale
 70
     0
300
1-1/2" = 1'-0"
140
1.5
141
12.0
290
     0
  0
SCALE
  5
544
102
{ACAD_REACTORS
330
525
102
}
330
525
100
AcDbScale
 70
     0
300
3" = 1'-0"
140
3.0
141
12.0
290
     0
  0
SCALE
  5
545
102
{ACAD_REACTORS
330
525
102
}
330
525
100
AcDbScale
 70
     0
300
6" = 1'-0"
140
6.0
141
12.0
290
     0
  0
SCALE
  5
546
102
{ACAD_REACTORS
330
525
102
}
330
525
100
AcDbScale
 70
     0
300
1'-0" = 1'-0"
140
12.0
141
12.0
290
     0
  0
DICTIONARYVAR
  5
54C
102
{ACAD_REACTORS
330
549
102
}
330
549
100
DictionaryVariables
280
     0
  1
1:1
  0
ENDSEC
  0
SECTION
  2
THUMBNAILIMAGE
 90
    16364
310
28000000B40000005500000001000800000000000000000000000000000000000000000000000000FFFFFF000000FF0000FFFF0000FF0000FFFF0000FF000000FF00FF000000000080808000C0C0C0000000FF007F7FFF000000A5005252A50000007F003F3F7F0000004C0026264C000000260013132600003FFF007F9FFF
310
000029A5005267A500001F7F003F4F7F0000134C00262F4C000009260013172600007FFF007FBFFF000052A500527CA500003F7F003F5F7F0000264C0026394C0000132600131C260000BFFF007FDFFF00007CA5005291A500005F7F003F6F7F0000394C0026424C00001C26001321260000FFFF007FFFFF0000A5A50052A5
310
A500007F7F003F7F7F00004C4C00264C4C00002626001326260000FFBF007FFFDF0000A57C0052A59100007F5F003F7F6F00004C3900264C420000261C001326210000FF7F007FFFBF0000A5520052A57C00007F3F003F7F5F00004C2600264C39000026130013261C0000FF3F007FFF9F0000A5290052A56700007F1F003F
310
7F4F00004C1300264C2F00002609001326170000FF00007FFF7F0000A5000052A55200007F00003F7F3F00004C0000264C260000260000132613003FFF00009FFF7F0029A5000067A552001F7F00004F7F3F00134C00002F4C260009260000172613007FFF0000BFFF7F0052A500007CA552003F7F00005F7F3F00264C0000
310
394C2600132600001C261300BFFF0000DFFF7F007CA5000091A552005F7F00006F7F3F00394C0000424C26001C26000021261300FFFF0000FFFF7F00A5A50000A5A552007F7F00007F7F3F004C4C00004C4C26002626000026261300FFBF0000FFDF7F00A57C0000A59152007F5F00007F6F3F004C3900004C422600261C00
310
0026211300FF7F0000FFBF7F00A5520000A57C52007F3F00007F5F3F004C2600004C39260026130000261C1300FF3F0000FF9F7F00A5290000A56752007F1F00007F4F3F004C1300004C2F26002609000026171300FF000000FF7F7F00A5000000A55252007F0000007F3F3F004C0000004C2626002600000026131300FF00
310
3F00FF7F9F00A5002900A55267007F001F007F3F4F004C0013004C262F002600090026131700FF007F00FF7FBF00A5005200A5527C007F003F007F3F5F004C0026004C2639002600130026131C00FF00BF00FF7FDF00A5007C00A55291007F005F007F3F6F004C0039004C26420026001C0026132100FF00FF00FF7FFF00A5
310
00A500A552A5007F007F007F3F7F004C004C004C264C002600260026132600BF00FF00DF7FFF007C00A5009152A5005F007F006F3F7F0039004C0042264C001C002600211326007F00FF00BF7FFF005200A5007C52A5003F007F005F3F7F0026004C0039264C00130026001C1326003F00FF009F7FFF002900A5006752A500
310
1F007F004F3F7F0013004C002F264C000900260017132600000000002D2D2D005B5B5B0089898900B7B7B700B3B3B30000000000000000000000000000000000000000000000000000000000000000000000000000000000000000000000000000000000000000000000000000000000000000000000000000000000000000
310
00000000000000000000000000000000000000000000000000000000000000000000000000000000000000000000000000000000000000000000000000000000000000000000000000000000000000000000000000000000000000000000000000000000000000000000000000000000000000000000000000000000000000
310
00000000000000000000000000000000000000000000000000000000000000000000000000000000000000000000000000000000000000000000000000000000000000000000000000000000000000000000000000000000000000000000000000000000000000000000000000000000000000000000000000000000000000
310
00000000000000000000000000000000000000000000000000000000000000000000000000000000000000000000000000000000000000000000000000000000000000000000000000000000000000000000000000000000000000000000000000000000000000000000000000000000000000000000000000000000000000
310
00000000000000000000000000000000000000000000000000000000000000000000000000000000000000000000000000000000000000000000000000000000000000000000000000000000000000000000000000000000000000000000000000000000000000000000000000000000000000000000000000000000000000
310
00000000000000000000000000000000000000000000000000000000000000000000000000000000070707070707070707070707070707070707070700000000000000000000000000000000000000000000000000000000000000000000000000000000000000000000000000000000000000000000000000000000000000
310
00000000000000000000000000000000000000000000000000000000000000000000000000000000000000000000000000000000000000000000000000000000000000000000000000000000000000000000000000000000000000000007000000000000000000000000000000000000070000000000000000000000000000
310
00000000000000000000000000000000000000000000000000000000000000000000000000000000000000000000000000000000000000000000000000000000000000000000000000000000000000000000000000000000000000000000000000000000000000000000000000000000000000000000000000000000000000
310
00000000000000000000000000000000000000070000000000000000000000000000000000000700000000000000000000000000000000000000000000000000000000000000000000000000000000000000000000000000000000000000000000000000000000000000000000000000000000000000000000000000000000
310
00000000000000000000000000000000000000000000000000000000000000000000000000000000000000000000000000000000000000000000000000000000000000000000000007000000000000000000000000000000000000070000000000000000000000000000000000000000000000000000000000000000000000
310
00000000000000000000000000000000000000000000000000000000000000000000000000000000000000000000000000000000000000000000000000000000000000000000000000000000000000000000000000000000000000000000000000000000000000000000000000000000000000000000000000000000000700
310
00000000000000000000000000000000000700000000000000000000000000000000000000000000000000000000000000000000000000000000000000000000000000000000000000000000000000000000000000000000000000000000000000000000000000000000000000000000000000000000000000000000000000
310
00000000000000000000000000000000000000000000000000000000000000000000000000000000000000000000000000000007000000000000000000000000000000000000070000000000000000000000000000000000000000000000000000000000000000000000000000000000000000000000000000000000000000
310
00000000000000000000000000000000000000000000000000000000000000000000000000000000000000000000000000000000000000000000000000000000000000000000000000000000000000000000000000000000000000000000000000000000000000070000000000000000000000000000000000000000070000
310
00000000000000000000000000000000000000000000000000000000000000000000000000000000000000000000000000000000000000000000000000000000000000000000000000000000000000000000000000000000000000000000000000000000000000000000000000000000000000000000000000000000000000
310
00000000000000000000000000000000000000000000000000000000000700000000000000000000000000000000000000000700000000000000000000000000000000000000000000000000000000000000000000000000000000000000000000000000000000000000000000000000000000000000000000000000000000
310
00000000000000000000000000000000000000000000000000000000000000000000000000000000000000000000000000000000000000000000000000000000000000000000000000000000000000000000070000000000000000000000000000000000000000070000000000000000000000000000000000000000000000
310
00000000000000000000000000000000000000000000000000000000000000000000000000000000000000000000000000000000000000000000000000000000000000000000000000000000000000000000000000000000000000000000000000000000000000000000000000000000000000000000000000000000000000
310
00000000000000000700000000000000000000000000000000000000000700000000000000000000000000000000000000000000000000000000000000000000000000000000000000000000000000000000000000000000000000000000000000000000000000000000000000000000000000000000000000000000000000
310
00000000000000000000000000000000000000000000000000000000000000000000000000000000000000000000000000000000000000000000000000070000000000000000000000000000000000000000070000000000000000000000000000000000000000000000000000000000000000000000000000000000000000
310
00000000000000000000000000000000000000000000000000000000000000000000000000000000000000000000000000000000000000000000000000000000000000000000000000000000000000000000000000000000000000000000000000000000000000000000000000000000000007000000000000000000000700
310
00000000000000000700000000000000000000000000000000000000000000000000000000000000000000000000000000000000000000000000000000000000000000000000000000000000000000000000000000000000000000000000000000000000000000000000000000000000000000000000000000000000000000
310
00000000000000000000000000000000000000000000000000000000000000000000000000000000070000000000000000070700070700000000000000070000000000000000000000000000000000000000000000000000000000000000000000000000000000000000000000000000000000000000000000000000000000
310
00000000000000000000000000000000000000000000000000000000000000000000000000000000000000000000000000000000000000000000000000000000000000000000000000000000000000000000000000000000000000000007000000000000000007000000070000000000000007000000000000000000000000
310
00000000000000000000000000000000000000000000000000000000000000000000000000000000000000000000000000000000000000000000000000000000000000000000000000000000000000000000000000000000000000000000000000000000000000000000000000000000000000000000000000000000000000
310
00000000000000000000000000000000000000070000000000000000070000000700000000000000070000000000000000000000000000000000000000000000000000000000000000000000000000000000000000000000000000000000000000000000000000000000000000000000000000000000000000000000000000
310
00000000000000000000000000000000000000000000000000000000000000000000000000000000000000000000000000000000000000000000000000000000000000000000000007000000000000000007070007070000000000000007000000000000000000000000000000000000000000000000000000000000000000
310
00000000000000000000000000000000000000000000000000000000000000000000000000000000000000000000000000000000000000000000000000000000000000000000000000000000000000000000000000000000000000000000000000000000000000000000000000000000000000000000000000000000070000
310
00000000000000000707070000000000000000000700000000000000000000000000000000000000000000000000000000000000000000000000000000000000000000000000000000000000000000000000000000000000000000000000000000000000000000000000000000000000000000000000000000000000000000
310
00000000000000000000000000000000000000000000000000000000000000000000000000000000000000000000000000000700000000000000000000000000000000000000000000070000000000000000000000000000000000000000000000000000000000000000000000000000000000000000000000000000000000
310
00000000000000000000000000000000000000000000000000000000000000000000000000000000000000000000000000000000000000000000000000000000000000000000000000000000000000000000000000000000000000000000000000000000000000070000000000000000000000000000000000000000000007
310
00000000000000000000000000000000000000000000000000000000000000000000000000000000000000000000000000000000000000000000000000000000000000000000000000000000000000000000000000000000000000000000000000000000000000000000000000000000000000000000000000000000000000
310
00000000000000000000000000000000000000000000000000000000000700000000000000000000000000000000000000000000070000000000000000000000000000000000000000000000000000000000000000000000000000000000000000000000000000000000000000000000000000000000000000000000000000
310
00000000000000000000000000000000000000000000000000000000000000000000000000000000000000000000000000000000000000000000000000000000000000000000000000000000000000000000070000000000000000000000000000000000000000000007000000000000000000000000000000000000000000
310
00000000000000000000000000000000000000000000000000000000000000000000000000000000000000000000000000000000000000000000000000000000000000000000000000000000000000000000000000000000000000000000000000000000000000000000000000000000000000000000000000000000000000
310
00000000000000000707070707070707070707070707070707070707070707070000000000000000000000000000000000000000000000000000000000000000000000000000000000000000000000000000000000000000000000000000000000000000000000000000000000000000000000000000000000000000000000
310
00000000000000000000000000000000000000000000000000000000000000000000000000000000000000000000000000000000000000000000000000000700000000000000000000000000000000000000000700000000000000000000000000000000000000000000000000000000000000000000000000000000000000
310
00000000000000000000000000000000000000000000000000000000000000000000000000000000000000000000000000000000000000000000000000000000000000000000000000000000000000000000000000000000000007070707070707070707070707070707070707070707070707070707070707070707070707
310
07070707070707070707070707070707070707070707070707070707070707070707070700000000000000000000000000000000000000000000000000000000000000000000000000000000000000000000000000000000000000000000000000000000000000000000000000000000000000000000000000000000000000
310
00000000000000000000000000000000070000000000000000000000000000000000000000000000000000000000000000000000000000000000000000000000000000000000000000000000000000000000000000000000070000000000000000000000000000000000000000000000000000000000000000000000000000
310
00000000000000000000000000000000000000000000000000000000000000000000000000000000000000000000000000000000000000000000000000000000000000000007000000000000000000000000000000000000000000000000000000000000000000000000000000000000000000000000000000000000000000
310
00000000000000000000000000000700000000000000000000000000000000000000000000000000000000000000000000000000000000000000000000000000000000000000000000000000000000000000000000000000000000000000000000000000000000000000000000000000000000000000000000000700000000
310
00000000000000000000000000000000000000000000000000000000000000000000000000000000000000000000000000000000000000000000000000000000000000070000000000000000000000000000000000000000000000000000000000000000000000000000000000000000000000000000000000000000000000
310
00000000000000000000000000000000000000000000000000000000000000000000000000000000000000000000000007000000000000000000000000000000000000000000000000000000000000000000000000000000000000000000000000000000000000000000000000000000000000000000000007000000000000
310
00000000000000000000000000000000000000000000000000000000000000000000000000000000000000000000000000000000000000000000000000000000000000000000000000000000000000000000000000000000000000000000000000000000000700000000000000000000000000000000000000000000000000
310
00000000000000000000000000000000000000000000000000000000000000000000000000000000000000000000070000000000000000000000000000000000000000000000000000000000000000000000000000000000000000000000000000000000000000000000000000000000000000000000000000000000000000
310
00000000000000000000000000000000000000000000000000000007000000000000000000000000000000000000000000000000000000000000000000000000000000000000000000000000000000000000000000000000000000000000000000000007000000000000000000000000000000000000000000000000000000
310
00000000000000000000000000000000000000000000000000000000000000000000000000000000000000000000000000000000000000000000000000000000000000000000000000000000000000000700000000000000000000000000000000000000000000000000000000000000000000000000000000000000000000
310
00000000000000000000000000000000000000000000000000070000000000000000000000000000000000000000000000000000000000000000000000000000000000000000000000000000000000000000000000000000000000000000000000000000000000000000000000000000000000000000000000000000000000
310
00000000000007070707070707070707070707070707070707070707070707070707070707070707070707070707070707070707070707070707070707070707070707070707070707070707070707000000000000000000000000000000000000000000000000000000000000000000000000000000000000000000000000
310
00000000000000000000000000000000000000000000000000000000000000000000000000000000000000000000000000000000000000000000000000000000000000000007000000000000000000000000000000000000000000000000000000000000000000000000000000000000000000000000000000070000000000
310
00000000000000000000000000000000000000000000000000000000000000000000000000000000000000000000000000000000000000000000000000000000000000000000000000000000000000000000000000000000000000000000000000000000000000000000000000000000000000000000000000000700000000
310
00000000000000000000000000000000000000000000000000000000000000000000000000000000000000000000000700000000000000000000000000000000000000000000000000000000000000000000000000000000000000000000000000000000000000000000000000000000000000000000000000000000000000
310
00000000000000000000000000000000000000000000000000000000000000000000000000000000000000000000000007000000000000000000000000000000000000000000000000000000000000000000000000000000000000000000000000000000070000000000000000000000000000000000000000000000000000
310
00000000000000000000000000000000000000000000000000000000000000000000000000000000000000000000000000000000000000000000000000000000000000000000000000000000000000000000000000000000000000000000000000000000000700000000000000000000000000000000000000000000000000
310
00000000000000000000000000000000000000000000000000000700000000000000000000000000000000000000000000000000000000000000000000000000000000000000000000000000000000000000000000000000000000000000000000000000000000000000000000000000000000000000000000000000000000
310
00000000000000000000000000000000000000000000000000000007000000000000000000000000000000000000000000000000000000000000000000000000000000000000000000000000000000070000000000000000000000000000000000000000000000000000000000000000000000000000000000000000000000
310
00000000000000000000000000000000000000000000000000000000000000000000000000000000000000000000000000000000000000000000000000000000000000000000000000000000000000000700000000000000000000000000000000000000000000000000000000000000000000000000000000000000000000
310
00000000000700000000000000000000000000000000000000000000000000000000000000000000000000000000000000000000000000000000000000000000000000000000000000000000000000000000000000000000000000000000000000000000000000000000000000000000000000000000000000000000000000
310
00000000000007000000000000000000000000000000000000000000000000000000000000000000000000000000000000000000000000000000070000000000000000000000000000000000000000000000000000000000000000000000000000000000000000000000000000000000000000000000000000000000000000
310
00000000000000000000000000000000000000000000000000000000000000000000000000000000000000000000000000000000000000000000000700000000000000000000000000000000000000000000000000000000000000000000000000000000000000000000000000000007000000000000000000000000000000
310
00000000000000000000000000000000000000000000000000000000000000000000000000000000000000000000000000000000000000000000000000000000000000000000000000000000000000000000000000000000000000000000000000000000000000000000000000000000070000000000000000000000000000
310
00000000000000000000000000000000000000000000000000000000000000000000000000070000000000000000000000000000000000000000000000000000000000000000000000000000000000000000000000000000000000000000000000000000000000000000000000000000000000000000000000000000000000
310
00000000000000000000000000000000000000000000000000000000000000000000000000000700000000000000000000000000000000000000000000000000000000000000000000000000000000000000000000000000000007000000000000000000000000000000000000000000000000000000000000000000000000
310
00000000000000000000000000000000000000000000000000000000000000000000000000000000000000000000000000000000000000000000000000000000000000000000000000000000000000000000000000000000000000070000000000000000000000000000000000000000000000000000000000000000000000
310
00000000000000000000000000000000070000000000000000000000000000000000000000000000000000000000000000000000000000000000000000000000000000000000000000000000000000000000000000000000000000000000000000000000000000000000000000000000000000000000000000000000000000
310
00000000000000000000000000000000000700000000000000000000000000000000000000000000000000000000000000000000000000000000000000000000000000000007000000000000000000000000000000000000000000000000000000000000000000000000000000000000000000000000000000000000000000
310
00000000000000000000000000000000000000000000000000000000000000000000000000000000000000000000000000000000000000000000000000000000000000000000070000000000000000000000000000000000000000000000000000000000000000000000000000000000000000000000000000000700000000
310
00000000000000000000000000000000000000000000000000000000000000000000000000000000000000000000000000000000000000000000000000000000000000000000000000000000000000000000000000000000000000000000000000000000000000000000000000000000000000000000000000000007000000
310
00000000000000000000000000000000000000000000000000000000000000000000000000000000000000000000000007000000000000000000000000000000000000000000000000000000000000000000000000000000000000000000000000000000000000000000000000000000000000000000000000000000000000
310
00000000000000000000000000000000000000000000000000000000000000000000000000000000000000070707070707070707070707070707070707070707070707070707070707070707070707070707070707070707070707070707070707070707070707070707070700000000000000000000000000000000000000
310
00000000000000000000000000000000000000000000000000000000000000000000000000000000000000000000000000000000000000000000000000000000000000000000000000000000000000000000000000000000000000000000000007000000000000000000000000000000000000000007000000000000000000
310
00000000000000000000000007000000000000000000000000000000000000000007000000000000000000000000000000000000000000000000000000000000000000000000000000000000000000000000000000000000000000000000000000000000000000000000000000000000000000000000000000000000000000
310
00000000000000000000000000000000000000000000070707070707070707070707070707070707070707070707070707070707070707070707070707070707070707070707070707070707070707070707070707070700000000000000000000000000000000000000000000000000000000000000000000000000000000
310
00000000000000000000000000000000000000000000000000000000000000000000000000000000000000000000000000000000000000000000000000000000000000000000000000000000000000000007000000000000000000000000000000000000000000000000000000000000000000000000000000000000000000
310
00000000000007000000000000000000000000000000000000000000000000000000000000000000000000000000000000000000000000000000000000000000000000000000000000000000000000000000000000000000000000000000000000000000000000000000000000000000000000000000000000000000000000
310
00000000000000070000000000000000000000000000000000000000000000000000000000000000000000000000000000000000000000000000000700000000000000000000000000000000000000000000000000000000000000000000000000000000000000000000000000000000000000000000000000000000000000
310
00000000000000000000000000000000000000000000000000000000000000000000000000000000000000000000000000000000000000000000000007000000000000000000000000000000000000000000000000000000000000000000000000000000000000000000000000000000070000000000000000000000000000
310
00000000000000000000000000000000000000000000000000000000000000000000000000000000000000000000000000000000000000000000000000000000000000000000000000000000000000000000000000000000000000000000000000000000000000000000000000000000000700000000000000000000000000
310
00000000000000000000000000000000000000000000000000000000000000000000000000000700000000000000000000000000000000000000000000000000000000000000000000000000000000000000000000000000000000000000000000000000000000000000000000000000000000000000000000000000000000
310
00000000000000000000000000000000000000000000000000000000000000000000000000000007000000000000000000000000000000000000000000000000000000000000000000000000000000000000000000000000000000070000000000000000000000000000000000000000000000000000000000000000000000
310
00000000000000000000000000000000000000000000000000000000000000000000000000000000000000000000000000000000000000000000000000000000000000000000000000000000000000000000000000000000000000000700000000000000000000000000000000000000000000000000000000000000000000
310
00000000000000000000000000000000000700000000000000000000000000000000000000000000000000000000000000000000000000000000000000000000000000000000000000000000000000000000000000000000000000000000000000000000000000000000000000000000000000000000000000000000000000
310
00000000000000000000000000000000000007000000000000000000000000000000000000000000000000000000000000000000000000000000000000000000000000000000070000000000000000000000000000000000000000000000000000000000000000000000000000000000000000000000000000000000000000
310
00000000000000000000000000000000000000000000000000000000000000000000000000000000000000000000000000000000000000000000000000000000000000000000000700000000000000000000000000000000000000000000000000000000000000000000000000000000000000000000000000000007000000
310
00000000000000000000000000000000000000000000000000000000000000000000000000000000000000000000000000000000000000000000000000000000000000000000000000000000000000000000000000000000000000000000000000000000000000000000000000000000000000000000000000000000070000
310
00000000000000000000000000000000000000000000000000000000000000000000000000000000000000000000000000070000000000000000000000000000000000000000000000000000000000000000000000000000000000000000000000000000000000000000000000000000000000000000000000000000000000
310
00000000000000000000000000000000000000000000000000000000000000000000000000000000000000000000000000000700000000000000000000000000000000000000000000000000000000000000000000000000000000000000000000000000000007000000000000000000000000000000000000000000000000
310
00000000000000000000000000000000000000000000000000000000000000000000000000000000000000000000000000000000000000000000000000000000000000000000000000000000000000000000000000000000000000000000000000000000000000070000000000000000000000000000000000000000000000
310
00000000000000000000000000000000000000000000000000000000070000000000000000000000000000000000000000000000000000000000000000000000000000000000000000000000000000000000000000000000000000000000000000000000000000000000000000000000000000000000000000000000000000
310
00000000000000000000000000000000000000000000000000000000070700000000000000000000000000000000000000000000000707070707000000000000000000000000000000000000000000000007070000000000000000000000000000000000000000000000000000000000000000000000000000000000000000
310
00000000000000000000000000000000000000000000000000000000000000000000000000000000000000000000000000000000000000000000000000000000000000000000000000000000000000000007070700000000000000000000000000000000000000000707070707070707070000000000000000000000000000
310
00000000000007070700000000000000000000000000000000000000000000000000000000000000000000000000000000000000000000000000000000000000000000000000000000000000000000000000000000000000000000000000000000000000000000000000000000000000000000000000000000000000000000
310
00000000000000070707000000000000000000000000000000000000070707070707070707070707070000000000000000000000000000000000000707070000000000000000000000000000000000000000000000000000000000000000000000000000000000000000000000000000000000000000000000000000000000
310
00000000000000000000000000000000000000000000000000000000000000000000000000000000000000000000000000000000000000000000000007070700000000000000000000000000000000000700070007000000000007000707000000000000000000000000000000000000070707000000000000000000000000
310
00000000000000000000000000000000000000000000000000000000000000000000000000000000000000000000000000000000000000000000000000000000000000000000000000000000000000000000000000000000000000000000000000000000000000000000000000000000000707070000000000000000000000
310
00000000000007070007000000000000000700070700000000000000000000000000000000000707070000000000000000000000000000000000000000000000000000000000000000000000000000000000000000000000000000000000000000000000000000000000000000000000000000000000000000000000000000
310
00000000000000000000000000000000000000000000000000000000000000000000000000000007070700000000000000000000000000000000070700070000000000000000000707070000000000000000000000000000000007000707000000000000000000000000000000000000000000000000000000000000000000
310
00000000000000000000000000000000000000000000000000000000000000000000000000000000000000000000000000000000000000000000000000000000000000000000000000000000000000000000000000000000000000000707070000000000000000000000000000000007070700000000000000000000000707
310
07000000000000000000000000000000070007070000000000000000000000000000000000000000000000000000000000000000000000000000000000000000000000000000000000000000000000000000000000000000000000000000000000000000000000000000000000000000000000000000000000000000000000
310
00000000000000000000000000000000000007070700000000000000000000000000000007000707000000000000000000000007070700000000000000000000000000000007000707000000000000000000000000000000000000000000000000000000000000000000000000000000000000000000000000000000000000
310
00000000000000000000000000000000000000000000000000000000000000000000000000000000000000000000000000000000000000000000000000000000000000000000000707000000000000000000000000000000000700070700000000000000000000000000000000000000000000000000000000000700070700
310
00000000000000000000000000000000000000000000000000000000000000000000000000000000000000000000000000000000000000000000000000000000000000000000000000000000000000000000000000000000000000000000000000000000000000000000000000000000000000000000000000000000070707
310
00000000000000000000000000000007000707000000000000000000000007070700000000000000000000000000000007000707000000000000000000000000000000000000000000000000000000000000000000000000000000000000000000000000000000000000000000000000000000000000000000000000000000
310
00000000000000000000000000000000000000000000000000000000000000000000000000000000000000000000000000000707070000000000000000000000000000000007070700000000000000000000000707070000000000000000000000000000000700070700000000000000000000000000000000000000000000
310
00000000000000000000000000000000000000000000000000000000000000000000000000000000000000000000000000000000000000000000000000000000000000000000000000000000000000000000000000000000000000000000000000000000000000070707000000000000000000000000000000000707000700
310
00000000000000000707070000000000000000000000000000000007000707000000000000000000000000000000000000000000000000000000000000000000000000000000000000000000000000000000000000000000000000000000000000000000000000000000000000000000000000000000000000000000000000
310
00000000000000000000000000000000000000000000000000000000000707070000000000000000000000000000000000070700070000000000000007000707000000000000000000000000000000000007070700000000000000000000000000000000000000000000000000000000000000000000000000000000000000
310
00000000000000000000000000000000000000000000000000000000000000000000000000000000000000000000000000000000000000000000000000000000000000000000000000000000000000000000070707000000000000000000000000000000000007000700070000000000070007070000000000000000000000
310
00000000000000070707000000000000000000000000000000000000000000000000000000000000000000000000000000000000000000000000000000000000000000000000000000000000000000000000000000000000000000000000000000000000000000000000000000000000000000000000000000000000000000
310
00000000000000000707070707070707070707070707000000000000000700070007070707070007000700000000000007070707070707070707070707070700000000000000000000000000000000000000000000000000000000000000000000000000000000000000000000000000000000000000000000000000000000
310
00000000000000000000000000000000000000000000000000000000000000000000000000000000000000000000000000000000000000000000000000070707000000000000000000000000000000000000000707070707070707070707000000000000000000000000000000000000000707070000000000000000000000
310
00000000000000000000000000000000000000000000000000000000000000000000000000000000000000000000000000000000000000000000000000000000000000000000000000000000000000000000000000000000000000000000000000000000000000000000000000000000000007070700000000000000000000
310
00000000000000000000000707070707070700000000000000000000000000000000000000000007070700000000000000000000000000000000000000000000000000000000000000000000000000000000000000000000000000000000000000000000000000000000000000000000000000000000000000000000000000
310
00000000000000000000000000000000000000000000000000000000000000000000000000000000000707070707070707070707070707070707070707070707070707070707070707070707070707070707070707070707070707070707000000000000000000000000000000000000000000000000000000000000000000
310
00000000000000000000000000000000000000000000000000000000000000000000000000000000000000000000000000000000000000000000000000000000000000000000000000000000000000000000000000000000000000000000000000000000000000000000000000000000000000000000000000000000000000
310
00000000000000000000000000000000000000000000000000000000000000000000000000000000000000000000000000000000000000000000000000000000000000000000000000000000000000000000000000000000000000000000000000000000000000000000000000000000000000000000000000000000000000
310
00000000000000000000000000000000000000000000000000000000000000000000000000000000000000000000000000000000000000000000000000000000000000000000000000000000000000000000000000000000000000000000000000000000000000000000000000000000000000000000000000000000000000
310
00000000000000000000000000000000000000000000000000000000000000000000000000000000000000000000000000000000000000000000000000000000000000000000000000000000000000000000000000000000000000000000000000000000000000000000000000000000000000000000000000000000000000
310
00000000000000000000000000000000000000000000000000000000000000000000000000000000000000000000000000000000000000000000000000000000000000000000000000000000000000000000000000000000000000000000000000000000000000000000000000000000000000000000000000000000000000
310
000000000000000000000000000000000000000000000000000000000000000000000000000000000000000000000000000000000000000000000000000000000000000000000000000000000000000000000000000000000000000000000000000000000000000000000000
  0
ENDSEC
  0
EOF
